  0
SECTION
  2
HEADER
  9
$ACADVER
  1
AC1015
  9
$ACADMAINTVER
 70
     6
  9
$DWGCODEPAGE
  3
ANSI_1252
  9
$INSBASE
 10
0.0
 20
0.0
 30
0.0
  9
$EXTMIN
 10
-138.7996429329
 20
-115.1817957095
 30
0.0
  9
$EXTMAX
 10
461.1979756879
 20
-15.1817957095
 30
0.0
  9
$LIMMIN
 10
0.0
 20
0.0
  9
$LIMMAX
 10
420.0
 20
297.0
  9
$ORTHOMODE
 70
     0
  9
$REGENMODE
 70
     1
  9
$FILLMODE
 70
     1
  9
$QTEXTMODE
 70
     0
  9
$MIRRTEXT
 70
     1
  9
$LTSCALE
 40
1.0
  9
$ATTMODE
 70
     1
  9
$TEXTSIZE
 40
16.9333333333
  9
$TRACEWID
 40
1.0
  9
$TEXTSTYLE
  7
STANDARD
  9
$CLAYER
  8
0
  9
$CELTYPE
  6
ByLayer
  9
$CECOLOR
 62
   256
  9
$CELTSCALE
 40
1.0
  9
$DISPSILH
 70
     0
  9
$DIMSCALE
 40
1.0
  9
$DIMASZ
 40
8.0
  9
$DIMEXO
 40
1.0
  9
$DIMDLI
 40
3.75
  9
$DIMRND
 40
0.0
  9
$DIMDLE
 40
0.0
  9
$DIMEXE
 40
1.0
  9
$DIMTP
 40
0.0
  9
$DIMTM
 40
0.0
  9
$DIMTXT
 40
16.9333333333
  9
$DIMCEN
 40
2.5
  9
$DIMTSZ
 40
0.0
  9
$DIMTOL
 70
     0
  9
$DIMLIM
 70
     0
  9
$DIMTIH
 70
     1
  9
$DIMTOH
 70
     1
  9
$DIMSE1
 70
     0
  9
$DIMSE2
 70
     0
  9
$DIMTAD
 70
     1
  9
$DIMZIN
 70
     0
  9
$DIMBLK
  1

  9
$DIMASO
 70
     1
  9
$DIMSHO
 70
     1
  9
$DIMPOST
  1

  9
$DIMAPOST
  1

  9
$DIMALT
 70
     0
  9
$DIMALTD
 70
     3
  9
$DIMALTF
 40
0.0393700787
  9
$DIMLFAC
 40
1.0
  9
$DIMTOFL
 70
     1
  9
$DIMTVP
 40
0.0
  9
$DIMTIX
 70
     0
  9
$DIMSOXD
 70
     0
  9
$DIMSAH
 70
     0
  9
$DIMBLK1
  1

  9
$DIMBLK2
  1

  9
$DIMSTYLE
  2
ISO-25
  9
$DIMCLRD
 70
     0
  9
$DIMCLRE
 70
     0
  9
$DIMCLRT
 70
     0
  9
$DIMTFAC
 40
1.0
  9
$DIMGAP
 40
1.524
  9
$DIMJUST
 70
     0
  9
$DIMSD1
 70
     0
  9
$DIMSD2
 70
     0
  9
$DIMTOLJ
 70
     0
  9
$DIMTZIN
 70
     0
  9
$DIMALTZ
 70
     0
  9
$DIMALTTZ
 70
     0
  9
$DIMUPT
 70
     0
  9
$DIMDEC
 70
     2
  9
$DIMTDEC
 70
     2
  9
$DIMALTU
 70
     2
  9
$DIMALTTD
 70
     3
  9
$DIMTXSTY
  7
STANDARD
  9
$DIMAUNIT
 70
     0
  9
$DIMADEC
 70
     2
  9
$DIMALTRND
 40
0.0
  9
$DIMAZIN
 70
     0
  9
$DIMDSEP
 70
    44
  9
$DIMATFIT
 70
     3
  9
$DIMFRAC
 70
     0
  9
$DIMLDRBLK
  1

  9
$DIMLUNIT
 70
     2
  9
$DIMLWD
 70
    -2
  9
$DIMLWE
 70
    -2
  9
$DIMTMOVE
 70
     0
  9
$LUNITS
 70
     2
  9
$LUPREC
 70
     2
  9
$SKETCHINC
 40
1.0
  9
$FILLETRAD
 40
10.0
  9
$AUNITS
 70
     0
  9
$AUPREC
 70
     2
  9
$MENU
  1
.
  9
$ELEVATION
 40
0.0
  9
$PELEVATION
 40
0.0
  9
$THICKNESS
 40
0.0
  9
$LIMCHECK
 70
     0
  9
$CHAMFERA
 40
0.0
  9
$CHAMFERB
 40
0.0
  9
$CHAMFERC
 40
0.0
  9
$CHAMFERD
 40
0.0
  9
$SKPOLY
 70
     0
  9
$TDCREATE
 40
2458382.467207673
  9
$TDUCREATE
 40
2458382.38387434
  9
$TDUPDATE
 40
2458382.467224074
  9
$TDUUPDATE
 40
2458382.383890741
  9
$TDINDWG
 40
0.0000000116
  9
$TDUSRTIMER
 40
0.0000000116
  9
$USRTIMER
 70
     1
  9
$ANGBASE
 50
0.0
  9
$ANGDIR
 70
     0
  9
$PDMODE
 70
     0
  9
$PDSIZE
 40
-1.0
  9
$PLINEWID
 40
0.0
  9
$SPLFRAME
 70
     0
  9
$SPLINETYPE
 70
     6
  9
$SPLINESEGS
 70
     8
  9
$HANDSEED
  5
155
  9
$SURFTAB1
 70
     6
  9
$SURFTAB2
 70
     6
  9
$SURFTYPE
 70
     6
  9
$SURFU
 70
     6
  9
$SURFV
 70
     6
  9
$UCSBASE
  2

  9
$UCSNAME
  2

  9
$UCSORG
 10
0.0
 20
0.0
 30
0.0
  9
$UCSXDIR
 10
1.0
 20
0.0
 30
0.0
  9
$UCSYDIR
 10
0.0
 20
1.0
 30
0.0
  9
$UCSORTHOREF
  2

  9
$UCSORTHOVIEW
 70
     0
  9
$UCSORGTOP
 10
0.0
 20
0.0
 30
0.0
  9
$UCSORGBOTTOM
 10
0.0
 20
0.0
 30
0.0
  9
$UCSORGLEFT
 10
0.0
 20
0.0
 30
0.0
  9
$UCSORGRIGHT
 10
0.0
 20
0.0
 30
0.0
  9
$UCSORGFRONT
 10
0.0
 20
0.0
 30
0.0
  9
$UCSORGBACK
 10
0.0
 20
0.0
 30
0.0
  9
$PUCSBASE
  2

  9
$PUCSNAME
  2

  9
$PUCSORG
 10
0.0
 20
0.0
 30
0.0
  9
$PUCSXDIR
 10
1.0
 20
0.0
 30
0.0
  9
$PUCSYDIR
 10
0.0
 20
1.0
 30
0.0
  9
$PUCSORTHOREF
  2

  9
$PUCSORTHOVIEW
 70
     0
  9
$PUCSORGTOP
 10
0.0
 20
0.0
 30
0.0
  9
$PUCSORGBOTTOM
 10
0.0
 20
0.0
 30
0.0
  9
$PUCSORGLEFT
 10
0.0
 20
0.0
 30
0.0
  9
$PUCSORGRIGHT
 10
0.0
 20
0.0
 30
0.0
  9
$PUCSORGFRONT
 10
0.0
 20
0.0
 30
0.0
  9
$PUCSORGBACK
 10
0.0
 20
0.0
 30
0.0
  9
$USERI1
 70
     0
  9
$USERI2
 70
     0
  9
$USERI3
 70
     0
  9
$USERI4
 70
     0
  9
$USERI5
 70
     0
  9
$USERR1
 40
0.0
  9
$USERR2
 40
0.0
  9
$USERR3
 40
0.0
  9
$USERR4
 40
0.0
  9
$USERR5
 40
0.0
  9
$WORLDVIEW
 70
     1
  9
$SHADEDGE
 70
     3
  9
$SHADEDIF
 70
    70
  9
$TILEMODE
 70
     1
  9
$MAXACTVP
 70
    64
  9
$PINSBASE
 10
0.0
 20
0.0
 30
0.0
  9
$PLIMCHECK
 70
     0
  9
$PEXTMIN
 10
-138.7996426798
 20
-191.5128784896
 30
0.0
  9
$PEXTMAX
 10
461.1979754165
 20
208.4871215104
 30
0.0
  9
$PLIMMIN
 10
-185.4920643216
 20
-209.0225366052
  9
$PLIMMAX
 10
507.8903970582
 20
281.247890633
  9
$UNITMODE
 70
     0
  9
$VISRETAIN
 70
     1
  9
$PLINEGEN
 70
     0
  9
$PSLTSCALE
 70
     1
  9
$TREEDEPTH
 70
  3020
  9
$CMLSTYLE
  2
Standard
  9
$CMLJUST
 70
     0
  9
$CMLSCALE
 40
20.0
  9
$PROXYGRAPHICS
 70
     1
  9
$MEASUREMENT
 70
     1
  9
$CELWEIGHT
370
    -1
  9
$ENDCAPS
280
     0
  9
$JOINSTYLE
280
     0
  9
$LWDISPLAY
290
     1
  9
$INSUNITS
 70
     4
  9
$HYPERLINKBASE
  1

  9
$STYLESHEET
  1

  9
$XEDIT
290
     1
  9
$CEPSNTYPE
380
     0
  9
$PSTYLEMODE
290
     1
  9
$FINGERPRINTGUID
  2
{FC26B3D7-7493-4A5A-A9FB-00E5B35DD43A}
  9
$VERSIONGUID
  2
{FAEB1C32-E019-11D5-929B-00C0DF256EC4}
  9
$EXTNAMES
290
     1
  9
$PSVPSCALE
 40
0.0
  9
$OLESTARTUP
290
     0
  0
ENDSEC
  0
SECTION
  2
CLASSES
  0
CLASS
  1
ACDBDICTIONARYWDFLT
  2
AcDbDictionaryWithDefault
  3
ObjectDBX Classes
 90
        0
280
     0
281
     0
  0
CLASS
  1
VISUALSTYLE
  2
AcDbVisualStyle
  3
ObjectDBX Classes
 90
     4095
280
     0
281
     0
  0
CLASS
  1
MATERIAL
  2
AcDbMaterial
  3
ObjectDBX Classes
 90
     1153
280
     0
281
     0
  0
CLASS
  1
SCALE
  2
AcDbScale
  3
ObjectDBX Classes
 90
     1153
280
     0
281
     0
  0
CLASS
  1
TABLESTYLE
  2
AcDbTableStyle
  3
ObjectDBX Classes
 90
     4095
280
     0
281
     0
  0
CLASS
  1
MLEADERSTYLE
  2
AcDbMLeaderStyle
  3
ACDB_MLEADERSTYLE_CLASS
 90
     4095
280
     0
281
     0
  0
CLASS
  1
SUN
  2
AcDbSun
  3
SCENEOE
 90
     1153
280
     0
281
     0
  0
CLASS
  1
ACDBPLACEHOLDER
  2
AcDbPlaceHolder
  3
ObjectDBX Classes
 90
        0
280
     0
281
     0
  0
CLASS
  1
LAYOUT
  2
AcDbLayout
  3
ObjectDBX Classes
 90
        0
280
     0
281
     0
  0
ENDSEC
  0
SECTION
  2
TABLES
  0
TABLE
  2
VPORT
  5
8
330
0
100
AcDbSymbolTable
 70
     1
  0
VPORT
  5
29
330
8
100
AcDbSymbolTableRecord
100
AcDbViewportTableRecord
  2
*Active
 70
     0
 10
0.0
 20
0.0
 11
1.0
 21
1.0
 12
161.1991663775
 22
-65.1817957095
 13
0.0
 23
0.0
 14
10.0
 24
10.0
 15
10.0
 25
10.0
 16
0.0
 26
0.0
 36
1.0
 17
0.0
 27
0.0
 37
0.0
 40
102.0
 41
5.9999761862
 42
50.0
 43
0.0
 44
0.0
 50
0.0
 51
0.0
 71
     0
 72
   100
 73
     1
 74
     3
 75
     0
 76
     0
 77
     0
 78
     0
281
     0
 65
     1
110
0.0
120
0.0
130
0.0
111
1.0
121
0.0
131
0.0
112
0.0
122
1.0
132
0.0
 79
     0
146
0.0
  0
ENDTAB
  0
TABLE
  2
LTYPE
  5
5
330
0
100
AcDbSymbolTable
 70
     6
  0
LTYPE
  5
14
330
5
100
AcDbSymbolTableRecord
100
AcDbLinetypeTableRecord
  2
ByBlock
 70
     0
  3

 72
    65
 73
     0
 40
0.0
  0
LTYPE
  5
15
330
5
100
AcDbSymbolTableRecord
100
AcDbLinetypeTableRecord
  2
ByLayer
 70
     0
  3

 72
    65
 73
     0
 40
0.0
  0
LTYPE
  5
16
330
5
100
AcDbSymbolTableRecord
100
AcDbLinetypeTableRecord
  2
Continuous
 70
     0
  3
Solid line
 72
    65
 73
     0
 40
0.0
  0
LTYPE
  5
6E
330
5
100
AcDbSymbolTableRecord
100
AcDbLinetypeTableRecord
  2
HIDDEN
 70
     0
  3
Hidden __ __ __ __ __ __ __ __ __ __ __ __ __ __
 72
    65
 73
     2
 40
1.905
 49
1.27
 74
     0
 49
-0.635
 74
     0
  0
LTYPE
  5
6F
330
5
100
AcDbSymbolTableRecord
100
AcDbLinetypeTableRecord
  2
PHANTOM
 70
     0
  3
Phantom ______  __  __  ______  __  __  ______
 72
    65
 73
     6
 40
12.7
 49
6.35
 74
     0
 49
-1.27
 74
     0
 49
1.27
 74
     0
 49
-1.27
 74
     0
 49
1.27
 74
     0
 49
-1.27
 74
     0
  0
LTYPE
  5
70
330
5
100
AcDbSymbolTableRecord
100
AcDbLinetypeTableRecord
  2
CENTER
 70
     0
  3
Center ____ _ ____ _ ____ _ ____ _ ____ _ ____
 72
    65
 73
     4
 40
10.16
 49
6.35
 74
     0
 49
-1.27
 74
     0
 49
1.27
 74
     0
 49
-1.27
 74
     0
  0
LTYPE
  5
71
330
5
100
AcDbSymbolTableRecord
100
AcDbLinetypeTableRecord
  2
CENTERX2
 70
     0
  3
Center (2x) ________  __  ________  __  _____
 72
    65
 73
     4
 40
20.32
 49
12.7
 74
     0
 49
-2.54
 74
     0
 49
2.54
 74
     0
 49
-2.54
 74
     0
  0
LTYPE
  5
72
330
5
100
AcDbSymbolTableRecord
100
AcDbLinetypeTableRecord
  2
DOT2
 70
     0
  3
Dot (.5x) ........................................
 72
    65
 73
     2
 40
0.635
 49
0.0
 74
     0
 49
-0.635
 74
     0
  0
ENDTAB
  0
TABLE
  2
LAYER
  5
2
330
0
100
AcDbSymbolTable
 70
     1
  0
LAYER
  5
10
330
2
100
AcDbSymbolTableRecord
100
AcDbLayerTableRecord
  2
0
 70
     0
 62
     7
  6
Continuous
370
    -3
390
F
  0
ENDTAB
  0
TABLE
  2
STYLE
  5
3
330
0
100
AcDbSymbolTable
 70
     1
  0
STYLE
  5
11
330
3
100
AcDbSymbolTableRecord
100
AcDbTextStyleTableRecord
  2
STANDARD
 70
     0
 40
0.0
 41
1.0
 50
0.0
 71
     0
 42
16.9333333333
  3
GOTHIC.TTF
  4

1001
ACAD
1000
CENTURY GOTHIC
1071
       34
  0
ENDTAB
  0
TABLE
  2
VIEW
  5
6
330
0
100
AcDbSymbolTable
 70
     0
  0
ENDTAB
  0
TABLE
  2
UCS
  5
7
330
0
100
AcDbSymbolTable
 70
     0
  0
ENDTAB
  0
TABLE
  2
APPID
  5
9
330
0
100
AcDbSymbolTable
 70
     1
  0
APPID
  5
12
330
9
100
AcDbSymbolTableRecord
100
AcDbRegAppTableRecord
  2
ACAD
 70
     0
  0
ENDTAB
  0
TABLE
  2
DIMSTYLE
  5
A
330
0
100
AcDbSymbolTable
 70
     1
100
AcDbDimStyleTable
  0
DIMSTYLE
105
27
330
A
100
AcDbSymbolTableRecord
100
AcDbDimStyleTableRecord
  2
ISO-25
 70
     0
 41
2.5
 42
0.625
 43
3.75
 44
1.25
 73
     0
 74
     0
 77
     1
 78
     8
140
2.5
141
2.5
143
0.0393700787
147
0.625
171
     3
172
     1
178
     0
271
     2
272
     2
274
     3
278
    44
283
     0
284
     8
340
11
  0
ENDTAB
  0
TABLE
  2
BLOCK_RECORD
  5
1
330
0
100
AcDbSymbolTable
 70
     8
  0
BLOCK_RECORD
  5
1F
330
1
100
AcDbSymbolTableRecord
100
AcDbBlockTableRecord
  2
*Model_Space
340
22
  0
BLOCK_RECORD
  5
1B
330
1
100
AcDbSymbolTableRecord
100
AcDbBlockTableRecord
  2
*Paper_Space
340
1E
  0
BLOCK_RECORD
  5
23
330
1
100
AcDbSymbolTableRecord
100
AcDbBlockTableRecord
  2
*Paper_Space0
340
26
  0
BLOCK_RECORD
  5
A0
330
1
100
AcDbSymbolTableRecord
100
AcDbBlockTableRecord
  2
*Paper_Space1
340
A1
  0
BLOCK_RECORD
  5
B5
330
1
100
AcDbSymbolTableRecord
100
AcDbBlockTableRecord
  2
*Paper_Space2
340
B6
  0
BLOCK_RECORD
  5
C6
330
1
100
AcDbSymbolTableRecord
100
AcDbBlockTableRecord
  2
*Paper_Space3
340
C7
  0
BLOCK_RECORD
  5
D6
330
1
100
AcDbSymbolTableRecord
100
AcDbBlockTableRecord
  2
*Paper_Space4
340
D7
  0
BLOCK_RECORD
  5
EE
330
1
100
AcDbSymbolTableRecord
100
AcDbBlockTableRecord
  2
*Paper_Space5
340
EF
  0
BLOCK_RECORD
  5
110
330
1
100
AcDbSymbolTableRecord
100
AcDbBlockTableRecord
  2
*Paper_Space6
340
111
  0
BLOCK_RECORD
  5
12E
330
1
100
AcDbSymbolTableRecord
100
AcDbBlockTableRecord
  2
*Paper_Space7
340
12F
  0
ENDTAB
  0
ENDSEC
  0
SECTION
  2
BLOCKS
  0
BLOCK
  5
20
330
1F
100
AcDbEntity
  8
0
100
AcDbBlockBegin
  2
*Model_Space
 70
     0
 10
0.0
 20
0.0
 30
0.0
  3
*Model_Space
  1

  0
ENDBLK
  5
21
330
1F
100
AcDbEntity
  8
0
100
AcDbBlockEnd
  0
BLOCK
  5
1C
330
1B
100
AcDbEntity
 67
     1
  8
0
100
AcDbBlockBegin
  2
*Paper_Space
 70
     0
 10
0.0
 20
0.0
 30
0.0
  3
*Paper_Space
  1

  0
ENDBLK
  5
1D
330
1B
100
AcDbEntity
 67
     1
  8
0
100
AcDbBlockEnd
  0
BLOCK
  5
24
330
23
100
AcDbEntity
  8
0
100
AcDbBlockBegin
  2
*Paper_Space0
 70
     0
 10
0.0
 20
0.0
 30
0.0
  3
*Paper_Space0
  1

  0
SPLINE
  5
93
330
23
100
AcDbEntity
  8
0
  6
Continuous
 62
     7
370
    25
100
AcDbSpline
210
0.0
220
0.0
230
1.0
 70
     8
 71
     3
 72
    16
 73
    12
 74
     0
 42
0.000000001
 43
0.00000001
 40
0.0
 40
0.0
 40
0.0
 40
0.0
 40
0.1316170369084743
 40
0.2638857658812963
 40
0.3949280714870229
 40
0.525634488285406
 40
0.5908452987433097
 40
0.6532047521519997
 40
0.7715330744470702
 40
0.8863233082279931
 40
0.9999999999999999
 40
0.9999999999999999
 40
0.9999999999999999
 40
0.9999999999999999
 10
-83.08846687054589
 20
187.3461727105006
 30
0.0
 10
-84.12609645391007
 20
188.1651670181247
 30
0.0
 10
-86.20649336709653
 20
189.807210823366
 30
0.0
 10
-89.6726685002298
 20
192.3614079929302
 30
0.0
 10
-93.49146276564845
 20
195.0563493730214
 30
0.0
 10
-96.97585045094067
 20
197.4128183795922
 30
0.0
 10
-99.86283909824674
 20
199.3055835694235
 30
0.0
 10
-102.689212628318
 20
201.1242471240458
 30
0.0
 10
-106.1722735157586
 20
203.3027072498155
 30
0.0
 10
-110.1548758671138
 20
205.6975389296624
 30
0.0
 10
-112.5959493193207
 20
207.0621459453052
 30
0.0
 10
-113.8105371803328
 20
207.7411239231098
 30
0.0
  0
SPLINE
  5
94
330
23
100
AcDbEntity
  8
0
  6
Continuous
 62
     7
370
    25
100
AcDbSpline
210
0.0
220
0.0
230
1.0
 70
     8
 71
     3
 72
    19
 73
    15
 74
     0
 42
0.000000001
 43
0.00000001
 40
0.0
 40
0.0
 40
0.0
 40
0.0
 40
0.0715651008652
 40
0.1349437228672953
 40
0.1890115105911487
 40
0.2239261636837638
 40
0.255368669655861
 40
0.2893250902936186
 40
0.3325987092885975
 40
0.4212798955199353
 40
0.5333879453396131
 40
0.6680013885576093
 40
0.8239624931481109
 40
0.9999999999999999
 40
0.9999999999999999
 40
0.9999999999999999
 40
0.9999999999999999
 10
-113.810537180333
 20
-190.7668809022556
 30
0.0
 10
-112.8673591720178
 20
-190.2419971851523
 30
0.0
 10
-111.0888952247881
 20
-189.2522722773127
 30
0.0
 10
-108.5754665679449
 20
-187.7634718871262
 30
0.0
 10
-106.4469773074804
 20
-186.4624231767257
 30
0.0
 10
-104.6831785996429
 20
-185.3660084995026
 30
0.0
 10
-103.1989723166417
 20
-184.4417120696875
 30
0.0
 10
-101.6837164870533
 20
-183.4983664032149
 30
0.0
 10
-99.4153347977096
 20
-182.0615569790037
 30
0.0
 10
-96.18311640043463
 20
-179.9534296163542
 30
0.0
 10
-91.86149419606276
 20
-176.9928885304679
 30
0.0
 10
-86.81159994917594
 20
-173.304208099604
 30
0.0
 10
-81.10174474854162
 20
-168.838869279479
 30
0.0
 10
-77.19095136614861
 20
-165.4197033975426
 30
0.0
 10
-75.11730920885665
 20
-163.6067396783448
 30
0.0
  0
SPLINE
  5
95
330
23
100
AcDbEntity
  8
0
  6
Continuous
 62
     7
370
    25
100
AcDbSpline
210
0.0
220
0.0
230
1.0
 70
     8
 71
     3
 72
     9
 73
     5
 74
     0
 42
0.000000001
 43
0.00000001
 40
0.0
 40
0.0
 40
0.0
 40
0.0
 40
0.2089759535559041
 40
1.0
 40
1.0
 40
1.0
 40
1.0
 10
-86.89500172855062
 20
-173.314365413177
 30
0.0
 10
-86.6154423830738
 20
-173.1076826729715
 30
0.0
 10
-85.27768394378977
 20
-172.1186562482154
 30
0.0
 10
-84.10494086069203
 20
-171.1831562613231
 30
0.0
 10
-83.17727288166073
 20
-170.4431532762431
 30
0.0
  0
SPLINE
  5
97
330
23
100
AcDbEntity
  8
0
  6
Continuous
 62
     7
370
    25
100
AcDbSpline
210
0.0
220
0.0
230
1.0
 70
    24
 71
     3
 72
    27
 73
    23
 74
     0
 42
0.000000001
 43
0.00000001
 40
0.0
 40
0.0
 40
0.0
 40
0.0
 40
0.0714285714285714
 40
0.1428571428571429
 40
0.2142857142857144
 40
0.2500000000000001
 40
0.2857142857142858
 40
0.3333333333333334
 40
0.380952380952381
 40
0.4285714285714286
 40
0.4761904761904763
 40
0.5238095238095238
 40
0.5714285714285714
 40
0.6190476190476191
 40
0.6666666666666667
 40
0.7142857142857143
 40
0.7619047619047619
 40
0.8095238095238095
 40
0.8571428571428572
 40
0.9285714285714286
 40
0.9642857142857143
 40
1.0
 40
1.0
 40
1.0
 40
1.0
 10
-15.18179570954183
 20
-41.51287848962959
 30
0.0
 10
-15.18179570954183
 20
-41.51287848962959
 30
0.0
 10
-15.18179570954183
 20
-41.17222845734202
 30
0.0
 10
-15.18179570954183
 20
-38.89754858088187
 30
0.0
 10
-15.18179570954183
 20
-35.01373493374697
 30
0.0
 10
-15.18179570954183
 20
-30.55464150274167
 30
0.0
 10
-15.18179570954183
 20
-26.09156567378665
 30
0.0
 10
-15.18179570954183
 20
-20.25152701937452
 30
0.0
 10
-15.18179570954183
 20
-12.85754056899179
 30
0.0
 10
-15.18179570954183
 20
-4.661860226336148
 30
0.0
 10
-15.18179570954183
 20
4.045599057453445
 30
0.0
 10
-15.18179570954183
 20
12.92855905905432
 30
0.0
 10
-15.18179570954183
 20
21.63609408711107
 30
0.0
 10
-15.18179570954183
 20
29.83155686336389
 30
0.0
 10
-15.18179570954183
 20
37.22585145992109
 30
0.0
 10
-15.18179570954183
 20
43.5963163946846
 30
0.0
 10
-15.18179570954183
 20
48.80737385964607
 30
0.0
 10
-15.18179570954183
 20
52.81164149643842
 30
0.0
 10
-15.18179570954183
 20
56.123027782503
 30
0.0
 10
-15.18179570954183
 20
57.76792541279805
 30
0.0
 10
-15.18179570954183
 20
58.4017083456154
 30
0.0
 10
-15.18179570954183
 20
58.48712151048396
 30
0.0
 10
-15.18179570954183
 20
58.48712151048396
 30
0.0
  0
SPLINE
  5
99
330
23
100
AcDbEntity
  8
0
  6
Continuous
 62
     7
370
    25
100
AcDbSpline
210
0.0
220
0.0
230
1.0
 70
     8
 71
     3
 72
    16
 73
    12
 74
     0
 42
0.000000001
 43
0.00000001
 40
0.0
 40
0.0
 40
0.0
 40
0.0
 40
0.1022475209130903
 40
0.210672747145699
 40
0.3187167258084343
 40
0.4271354071909192
 40
0.5366769843473647
 40
0.6480670255758703
 40
0.7619957881848648
 40
0.8791086487942219
 40
0.9999999999999999
 40
0.9999999999999999
 40
0.9999999999999999
 40
0.9999999999999999
 10
-75.17800569095726
 20
-163.6079369213916
 30
0.0
 10
-71.70348698076555
 20
-160.3698558687957
 30
0.0
 10
-64.5445221946422
 20
-153.6980517532645
 30
0.0
 10
-54.86628918471098
 20
-142.5025895150381
 30
0.0
 10
-45.95820169028134
 20
-130.3576855285922
 30
0.0
 10
-38.13412620389111
 20
-117.4249056036914
 30
0.0
 10
-31.37194682185523
 20
-103.7320350761623
 30
0.0
 10
-25.67188749882772
 20
-89.27506778550854
 30
0.0
 10
-21.05548161499214
 20
-74.05435002000132
 30
0.0
 10
-17.42871417793921
 20
-58.08410505020896
 30
0.0
 10
-15.93865379774387
 20
-47.09477522072758
 30
0.0
 10
-15.18179570953521
 20
-41.51287848957282
 30
0.0
  0
SPLINE
  5
9A
330
23
100
AcDbEntity
  8
0
  6
Continuous
 62
     7
370
    25
100
AcDbSpline
210
0.0
220
0.0
230
1.0
 70
     8
 71
     3
 72
    17
 73
    13
 74
     0
 42
0.000000001
 43
0.00000001
 40
0.0
 40
0.0
 40
0.0
 40
0.0
 40
0.1122786165706955
 40
0.2210479358040711
 40
0.3268600036299593
 40
0.4303142177167945
 40
0.5320516589599031
 40
0.6327462035623839
 40
0.733092740614456
 40
0.8337933637884
 40
0.9355428372048963
 40
1.0
 40
1.0
 40
1.0
 40
1.0
 10
-15.18179570953521
 20
58.48712151042719
 30
0.0
 10
-15.93865144786713
 20
64.0690208291726
 30
0.0
 10
-17.42870720175502
 20
75.0583557529595
 30
0.0
 10
-21.05550820160042
 20
91.02856376474186
 30
0.0
 10
-25.67179162844953
 20
106.2494163750037
 30
0.0
 10
-31.37229376640986
 20
120.7058960554962
 30
0.0
 10
-38.13285972220714
 20
134.4005432237167
 30
0.0
 10
-45.96287040684344
 20
147.3267875447801
 30
0.0
 10
-54.8488997208085
 20
159.4959811207082
 30
0.0
 10
-64.83185840875588
 20
170.8568953178664
 30
0.0
 10
-74.35932065838118
 20
180.2254677211373
 30
0.0
 10
-80.87813713069231
 20
185.403574187459
 30
0.0
 10
-83.40622159328993
 20
187.4117133272532
 30
0.0
  0
SPLINE
  5
9C
330
23
100
AcDbEntity
  8
0
  6
Continuous
 62
     7
370
    25
100
AcDbSpline
210
0.0
220
0.0
230
1.0
 70
    24
 71
     3
 72
    27
 73
    23
 74
     0
 42
0.000000001
 43
0.00000001
 40
0.0
 40
0.0
 40
0.0
 40
0.0
 40
0.0714285714285714
 40
0.1428571428571429
 40
0.2142857142857144
 40
0.2500000000000001
 40
0.2857142857142858
 40
0.3333333333333334
 40
0.380952380952381
 40
0.4285714285714286
 40
0.4761904761904763
 40
0.5238095238095238
 40
0.5714285714285714
 40
0.6190476190476191
 40
0.6666666666666667
 40
0.7142857142857143
 40
0.7619047619047619
 40
0.8095238095238095
 40
0.8571428571428572
 40
0.9285714285714286
 40
0.9642857142857143
 40
1.0
 40
1.0
 40
1.0
 40
1.0
 10
-115.1817957095416
 20
-191.5128784895763
 30
0.0
 10
-115.1817957095416
 20
-191.5128784895763
 30
0.0
 10
-115.1817957095417
 20
-191.218911493083
 30
0.0
 10
-115.1817957095416
 20
-186.2220926743775
 30
0.0
 10
-115.1817957095416
 20
-174.5286520420285
 30
0.0
 10
-115.1817957095416
 20
-158.8599271650874
 30
0.0
 10
-115.1817957095416
 20
-142.0494228537468
 30
0.0
 10
-115.1817957095416
 20
-118.5891327006307
 30
0.0
 10
-115.1817957095416
 20
-87.18150123071987
 30
0.0
 10
-115.1817957095416
 20
-51.01084979318946
 30
0.0
 10
-115.1817957095416
 20
-11.70850152895344
 30
0.0
 10
-115.1817957095416
 20
28.68215636889372
 30
0.0
 10
-115.1817957095417
 20
67.98513829976955
 30
0.0
 10
-115.1817957095416
 20
104.154312518929
 30
0.0
 10
-115.1817957095416
 20
135.5640569853788
 30
0.0
 10
-115.1817957095416
 20
161.1548388170242
 30
0.0
 10
-115.1817957095416
 20
180.5526231723715
 30
0.0
 10
-115.1817957095416
 20
194.0228451808495
 30
0.0
 10
-115.1817957095416
 20
203.7421003496829
 30
0.0
 10
-115.1817957095416
 20
207.3670872552345
 30
0.0
 10
-115.1817957095416
 20
208.4058809125665
 30
0.0
 10
-115.1817957095416
 20
208.4871215104306
 30
0.0
 10
-115.1817957095416
 20
208.4871215104306
 30
0.0
  0
LINE
  5
9D
330
23
100
AcDbEntity
  8
0
  6
Continuous
 62
     7
370
    25
100
AcDbLine
 10
-75.1173079517
 20
180.5809815705
 30
0.0
 11
-75.7004140268
 21
181.0863151669
 31
0.0
  0
LINE
  5
9E
330
23
100
AcDbEntity
  8
0
  6
Continuous
 62
     7
370
    25
100
AcDbLine
 10
-115.1817957095
 20
-191.5128784896
 30
0.0
 11
-113.6841453626
 21
-190.6339314515
 31
0.0
  0
LINE
  5
9F
330
23
100
AcDbEntity
  8
0
  6
Continuous
 62
     7
370
    25
100
AcDbLine
 10
-113.6640717919
 20
207.5963936148
 30
0.0
 11
-115.1817957095
 21
208.4871215104
 31
0.0
  0
VIEWPORT
  5
145
330
23
100
AcDbEntity
  8
0
100
AcDbViewport
 10
0.0
 20
0.0
 30
0.0
 40
205.6
 41
156.0
 68
     1
 69
     1
 12
161.1991663775
 22
-65.1817957095
 13
0.0
 23
0.0
 14
10.0
 24
10.0
 15
10.0
 25
10.0
 16
0.0
 26
0.0
 36
1.0
 17
0.0
 27
0.0
 37
0.0
 42
50.0
 43
0.0
 44
0.0
 45
464.356133633
 50
0.0
 51
0.0
 72
   100
 90
   557152
  1

281
     0
 71
     1
 74
     0
110
0.0
120
0.0
130
0.0
111
1.0
121
0.0
131
0.0
112
0.0
122
1.0
132
0.0
 79
     0
146
0.0
  0
ENDBLK
  5
25
330
23
100
AcDbEntity
  8
0
100
AcDbBlockEnd
  0
BLOCK
  5
A2
330
A0
100
AcDbEntity
  8
0
100
AcDbBlockBegin
  2
*Paper_Space1
 70
     0
 10
0.0
 20
0.0
 30
0.0
  3
*Paper_Space1
  1

  0
SPLINE
  5
A5
330
A0
100
AcDbEntity
  8
0
  6
Continuous
 62
     7
370
    25
100
AcDbSpline
210
0.0
220
0.0
230
1.0
 70
     8
 71
     3
 72
     8
 73
     4
 74
     0
 42
0.000000001
 43
0.00000001
 40
0.0
 40
0.0
 40
0.0
 40
0.0
 40
1.0
 40
1.0
 40
1.0
 40
1.0
 10
-261.1991770534115
 20
208.4871215104272
 30
0.0
 10
-245.1901409001942
 20
176.8009680440916
 30
0.0
 10
-228.5234742335274
 20
126.8009680440916
 30
0.0
 10
-211.1991770534111
 20
58.48712151042719
 30
0.0
  0
SPLINE
  5
A7
330
A0
100
AcDbEntity
  8
0
  6
Continuous
 62
     7
370
    25
100
AcDbSpline
210
0.0
220
0.0
230
1.0
 70
     8
 71
     3
 72
    10
 73
     6
 74
     0
 42
0.000000001
 43
0.00000001
 40
0.0
 40
0.0
 40
0.0
 40
0.0
 40
0.331358037924555
 40
0.331358037924555
 40
1.0
 40
1.0
 40
1.0
 40
1.0
 10
-61.19917705341096
 20
208.4871215104272
 30
0.0
 10
-66.55286690577843
 20
197.9876598684459
 30
0.0
 10
-71.96253774796232
 20
185.4773717705551
 30
0.0
 10
-88.45723896672307
 20
141.6543377957266
 30
0.0
 10
-99.71423479120585
 20
104.1646258936174
 30
0.0
 10
-111.199177053411
 20
58.48712151042717
 30
0.0
  0
SPLINE
  5
A8
330
A0
100
AcDbEntity
  8
0
  6
Continuous
 62
     7
370
    25
100
AcDbSpline
210
0.0
220
0.0
230
1.0
 70
     8
 71
     3
 72
    27
 73
    23
 74
     0
 42
0.000000001
 43
0.00000001
 40
0.0
 40
0.0
 40
0.0
 40
0.0
 40
0.0357142857142857
 40
0.0714285714285714
 40
0.1428571428571428
 40
0.1904761904761905
 40
0.2380952380952381
 40
0.2857142857142857
 40
0.3333333333333333
 40
0.3809523809523809
 40
0.4285714285714285
 40
0.4761904761904762
 40
0.5238095238095237
 40
0.5714285714285714
 40
0.619047619047619
 40
0.6666666666666666
 40
0.7142857142857142
 40
0.7499999999999999
 40
0.7857142857142856
 40
0.8571428571428571
 40
0.9285714285714286
 40
1.0
 40
1.0
 40
1.0
 40
1.0
 10
-111.199177053396
 20
-41.51287848963238
 30
0.0
 10
-110.0087008629194
 20
-41.51287848963238
 30
0.0
 10
-107.4812374537102
 20
-41.42748082446519
 30
0.0
 10
-101.9203138402361
 20
-40.79371627985093
 30
0.0
 10
-95.2164862403936
 20
-39.14891263025974
 30
0.0
 10
-87.68088894405089
 20
-35.83729786699361
 30
0.0
 10
-81.29468927165266
 20
-31.83316435231862
 30
0.0
 10
-75.29204138157203
 20
-26.62206132835475
 30
0.0
 10
-69.99562398107508
 20
-20.25162932812097
 30
0.0
 10
-65.70971938744674
 20
-12.85733600872993
 30
0.0
 10
-62.69242216604343
 20
-4.661867729689875
 30
0.0
 10
-61.13464226527901
 20
4.045668248717198
 30
0.0
 10
-61.13417691138095
 20
12.92862755960843
 30
0.0
 10
-62.69261077696271
 20
21.63608350145493
 30
0.0
 10
-65.70962673406932
 20
29.83176957739567
 30
0.0
 10
-69.99575066914541
 20
37.22575098377903
 30
0.0
 10
-74.85086711363762
 20
43.0657935659052
 30
0.0
 10
-79.77907626375602
 20
47.52887239477905
 30
0.0
 10
-86.04237492340071
 20
51.98799015952248
 30
0.0
 10
-94.18538375956538
 20
55.87182151045321
 30
0.0
 10
-103.4676496085664
 20
58.14647940576408
 30
0.0
 10
-108.818224672443
 20
58.48712151048673
 30
0.0
 10
-111.1991770533961
 20
58.48712151048673
 30
0.0
  0
SPLINE
  5
AA
330
A0
100
AcDbEntity
  8
0
  6
Continuous
 62
     7
370
    25
100
AcDbSpline
210
0.0
220
0.0
230
1.0
 70
     8
 71
     3
 72
    27
 73
    23
 74
     0
 42
0.000000001
 43
0.00000001
 40
0.0
 40
0.0
 40
0.0
 40
0.0
 40
0.0714285714285714
 40
0.1428571428571429
 40
0.2142857142857144
 40
0.2500000000000001
 40
0.2857142857142858
 40
0.3333333333333334
 40
0.380952380952381
 40
0.4285714285714286
 40
0.4761904761904763
 40
0.5238095238095238
 40
0.5714285714285714
 40
0.6190476190476191
 40
0.6666666666666667
 40
0.7142857142857143
 40
0.7619047619047619
 40
0.8095238095238095
 40
0.8571428571428572
 40
0.9285714285714286
 40
0.9642857142857143
 40
1.0
 40
1.0
 40
1.0
 40
1.0
 10
-211.1991770534254
 20
-41.51287848962959
 30
0.0
 10
-213.5801294343784
 20
-41.51287848962959
 30
0.0
 10
-218.9307533524096
 20
-41.17222845734202
 30
0.0
 10
-228.2130026804771
 20
-38.89754858088187
 30
0.0
 10
-236.355998495067
 20
-35.01373493374697
 30
0.0
 10
-242.6192869327249
 20
-30.55464150274167
 30
0.0
 10
-247.5474881829893
 20
-26.09156567378665
 30
0.0
 10
-252.402597643899
 20
-20.25152701937452
 30
0.0
 10
-256.6887201461084
 20
-12.85754056899179
 30
0.0
 10
-259.7057472192749
 20
-4.661860226336148
 30
0.0
 10
-261.2641844426256
 20
4.045599057453445
 30
0.0
 10
-261.2637015645788
 20
12.92855905905432
 30
0.0
 10
-259.7059377900036
 20
21.63609408711107
 30
0.0
 10
-256.6886282419943
 20
29.83155686336389
 30
0.0
 10
-252.4027432926159
 20
37.22585145992109
 30
0.0
 10
-247.1063046503865
 20
43.5963163946846
 30
0.0
 10
-241.1036975093746
 20
48.80737385964607
 30
0.0
 10
-234.7174058323504
 20
52.81164149643842
 30
0.0
 10
-227.1819962085082
 20
56.123027782503
 30
0.0
 10
-220.4780858688285
 20
57.76792541279805
 30
0.0
 10
-214.9171381210485
 20
58.4017083456154
 30
0.0
 10
-212.3896532439019
 20
58.48712151048396
 30
0.0
 10
-211.1991770534254
 20
58.48712151048396
 30
0.0
  0
CIRCLE
  5
AB
330
A0
100
AcDbEntity
  8
0
  6
Continuous
 62
     7
370
    25
100
AcDbCircle
 10
-161.1991770534
 20
8.4871215104
 30
0.0
 40
23.0
  0
SPLINE
  5
AC
330
A0
100
AcDbEntity
  8
0
  6
Continuous
 62
     7
370
    25
100
AcDbSpline
210
0.0
220
0.0
230
1.0
 70
     8
 71
     3
 72
    10
 73
     6
 74
     0
 42
0.000000001
 43
0.00000001
 40
0.0
 40
0.0
 40
0.0
 40
0.0
 40
0.668641962075445
 40
0.668641962075445
 40
1.0
 40
1.0
 40
1.0
 40
1.0
 10
-111.199177053411
 20
-41.51287848957282
 30
0.0
 10
-99.71423479120585
 20
-87.19038287276302
 30
0.0
 10
-88.45723896672305
 20
-124.6800947748722
 30
0.0
 10
-71.96253774796232
 20
-168.5031287497007
 30
0.0
 10
-66.55286690577842
 20
-181.0134168475915
 30
0.0
 10
-61.19917705341095
 20
-191.5128784895728
 30
0.0
  0
SPLINE
  5
AE
330
A0
100
AcDbEntity
  8
0
  6
Continuous
 62
     7
370
    25
100
AcDbSpline
210
0.0
220
0.0
230
1.0
 70
     8
 71
     3
 72
     8
 73
     4
 74
     0
 42
0.000000001
 43
0.00000001
 40
0.0
 40
0.0
 40
0.0
 40
0.0
 40
1.0
 40
1.0
 40
1.0
 40
1.0
 10
-211.199177053411
 20
-41.51287848957281
 30
0.0
 10
-228.523474233527
 20
-109.8267250232372
 30
0.0
 10
-245.1901409001937
 20
-159.8267250232372
 30
0.0
 10
-261.1991770534109
 20
-191.5128784895728
 30
0.0
  0
SPLINE
  5
AF
330
A0
100
AcDbEntity
  8
0
  6
Continuous
 62
     7
370
    25
100
AcDbSpline
210
0.0
220
0.0
230
1.0
 70
     8
 71
     3
 72
    27
 73
    23
 74
     0
 42
0.000000001
 43
0.00000001
 40
0.0
 40
0.0
 40
0.0
 40
0.0
 40
0.0714285714285714
 40
0.1428571428571429
 40
0.2142857142857144
 40
0.2500000000000001
 40
0.2857142857142858
 40
0.3333333333333334
 40
0.380952380952381
 40
0.4285714285714286
 40
0.4761904761904763
 40
0.5238095238095238
 40
0.5714285714285714
 40
0.6190476190476191
 40
0.6666666666666667
 40
0.7142857142857143
 40
0.7619047619047619
 40
0.8095238095238095
 40
0.8571428571428572
 40
0.9285714285714286
 40
0.9642857142857143
 40
1.0
 40
1.0
 40
1.0
 40
1.0
 10
-261.1991770534125
 20
-191.5128784895763
 30
0.0
 10
-265.9610818153175
 20
-191.5128784895763
 30
0.0
 10
-279.8716070780014
 20
-191.218911493083
 30
0.0
 10
-311.6569166749464
 20
-186.2220926743775
 30
0.0
 10
-344.361497047612
 20
-174.5286520420285
 30
0.0
 10
-371.6220459010667
 20
-158.8599271650874
 30
0.0
 10
-394.0358852470306
 20
-142.0494228537468
 30
0.0
 10
-417.103059480397
 20
-118.5891327006307
 30
0.0
 10
-438.2413555912855
 20
-87.18150123071987
 30
0.0
 10
-453.5178303870798
 20
-51.01084979318946
 30
0.0
 10
-461.5336809680193
 20
-11.70850152895344
 30
0.0
 10
-461.5300431340216
 20
28.68215636889372
 30
0.0
 10
-453.5193352562617
 20
67.98513829976955
 30
0.0
 10
-438.2409383776819
 20
104.154312518929
 30
0.0
 10
-417.1042020559526
 20
135.5640569853788
 30
0.0
 10
-391.9406171353137
 20
161.1548388170242
 30
0.0
 10
-364.7927421914382
 20
180.5526231723715
 30
0.0
 10
-337.6708723989952
 20
194.0228451808495
 30
0.0
 10
-308.1316243370709
 20
203.7421003496829
 30
0.0
 10
-285.1678583745951
 20
207.3670872552345
 30
0.0
 10
-269.4386677526192
 20
208.4058809125665
 30
0.0
 10
-263.5801294343652
 20
208.4871215104306
 30
0.0
 10
-261.1991770534126
 20
208.4871215104306
 30
0.0
  0
SPLINE
  5
B0
330
A0
100
AcDbEntity
  8
0
  6
Continuous
 62
     7
370
    25
100
AcDbSpline
210
0.0
220
0.0
230
1.0
 70
     8
 71
     3
 72
    27
 73
    23
 74
     0
 42
0.000000001
 43
0.00000001
 40
0.0
 40
0.0
 40
0.0
 40
0.0
 40
0.0714285714285714
 40
0.1428571428571429
 40
0.2142857142857144
 40
0.2500000000000001
 40
0.2857142857142858
 40
0.3333333333333334
 40
0.380952380952381
 40
0.4285714285714286
 40
0.4761904761904763
 40
0.5238095238095238
 40
0.5714285714285714
 40
0.6190476190476191
 40
0.6666666666666667
 40
0.7142857142857143
 40
0.7619047619047619
 40
0.8095238095238095
 40
0.8571428571428572
 40
0.9285714285714286
 40
0.9642857142857143
 40
1.0
 40
1.0
 40
1.0
 40
1.0
 10
-61.19917705340914
 20
208.4871215104308
 30
0.0
 10
-56.43727229150431
 20
208.4871215104308
 30
0.0
 10
-42.52687622973317
 20
208.1928158879708
 30
0.0
 10
-10.74161822885639
 20
203.1963136500939
 30
0.0
 10
21.96305465923037
 20
191.5028348330287
 30
0.0
 10
49.22370228021378
 20
175.8340119829753
 30
0.0
 10
71.63758920375837
 20
159.0235303197477
 30
0.0
 10
94.704809560484
 20
135.5632534018115
 30
0.0
 10
115.8430996472398
 20
104.1556655501852
 30
0.0
 10
131.1194860979992
 20
67.98496691828392
 30
0.0
 10
139.1352871784867
 20
28.68264538898373
 30
0.0
 10
139.1317748500289
 20
-11.70801265905609
 30
0.0
 10
131.1209358780194
 20
-51.01097972775951
 30
0.0
 10
115.8426147502136
 20
-87.18021966931651
 30
0.0
 10
94.7057449622426
 20
-118.5898889193056
 30
0.0
 10
69.5423403503477
 20
-144.1805549412161
 30
0.0
 10
42.3941566983313
 20
-163.5784327464563
 30
0.0
 10
15.2730707655136
 20
-177.0482148157208
 30
0.0
 10
-14.26762995109548
 20
-186.7680265341831
 30
0.0
 10
-37.2307729242137
 20
-190.392812474175
 30
0.0
 10
-52.95981156355689
 20
-191.4316134414218
 30
0.0
 10
-58.8182246724567
 20
-191.5128784895763
 30
0.0
 10
-61.19917705340913
 20
-191.5128784895763
 30
0.0
  0
LINE
  5
B1
330
A0
100
AcDbEntity
  8
0
  6
Continuous
 62
     7
370
    25
100
AcDbLine
 10
-211.1991770534
 20
58.4871215104
 30
0.0
 11
-111.1991770534
 21
58.4871215104
 31
0.0
  0
LINE
  5
B2
330
A0
100
AcDbEntity
  8
0
  6
Continuous
 62
     7
370
    25
100
AcDbLine
 10
-261.1991770534
 20
208.4871215104
 30
0.0
 11
-61.1991770534
 21
208.4871215104
 31
0.0
  0
LINE
  5
B3
330
A0
100
AcDbEntity
  8
0
  6
Continuous
 62
     7
370
    25
100
AcDbLine
 10
-111.1991770534
 20
-41.5128784896
 30
0.0
 11
-211.1991770534
 21
-41.5128784896
 31
0.0
  0
LINE
  5
B4
330
A0
100
AcDbEntity
  8
0
  6
Continuous
 62
     7
370
    25
100
AcDbLine
 10
-61.1991770534
 20
-191.5128784896
 30
0.0
 11
-261.1991770534
 21
-191.5128784896
 31
0.0
  0
VIEWPORT
  5
147
330
A0
100
AcDbEntity
  8
0
100
AcDbViewport
 10
0.0
 20
0.0
 30
0.0
 40
205.6
 41
156.0
 68
     1
 69
     1
 12
161.1991663775
 22
-65.1817957095
 13
0.0
 23
0.0
 14
10.0
 24
10.0
 15
10.0
 25
10.0
 16
0.0
 26
0.0
 36
1.0
 17
0.0
 27
0.0
 37
0.0
 42
50.0
 43
0.0
 44
0.0
 45
464.356133633
 50
0.0
 51
0.0
 72
   100
 90
   557152
  1

281
     0
 71
     1
 74
     0
110
0.0
120
0.0
130
0.0
111
1.0
121
0.0
131
0.0
112
0.0
122
1.0
132
0.0
 79
     0
146
0.0
  0
ENDBLK
  5
A3
330
A0
100
AcDbEntity
  8
0
100
AcDbBlockEnd
  0
BLOCK
  5
B7
330
B5
100
AcDbEntity
  8
0
100
AcDbBlockBegin
  2
*Paper_Space2
 70
     0
 10
0.0
 20
0.0
 30
0.0
  3
*Paper_Space2
  1

  0
SPLINE
  5
B9
330
B5
100
AcDbEntity
  8
0
  6
Continuous
 62
     7
370
    25
100
AcDbSpline
210
0.0
220
0.0
230
1.0
 70
     8
 71
     3
 72
    16
 73
    12
 74
     0
 42
0.000000001
 43
0.00000001
 40
0.0
 40
0.0
 40
0.0
 40
0.0
 40
0.1309401110967753
 40
0.2627899272321688
 40
0.3936894360993147
 40
0.5245555255235546
 40
0.5899495526908787
 40
0.6524804964679793
 40
0.7710957354956675
 40
0.8861190133338346
 40
1.0
 40
1.0
 40
1.0
 40
1.0
 10
83.17727288166073
 20
-170.4431532762431
 30
0.0
 10
84.20233600025969
 20
-171.2513247180864
 30
0.0
 10
86.25958385264553
 20
-172.8732823643279
 30
0.0
 10
89.69862604149976
 20
-175.4059603008124
 30
0.0
 10
93.49976518709677
 20
-178.087731634662
 30
0.0
 10
96.97584352318023
 20
-180.438536022144
 30
0.0
 10
99.86026773797445
 20
-182.3296489739864
 30
0.0
 10
102.6864662702289
 20
-184.1482343297122
 30
0.0
 10
106.1696861993052
 20
-186.3268578773558
 30
0.0
 10
110.1534132369357
 20
-188.7224549297167
 30
0.0
 10
112.5955581763855
 20
-190.0876765137239
 30
0.0
 10
113.8105371803309
 20
-190.7668809022544
 30
0.0
  0
SPLINE
  5
BA
330
B5
100
AcDbEntity
  8
0
  6
Continuous
 62
     7
370
    25
100
AcDbSpline
210
0.0
220
0.0
230
1.0
 70
     8
 71
     3
 72
    19
 73
    15
 74
     0
 42
0.000000001
 43
0.00000001
 40
0.0
 40
0.0
 40
0.0
 40
0.0
 40
0.0715136580775326
 40
0.1348429560015814
 40
0.1888683648782374
 40
0.2237609786563062
 40
0.2551951761084296
 40
0.2891844440462544
 40
0.332493725100714
 40
0.4212265969079332
 40
0.5333756673227746
 40
0.6680148999261736
 40
0.8239817578829824
 40
1.0
 40
1.0
 40
1.0
 40
1.0
 10
113.8105371803328
 20
207.7411239231098
 30
0.0
 10
112.8668935471425
 20
207.2159737863595
 30
0.0
 10
111.0876013065819
 20
206.2257741701229
 30
0.0
 10
108.5732610895383
 20
204.7363480751795
 30
0.0
 10
106.4442742358002
 20
203.434925847587
 30
0.0
 10
104.6803270373283
 20
202.3383823796997
 30
0.0
 10
103.1960925412407
 20
201.4140967700313
 30
0.0
 10
101.6806682435992
 20
200.4706357243043
 30
0.0
 10
99.41149169290179
 20
199.0332764614692
 30
0.0
 10
96.17897453640393
 20
196.92485575507
 30
0.0
 10
91.85756060976922
 20
193.9643061126753
 30
0.0
 10
86.80857352662954
 20
190.2761156017825
 30
0.0
 10
81.10026183431175
 20
185.8118438562337
 30
0.0
 10
77.1903435749543
 20
182.3934247334385
 30
0.0
 10
75.11730795172818
 20
180.5809815705381
 30
0.0
  0
SPLINE
  5
BB
330
B5
100
AcDbEntity
  8
0
  6
Continuous
 62
     7
370
    25
100
AcDbSpline
210
0.0
220
0.0
230
1.0
 70
     8
 71
     3
 72
     9
 73
     5
 74
     0
 42
0.000000001
 43
0.00000001
 40
0.0
 40
0.0
 40
0.0
 40
0.0
 40
0.2128043911735983
 40
0.9999999999999999
 40
0.9999999999999999
 40
0.9999999999999999
 40
0.9999999999999999
 10
86.86753983480908
 20
190.2670887313967
 30
0.0
 10
86.5786388875753
 20
190.0533795608294
 30
0.0
 10
85.22104966847823
 20
189.0491278656989
 30
0.0
 10
84.02779315676783
 20
188.0962634188594
 30
0.0
 10
83.08846687054589
 20
187.3461727105006
 30
0.0
  0
SPLINE
  5
BD
330
B5
100
AcDbEntity
  8
0
  6
Continuous
 62
     7
370
    25
100
AcDbSpline
210
0.0
220
0.0
230
1.0
 70
    24
 71
     3
 72
    27
 73
    23
 74
     0
 42
0.000000001
 43
0.00000001
 40
0.0
 40
0.0
 40
0.0
 40
0.0
 40
0.0357142857142857
 40
0.0714285714285714
 40
0.1428571428571428
 40
0.1904761904761905
 40
0.2380952380952381
 40
0.2857142857142857
 40
0.3333333333333333
 40
0.3809523809523809
 40
0.4285714285714285
 40
0.4761904761904762
 40
0.5238095238095237
 40
0.5714285714285714
 40
0.619047619047619
 40
0.6666666666666666
 40
0.7142857142857142
 40
0.7499999999999999
 40
0.7857142857142856
 40
0.8571428571428571
 40
0.9285714285714286
 40
1.0
 40
1.0
 40
1.0
 40
1.0
 10
15.18179570954215
 20
-41.51287848963238
 30
0.0
 10
15.18179570954215
 20
-41.51287848963238
 30
0.0
 10
15.18179570954215
 20
-41.42748082446519
 30
0.0
 10
15.18179570954215
 20
-40.79371627985093
 30
0.0
 10
15.18179570954215
 20
-39.14891263025974
 30
0.0
 10
15.18179570954215
 20
-35.83729786699361
 30
0.0
 10
15.18179570954215
 20
-31.83316435231862
 30
0.0
 10
15.18179570954214
 20
-26.62206132835475
 30
0.0
 10
15.18179570954215
 20
-20.25162932812097
 30
0.0
 10
15.18179570954215
 20
-12.85733600872993
 30
0.0
 10
15.18179570954215
 20
-4.661867729689875
 30
0.0
 10
15.18179570954215
 20
4.045668248717198
 30
0.0
 10
15.18179570954215
 20
12.92862755960843
 30
0.0
 10
15.18179570954214
 20
21.63608350145493
 30
0.0
 10
15.18179570954215
 20
29.83176957739567
 30
0.0
 10
15.18179570954214
 20
37.22575098377903
 30
0.0
 10
15.18179570954214
 20
43.0657935659052
 30
0.0
 10
15.18179570954214
 20
47.52887239477905
 30
0.0
 10
15.18179570954214
 20
51.98799015952248
 30
0.0
 10
15.18179570954214
 20
55.87182151045321
 30
0.0
 10
15.18179570954215
 20
58.14647940576408
 30
0.0
 10
15.18179570954215
 20
58.48712151048673
 30
0.0
 10
15.18179570954215
 20
58.48712151048673
 30
0.0
  0
SPLINE
  5
BE
330
B5
100
AcDbEntity
  8
0
  6
Continuous
 62
     7
370
    25
100
AcDbSpline
210
0.0
220
0.0
230
1.0
 70
     8
 71
     3
 72
    16
 73
    12
 74
     0
 42
0.000000001
 43
0.00000001
 40
0.0
 40
0.0
 40
0.0
 40
0.0
 40
0.1208505823927515
 40
0.2379314261552898
 40
0.3518377032589607
 40
0.4632154893164973
 40
0.572755608754665
 40
0.681184016388308
 40
0.7892490739850929
 40
0.8977066649633885
 40
1.0
 40
1.0
 40
1.0
 40
1.0
 10
15.18179570953521
 20
58.48712151042717
 30
0.0
 10
15.93866943954429
 20
64.06909037472184
 30
0.0
 10
17.42880744661886
 20
75.05890760472727
 30
0.0
 10
21.05563755109522
 20
91.0291762286764
 30
0.0
 10
25.67211061101724
 20
106.2499621199265
 30
0.0
 10
31.37224804132549
 20
120.7069591833617
 30
0.0
 10
38.13450005543752
 20
134.3998354775227
 30
0.0
 10
45.95864853706286
 20
147.3325918347309
 30
0.0
 10
54.86675834662921
 20
159.4774348392482
 30
0.0
 10
64.54523702796024
 20
170.6730262558891
 30
0.0
 10
71.70390140183079
 20
177.3445183782142
 30
0.0
 10
75.17854166585128
 20
180.5826971694895
 30
0.0
  0
SPLINE
  5
C1
330
B5
100
AcDbEntity
  8
0
  6
Continuous
 62
     7
370
    25
100
AcDbSpline
210
0.0
220
0.0
230
1.0
 70
     8
 71
     3
 72
    17
 73
    13
 74
     0
 42
0.000000001
 43
0.00000001
 40
0.0
 40
0.0
 40
0.0
 40
0.0
 40
0.0651846825738206
 40
0.1668955134768469
 40
0.267548108771097
 40
0.3678364187881965
 40
0.4684619308755254
 40
0.570119152014617
 40
0.6734817947185495
 40
0.7791909692205435
 40
0.8878462572242981
 40
1.0
 40
1.0
 40
1.0
 40
1.0
 10
83.49304566723863
 20
-170.5083907069511
 30
0.0
 10
80.93551536009197
 20
-168.4772462108094
 30
0.0
 10
74.38734611250146
 20
-163.2768081593496
 30
0.0
 10
64.83205695365479
 20
-153.8834900699175
 30
0.0
 10
54.84947199552817
 20
-142.5222658517321
 30
0.0
 10
45.9632888393157
 20
-130.3532286309442
 30
0.0
 10
38.13324147764465
 20
-117.4269811913203
 30
0.0
 10
31.37259276970152
 20
-103.7323357837624
 30
0.0
 10
25.67201536588907
 20
-89.27582419405364
 30
0.0
 10
21.05566396116484
 20
-74.05490406653321
 30
0.0
 10
17.42880051748823
 20
-58.08467222958532
 30
0.0
 10
15.93866710556585
 20
-47.09484992921622
 30
0.0
 10
15.18179570953521
 20
-41.51287848957282
 30
0.0
  0
SPLINE
  5
C2
330
B5
100
AcDbEntity
  8
0
  6
Continuous
 62
     7
370
    25
100
AcDbSpline
210
0.0
220
0.0
230
1.0
 70
    24
 71
     3
 72
    27
 73
    23
 74
     0
 42
0.000000001
 43
0.00000001
 40
0.0
 40
0.0
 40
0.0
 40
0.0
 40
0.0714285714285714
 40
0.1428571428571429
 40
0.2142857142857144
 40
0.2500000000000001
 40
0.2857142857142858
 40
0.3333333333333334
 40
0.380952380952381
 40
0.4285714285714286
 40
0.4761904761904763
 40
0.5238095238095238
 40
0.5714285714285714
 40
0.6190476190476191
 40
0.6666666666666667
 40
0.7142857142857143
 40
0.7619047619047619
 40
0.8095238095238095
 40
0.8571428571428572
 40
0.9285714285714286
 40
0.9642857142857143
 40
1.0
 40
1.0
 40
1.0
 40
1.0
 10
115.1817957095418
 20
208.4871215104308
 30
0.0
 10
115.1817957095418
 20
208.4871215104308
 30
0.0
 10
115.1817957095418
 20
208.1928158879708
 30
0.0
 10
115.1817957095418
 20
203.1963136500939
 30
0.0
 10
115.1817957095418
 20
191.5028348330287
 30
0.0
 10
115.1817957095418
 20
175.8340119829753
 30
0.0
 10
115.1817957095418
 20
159.0235303197477
 30
0.0
 10
115.1817957095418
 20
135.5632534018115
 30
0.0
 10
115.1817957095418
 20
104.1556655501852
 30
0.0
 10
115.1817957095418
 20
67.98496691828392
 30
0.0
 10
115.1817957095418
 20
28.68264538898373
 30
0.0
 10
115.1817957095418
 20
-11.70801265905609
 30
0.0
 10
115.1817957095418
 20
-51.01097972775951
 30
0.0
 10
115.1817957095418
 20
-87.18021966931651
 30
0.0
 10
115.1817957095418
 20
-118.5898889193056
 30
0.0
 10
115.1817957095418
 20
-144.1805549412161
 30
0.0
 10
115.1817957095418
 20
-163.5784327464563
 30
0.0
 10
115.1817957095418
 20
-177.0482148157208
 30
0.0
 10
115.1817957095418
 20
-186.7680265341831
 30
0.0
 10
115.1817957095418
 20
-190.392812474175
 30
0.0
 10
115.1817957095419
 20
-191.4316134414218
 30
0.0
 10
115.1817957095418
 20
-191.5128784895763
 30
0.0
 10
115.1817957095418
 20
-191.5128784895763
 30
0.0
  0
LINE
  5
C3
330
B5
100
AcDbEntity
  8
0
  6
Continuous
 62
     7
370
    25
100
AcDbLine
 10
75.1173092089
 20
-163.6067396783
 30
0.0
 11
75.7004164167
 21
-164.1120744524
 31
0.0
  0
LINE
  5
C4
330
B5
100
AcDbEntity
  8
0
  6
Continuous
 62
     7
370
    25
100
AcDbLine
 10
113.6841854935
 20
207.6081980245
 30
0.0
 11
115.1817957095
 21
208.4871215104
 31
0.0
  0
LINE
  5
C5
330
B5
100
AcDbEntity
  8
0
  6
Continuous
 62
     7
370
    25
100
AcDbLine
 10
115.1817957095
 20
-191.5128784896
 30
0.0
 11
113.6640832669
 21
-190.6221573284
 31
0.0
  0
VIEWPORT
  5
149
330
B5
100
AcDbEntity
  8
0
100
AcDbViewport
 10
0.0
 20
0.0
 30
0.0
 40
205.6
 41
156.0
 68
     1
 69
     1
 12
161.1991663775
 22
-65.1817957095
 13
0.0
 23
0.0
 14
10.0
 24
10.0
 15
10.0
 25
10.0
 16
0.0
 26
0.0
 36
1.0
 17
0.0
 27
0.0
 37
0.0
 42
50.0
 43
0.0
 44
0.0
 45
464.356133633
 50
0.0
 51
0.0
 72
   100
 90
   557152
  1

281
     0
 71
     1
 74
     0
110
0.0
120
0.0
130
0.0
111
1.0
121
0.0
131
0.0
112
0.0
122
1.0
132
0.0
 79
     0
146
0.0
  0
ENDBLK
  5
B8
330
B5
100
AcDbEntity
  8
0
100
AcDbBlockEnd
  0
BLOCK
  5
C8
330
C6
100
AcDbEntity
  8
0
100
AcDbBlockBegin
  2
*Paper_Space3
 70
     0
 10
0.0
 20
0.0
 30
0.0
  3
*Paper_Space3
  1

  0
SPLINE
  5
CA
330
C6
100
AcDbEntity
  8
0
  6
Continuous
 62
     7
370
    25
100
AcDbSpline
210
0.0
220
0.0
230
1.0
 70
     8
 71
     3
 72
    19
 73
    15
 74
     0
 42
0.000000001
 43
0.00000001
 40
0.0
 40
0.0
 40
0.0
 40
0.0
 40
0.0920433491801743
 40
0.1813591930128406
 40
0.2682417167823565
 40
0.353010443135152
 40
0.4360093103593649
 40
0.5176046400290605
 40
0.5981818977758716
 40
0.6781412736809376
 40
0.7578922593783167
 40
0.8378475478098668
 40
0.9184166919596489
 40
1.0
 40
1.0
 40
1.0
 40
1.0
 10
261.1990221742042
 20
15.18179570953521
 30
0.0
 10
268.214878888431
 20
15.93919395715751
 30
0.0
 10
282.0386925948965
 20
17.43154659536103
 30
0.0
 10
302.2932996162222
 20
21.05567756103883
 30
0.0
 10
321.7673762570155
 20
25.66677198262053
 30
0.0
 10
340.4518139800092
 20
31.35895897547197
 30
0.0
 10
358.3479887149618
 20
38.10898553016377
 30
0.0
 10
375.4540938788064
 20
45.92374392649178
 30
0.0
 10
391.7694165737071
 20
54.80153174004006
 30
0.0
 10
407.2908341855714
 20
64.74403278965265
 30
0.0
 10
422.0231972653285
 20
75.74560004289586
 30
0.0
 10
435.9421275692264
 20
87.82418763770059
 30
0.0
 10
449.1341017239382
 20
100.9078082600128
 30
0.0
 10
457.1599521133565
 20
110.4040022747217
 30
0.0
 10
461.1979756878501
 20
115.1817957095352
 30
0.0
  0
SPLINE
  5
CB
330
C6
100
AcDbEntity
  8
0
  6
Continuous
 62
     7
370
    25
100
AcDbSpline
210
0.0
220
0.0
230
1.0
 70
     8
 71
     3
 72
    19
 73
    15
 74
     0
 42
0.000000001
 43
0.00000001
 40
0.0
 40
0.0
 40
0.0
 40
0.0
 40
0.0816897020421403
 40
0.1623536442034061
 40
0.2423892277178303
 40
0.3222032408263725
 40
0.4022058521792727
 40
0.4828043516145213
 40
0.5643971063827379
 40
0.6473681643491632
 40
0.7320828305993954
 40
0.8188843994944324
 40
0.9080920762542162
 40
0.9999999999999999
 40
0.9999999999999999
 40
0.9999999999999999
 40
0.9999999999999999
 10
-138.7996429329119
 20
115.1817957095352
 30
0.0
 10
-134.7500340120938
 20
110.4041138001392
 30
0.0
 10
-126.701666231853
 20
100.9087422974374
 30
0.0
 10
-113.4825054727803
 20
87.82525870906436
 30
0.0
 10
-99.5422460592817
 20
75.7468442143119
 30
0.0
 10
-84.79482479944373
 20
64.74534275744435
 30
0.0
 10
-69.26447464932572
 20
54.80284020751115
 30
0.0
 10
-52.94635815623239
 20
45.92497888614019
 30
0.0
 10
-35.84357152671782
 20
38.11009217204047
 30
0.0
 10
-17.95682029165568
 20
31.35990180562735
 30
0.0
 10
0.7120908016943484
 20
25.66752633091894
 30
0.0
 10
20.16454019141029
 20
21.05625411547145
 30
0.0
 10
40.39139322123408
 20
17.4319333723969
 30
0.0
 10
54.19475357077645
 20
15.93925967277018
 30
0.0
 10
61.19933068561376
 20
15.18179570953521
 30
0.0
  0
SPLINE
  5
CD
330
C6
100
AcDbEntity
  8
0
  6
Continuous
 62
     7
370
    25
100
AcDbSpline
210
0.0
220
0.0
230
1.0
 70
     8
 71
     3
 72
    10
 73
     6
 74
     0
 42
0.000000001
 43
0.00000001
 40
0.0
 40
0.0
 40
0.0
 40
0.0
 40
0.668641962075445
 40
0.668641962075445
 40
1.0
 40
1.0
 40
1.0
 40
1.0
 10
111.199177053411
 20
15.18179570953521
 30
0.0
 10
99.71423479120585
 20
20.50513386095475
 30
0.0
 10
88.45723896672305
 20
37.17180052762141
 30
0.0
 10
71.96253774796232
 20
79.06267302831161
 30
0.0
 10
66.55286690577842
 20
95.7293396949783
 30
0.0
 10
61.19917705341095
 20
115.1817957095352
 30
0.0
  0
SPLINE
  5
CE
330
C6
100
AcDbEntity
  8
0
  6
Continuous
 62
     7
370
    25
100
AcDbSpline
210
0.0
220
0.0
230
1.0
 70
     8
 71
     3
 72
     8
 73
     4
 74
     0
 42
0.000000001
 43
0.00000001
 40
0.0
 40
0.0
 40
0.0
 40
0.0
 40
1.0
 40
1.0
 40
1.0
 40
1.0
 10
211.199177053411
 20
15.18179570953521
 30
0.0
 10
228.523474233527
 20
23.14321370803481
 30
0.0
 10
245.1901409001937
 20
56.47654704136815
 30
0.0
 10
261.1991770534109
 20
115.1817957095352
 30
0.0
  0
SPLINE
  5
D0
330
C6
100
AcDbEntity
  8
0
  6
Continuous
 62
     7
370
    25
100
AcDbSpline
210
0.0
220
0.0
230
1.0
 70
    24
 71
     3
 72
    21
 73
    17
 74
     0
 42
0.000000001
 43
0.00000001
 40
0.0
 40
0.0
 40
0.0
 40
0.0
 40
0.1058025329073394
 40
0.1600878835197262
 40
0.2147711418089305
 40
0.3205740851046569
 40
0.3748578944264277
 40
0.4295425763104931
 40
0.5353559472436744
 40
0.5896474817815225
 40
0.6443381821619896
 40
0.7501233840619328
 40
0.8043986695512196
 40
0.8590725827611405
 40
0.9648814057287696
 40
1.0
 40
1.0
 40
1.0
 40
1.0
 10
211.199177053411
 20
15.18179570953521
 30
0.0
 10
213.970949751286
 20
15.18179570953521
 30
0.0
 10
218.1648684846795
 20
15.18179570953521
 30
0.0
 10
223.6670049307268
 20
15.18179570953522
 30
0.0
 10
229.04965204995
 20
15.18179570953521
 30
0.0
 10
234.2058709184614
 20
15.18179570953521
 30
0.0
 10
239.0120970751373
 20
15.18179570953521
 30
0.0
 10
243.5508151633668
 20
15.18179570953521
 30
0.0
 10
247.6543959719911
 20
15.18179570953521
 30
0.0
 10
251.2221378777283
 20
15.18179570953521
 30
0.0
 10
254.4057916493745
 20
15.18179570953521
 30
0.0
 10
256.9906569258159
 20
15.18179570953521
 30
0.0
 10
258.9210001102965
 20
15.18179570953521
 30
0.0
 10
260.3775667069596
 20
15.18179570953521
 30
0.0
 10
261.1587852039597
 20
15.18179570953521
 30
0.0
 10
261.1578680726616
 20
15.18179570953521
 30
0.0
 10
261.1576395269139
 20
15.18179570953521
 30
0.0
  0
SPLINE
  5
D1
330
C6
100
AcDbEntity
  8
0
  6
Continuous
 62
     7
370
    25
100
AcDbSpline
210
0.0
220
0.0
230
1.0
 70
    24
 71
     3
 72
    31
 73
    27
 74
     0
 42
0.000000001
 43
0.00000001
 40
0.0
 40
0.0
 40
0.0
 40
0.0
 40
0.0405398216200695
 40
0.0811208572458408
 40
0.1216607761957936
 40
0.1637831482366637
 40
0.2059523664557185
 40
0.2480759222073751
 40
0.3010242081075583
 40
0.3539726338722827
 40
0.3902958133757578
 40
0.4266485265431826
 40
0.4629714218993713
 40
0.5158418632642714
 40
0.5687118825625253
 40
0.6049760515599585
 40
0.6412696783250657
 40
0.6775338704027212
 40
0.7304876814607302
 40
0.7834420075017161
 40
0.8197682326921187
 40
0.8561243732024062
 40
0.8924510931181516
 40
0.9453810763681703
 40
0.9983113850503132
 40
1.0
 40
1.0
 40
1.0
 40
1.0
 10
261.1991770534109
 20
115.1817957095352
 30
0.0
 10
265.4441567675666
 20
115.1817957095352
 30
0.0
 10
273.9384317703219
 20
115.1817957095353
 30
0.0
 10
286.625942928115
 20
115.1817957095352
 30
0.0
 10
299.3750201346091
 20
115.1817957095353
 30
0.0
 10
312.1257052647561
 20
115.1817957095352
 30
0.0
 10
324.8145762020461
 20
115.1817957095352
 30
0.0
 10
338.289889766623
 20
115.1817957095353
 30
0.0
 10
352.3842411672736
 20
115.1817957095352
 30
0.0
 10
365.3637394168621
 20
115.1817957095352
 30
0.0
 10
376.3366394057461
 20
115.1817957095352
 30
0.0
 10
385.4846030547546
 20
115.1817957095353
 30
0.0
 10
395.5547944919606
 20
115.1817957095352
 30
0.0
 10
406.2559665151408
 20
115.1817957095353
 30
0.0
 10
416.0628176657694
 20
115.1817957095352
 30
0.0
 10
424.000850552084
 20
115.1817957095352
 30
0.0
 10
430.3621333146409
 20
115.1817957095353
 30
0.0
 10
437.0684484327614
 20
115.1817957095352
 30
0.0
 10
443.7472096181697
 20
115.1817957095352
 30
0.0
 10
449.3053396907668
 20
115.1817957095352
 30
0.0
 10
453.3410111249576
 20
115.1817957095352
 30
0.0
 10
456.2119355979378
 20
115.1817957095352
 30
0.0
 10
458.8119033603737
 20
115.1817957095353
 30
0.0
 10
460.6212198771077
 20
115.1817957095351
 30
0.0
 10
461.3417766795737
 20
115.1817957095354
 30
0.0
 10
461.1882807933661
 20
115.1817957095352
 30
0.0
 10
461.1835352687214
 20
115.1817957095352
 30
0.0
  0
SPLINE
  5
D2
330
C6
100
AcDbEntity
  8
0
  6
Continuous
 62
     7
370
    25
100
AcDbSpline
210
0.0
220
0.0
230
1.0
 70
    24
 71
     3
 72
    21
 73
    17
 74
     0
 42
0.000000001
 43
0.00000001
 40
0.0
 40
0.0
 40
0.0
 40
0.0
 40
0.1058007763278063
 40
0.1600859930622436
 40
0.2147689128069317
 40
0.3205706592385072
 40
0.3748569020687335
 40
0.429542066463194
 40
0.535295336120433
 40
0.5895537278848068
 40
0.6442108422251911
 40
0.7500052111619732
 40
0.8042852901393114
 40
0.8589643687567109
 40
0.96476351865293
 40
1.0
 40
1.0
 40
1.0
 40
1.0
 10
111.199177053411
 20
15.18179570953521
 30
0.0
 10
108.4273159206328
 20
15.1817957095352
 30
0.0
 10
104.2332432732206
 20
15.18179570953519
 30
0.0
 10
98.73106209304605
 20
15.18179570953521
 30
0.0
 10
93.34833523340501
 20
15.18179570953521
 30
0.0
 10
88.1912645502375
 20
15.18179570953521
 30
0.0
 10
83.38569944782223
 20
15.18179570953521
 30
0.0
 10
78.84764325803687
 20
15.18179570953523
 30
0.0
 10
74.74583759040512
 20
15.18179570953519
 30
0.0
 10
71.17949204093104
 20
15.18179570953521
 30
0.0
 10
67.99601541347728
 20
15.18179570953521
 30
0.0
 10
65.41062566540569
 20
15.18179570953519
 30
0.0
 10
63.47919809288441
 20
15.18179570953521
 30
0.0
 10
62.02198864468811
 20
15.18179570953521
 30
0.0
 10
61.24019114720447
 20
15.18179570953521
 30
0.0
 10
61.24050461357808
 20
15.18179570953521
 30
0.0
 10
61.24058293032635
 20
15.18179570953521
 30
0.0
  0
SPLINE
  5
D3
330
C6
100
AcDbEntity
  8
0
  6
Continuous
 62
     7
370
    25
100
AcDbSpline
210
0.0
220
0.0
230
1.0
 70
    24
 71
     3
 72
    31
 73
    27
 74
     0
 42
0.000000001
 43
0.00000001
 40
0.0
 40
0.0
 40
0.0
 40
0.0
 40
0.0345228260110364
 40
0.070858514601065
 40
0.1071644823773327
 40
0.1600530422222917
 40
0.2129408054293076
 40
0.2492190700243784
 40
0.2855266896482924
 40
0.3218046773166826
 40
0.3747243971304588
 40
0.4276441177240068
 40
0.46394500936865
 40
0.5002756885895865
 40
0.5365769424993624
 40
0.5895155098437481
 40
0.6424545714201756
 40
0.6787696788320337
 40
0.7151144852929852
 40
0.7514296661071996
 40
0.8043357374711473
 40
0.8572419766535966
 40
0.8935333289557226
 40
0.9298543644119853
 40
0.9661458788571913
 40
1.0
 40
1.0
 40
1.0
 40
1.0
 10
-138.7844325224135
 20
115.1817957095352
 30
0.0
 10
-138.7337091685285
 20
115.1817957095352
 30
0.0
 10
-138.6295988760885
 20
115.1817957095352
 30
0.0
 10
-137.6620242510204
 20
115.1817957095353
 30
0.0
 10
-135.8439196759195
 20
115.1817957095352
 30
0.0
 10
-132.7359267743778
 20
115.1817957095353
 30
0.0
 10
-128.4415667730894
 20
115.1817957095352
 30
0.0
 10
-123.7708269211673
 20
115.1817957095353
 30
0.0
 10
-119.1216423095288
 20
115.1817957095351
 30
0.0
 10
-113.0878510549805
 20
115.1817957095352
 30
0.0
 10
-105.3355408774901
 20
115.1817957095352
 30
0.0
 10
-96.55934900974178
 20
115.1817957095352
 30
0.0
 10
-88.08277201816672
 20
115.1817957095352
 30
0.0
 10
-80.24250491927118
 20
115.1817957095352
 30
0.0
 10
-70.67794048156281
 20
115.1817957095352
 30
0.0
 10
-59.1463144276137
 20
115.1817957095352
 30
0.0
 10
-46.87274211743838
 20
115.1817957095352
 30
0.0
 10
-35.54101311504004
 20
115.1817957095352
 30
0.0
 10
-25.39405791244939
 20
115.1817957095352
 30
0.0
 10
-13.37913785877431
 20
115.1817957095352
 30
0.0
 10
0.623360672712181
 20
115.1817957095352
 30
0.0
 10
14.99561090322327
 20
115.1817957095352
 30
0.0
 10
27.8936044540487
 20
115.1817957095352
 30
0.0
 10
39.19281940008101
 20
115.1817957095352
 30
0.0
 10
50.30891532701192
 20
115.1817957095352
 30
0.0
 10
57.65416645577429
 20
115.1817957095352
 30
0.0
 10
61.19917705341096
 20
115.1817957095352
 30
0.0
  0
LINE
  5
D4
330
C6
100
AcDbEntity
  8
0
  6
Continuous
 62
     7
370
    25
100
AcDbLine
 10
111.1991770534
 20
15.1817957095
 30
0.0
 11
211.1991770534
 21
15.1817957095
 31
0.0
  0
LINE
  5
D5
330
C6
100
AcDbEntity
  8
0
  6
Continuous
 62
     7
370
    25
100
AcDbLine
 10
61.1991770534
 20
115.1817957095
 30
0.0
 11
261.1991770534
 21
115.1817957095
 31
0.0
  0
VIEWPORT
  5
14B
330
C6
100
AcDbEntity
  8
0
100
AcDbViewport
 10
0.0
 20
0.0
 30
0.0
 40
205.6
 41
156.0
 68
     1
 69
     1
 12
161.1991663775
 22
-65.1817957095
 13
0.0
 23
0.0
 14
10.0
 24
10.0
 15
10.0
 25
10.0
 16
0.0
 26
0.0
 36
1.0
 17
0.0
 27
0.0
 37
0.0
 42
50.0
 43
0.0
 44
0.0
 45
464.356133633
 50
0.0
 51
0.0
 72
   100
 90
   557152
  1

281
     0
 71
     1
 74
     0
110
0.0
120
0.0
130
0.0
111
1.0
121
0.0
131
0.0
112
0.0
122
1.0
132
0.0
 79
     0
146
0.0
  0
ENDBLK
  5
C9
330
C6
100
AcDbEntity
  8
0
100
AcDbBlockEnd
  0
BLOCK
  5
D8
330
D6
100
AcDbEntity
  8
0
100
AcDbBlockBegin
  2
*Paper_Space4
 70
     0
 10
0.0
 20
0.0
 30
0.0
  3
*Paper_Space4
  1

  0
LWPOLYLINE
  5
DA
330
D6
100
AcDbEntity
  8
0
  6
Continuous
 62
     7
370
    25
100
AcDbPolyline
 90
        4
 70
   128
 43
0.0
 10
61.2535262514
 20
193.3659434361
 10
128.6450693522
 20
193.3635335677
 10
194.8949485827
 20
193.363553975
 10
261.1448278555
 20
193.3659434361
  0
SPLINE
  5
DB
330
D6
100
AcDbEntity
  8
0
  6
Continuous
 62
     7
370
    25
100
AcDbSpline
210
0.0
220
0.0
230
1.0
 70
     8
 71
     3
 72
    25
 73
    21
 74
     0
 42
0.000000001
 43
0.00000001
 40
0.0
 40
0.0
 40
0.0
 40
0.0
 40
0.0714285714285714
 40
0.1428571428571429
 40
0.2142857142857144
 40
0.2857142857142858
 40
0.3333333333333334
 40
0.380952380952381
 40
0.4285714285714286
 40
0.4761904761904763
 40
0.5238095238095238
 40
0.5714285714285714
 40
0.6190476190476191
 40
0.6666666666666667
 40
0.7142857142857143
 40
0.7619047619047619
 40
0.8095238095238095
 40
0.8571428571428572
 40
0.9285714285714286
 40
1.0
 40
1.0
 40
1.0
 40
1.0
 10
61.25352625135714
 20
-176.3917004152449
 30
0.0
 10
56.49416607286459
 20
-176.3919538216564
 30
0.0
 10
43.0727965851128
 20
-176.0653268974612
 30
0.0
 10
13.27293077981662
 20
-171.1633457057355
 30
0.0
 10
-23.0101681854426
 20
-157.8687333612659
 30
0.0
 10
-56.78277687686651
 20
-135.7206937010477
 30
0.0
 10
-83.56923668714138
 20
-108.0947487825567
 30
0.0
 10
-102.797717463897
 20
-79.18967452623116
 30
0.0
 10
-116.6666459752446
 20
-45.99517196044518
 30
0.0
 10
-123.9360966759568
 20
-9.999735005459844
 30
0.0
 10
-123.9329679121835
 20
26.97352634829886
 30
0.0
 10
-116.6687985316303
 20
62.97149256976441
 30
0.0
 10
-102.797896486985
 20
96.16015365069269
 30
0.0
 10
-83.5693373636204
 20
125.0717341970164
 30
0.0
 10
-60.6119255627095
 20
148.7361464839234
 30
0.0
 10
-35.7488901518574
 20
166.79092758311
 30
0.0
 10
-10.78688942976677
 20
179.4376817148612
 30
0.0
 10
16.58033270171394
 20
188.6821975297097
 30
0.0
 10
43.07581187548812
 20
193.0410983710836
 30
0.0
 10
56.49416635617523
 20
193.3661969212668
 30
0.0
 10
61.25352625135716
 20
193.3659434360993
 30
0.0
  0
LWPOLYLINE
  5
DC
330
D6
100
AcDbEntity
  8
0
  6
Continuous
 62
     7
370
    25
100
AcDbPolyline
 90
        4
 70
   128
 43
0.0
 10
261.1448278555
 20
-176.3917004152
 10
193.7532847546
 20
-176.3892905469
 10
127.5034055241
 20
-176.3893109542
 10
61.2535262514
 20
-176.3917004152
  0
SPLINE
  5
DD
330
D6
100
AcDbEntity
  8
0
  6
Continuous
 62
     7
370
    25
100
AcDbSpline
210
0.0
220
0.0
230
1.0
 70
     8
 71
     3
 72
    25
 73
    21
 74
     0
 42
0.000000001
 43
0.00000001
 40
0.0
 40
0.0
 40
0.0
 40
0.0
 40
0.0714285714285714
 40
0.1428571428571429
 40
0.2142857142857144
 40
0.2857142857142858
 40
0.3333333333333334
 40
0.380952380952381
 40
0.4285714285714286
 40
0.4761904761904763
 40
0.5238095238095238
 40
0.5714285714285714
 40
0.6190476190476191
 40
0.6666666666666667
 40
0.7142857142857143
 40
0.7619047619047619
 40
0.8095238095238095
 40
0.8571428571428572
 40
0.9285714285714286
 40
1.0
 40
1.0
 40
1.0
 40
1.0
 10
261.1448278554648
 20
193.3659434360992
 30
0.0
 10
265.9041880337533
 20
193.3661968537025
 30
0.0
 10
279.3257102002136
 20
193.0396114092008
 30
0.0
 10
309.1256268442472
 20
188.1373668603124
 30
0.0
 10
345.4086248373045
 20
174.8425716759024
 30
0.0
 10
379.1810891621315
 20
152.6952077585169
 30
0.0
 10
405.9672464215202
 20
125.0689875127429
 30
0.0
 10
425.1965757820983
 20
96.16574351693498
 30
0.0
 10
439.0648198194157
 20
62.96958976007969
 30
0.0
 10
446.3344963352358
 20
26.97441046883321
 30
0.0
 10
446.3311698784637
 20
-9.999131604614059
 30
0.0
 10
439.0671543671019
 20
-45.99706462106902
 30
0.0
 10
425.1962089026555
 20
-79.18575149508823
 30
0.0
 10
405.9677358684787
 20
-108.097404949173
 30
0.0
 10
383.0103344354117
 20
-131.7619236983448
 30
0.0
 10
358.1473053572507
 20
-149.8167725658331
 30
0.0
 10
333.1852031347311
 20
-162.4637020082662
 30
0.0
 10
305.818038716253
 20
-171.7082193614271
 30
0.0
 10
279.3225402225501
 20
-176.0673003552145
 30
0.0
 10
265.9041877506471
 20
-176.3919539004495
 30
0.0
 10
261.1448278554648
 20
-176.3917004152449
 30
0.0
  0
SPLINE
  5
DE
330
D6
100
AcDbEntity
  8
0
  6
Continuous
 62
     7
370
    25
100
AcDbSpline
210
0.0
220
0.0
230
1.0
 70
     8
 71
     3
 72
    27
 73
    23
 74
     0
 42
0.000000001
 43
0.00000001
 40
0.0
 40
0.0
 40
0.0
 40
0.0
 40
0.0714285714285714
 40
0.1428571428571429
 40
0.2142857142857144
 40
0.2500000000000001
 40
0.2857142857142858
 40
0.3333333333333334
 40
0.380952380952381
 40
0.4285714285714286
 40
0.4761904761904763
 40
0.5238095238095238
 40
0.5714285714285714
 40
0.6190476190476191
 40
0.6666666666666667
 40
0.7142857142857143
 40
0.7619047619047619
 40
0.8095238095238095
 40
0.8571428571428572
 40
0.9285714285714286
 40
0.9642857142857143
 40
1.0
 40
1.0
 40
1.0
 40
1.0
 10
61.19917705340914
 20
208.4871215104308
 30
0.0
 10
56.43727229150431
 20
208.4871215104308
 30
0.0
 10
42.52687622973317
 20
208.1928158879708
 30
0.0
 10
10.74161822885639
 20
203.1963136500939
 30
0.0
 10
-21.96305465923037
 20
191.5028348330287
 30
0.0
 10
-49.22370228021378
 20
175.8340119829753
 30
0.0
 10
-71.63758920375837
 20
159.0235303197477
 30
0.0
 10
-94.704809560484
 20
135.5632534018115
 30
0.0
 10
-115.8430996472398
 20
104.1556655501852
 30
0.0
 10
-131.1194860979992
 20
67.98496691828392
 30
0.0
 10
-139.1352871784867
 20
28.68264538898373
 30
0.0
 10
-139.1317748500289
 20
-11.70801265905609
 30
0.0
 10
-131.1209358780194
 20
-51.01097972775951
 30
0.0
 10
-115.8426147502136
 20
-87.18021966931651
 30
0.0
 10
-94.7057449622426
 20
-118.5898889193056
 30
0.0
 10
-69.5423403503477
 20
-144.1805549412161
 30
0.0
 10
-42.3941566983313
 20
-163.5784327464563
 30
0.0
 10
-15.2730707655136
 20
-177.0482148157208
 30
0.0
 10
14.26762995109548
 20
-186.7680265341831
 30
0.0
 10
37.2307729242137
 20
-190.392812474175
 30
0.0
 10
52.95981156355689
 20
-191.4316134414218
 30
0.0
 10
58.8182246724567
 20
-191.5128784895763
 30
0.0
 10
61.19917705340913
 20
-191.5128784895763
 30
0.0
  0
SPLINE
  5
E0
330
D6
100
AcDbEntity
  8
0
  6
Continuous
 62
     7
370
    25
100
AcDbSpline
210
0.0
220
0.0
230
1.0
 70
     8
 71
     3
 72
    27
 73
    23
 74
     0
 42
0.000000001
 43
0.00000001
 40
0.0
 40
0.0
 40
0.0
 40
0.0
 40
0.0714285714285714
 40
0.1428571428571429
 40
0.2142857142857144
 40
0.2500000000000001
 40
0.2857142857142858
 40
0.3333333333333334
 40
0.380952380952381
 40
0.4285714285714286
 40
0.4761904761904763
 40
0.5238095238095238
 40
0.5714285714285714
 40
0.6190476190476191
 40
0.6666666666666667
 40
0.7142857142857143
 40
0.7619047619047619
 40
0.8095238095238095
 40
0.8571428571428572
 40
0.9285714285714286
 40
0.9642857142857143
 40
1.0
 40
1.0
 40
1.0
 40
1.0
 10
261.1991770534125
 20
-191.5128784895763
 30
0.0
 10
265.9610818153175
 20
-191.5128784895763
 30
0.0
 10
279.8716070780014
 20
-191.218911493083
 30
0.0
 10
311.6569166749464
 20
-186.2220926743775
 30
0.0
 10
344.361497047612
 20
-174.5286520420285
 30
0.0
 10
371.6220459010667
 20
-158.8599271650874
 30
0.0
 10
394.0358852470306
 20
-142.0494228537468
 30
0.0
 10
417.103059480397
 20
-118.5891327006307
 30
0.0
 10
438.2413555912855
 20
-87.18150123071987
 30
0.0
 10
453.5178303870798
 20
-51.01084979318946
 30
0.0
 10
461.5336809680193
 20
-11.70850152895344
 30
0.0
 10
461.5300431340216
 20
28.68215636889372
 30
0.0
 10
453.5193352562617
 20
67.98513829976955
 30
0.0
 10
438.2409383776819
 20
104.154312518929
 30
0.0
 10
417.1042020559526
 20
135.5640569853788
 30
0.0
 10
391.9406171353137
 20
161.1548388170242
 30
0.0
 10
364.7927421914382
 20
180.5526231723715
 30
0.0
 10
337.6708723989952
 20
194.0228451808495
 30
0.0
 10
308.1316243370709
 20
203.7421003496829
 30
0.0
 10
285.1678583745951
 20
207.3670872552345
 30
0.0
 10
269.4386677526192
 20
208.4058809125665
 30
0.0
 10
263.5801294343652
 20
208.4871215104306
 30
0.0
 10
261.1991770534126
 20
208.4871215104306
 30
0.0
  0
SPLINE
  5
E2
330
D6
100
AcDbEntity
  8
0
  6
Continuous
 62
     7
370
    25
100
AcDbSpline
210
0.0
220
0.0
230
1.0
 70
     8
 71
     3
 72
     8
 73
     4
 74
     0
 42
0.000000001
 43
0.00000001
 40
0.0
 40
0.0
 40
0.0
 40
0.0
 40
0.9989070005354118
 40
0.9989070005354118
 40
0.9989070005354118
 40
0.9989070005354118
 10
261.1448278554652
 20
-176.3917004152459
 30
0.0
 10
244.5767761403097
 20
-139.461997876034
 30
0.0
 10
217.7461699221338
 20
-89.4859428533341
 30
0.0
 10
180.6530092009379
 20
-26.46353534714632
 30
0.0
  0
SPLINE
  5
E3
330
D6
100
AcDbEntity
  8
0
  6
Continuous
 62
     7
370
    25
100
AcDbSpline
210
0.0
220
0.0
230
1.0
 70
     8
 71
     3
 72
    38
 73
    34
 74
     0
 42
0.000000001
 43
0.00000001
 40
0.0
 40
0.0
 40
0.0
 40
0.0
 40
0.0075801354375168
 40
0.0151545785036836
 40
0.0227252897730196
 40
0.0302942327199739
 40
0.0378633721951314
 40
0.0454346728960728
 40
0.0530100978388275
 40
0.0605916068358599
 40
0.0916954605376906
 40
0.1228054034966296
 40
0.1544781606388604
 40
0.1861568517442013
 40
0.2500558791995138
 40
0.3139549066548266
 40
0.3772703951223167
 40
0.4394501372659008
 40
0.5000005018933747
 40
0.5605508665208487
 40
0.6227306086644327
 40
0.6860460971319229
 40
0.7499451245872355
 40
0.813844152042548
 40
0.8455169092681605
 40
0.8771956004752609
 40
0.908299453692112
 40
0.9394093962751519
 40
0.9515345585166676
 40
0.9636481540953633
 40
0.975758227020858
 40
0.9878728283198236
 40
1.0
 40
1.0
 40
1.0
 40
1.0
 10
180.6530092009379
 20
-26.46353534714632
 30
0.0
 10
180.8401596690545
 20
-26.35822763085637
 30
0.0
 10
181.2143200629489
 20
-26.14769128005963
 30
0.0
 10
181.7688729199123
 20
-25.82059639811409
 30
0.0
 10
182.31818607612
 20
-25.48542430741221
 30
0.0
 10
182.8618023346065
 20
-25.1413541139149
 30
0.0
 10
183.399844280916
 20
-24.78860533762005
 30
0.0
 10
183.9322778303475
 20
-24.42712070777586
 30
0.0
 10
184.4591161286531
 20
-24.05691028136756
 30
0.0
 10
185.5191582626776
 20
-23.28628228679324
 30
0.0
 10
187.0707728893632
 20
-22.05805986815093
 30
0.0
 10
189.0435956963972
 20
-20.27146646168783
 30
0.0
 10
190.9048558351484
 20
-18.34578088298205
 30
0.0
 10
193.2311735408768
 20
-15.5890400042271
 30
0.0
 10
195.7886766118588
 20
-11.84637738606814
 30
0.0
 10
198.2164257085022
 20
-6.988861212819699
 30
0.0
 10
199.9515318758074
 20
-1.894509864577563
 30
0.0
 10
200.9749166111067
 20
3.291385164116551
 30
0.0
 10
201.3098186221918
 20
8.487121510769692
 30
0.0
 10
200.9749166112148
 20
13.68285785534952
 30
0.0
 10
199.951531875358
 20
18.86875289047069
 30
0.0
 10
198.216425710227
 20
23.96310421452149
 30
0.0
 10
195.7886766053575
 20
28.82062047906156
 30
0.0
 10
193.2312687206418
 20
32.56314355471771
 30
0.0
 10
190.9049686923652
 20
35.31989926853714
 30
0.0
 10
189.0438425839048
 20
37.24547088973253
 30
0.0
 10
187.0708963307079
 20
39.03219667168848
 30
0.0
 10
185.4183095592354
 20
40.34036148986291
 30
0.0
 10
184.1455305360676
 20
41.25632029698501
 30
0.0
 10
183.2944792173974
 20
41.83626718232473
 30
0.0
 10
182.4287722851373
 20
42.39346184084225
 30
0.0
 10
181.549567769989
 20
42.93001194191884
 30
0.0
 10
180.9519653513036
 20
43.26846439201909
 30
0.0
 10
180.6530092009378
 20
43.4377783680007
 30
0.0
  0
SPLINE
  5
E4
330
D6
100
AcDbEntity
  8
0
  6
Continuous
 62
     7
370
    25
100
AcDbSpline
210
0.0
220
0.0
230
1.0
 70
     8
 71
     3
 72
    10
 73
     6
 74
     0
 42
0.000000001
 43
0.00000001
 40
0.0
 40
0.0
 40
0.0
 40
0.0
 40
0.3283782138378581
 40
0.3283782138378581
 40
0.998907000535421
 40
0.998907000535421
 40
0.998907000535421
 40
0.998907000535421
 10
261.1448278554475
 20
193.3659434361013
 30
0.0
 10
255.6982875608265
 20
181.2257644696011
 30
0.0
 10
249.1426898363959
 20
167.6756875922567
 30
0.0
 10
225.8272646113799
 20
122.1683338336007
 30
0.0
 10
205.5522561176397
 20
85.74235568824542
 30
0.0
 10
180.6530092009345
 20
43.43777836800227
 30
0.0
  0
SPLINE
  5
E5
330
D6
100
AcDbEntity
  8
0
  6
Continuous
 62
     7
370
    25
100
AcDbSpline
210
0.0
220
0.0
230
1.0
 70
     8
 71
     3
 72
     8
 73
     4
 74
     0
 42
0.000000001
 43
0.00000001
 40
0.0
 40
0.0
 40
0.0
 40
0.0
 40
0.9989070005354108
 40
0.9989070005354108
 40
0.9989070005354108
 40
0.9989070005354108
 10
141.7453449058841
 20
-26.46353534714631
 30
0.0
 10
104.652184184688
 20
-89.48594285333402
 30
0.0
 10
77.8215779665122
 20
-139.4619978760338
 30
0.0
 10
61.25352625135672
 20
-176.3917004152459
 30
0.0
  0
SPLINE
  5
E6
330
D6
100
AcDbEntity
  8
0
  6
Continuous
 62
     7
370
    25
100
AcDbSpline
210
0.0
220
0.0
230
1.0
 70
     8
 71
     3
 72
    29
 73
    25
 74
     0
 42
0.000000001
 43
0.00000001
 40
0.0
 40
0.0
 40
0.0
 40
0.0
 40
0.015197553008129
 40
0.0303846776316569
 40
0.0455649845219417
 40
0.0607420891961817
 40
0.0759196094600265
 40
0.0911011628220169
 40
0.1062903639090886
 40
0.1214908218923528
 40
0.1837129503712709
 40
0.2459479434695243
 40
0.3092063763442778
 40
0.3724773250763621
 40
0.5000017907000774
 40
0.6275262563237948
 40
0.6907846893520453
 40
0.7540556382544793
 40
0.8162777657672365
 40
0.8785127581184361
 40
0.9088965486898525
 40
0.939253057733009
 40
0.9696112286263755
 40
1.0
 40
1.0
 40
1.0
 40
1.0
 10
141.7453449058841
 20
-26.46353534714631
 30
0.0
 10
141.9255959250482
 20
-26.56281903316241
 30
0.0
 10
142.2859742772176
 20
-26.76131827788085
 30
0.0
 10
142.8321317214185
 20
-27.04838855537393
 30
0.0
 10
143.3820823320936
 20
-27.32747220366112
 30
0.0
 10
143.936245771938
 20
-27.59781483362191
 30
0.0
 10
144.4945099629271
 20
-27.85961845069237
 30
0.0
 10
145.0569032204741
 20
-28.11282872667736
 30
0.0
 10
145.6234237633822
 20
-28.35746076079822
 30
0.0
 10
146.7822161010155
 20
-28.83681157896334
 30
0.0
 10
148.557980957629
 20
-29.49109609876619
 30
0.0
 10
150.9954067607064
 20
-30.21746222260972
 30
0.0
 10
153.488131293069
 20
-30.79079876222242
 30
0.0
 10
156.885210954645
 20
-31.34485510263536
 30
0.0
 10
161.1991774062723
 20
-31.62518285194187
 30
0.0
 10
165.5129724798103
 20
-31.34486510957254
 30
0.0
 10
168.9100579596569
 20
-30.79083326267525
 30
0.0
 10
171.402607261913
 20
-30.21754435055243
 30
0.0
 10
173.8402358197948
 20
-29.49117062836572
 30
0.0
 10
175.8089502181246
 20
-28.76568506861948
 30
0.0
 10
177.3430013531391
 20
-28.11750004492482
 30
0.0
 10
178.4637392678439
 20
-27.60184322528275
 30
0.0
 10
179.5693960761803
 20
-27.05414807594977
 30
0.0
 10
180.2916835450532
 20
-26.66047235975081
 30
0.0
 10
180.6530092009379
 20
-26.46353534714632
 30
0.0
  0
SPLINE
  5
E7
330
D6
100
AcDbEntity
  8
0
  6
Continuous
 62
     7
370
    25
100
AcDbSpline
210
0.0
220
0.0
230
1.0
 70
     8
 71
     3
 72
    29
 73
    25
 74
     0
 42
0.000000001
 43
0.00000001
 40
0.0
 40
0.0
 40
0.0
 40
0.0
 40
0.0151975530111678
 40
0.0303846776368659
 40
0.0455649845284517
 40
0.0607420892031253
 40
0.0759196094665371
 40
0.0911011628272309
 40
0.1062903639121427
 40
0.1214908218923884
 40
0.1837129503785915
 40
0.2459479434695329
 40
0.3092063763379965
 40
0.3724773250763408
 40
0.500001790700058
 40
0.6275262563237746
 40
0.6907846893575587
 40
0.7540556382545048
 40
0.8162777657674982
 40
0.8785127581183998
 40
0.9088965486839555
 40
0.9392530577251524
 40
0.9696112286204821
 40
0.9999999999999999
 40
0.9999999999999999
 40
0.9999999999999999
 40
0.9999999999999999
 10
180.6530092009378
 20
43.43777836800071
 30
0.0
 10
180.4727581817379
 20
43.53706205403687
 30
0.0
 10
180.1123798295069
 20
43.73556129878974
 30
0.0
 10
179.566222385229
 20
44.02263157632601
 30
0.0
 10
179.0162717745079
 20
44.30171522463915
 30
0.0
 10
178.4621083346481
 20
44.57205785460876
 30
0.0
 10
177.9038441436744
 20
44.83386147167097
 30
0.0
 10
177.3414508861738
 20
45.08707174763031
 30
0.0
 10
176.774930343343
 20
45.33170378170927
 30
0.0
 10
175.6161380056703
 20
45.81105459985354
 30
0.0
 10
173.8403731490916
 20
46.46533911962778
 30
0.0
 10
171.4029473461042
 20
47.19170524347592
 30
0.0
 10
168.9102228138301
 20
47.76504178302855
 30
0.0
 10
165.5131431522653
 20
48.31909812350193
 30
0.0
 10
161.1991767005471
 20
48.59942587279822
 30
0.0
 10
156.8853816269409
 20
48.3191081303984
 30
0.0
 10
153.4882961470838
 20
47.76507628355687
 30
0.0
 10
150.9957468448319
 20
47.19178737139011
 30
0.0
 10
148.5581182870437
 20
46.46541364915874
 30
0.0
 10
146.5894038887721
 20
45.73992808949162
 30
0.0
 10
145.0553527538422
 20
45.09174306587801
 30
0.0
 10
143.9346148392085
 20
44.57608624627073
 30
0.0
 10
142.8289580308034
 20
44.02839109689657
 30
0.0
 10
142.1066705618383
 20
43.63471538064448
 30
0.0
 10
141.7453449058841
 20
43.43777836800069
 30
0.0
  0
SPLINE
  5
E8
330
D6
100
AcDbEntity
  8
0
  6
Continuous
 62
     7
370
    25
100
AcDbSpline
210
0.0
220
0.0
230
1.0
 70
     8
 71
     3
 72
     8
 73
     4
 74
     0
 42
0.000000001
 43
0.00000001
 40
0.0
 40
0.0
 40
0.0
 40
0.0
 40
0.9989070005354108
 40
0.9989070005354108
 40
0.9989070005354108
 40
0.9989070005354108
 10
61.25352625135673
 20
193.3659434361003
 30
0.0
 10
77.8215779665123
 20
156.4362408968882
 30
0.0
 10
104.6521841846881
 20
106.4601858741884
 30
0.0
 10
141.7453449058841
 20
43.43777836800069
 30
0.0
  0
SPLINE
  5
E9
330
D6
100
AcDbEntity
  8
0
  6
Continuous
 62
     7
370
    25
100
AcDbSpline
210
0.0
220
0.0
230
1.0
 70
     8
 71
     3
 72
    38
 73
    34
 74
     0
 42
0.000000001
 43
0.00000001
 40
0.0
 40
0.0
 40
0.0
 40
0.0
 40
0.0075801354383161
 40
0.0151545785050539
 40
0.0227252897747323
 40
0.0302942327218005
 40
0.0378633721968444
 40
0.0454346728974449
 40
0.0530100978396316
 40
0.0605916068358708
 40
0.0916954605383431
 40
0.1228054034966284
 40
0.1544781606351459
 40
0.1861568517441946
 40
0.2500558791995086
 40
0.3139549066548221
 40
0.3772703951223139
 40
0.4394501372658992
 40
0.500000501893374
 40
0.5605508665208487
 40
0.6227306086644342
 40
0.6860460971319257
 40
0.7499451245872395
 40
0.8138441520425531
 40
0.8455169092735788
 40
0.8771956004752735
 40
0.9082994536948733
 40
0.9394093962751473
 40
0.9515345585162711
 40
0.9636481540947703
 40
0.9757582270202653
 40
0.9878728283194284
 40
0.9999999999999999
 40
0.9999999999999999
 40
0.9999999999999999
 40
0.9999999999999999
 10
141.7453449058841
 20
43.43777836800069
 30
0.0
 10
141.5581944377476
 20
43.33247065169975
 30
0.0
 10
141.1840340438193
 20
43.12193430088421
 30
0.0
 10
140.6294811868134
 20
42.79483941891526
 30
0.0
 10
140.0801680305802
 20
42.45966732819934
 30
0.0
 10
139.5365517720852
 20
42.11559713469741
 30
0.0
 10
138.998509825784
 20
41.76284835840742
 30
0.0
 10
138.4660762763778
 20
41.40136372857744
 30
0.0
 10
137.9392379781144
 20
41.0311533021931
 30
0.0
 10
136.8791958441173
 20
40.26052530761542
 30
0.0
 10
135.3275812174626
 20
39.03230288897296
 30
0.0
 10
133.3547584104826
 20
37.24570948260718
 30
0.0
 10
131.4934982717554
 20
35.32002390390456
 30
0.0
 10
129.167180565998
 20
32.56328302517423
 30
0.0
 10
126.6096774949654
 20
28.82062040692062
 30
0.0
 10
124.1819283983193
 20
23.96310423367458
 30
0.0
 10
122.4468222310147
 20
18.86875288543183
 30
0.0
 10
121.4234374957153
 20
13.68285785673786
 30
0.0
 10
121.0885354846303
 20
8.487121510084698
 30
0.0
 10
121.4234374956073
 20
3.291385165504927
 30
0.0
 10
122.446822231464
 20
-1.894509869616361
 30
0.0
 10
124.1819283965954
 20
-6.988861193666741
 30
0.0
 10
126.6096775014629
 20
-11.84637745820848
 30
0.0
 10
129.1670853862715
 20
-15.58890053398645
 30
0.0
 10
131.4933854145522
 20
-18.34565624780361
 30
0.0
 10
133.3545115230803
 20
-20.27122786904259
 30
0.0
 10
135.3274577761985
 20
-22.05795365085577
 30
0.0
 10
136.9800445476409
 20
-23.36611846904762
 30
0.0
 10
138.2528235707296
 20
-24.28207727611751
 30
0.0
 10
139.1038748893851
 20
-24.86202416144916
 30
0.0
 10
139.9695818216453
 20
-25.41921881996643
 30
0.0
 10
140.8487863368083
 20
-25.955768921051
 30
0.0
 10
141.4463887555085
 20
-26.29422137115929
 30
0.0
 10
141.7453449058841
 20
-26.46353534714631
 30
0.0
  0
CIRCLE
  5
EA
330
D6
100
AcDbEntity
  8
0
  6
Continuous
 62
     7
370
    25
100
AcDbCircle
 10
161.1991770534
 20
8.4871215104
 30
0.0
 40
35.00000000000004
  0
CIRCLE
  5
EB
330
D6
100
AcDbEntity
  8
0
  6
Continuous
 62
     7
370
    25
100
AcDbCircle
 10
161.1991770534
 20
8.4871215104
 30
0.0
 40
22.99999999999997
  0
LINE
  5
EC
330
D6
100
AcDbEntity
  8
0
  6
Continuous
 62
     7
370
    25
100
AcDbLine
 10
261.1991770534
 20
208.4871215104
 30
0.0
 11
61.1991770534
 21
208.4871215104
 31
0.0
  0
LINE
  5
ED
330
D6
100
AcDbEntity
  8
0
  6
Continuous
 62
     7
370
    25
100
AcDbLine
 10
61.1991770534
 20
-191.5128784896
 30
0.0
 11
261.1991770534
 21
-191.5128784896
 31
0.0
  0
VIEWPORT
  5
14D
330
D6
100
AcDbEntity
  8
0
100
AcDbViewport
 10
0.0
 20
0.0
 30
0.0
 40
205.6
 41
156.0
 68
     1
 69
     1
 12
161.1991663775
 22
-65.1817957095
 13
0.0
 23
0.0
 14
10.0
 24
10.0
 15
10.0
 25
10.0
 16
0.0
 26
0.0
 36
1.0
 17
0.0
 27
0.0
 37
0.0
 42
50.0
 43
0.0
 44
0.0
 45
464.356133633
 50
0.0
 51
0.0
 72
   100
 90
   557152
  1

281
     0
 71
     1
 74
     0
110
0.0
120
0.0
130
0.0
111
1.0
121
0.0
131
0.0
112
0.0
122
1.0
132
0.0
 79
     0
146
0.0
  0
ENDBLK
  5
D9
330
D6
100
AcDbEntity
  8
0
100
AcDbBlockEnd
  0
BLOCK
  5
F0
330
EE
100
AcDbEntity
  8
0
100
AcDbBlockBegin
  2
*Paper_Space5
 70
     0
 10
0.0
 20
0.0
 30
0.0
  3
*Paper_Space5
  1

  0
SPLINE
  5
F2
330
EE
100
AcDbEntity
  8
0
  6
Continuous
 62
     7
370
    25
100
AcDbSpline
210
0.0
220
0.0
230
1.0
 70
     8
 71
     3
 72
    79
 73
    75
 74
     0
 42
0.000000001
 43
0.00000001
 40
0.0
 40
0.0
 40
0.0
 40
0.0
 40
0.0161558874701163
 40
0.0317879496058339
 40
0.0447572768378341
 40
0.0555445067444962
 40
0.0676999057292922
 40
0.0814537358964792
 40
0.0959901894768245
 40
0.112148399785025
 40
0.1293387271818081
 40
0.1445308054070739
 40
0.1570316534733023
 40
0.1651837525938432
 40
0.1711476862000711
 40
0.1762284714797898
 40
0.1828689550013423
 40
0.1911740346952049
 40
0.2012137693278606
 40
0.2153832880441075
 40
0.2322244961243878
 40
0.2515407028943332
 40
0.2699126714893325
 40
0.2907747030152287
 40
0.3080321073525692
 40
0.3214533927446665
 40
0.3314243943975116
 40
0.3418601286268617
 40
0.3574826443572395
 40
0.3754230750988141
 40
0.3957889119056886
 40
0.420400982615808
 40
0.4463414220321226
 40
0.4725486436854486
 40
0.4989864357071735
 40
0.5256182367718524
 40
0.5457884117912101
 40
0.5634339202572074
 40
0.5784890965665691
 40
0.5920169780116944
 40
0.6063474686090384
 40
0.6217855313438577
 40
0.6378672958793334
 40
0.6522892546063948
 40
0.6650949496348535
 40
0.6785844744155807
 40
0.6920175342711832
 40
0.7061191862580347
 40
0.7150566414397773
 40
0.7252045937196853
 40
0.7361573968427352
 40
0.7454135183681535
 40
0.7525390455935068
 40
0.7586617359450136
 40
0.7785144478460914
 40
0.7966810470453489
 40
0.8139557244920438
 40
0.834621852367079
 40
0.8475738169774948
 40
0.8688718578680705
 40
0.8879918584083274
 40
0.8985090140515005
 40
0.9099086533058185
 40
0.9233585708381262
 40
0.9377268799754035
 40
0.9507040525816242
 40
0.9561978304305515
 40
0.9616566505085216
 40
0.9671241806625749
 40
0.972573472453198
 40
0.9779889008756883
 40
0.9841137833205986
 40
0.9929132030337268
 40
1.0
 40
1.0
 40
1.0
 40
1.0
 10
63.14651781358103
 20
-108.9942305726859
 30
0.0
 10
64.5754874205045
 20
-109.8049226730831
 30
0.0
 10
67.38709488788582
 20
-111.4000216536216
 30
0.0
 10
71.35711360512191
 20
-113.4754813983993
 30
0.0
 10
74.89280733238473
 20
-115.2286136115459
 30
0.0
 10
78.1537794591999
 20
-116.7683578800677
 30
0.0
 10
81.49864512225469
 20
-118.2769919272751
 30
0.0
 10
85.21644856459301
 20
-119.8662989128851
 30
0.0
 10
89.34246898340984
 20
-121.5273870442698
 30
0.0
 10
93.83863905835396
 20
-123.2200108715736
 30
0.0
 10
98.45416217242096
 20
-124.8312682601684
 30
0.0
 10
102.7728469729243
 20
-126.2282636443849
 30
0.0
 10
106.2530843192903
 20
-127.2806612637139
 30
0.0
 10
108.8506065049519
 20
-128.0264547881793
 30
0.0
 10
110.7290629738136
 20
-128.546509230566
 30
0.0
 10
112.4500130133172
 20
-129.0093703436575
 30
0.0
 10
114.3932403911313
 20
-129.5160241992079
 30
0.0
 10
116.8222076954127
 20
-130.1242037083045
 30
0.0
 10
119.9959046877861
 20
-130.8791329828799
 30
0.0
 10
124.0298507835493
 20
-131.7731208813882
 30
0.0
 10
129.0205270916012
 20
-132.7771053193151
 30
0.0
 10
134.4842881685695
 20
-133.7483387628464
 30
0.0
 10
140.4059150728307
 20
-134.660797046185
 30
0.0
 10
146.1660073251675
 20
-135.409711210047
 30
0.0
 10
151.4519281424899
 20
-135.9754586949564
 30
0.0
 10
155.6349488580979
 20
-136.3471210642626
 30
0.0
 10
159.1102363520646
 20
-136.6084463178974
 30
0.0
 10
162.8042475600986
 20
-136.8428283537422
 30
0.0
 10
167.3184185419746
 20
-137.0620225082691
 30
0.0
 10
172.8429397532313
 20
-137.225252475967
 30
0.0
 10
179.2952406562661
 20
-137.2786158582243
 30
0.0
 10
186.5802084861754
 20
-137.1590288181229
 30
0.0
 10
194.5036805389338
 20
-136.8111700944539
 30
0.0
 10
202.643821180524
 20
-136.2219928976118
 30
0.0
 10
210.8622836426794
 20
-135.3922379102342
 30
0.0
 10
218.4442756470293
 20
-134.4078510063908
 30
0.0
 10
225.0922638724287
 20
-133.3730059794149
 30
0.0
 10
230.5271580578679
 20
-132.4116504806479
 30
0.0
 10
235.2635923100854
 20
-131.4866023436725
 30
0.0
 10
239.6427305661672
 20
-130.5608439672417
 30
0.0
 10
244.0489298518317
 20
-129.5598443521982
 30
0.0
 10
248.6971671738157
 20
-128.4247148731385
 30
0.0
 10
253.3348938455813
 20
-127.2075571737264
 30
0.0
 10
257.6875614914412
 20
-125.9872024606811
 30
0.0
 10
261.7619885709242
 20
-124.7786419959799
 30
0.0
 10
265.7201344527585
 20
-123.5414327318479
 30
0.0
 10
269.78792941593
 20
-122.2028558674452
 30
0.0
 10
273.3857665032761
 20
-120.9575446425803
 30
0.0
 10
276.6446617031135
 20
-119.7824390235912
 30
0.0
 10
279.5829187324596
 20
-118.6873821347281
 30
0.0
 10
282.5388914951344
 20
-117.5456987730246
 30
0.0
 10
285.1884286477121
 20
-116.4875518871841
 30
0.0
 10
287.361763751296
 20
-115.596145770741
 30
0.0
 10
290.5486966348894
 20
-114.2609147430992
 30
0.0
 10
294.7721633862333
 20
-112.4175279021437
 30
0.0
 10
300.0105473256852
 20
-109.9933447517354
 30
0.0
 10
305.2746430708454
 20
-107.4241807342269
 30
0.0
 10
309.9955826240914
 20
-104.9894736355501
 30
0.0
 10
315.0377811763855
 20
-102.2620843485505
 30
0.0
 10
319.8836018394285
 20
-99.513434562539
 30
0.0
 10
324.4447137035203
 20
-96.7801041891003
 30
0.0
 10
328.0799976076815
 20
-94.51343997962327
 30
0.0
 10
331.1851225092428
 20
-92.52024064305756
 30
0.0
 10
334.5955215469425
 20
-90.25880167700976
 30
0.0
 10
338.1029274565434
 20
-87.84718619985587
 30
0.0
 10
340.8951716484021
 20
-85.85825983869691
 30
0.0
 10
342.912954323867
 20
-84.38653295205917
 30
0.0
 10
344.290751619202
 20
-83.36746961338257
 30
0.0
 10
345.65802807658
 20
-82.34207712987696
 30
0.0
 10
347.0146586669825
 20
-81.31045642036602
 30
0.0
 10
348.4184079116113
 20
-80.22853467723765
 30
0.0
 10
350.0889327896003
 20
-78.92101012610728
 30
0.0
 10
351.8877615515466
 20
-77.49247632095934
 30
0.0
 10
353.1690232489588
 20
-76.43993615122413
 30
0.0
 10
353.7405905197234
 20
-75.97040091622809
 30
0.0
  0
SPLINE
  5
F4
330
EE
100
AcDbEntity
  8
0
  6
Continuous
 62
     7
370
    25
100
AcDbSpline
210
0.0
220
0.0
230
1.0
 70
     8
 71
     3
 72
     9
 73
     5
 74
     0
 42
0.000000001
 43
0.00000001
 40
0.0
 40
0.0
 40
0.0
 40
0.0
 40
0.4524742109747955
 40
1.0
 40
1.0
 40
1.0
 40
1.0
 10
-56.93200576467322
 20
-39.67437442699644
 30
0.0
 10
-38.8288400104424
 20
-50.12510794723319
 30
0.0
 10
1.180436353021369
 20
-73.22196798202285
 30
0.0
 10
41.22217900546234
 20
-96.33757734467294
 30
0.0
 10
63.14606574518425
 20
-108.9939695997563
 30
0.0
  0
SPLINE
  5
F5
330
EE
100
AcDbEntity
  8
0
  6
Continuous
 62
     7
370
    25
100
AcDbSpline
210
0.0
220
0.0
230
1.0
 70
     8
 71
     3
 72
    29
 73
    25
 74
     0
 42
0.000000001
 43
0.00000001
 40
0.0
 40
0.0
 40
0.0
 40
0.0
 40
0.0558957031197927
 40
0.100646591121859
 40
0.1365000990275432
 40
0.1699165322125213
 40
0.201100159108373
 40
0.2367534949900194
 40
0.2693149021960496
 40
0.302193097679172
 40
0.3633926941565509
 40
0.4344606545436935
 40
0.5071808904895955
 40
0.5591595904020417
 40
0.6166882257719811
 40
0.6746144476554233
 40
0.7237701976754762
 40
0.7672845291864686
 40
0.8171464502835667
 40
0.8722772526264234
 40
0.8944688808400466
 40
0.9191551830013192
 40
0.9549567597033944
 40
1.0
 40
1.0
 40
1.0
 40
1.0
 10
-129.9831864086007
 20
21.33291880505374
 30
0.0
 10
-128.8157849955946
 20
19.98475634668451
 30
0.0
 10
-126.7137455519169
 20
17.55723601614087
 30
0.0
 10
-123.7942817183257
 20
14.32458617274639
 30
0.0
 10
-121.3240808672481
 20
11.65391805599786
 30
0.0
 10
-119.1206854849541
 20
9.326054662267893
 30
0.0
 10
-116.8973094113702
 20
7.025857501729737
 30
0.0
 10
-114.6689978207555
 20
4.770656302765616
 30
0.0
 10
-112.3785102545091
 20
2.504056645141875
 30
0.0
 10
-109.4769673848299
 20
-0.3056049252847109
 30
0.0
 10
-105.6377132437815
 20
-3.90847798939653
 30
0.0
 10
-100.7730978825084
 20
-8.274579201041854
 30
0.0
 10
-96.02870609945869
 20
-12.32862970005512
 30
0.0
 10
-91.53318755716042
 20
-16.00745867122419
 30
0.0
 10
-87.34352236812352
 20
-19.30667864637758
 30
0.0
 10
-83.15867391084444
 20
-22.46952026040086
 30
0.0
 10
-79.27651888571849
 20
-25.29230356650421
 30
0.0
 10
-75.56199952468504
 20
-27.90333809719921
 30
0.0
 10
-71.64824481597373
 20
-30.56063836334632
 30
0.0
 10
-68.25556262665195
 20
-32.77406838158399
 30
0.0
 10
-65.51033647206658
 20
-34.51285746512622
 30
0.0
 10
-63.27428175543589
 20
-35.90298851413324
 30
0.0
 10
-60.40560070299833
 20
-37.64825962426107
 30
0.0
 10
-58.17622645490969
 20
-38.94864047131789
 30
0.0
 10
-56.93411541185592
 20
-39.67315651508648
 30
0.0
  0
LWPOLYLINE
  5
F6
330
EE
100
AcDbEntity
  8
0
  6
Continuous
 62
     7
370
    25
100
AcDbPolyline
 90
        4
 70
   128
 43
0.0
 10
180.0431536381
 20
147.9794615142
 10
227.6944667251
 20
120.4689765682
 10
274.5402200119
 20
93.4255154931
 10
321.3876485026
 20
66.383021458
  0
SPLINE
  5
F7
330
EE
100
AcDbEntity
  8
0
  6
Continuous
 62
     7
370
    25
100
AcDbSpline
210
0.0
220
0.0
230
1.0
 70
     8
 71
     3
 72
    25
 73
    21
 74
     0
 42
0.000000001
 43
0.00000001
 40
0.0
 40
0.0
 40
0.0
 40
0.0
 40
0.0714285714285714
 40
0.1428571428571429
 40
0.2142857142857144
 40
0.2857142857142858
 40
0.3333333333333334
 40
0.380952380952381
 40
0.4285714285714286
 40
0.4761904761904763
 40
0.5238095238095238
 40
0.5714285714285714
 40
0.6190476190476191
 40
0.6666666666666667
 40
0.7142857142857143
 40
0.7619047619047619
 40
0.8095238095238095
 40
0.8571428571428572
 40
0.9285714285714286
 40
1.0
 40
1.0
 40
1.0
 40
1.0
 10
-81.41498372472275
 20
-2.957108410156922
 30
0.0
 10
-84.7805387664361
 20
-1.014421723278286
 30
0.0
 10
-94.03992003101905
 20
4.597566172733214
 30
0.0
 10
-111.6453830784749
 20
18.76300086453285
 30
0.0
 10
-127.9006978572514
 20
39.00082370396635
 30
0.0
 10
-136.120509447588
 20
61.82785917029924
 30
0.0
 10
-135.5269038348632
 20
84.03922347247159
 30
0.0
 10
-128.6845189666737
 20
103.6875358624075
 30
0.0
 10
-115.0192745024575
 20
122.8990193131979
 30
0.0
 10
-94.70693482578938
 20
140.5599219328026
 30
0.0
 10
-68.56067862988316
 20
155.6512800036151
 30
0.0
 10
-37.96972917708369
 20
167.3805324158082
 30
0.0
 10
-4.693592971314206
 20
175.2661200055369
 30
0.0
 10
29.34662623638994
 20
179.2187686238653
 30
0.0
 10
62.31323420017235
 20
179.5073690897802
 30
0.0
 10
92.66071328814066
 20
176.7282120660822
 30
0.0
 10
119.2541188772746
 20
171.7010784583571
 30
0.0
 10
145.1425270501489
 20
164.3033162358175
 30
0.0
 10
166.9598683881668
 20
155.2670751765323
 30
0.0
 10
176.677957223214
 20
149.9223550006151
 30
0.0
 10
180.0431536381234
 20
147.9794615141865
 30
0.0
  0
LWPOLYLINE
  5
F8
330
EE
100
AcDbEntity
  8
0
  6
Continuous
 62
     7
370
    25
100
AcDbPolyline
 90
        4
 70
   128
 43
0.0
 10
59.9295111397
 20
-84.5535484664
 10
12.2781980528
 20
-57.0430635204
 10
-34.567555234
 20
-29.9996024453
 10
-81.4149837247
 20
-2.9571084102
  0
SPLINE
  5
F9
330
EE
100
AcDbEntity
  8
0
  6
Continuous
 62
     7
370
    25
100
AcDbSpline
210
0.0
220
0.0
230
1.0
 70
     8
 71
     3
 72
    25
 73
    21
 74
     0
 42
0.000000001
 43
0.00000001
 40
0.0
 40
0.0
 40
0.0
 40
0.0
 40
0.0714285714285714
 40
0.1428571428571429
 40
0.2142857142857144
 40
0.2857142857142858
 40
0.3333333333333334
 40
0.380952380952381
 40
0.4285714285714286
 40
0.4761904761904763
 40
0.5238095238095238
 40
0.5714285714285714
 40
0.6190476190476191
 40
0.6666666666666667
 40
0.7142857142857143
 40
0.7619047619047619
 40
0.8095238095238095
 40
0.8571428571428572
 40
0.9285714285714286
 40
1.0
 40
1.0
 40
1.0
 40
1.0
 10
321.3876485025932
 20
66.38302145798983
 30
0.0
 10
324.7532035520759
 20
64.44033477576296
 30
0.0
 10
334.0127221073816
 20
58.82830148786253
 30
0.0
 10
351.6180348816177
 20
44.66273854002218
 30
0.0
 10
367.8731489749039
 20
24.42488228184578
 30
0.0
 10
376.0933363049801
 20
1.598181587508407
 30
0.0
 10
375.4993220706831
 20
-20.61317160187873
 30
0.0
 10
368.6588314314923
 20
-40.26108326740621
 30
0.0
 10
354.9919354026457
 20
-59.47296133601286
 30
0.0
 10
334.6799375971486
 20
-77.13385095487715
 30
0.0
 10
308.5333431123871
 20
-92.22524291752121
 30
0.0
 10
277.9425259410244
 20
-103.9545445853223
 30
0.0
 10
244.6663407943496
 20
-111.8401249797565
 30
0.0
 10
210.6261309073217
 20
-115.7928385012843
 30
0.0
 10
177.6594549945226
 20
-116.0814866577232
 30
0.0
 10
147.3119324650174
 20
-113.3023598823512
 30
0.0
 10
120.7183311408698
 20
-108.2752564042707
 30
0.0
 10
94.82996268950002
 20
-100.8775183683582
 30
0.0
 10
73.01248030323627
 20
-91.84134296154551
 30
0.0
 10
63.29470755463053
 20
-86.49644195279748
 30
0.0
 10
59.92951113974692
 20
-84.5535484663536
 30
0.0
  0
SPLINE
  5
FA
330
EE
100
AcDbEntity
  8
0
  6
Continuous
 62
     7
370
    25
100
AcDbSpline
210
0.0
220
0.0
230
1.0
 70
     8
 71
     3
 72
    27
 73
    23
 74
     0
 42
0.000000001
 43
0.00000001
 40
0.0
 40
0.0
 40
0.0
 40
0.0
 40
0.0714285714285714
 40
0.1428571428571429
 40
0.2142857142857144
 40
0.2500000000000001
 40
0.2857142857142858
 40
0.3333333333333334
 40
0.380952380952381
 40
0.4285714285714286
 40
0.4761904761904763
 40
0.5238095238095238
 40
0.5714285714285714
 40
0.6190476190476191
 40
0.6666666666666667
 40
0.7142857142857143
 40
0.7619047619047619
 40
0.8095238095238095
 40
0.8571428571428572
 40
0.9285714285714286
 40
0.9642857142857143
 40
1.0
 40
1.0
 40
1.0
 40
1.0
 10
190.6970105075916
 20
154.1741732973298
 30
0.0
 10
187.3298353590841
 20
156.1180021350029
 30
0.0
 10
177.2855944734324
 20
161.6761454779855
 30
0.0
 10
151.2769623846319
 20
172.6114242332608
 30
0.0
 10
119.8827282417699
 20
181.1882788725925
 30
0.0
 10
89.52700855895219
 20
185.9201087594999
 30
0.0
 10
61.79119154348498
 20
188.2074415136764
 30
0.0
 10
28.89128270893296
 20
188.0469942311877
 30
0.0
 10
-8.264263904697644
 20
183.8550252322063
 30
0.0
 10
-44.64284663892831
 20
175.3258822543863
 30
0.0
 10
-78.10181200932573
 20
162.5545977118277
 30
0.0
 10
-106.6598366204115
 20
146.0655335289672
 30
0.0
 10
-128.7867125953419
 20
126.7518460025452
 30
0.0
 10
-143.558822953763
 20
105.7507429072842
 30
0.0
 10
-150.8227891151257
 20
84.30103254788473
 30
0.0
 10
-151.124908555487
 20
63.58301506115404
 30
0.0
 10
-145.6446147349619
 20
44.58272398760281
 30
0.0
 10
-135.9916852010053
 20
28.01336703619047
 30
0.0
 10
-121.97620018127
 20
11.98706662303617
 30
0.0
 10
-108.3019167861398
 20
1.133766202421851
 30
0.0
 10
-97.91435011095845
 20
-5.710933933859227
 30
0.0
 10
-93.8292895412867
 20
-8.135534648376893
 30
0.0
 10
-92.14570196703298
 20
-9.107449067213475
 30
0.0
  0
SPLINE
  5
FC
330
EE
100
AcDbEntity
  8
0
  6
Continuous
 62
     7
370
    25
100
AcDbSpline
210
0.0
220
0.0
230
1.0
 70
     8
 71
     3
 72
    27
 73
    23
 74
     0
 42
0.000000001
 43
0.00000001
 40
0.0
 40
0.0
 40
0.0
 40
0.0
 40
0.0714285714285714
 40
0.1428571428571429
 40
0.2142857142857144
 40
0.2500000000000001
 40
0.2857142857142858
 40
0.3333333333333334
 40
0.380952380952381
 40
0.4285714285714286
 40
0.4761904761904763
 40
0.5238095238095238
 40
0.5714285714285714
 40
0.6190476190476191
 40
0.6666666666666667
 40
0.7142857142857143
 40
0.7619047619047619
 40
0.8095238095238095
 40
0.8571428571428572
 40
0.9285714285714286
 40
0.9642857142857143
 40
1.0
 40
1.0
 40
1.0
 40
1.0
 10
49.27565427027872
 20
-90.7482602494861
 30
0.0
 10
52.64282941878618
 20
-92.69208908715929
 30
0.0
 10
62.6869222185622
 20
-98.25042339897149
 30
0.0
 10
88.69581464774303
 20
-109.1855939863929
 30
0.0
 10
120.0899563716516
 20
-117.7624264477104
 30
0.0
 10
150.445536937828
 20
-122.4942560103339
 30
0.0
 10
178.1813363254996
 20
-124.7815600980974
 30
0.0
 10
211.0812219045969
 20
-124.6210885852123
 30
0.0
 10
248.2368036207174
 20
-120.4291042401456
 30
0.0
 10
284.6154154528616
 20
-111.9000165900608
 30
0.0
 10
318.0744347298187
 20
-99.12874134047806
 30
0.0
 10
346.6323704888839
 20
-82.63962598705646
 30
0.0
 10
368.7593496705901
 20
-63.32598590703971
 30
0.0
 10
383.5313599923723
 20
-42.32487871815496
 30
0.0
 10
390.7954737146888
 20
-20.87519213655224
 30
0.0
 10
391.0975475473635
 20
-0.1570537730574972
 30
0.0
 10
385.6174059374052
 20
18.84307313795322
 30
0.0
 10
375.9642332149934
 20
35.41292964901527
 30
0.0
 10
361.9493818372196
 20
51.43840989681951
 30
0.0
 10
348.2748000262002
 20
62.29204665917302
 30
0.0
 10
337.8871207141782
 20
69.13680585144425
 30
0.0
 10
333.801954319157
 20
71.56144769622047
 30
0.0
 10
332.1183667449032
 20
72.53336211505709
 30
0.0
  0
SPLINE
  5
FE
330
EE
100
AcDbEntity
  8
0
  6
Continuous
 62
     7
370
    25
100
AcDbSpline
210
0.0
220
0.0
230
1.0
 70
     8
 71
     3
 72
    38
 73
    34
 74
     0
 42
0.000000001
 43
0.00000001
 40
0.0
 40
0.0
 40
0.0
 40
0.0
 40
0.0075801354375168
 40
0.0151545785036836
 40
0.0227252897730196
 40
0.0302942327199739
 40
0.0378633721951314
 40
0.0454346728960728
 40
0.0530100978388275
 40
0.0605916068358599
 40
0.0916954605376906
 40
0.1228054034966296
 40
0.1544781606388604
 40
0.1861568517442013
 40
0.2500558791995138
 40
0.3139549066548266
 40
0.3772703951223167
 40
0.4394501372659008
 40
0.5000005018933747
 40
0.5605508665208487
 40
0.6227306086644327
 40
0.6860460971319229
 40
0.7499451245872355
 40
0.813844152042548
 40
0.8455169092681605
 40
0.8771956004752609
 40
0.908299453692112
 40
0.9394093962751519
 40
0.9515345585166676
 40
0.9636481540953633
 40
0.975758227020858
 40
0.9878728283198236
 40
1.0
 40
1.0
 40
1.0
 40
1.0
 10
109.0284225496017
 20
-62.18745983131907
 30
0.0
 10
109.2352217150091
 20
-62.22086837456168
 30
0.0
 10
109.6486647481179
 20
-62.28766037259878
 30
0.0
 10
110.2720838429182
 20
-62.38050964055044
 30
0.0
 10
110.8975093588674
 20
-62.46792289202708
 30
0.0
 10
111.5251984686326
 20
-62.5493784050968
 30
0.0
 10
112.1550826292042
 20
-62.62501582862948
 30
0.0
 10
112.787178235596
 20
-62.69479787095869
 30
0.0
 10
113.4214874718959
 20
-62.75873400353593
 30
0.0
 10
114.7159667339438
 20
-62.8768740290976
 30
0.0
 10
116.6816083592887
 20
-63.00888404007099
 30
0.0
 10
119.3399170571552
 20
-63.08490363671398
 30
0.0
 10
122.0176920539544
 20
-63.05860491082068
 30
0.0
 10
125.611957248211
 20
-62.882904425833
 30
0.0
 10
130.0668471296014
 20
-62.39911749177332
 30
0.0
 10
135.2183076046848
 20
-61.40727671618326
 30
0.0
 10
140.0474633257537
 20
-60.03601920852415
 30
0.0
 10
144.4380871531579
 20
-58.33686562398764
 30
0.0
 10
148.348839040205
 20
-56.35265333309561
 30
0.0
 10
151.78596795972
 20
-54.09502432457845
 30
0.0
 10
154.7293072190887
 20
-51.56037113777693
 30
0.0
 10
157.104652250629
 20
-48.77255889101878
 30
0.0
 10
158.8227570859365
 20
-45.79868401883526
 30
0.0
 10
159.6607600739376
 20
-43.22702664884998
 30
0.0
 10
159.9651382081853
 20
-41.1521026785029
 30
0.0
 10
160.0107080672572
 20
-39.60635730674705
 30
0.0
 10
159.879030309247
 20
-38.07164393310118
 30
0.0
 10
159.6354872104804
 20
-36.86305312566135
 30
0.0
 10
159.38317721605
 20
-35.96960146601035
 30
0.0
 10
159.1914774328323
 20
-35.38546219513167
 30
0.0
 10
158.9733263119897
 20
-34.8046279946135
 30
0.0
 10
158.7310330521961
 20
-34.22671121809531
 30
0.0
 10
158.5477863520653
 20
-33.84460982410145
 30
0.0
 10
158.4561154914304
 20
-33.65346005926428
 30
0.0
  0
SPLINE
  5
FF
330
EE
100
AcDbEntity
  8
0
  6
Continuous
 62
     7
370
    25
100
AcDbSpline
210
0.0
220
0.0
230
1.0
 70
     8
 71
     3
 72
    10
 73
     6
 74
     0
 42
0.000000001
 43
0.00000001
 40
0.0
 40
0.0
 40
0.0
 40
0.0
 40
0.3283782138378581
 40
0.3283782138378581
 40
0.998907000535421
 40
0.998907000535421
 40
0.998907000535421
 40
0.998907000535421
 10
321.3876485025825
 20
66.38302145800054
 30
0.0
 10
308.9519600542195
 20
47.30529869988779
 30
0.0
 10
294.7351012029741
 20
30.89554646337655
 30
0.0
 10
246.0700474835165
 20
-10.90613640231584
 30
0.0
 10
205.9763953310442
 20
-27.8418780048923
 30
0.0
 10
158.4561154914292
 20
-33.65346005926227
 30
0.0
  0
SPLINE
  5
101
330
EE
100
AcDbEntity
  8
0
  6
Continuous
 62
     7
370
    25
100
AcDbSpline
210
0.0
220
0.0
230
1.0
 70
     8
 71
     3
 72
    29
 73
    25
 74
     0
 42
0.000000001
 43
0.00000001
 40
0.0
 40
0.0
 40
0.0
 40
0.0
 40
0.015197553008129
 40
0.0303846776316569
 40
0.0455649845219417
 40
0.0607420891961817
 40
0.0759196094600265
 40
0.0911011628220169
 40
0.1062903639090886
 40
0.1214908218923528
 40
0.1837129503712709
 40
0.2459479434695243
 40
0.3092063763442778
 40
0.3724773250763621
 40
0.5000017907000774
 40
0.6275262563237948
 40
0.6907846893520453
 40
0.7540556382544793
 40
0.8162777657672365
 40
0.8785127581184361
 40
0.9088965486898525
 40
0.939253057733009
 40
0.9696112286263755
 40
1.0
 40
1.0
 40
1.0
 40
1.0
 10
81.5165492864395
 20
-46.3051934600407
 30
0.0
 10
81.57380183676304
 20
-46.41930066046322
 30
0.0
 10
81.68826765137409
 20
-46.64743676227086
 30
0.0
 10
81.87146994387156
 20
-46.98756369776412
 30
0.0
 10
82.06300180977547
 20
-47.32597884476198
 30
0.0
 10
82.26369342908606
 20
-47.66254556658001
 30
0.0
 10
82.47332271125835
 20
-47.99730057195225
 30
0.0
 10
82.69194809414829
 20
-48.33023324235561
 30
0.0
 10
82.91955764149776
 20
-48.66134901426179
 30
0.0
 10
83.39999534733339
 20
-49.3300456946221
 30
0.0
 10
84.19300169845958
 20
-50.32200170614012
 30
0.0
 10
85.40290360066079
 20
-51.61347440276888
 30
0.0
 10
86.76011586606224
 20
-52.86505296802109
 30
0.0
 10
88.77043693552815
 20
-54.47792270949036
 30
0.0
 10
91.62265021479564
 20
-56.35333223636155
 30
0.0
 10
94.87117854045978
 20
-57.99981404237113
 30
0.0
 10
97.66504039546403
 20
-59.16036006651456
 30
0.0
 10
99.83291538687223
 20
-59.94380994211697
 30
0.0
 10
102.0702028547983
 20
-60.64235110674559
 30
0.0
 10
103.9752899150264
 20
-61.14984216108138
 30
0.0
 10
105.5183639010002
 20
-61.51145630071657
 30
0.0
 10
106.6754697143548
 20
-61.75845285787646
 30
0.0
 10
107.8445660953108
 20
-61.98621507012468
 30
0.0
 10
108.6336712310297
 20
-62.12035572038632
 30
0.0
 10
109.0284225496017
 20
-62.18745983131908
 30
0.0
  0
SPLINE
  5
102
330
EE
100
AcDbEntity
  8
0
  6
Continuous
 62
     7
370
    25
100
AcDbSpline
210
0.0
220
0.0
230
1.0
 70
     8
 71
     3
 72
     8
 73
     4
 74
     0
 42
0.000000001
 43
0.00000001
 40
0.0
 40
0.0
 40
0.0
 40
0.0
 40
0.9989070005354108
 40
0.9989070005354108
 40
0.9989070005354108
 40
0.9989070005354108
 10
180.0431536381239
 20
147.9794615141884
 30
0.0
 10
165.6452922642806
 20
76.41987146237608
 30
0.0
 10
149.2789884609955
 20
21.16965306165131
 30
0.0
 10
130.9442422282682
 20
-17.77119368798595
 30
0.0
  0
SPLINE
  5
103
330
EE
100
AcDbEntity
  8
0
  6
Continuous
 62
     7
370
    25
100
AcDbSpline
210
0.0
220
0.0
230
1.0
 70
     8
 71
     3
 72
    38
 73
    34
 74
     0
 42
0.000000001
 43
0.00000001
 40
0.0
 40
0.0
 40
0.0
 40
0.0
 40
0.0075801354383161
 40
0.0151545785050539
 40
0.0227252897747323
 40
0.0302942327218005
 40
0.0378633721968444
 40
0.0454346728974449
 40
0.0530100978396316
 40
0.0605916068358708
 40
0.0916954605383431
 40
0.1228054034966284
 40
0.1544781606351459
 40
0.1861568517441946
 40
0.2500558791995086
 40
0.3139549066548221
 40
0.3772703951223139
 40
0.4394501372658992
 40
0.500000501893374
 40
0.5605508665208487
 40
0.6227306086644342
 40
0.6860460971319257
 40
0.7499451245872395
 40
0.8138441520425531
 40
0.8455169092735788
 40
0.8771956004752735
 40
0.9082994536948733
 40
0.9394093962751473
 40
0.9515345585162711
 40
0.9636481540947703
 40
0.9757582270202653
 40
0.9878728283194284
 40
0.9999999999999999
 40
0.9999999999999999
 40
0.9999999999999999
 40
0.9999999999999999
 10
130.9442422282682
 20
-17.77119368798595
 30
0.0
 10
130.737443062839
 20
-17.73778514473975
 30
0.0
 10
130.3240000296929
 20
-17.67099314669646
 30
0.0
 10
129.700580934846
 20
-17.57814387873701
 30
0.0
 10
129.0751554188688
 20
-17.49073062725567
 30
0.0
 10
128.4474663090944
 20
-17.40927511418434
 30
0.0
 10
127.8175821485321
 20
-17.3336376906531
 30
0.0
 10
127.1854865421683
 20
-17.26385564832845
 30
0.0
 10
126.5511773059151
 20
-17.19991951575862
 30
0.0
 10
125.2566980438843
 20
-17.08177949020955
 30
0.0
 10
123.291056418561
 20
-16.94976947924878
 30
0.0
 10
120.6327477208016
 20
-16.87374988258813
 30
0.0
 10
117.9549727240217
 20
-16.90004860848996
 30
0.0
 10
114.3607075297619
 20
-17.07574909345574
 30
0.0
 10
109.9058176482688
 20
-17.5595360275334
 30
0.0
 10
104.7543571731852
 20
-18.55137680312134
 30
0.0
 10
99.92520145211623
 20
-19.92263431078096
 30
0.0
 10
95.53457762471216
 20
-21.62178789531736
 30
0.0
 10
91.62382573766499
 20
-23.60600018620943
 30
0.0
 10
88.18669681815007
 20
-25.86362919472658
 30
0.0
 10
85.24335755878124
 20
-28.39828238152811
 30
0.0
 10
82.8680125272415
 20
-31.18609462828626
 30
0.0
 10
81.14990769193153
 20
-34.15996950046966
 30
0.0
 10
80.31190470390985
 20
-36.73162687054257
 30
0.0
 10
80.00752656966672
 20
-38.80655084089043
 30
0.0
 10
79.96195671061184
 20
-40.35229621269168
 30
0.0
 10
80.09363446866735
 20
-41.88700958624715
 30
0.0
 10
80.33717756740036
 20
-43.09560039368184
 30
0.0
 10
80.58948756181165
 20
-43.98905205327919
 30
0.0
 10
80.78118734502466
 20
-44.57319132414858
 30
0.0
 10
80.99933846586764
 20
-45.15402552466671
 30
0.0
 10
81.24163172566595
 20
-45.73194230119415
 30
0.0
 10
81.42487842580155
 20
-46.11404369519735
 30
0.0
 10
81.5165492864395
 20
-46.3051934600407
 30
0.0
  0
SPLINE
  5
104
330
EE
100
AcDbEntity
  8
0
  6
Continuous
 62
     7
370
    25
100
AcDbSpline
210
0.0
220
0.0
230
1.0
 70
     8
 71
     3
 72
    29
 73
    25
 74
     0
 42
0.000000001
 43
0.00000001
 40
0.0
 40
0.0
 40
0.0
 40
0.0
 40
0.0151975530111678
 40
0.0303846776368659
 40
0.0455649845284517
 40
0.0607420892031253
 40
0.0759196094665371
 40
0.0911011628272309
 40
0.1062903639121427
 40
0.1214908218923884
 40
0.1837129503785915
 40
0.2459479434695329
 40
0.3092063763379965
 40
0.3724773250763408
 40
0.500001790700058
 40
0.6275262563237746
 40
0.6907846893575587
 40
0.7540556382545048
 40
0.8162777657674982
 40
0.8785127581183998
 40
0.9088965486839555
 40
0.9392530577251524
 40
0.9696112286204821
 40
0.9999999999999999
 40
0.9999999999999999
 40
0.9999999999999999
 40
0.9999999999999999
 10
158.4561154914304
 20
-33.6534600592643
 30
0.0
 10
158.3988629410957
 20
-33.53935285881893
 30
0.0
 10
158.2843971264655
 20
-33.31121675697212
 30
0.0
 10
158.1011948339441
 20
-32.97108982142981
 30
0.0
 10
157.909662968026
 20
-32.63267467440257
 30
0.0
 10
157.7089713487108
 20
-32.29610795257467
 30
0.0
 10
157.4993420665436
 20
-31.96135294721211
 30
0.0
 10
157.2807166836683
 20
-31.62842027683809
 30
0.0
 10
157.0531071363438
 20
-31.29730450498058
 30
0.0
 10
156.5726694304655
 20
-30.62860782461266
 30
0.0
 10
155.7796630793438
 20
-29.63665181312055
 30
0.0
 10
154.5697611772095
 20
-28.34517911652666
 30
0.0
 10
153.2125489118282
 20
-27.09360055133512
 30
0.0
 10
151.2022278424129
 20
-25.48073080984574
 30
0.0
 10
148.3500145630738
 20
-23.6053212829416
 30
0.0
 10
145.10148623734
 20
-21.95883947691664
 30
0.0
 10
142.3076243823677
 20
-20.79829345274617
 30
0.0
 10
140.1397493909314
 20
-20.01484357716342
 30
0.0
 10
137.9024619230399
 20
-19.31630241259121
 30
0.0
 10
135.9973748629089
 20
-18.80881135824686
 30
0.0
 10
134.4543008770523
 20
-18.44719721861314
 30
0.0
 10
133.2971950637725
 20
-18.20020066146805
 30
0.0
 10
132.1280986827388
 20
-17.97243844920861
 30
0.0
 10
131.3389935469172
 20
-17.83829779893102
 30
0.0
 10
130.9442422282682
 20
-17.77119368798595
 30
0.0
  0
LWPOLYLINE
  5
105
330
EE
100
AcDbEntity
  8
0
  6
Continuous
 62
     7
370
    25
100
AcDbPolyline
 90
       63
 70
   128
 43
0.0
 10
95.2375950474
 20
-54.2664687165
 10
92.860784587
 20
-52.7477598337
 10
90.7623189538
 20
-51.0980295491
 10
88.9637312448
 20
-49.3342063279
 10
87.4834774039
 20
-47.4743893831
 10
86.3367468385
 20
-45.5376629534
 10
85.535306556
 20
-43.5439004727
 10
85.0873804183
 20
-41.513560642
 10
84.9975647536
 20
-39.4674774956
 10
85.2667811922
 20
-37.4266466153
 10
85.8922672091
 20
-35.4120096876
 10
86.8676044714
 20
-33.4442396135
 10
88.182784699
 20
-31.5435283771
 10
89.8243123629
 20
-29.7293798474
 10
91.775343168
 20
-28.0204096435
 10
94.0158568982
 20
-26.4341541122
 10
96.5228628505
 20
-24.9868903818
 10
99.2706357514
 20
-23.6934693367
 10
102.2309797326
 20
-22.567163227
 10
105.373517659
 20
-21.6195294775
 10
108.6660028387
 20
-20.860292093
 10
112.0746499185
 20
-20.2972418763
 10
115.5644815667
 20
-19.9361564846
 10
119.099687388
 20
-19.7807411427
 10
122.6439913868
 20
-19.8325906223
 10
126.161024208
 20
-20.0911728776
 10
129.6146963353
 20
-20.5538345046
 10
132.9695684194
 20
-21.2158279691
 10
136.1912149326
 20
-22.0703603222
 10
139.2465774222
 20
-23.1086629057
 10
142.1043037346
 20
-24.32008133
 10
144.7350697305
 20
-25.6921848028
 10
147.1118801909
 20
-27.2108936856
 10
149.2103458241
 20
-28.8606239702
 10
151.008933533
 20
-30.6244471914
 10
152.489187374
 20
-32.4842641362
 10
153.6359179394
 20
-34.4209905659
 10
154.4373582218
 20
-36.4147530466
 10
154.8852843596
 20
-38.4450928773
 10
154.9751000243
 20
-40.4911760237
 10
154.7058835857
 20
-42.532006904
 10
154.0803975688
 20
-44.5466438318
 10
153.1050603064
 20
-46.5144139058
 10
151.7898800789
 20
-48.4151251423
 10
150.148352415
 20
-50.2292736719
 10
148.1973216098
 20
-51.9382438758
 10
145.9568078797
 20
-53.5244994071
 10
143.4498019274
 20
-54.9717631375
 10
140.7020290265
 20
-56.2651841827
 10
137.7416850452
 20
-57.3914902924
 10
134.5991471189
 20
-58.3391240418
 10
131.3066619392
 20
-59.0983614263
 10
127.8980148594
 20
-59.661411643
 10
124.4081832112
 20
-60.0224970347
 10
120.8729773899
 20
-60.1779123766
 10
117.3286733911
 20
-60.126062897
 10
113.8116405699
 20
-59.8674806417
 10
110.3579684425
 20
-59.4048190147
 10
107.0030963585
 20
-58.7428255502
 10
103.7814498453
 20
-57.8882931971
 10
100.7260873556
 20
-56.8499906136
 10
97.8683610433
 20
-55.6385721893
 10
95.2375950474
 20
-54.2664687165
  0
LWPOLYLINE
  5
106
330
EE
100
AcDbEntity
  8
0
  6
Continuous
 62
     7
370
    25
100
AcDbPolyline
 90
       41
 70
   128
 43
0.0
 10
135.1275657814
 20
-58.1958694373
 10
136.2497883562
 20
-57.5899291747
 10
138.1598976736
 20
-56.3391812354
 10
139.78339901
 20
-54.9600930367
 10
141.0946887797
 20
-53.4744136231
 10
142.0730871595
 20
-51.9055730466
 10
142.7031642226
 20
-50.2783128603
 10
142.9749832773
 20
-48.6182959294
 10
142.8842575748
 20
-46.9517017125
 10
142.4324179135
 20
-45.3048133959
 10
141.6265900749
 20
-43.7036033924
 10
140.4794824453
 20
-42.17332374
 10
139.0091855972
 20
-40.7381078632
 10
137.2388869904
 20
-39.4205899735
 10
135.1965052914
 20
-38.2415481153
 10
132.9142500795
 20
-37.2195764828
 10
130.4281138829
 20
-36.3707921793
 10
127.7773045546
 20
-35.7085810403
 10
125.0036269411
 20
-35.243386531
 10
122.1508235953
 20
-34.9825450467
 10
119.2638849301
 20
-34.9301702135
 10
116.388339693
 20
-35.0870880137
 10
113.56953695
 20
-35.4508237599
 10
110.8519309043
 20
-36.0156411221
 10
108.2783798267
 20
-36.7726325931
 10
105.8894701549
 20
-37.7098599652
 10
103.7228764216
 20
-38.8125426028
 10
101.8127671043
 20
-40.0632905421
 10
100.1892657678
 20
-41.4423787409
 10
98.8779759982
 20
-42.9280581545
 10
97.8995776184
 20
-44.4968987309
 10
97.2695005552
 20
-46.1241589173
 10
96.9976815005
 20
-47.7841758482
 10
97.0884072031
 20
-49.4507700651
 10
97.5402468643
 20
-51.0976583816
 10
98.346074703
 20
-52.6988683852
 10
99.4931823326
 20
-54.2291480376
 10
100.9634791806
 20
-55.6643639144
 10
102.7337777874
 20
-56.9818818041
 10
104.7761594865
 20
-58.1609236623
 10
104.8450989965
 20
-58.1958694373
  0
LWPOLYLINE
  5
107
330
EE
100
AcDbEntity
  8
0
  6
Continuous
 62
     7
370
    25
100
AcDbPolyline
 90
       26
 70
   128
 43
0.0
 10
97.0357529148
 20
-49.0711802767
 10
97.2695005552
 20
-47.8640476931
 10
97.8995776184
 20
-46.2367875068
 10
98.8779759982
 20
-44.6679469303
 10
100.1892657678
 20
-43.1822675168
 10
101.8127671043
 20
-41.803179318
 10
103.7228764216
 20
-40.5524313787
 10
105.8894701549
 20
-39.4497487411
 10
108.2783798267
 20
-38.512521369
 10
110.8519309043
 20
-37.755529898
 10
113.56953695
 20
-37.1907125358
 10
116.388339693
 20
-36.8269767896
 10
119.2638849301
 20
-36.6700589894
 10
122.1508235953
 20
-36.7224338226
 10
125.0036269411
 20
-36.9832753069
 10
127.7773045546
 20
-37.4484698162
 10
130.4281138829
 20
-38.1106809552
 10
132.9142500795
 20
-38.9594652587
 10
135.1965052914
 20
-39.9814368911
 10
137.2388869904
 20
-41.1604787494
 10
139.0091855973
 20
-42.477996639
 10
140.4794824453
 20
-43.9132125159
 10
141.6265900749
 20
-45.4434921682
 10
142.4324179135
 20
-47.0447021718
 10
142.8842575748
 20
-48.6915904883
 10
142.9369118631
 20
-49.0711802767
  0
SPLINE
  5
108
330
EE
100
AcDbEntity
  8
0
  6
Continuous
 62
    60
370
    25
100
AcDbSpline
210
0.0
220
0.0
230
1.0
 70
     8
 71
     3
 72
    11
 73
     7
 74
     0
 42
0.000000001
 43
0.00000001
 40
0.0
 40
0.0
 40
0.0
 40
0.0
 40
0.2783945472412253
 40
0.5492091939004599
 40
0.813976698287546
 40
0.9999999999999999
 40
0.9999999999999999
 40
0.9999999999999999
 40
0.9999999999999999
 10
49.27565427027999
 20
-90.7482602494892
 30
0.0
 10
50.24102421649493
 20
-92.99760834330775
 30
0.0
 10
52.14547980023524
 20
-97.43506110827579
 30
0.0
 10
55.7486971153921
 20
-102.7166870072037
 30
0.0
 10
59.38191910480739
 20
-106.6268354529291
 30
0.0
 10
62.09286280524248
 20
-108.2219462380737
 30
0.0
 10
63.21156063822394
 20
-108.8801845402635
 30
0.0
  0
SPLINE
  5
109
330
EE
100
AcDbEntity
  8
0
  6
Continuous
 62
    60
370
    25
100
AcDbSpline
210
0.0
220
0.0
230
1.0
 70
     8
 71
     3
 72
    14
 73
    10
 74
     0
 42
0.000000001
 43
0.00000001
 40
0.0
 40
0.0
 40
0.0
 40
0.0
 40
0.1584278728522521
 40
0.3125378442635369
 40
0.4628470558424745
 40
0.6099127496251321
 40
0.7543297184870484
 40
0.8967259505578115
 40
1.0
 40
1.0
 40
1.0
 40
1.0
 10
109.0284225496017
 20
-62.18745983131907
 30
0.0
 10
107.893761739276
 20
-64.76859052163084
 30
0.0
 10
105.6553649392366
 20
-69.86050400370357
 30
0.0
 10
102.2786997651169
 20
-76.63136965007678
 30
0.0
 10
98.95131464125075
 20
-82.61012601919704
 30
0.0
 10
95.66818992484882
 20
-87.7570750852043
 30
0.0
 10
92.43182170235393
 20
-92.04706005003938
 30
0.0
 10
89.51964158644373
 20
-95.2972372832347
 30
0.0
 10
87.6995694998139
 20
-96.74658879340805
 30
0.0
 10
86.93445369701767
 20
-97.35586232294918
 30
0.0
  0
SPLINE
  5
10A
330
EE
100
AcDbEntity
  8
0
  6
Continuous
 62
    60
370
    25
100
AcDbSpline
210
0.0
220
0.0
230
1.0
 70
     8
 71
     3
 72
    11
 73
     7
 74
     0
 42
0.000000001
 43
0.00000001
 40
0.0
 40
0.0
 40
0.0
 40
0.0
 40
0.2793530266364385
 40
0.5510831348260086
 40
0.8167256018555803
 40
1.0
 40
1.0
 40
1.0
 40
1.0
 10
-92.14570196702923
 20
-9.107449067218207
 30
0.0
 10
-89.2937399843303
 20
-12.44596336861407
 30
0.0
 10
-83.6676396740739
 20
-19.03189139318883
 30
0.0
 10
-74.29754660336643
 20
-27.64164765472866
 30
0.0
 10
-65.47252611005818
 20
-34.54416294648846
 30
0.0
 10
-59.44275625984177
 20
-38.05649251466982
 30
0.0
 10
-56.98104781006131
 20
-39.49043304493659
 30
0.0
  0
SPLINE
  5
10B
330
EE
100
AcDbEntity
  8
0
  6
Continuous
 62
    60
370
    25
100
AcDbSpline
210
0.0
220
0.0
230
1.0
 70
     8
 71
     3
 72
    15
 73
    11
 74
     0
 42
0.000000001
 43
0.00000001
 40
0.0
 40
0.0
 40
0.0
 40
0.0
 40
0.0565267013035701
 40
0.1847441600161095
 40
0.3142032882092625
 40
0.4454995634918176
 40
0.5792039194804135
 40
0.7158571104211652
 40
0.855965751321594
 40
1.0
 40
1.0
 40
1.0
 40
1.0
 10
-6.531395704150928
 20
-46.18452286486217
 30
0.0
 10
-5.005801939602705
 20
-46.55055146114854
 30
0.0
 10
-0.0197593781650213
 20
-47.74682939712157
 30
0.0
 10
8.829942453719388
 20
-49.095493275857
 30
0.0
 10
19.98937179018087
 20
-50.25365484027883
 30
0.0
 10
31.55593728076127
 20
-50.73851303917039
 30
0.0
 10
43.50188116068326
 20
-50.60187922819963
 30
0.0
 10
55.83390343090855
 20
-49.81879825471587
 30
0.0
 10
68.55049441759535
 20
-48.44046458355824
 30
0.0
 10
77.15490592790277
 20
-47.02347602237539
 30
0.0
 10
81.5165492864395
 20
-46.3051934600407
 30
0.0
  0
LINE
  5
10C
330
EE
100
AcDbEntity
  8
0
  6
Continuous
 62
     7
370
    25
100
AcDbLine
 10
353.8808671663
 20
-75.8557421718
 30
0.0
 11
354.832364539
 21
-75.07801119
 31
0.0
  0
LINE
  5
10D
330
EE
100
AcDbEntity
  8
0
  6
Continuous
 62
     7
370
    25
100
AcDbLine
 10
332.1183667449
 20
72.5333621151
 30
0.0
 11
190.6970105076
 21
154.1741732973
 31
0.0
  0
LINE
  5
10E
330
EE
100
AcDbEntity
  8
0
  6
Continuous
 62
     7
370
    25
100
AcDbLine
 10
-92.145701967
 20
-9.1074490672
 30
0.0
 11
49.2756542703
 21
-90.7482602495
 31
0.0
  0
LINE
  5
10F
330
EE
100
AcDbEntity
  8
0
  6
Continuous
 62
     7
370
    25
100
AcDbLine
 10
-56.9810478101
 20
-39.4904330449
 30
0.0
 11
-56.8589913629
 21
-39.5645909873
 31
0.0
  0
VIEWPORT
  5
14F
330
EE
100
AcDbEntity
  8
0
100
AcDbViewport
 10
0.0
 20
0.0
 30
0.0
 40
205.6
 41
156.0
 68
     1
 69
     1
 12
161.1991663775
 22
-65.1817957095
 13
0.0
 23
0.0
 14
10.0
 24
10.0
 15
10.0
 25
10.0
 16
0.0
 26
0.0
 36
1.0
 17
0.0
 27
0.0
 37
0.0
 42
50.0
 43
0.0
 44
0.0
 45
464.356133633
 50
0.0
 51
0.0
 72
   100
 90
   557152
  1

281
     0
 71
     1
 74
     0
110
0.0
120
0.0
130
0.0
111
1.0
121
0.0
131
0.0
112
0.0
122
1.0
132
0.0
 79
     0
146
0.0
  0
ENDBLK
  5
F1
330
EE
100
AcDbEntity
  8
0
100
AcDbBlockEnd
  0
BLOCK
  5
112
330
110
100
AcDbEntity
  8
0
100
AcDbBlockBegin
  2
*Paper_Space6
 70
     0
 10
0.0
 20
0.0
 30
0.0
  3
*Paper_Space6
  1

  0
SPLINE
  5
114
330
110
100
AcDbEntity
  8
0
  6
Continuous
 62
     7
370
    25
100
AcDbSpline
210
0.0
220
0.0
230
1.0
 70
     8
 71
     3
 72
    59
 73
    55
 74
     0
 42
0.000000001
 43
0.00000001
 40
0.0
 40
0.0
 40
0.0
 40
0.0
 40
0.0173914411004137
 40
0.0379841275809758
 40
0.0609154378112176
 40
0.0854216863016475
 40
0.1108118780088262
 40
0.1444536997360436
 40
0.1775382098724863
 40
0.209106647556152
 40
0.2403386474162191
 40
0.2682687779876103
 40
0.2923056209581491
 40
0.3120076140706321
 40
0.328947230869686
 40
0.3470653747470842
 40
0.370056382442582
 40
0.3920617626036783
 40
0.4121809744484398
 40
0.4324399302314045
 40
0.4538854453076797
 40
0.4757874950406481
 40
0.4941421671030615
 40
0.5113954133514481
 40
0.5292708459775977
 40
0.5454518142336157
 40
0.5643559021535799
 40
0.5804456256729442
 40
0.5953471163812281
 40
0.6126704085897829
 40
0.6305857325003773
 40
0.6485661467815753
 40
0.665611821738949
 40
0.6807436935362084
 40
0.6975168855362801
 40
0.7104100499913399
 40
0.7213251669286979
 40
0.7326942550081748
 40
0.7463945475875794
 40
0.762282502813826
 40
0.7767097782425749
 40
0.7943250254172518
 40
0.8113838870698724
 40
0.8293977675716878
 40
0.850055589376578
 40
0.8715599695494154
 40
0.892596058045356
 40
0.9459086110955909
 40
0.9526905905942823
 40
0.9592928776085171
 40
0.965669998149616
 40
0.9732606376912298
 40
0.9846767301831592
 40
1.0
 40
1.0
 40
1.0
 40
1.0
 10
148.3466006174812
 20
-76.61321682605218
 30
0.0
 10
149.7798166617788
 20
-76.99339609177161
 30
0.0
 10
152.9100610597777
 20
-77.82373428222688
 30
0.0
 10
158.0661418639612
 20
-79.03123601637773
 30
0.0
 10
163.9323357827338
 20
-80.25748054182885
 30
0.0
 10
170.3337348120262
 20
-81.41706068924486
 30
0.0
 10
177.8028530227888
 20
-82.5587814605738
 30
0.0
 10
186.1823343136657
 20
-83.56658889346974
 30
0.0
 10
195.2555013864868
 20
-84.3371193492706
 30
0.0
 10
204.1959152133047
 20
-84.80108290048847
 30
0.0
 10
212.7105364435676
 20
-84.97338789059641
 30
0.0
 10
220.5429106969668
 20
-84.89981063082033
 30
0.0
 10
227.2936355391636
 20
-84.66429459349384
 30
0.0
 10
233.0034984810415
 20
-84.34343077071041
 30
0.0
 10
238.1357036276983
 20
-83.96462821943403
 30
0.0
 10
243.5720463695651
 20
-83.47284989171824
 30
0.0
 10
249.474863299437
 20
-82.82341679215894
 30
0.0
 10
255.5569862230232
 20
-82.02343908615728
 30
0.0
 10
261.3683435305343
 20
-81.14250998245629
 30
0.0
 10
267.1150304533925
 20
-80.16066523896886
 30
0.0
 10
273.0088914030392
 20
-79.03546117286311
 30
0.0
 10
278.7031917328992
 20
-77.82827743535984
 30
0.0
 10
283.9929130192659
 20
-76.60166311656424
 30
0.0
 10
288.8923463558953
 20
-75.378852872073
 30
0.0
 10
293.5734248137994
 20
-74.12814415395543
 30
0.0
 10
298.3840899898458
 20
-72.7597690809208
 30
0.0
 10
303.0101913742313
 20
-71.36051055862747
 30
0.0
 10
307.4973697154162
 20
-69.9212438337778
 30
0.0
 10
311.8211253954623
 20
-68.46318557147652
 30
0.0
 10
316.284244600257
 20
-66.88031796689583
 30
0.0
 10
320.9918877631412
 20
-65.11977163014774
 30
0.0
 10
325.6436066423778
 20
-63.28713033053643
 30
0.0
 10
330.0198068536963
 20
-61.47611085678247
 30
0.0
 10
334.2627769525143
 20
-59.64131276232104
 30
0.0
 10
338.1185860006974
 20
-57.90144908320393
 30
0.0
 10
341.5877099815875
 20
-56.27417726810771
 30
0.0
 10
344.5780113551831
 20
-54.82790438814502
 30
0.0
 10
347.6202938584432
 20
-53.31429493350289
 30
0.0
 10
351.0610849023709
 20
-51.54777274999596
 30
0.0
 10
354.7298286179747
 20
-49.5941078403857
 30
0.0
 10
358.6904237723917
 20
-47.4060855559003
 30
0.0
 10
362.7127704218242
 20
-45.09746101013109
 30
0.0
 10
366.983245612193
 20
-42.54469000681168
 30
0.0
 10
371.4514370376565
 20
-39.76335978381609
 30
0.0
 10
376.215409643473
 20
-36.66447909696557
 30
0.0
 10
381.1466693839893
 20
-33.30125522565896
 30
0.0
 10
388.5109521580649
 20
-28.03612969277215
 30
0.0
 10
394.5694807006211
 20
-23.33764749607355
 30
0.0
 10
399.4214545238366
 20
-19.32324804212067
 30
0.0
 10
400.8506125491501
 20
-18.12378778621246
 30
0.0
 10
402.32975363727
 20
-16.86525955945954
 30
0.0
 10
404.1429586410343
 20
-15.2988361676315
 30
0.0
 10
406.5759237548959
 20
-13.15859281244125
 30
0.0
 10
408.4405589508679
 20
-11.45693015093219
 30
0.0
 10
409.509107553034
 20
-10.48177465550755
 30
0.0
  0
SPLINE
  5
115
330
110
100
AcDbEntity
  8
0
  6
Continuous
 62
     7
370
    25
100
AcDbSpline
210
0.0
220
0.0
230
1.0
 70
     8
 71
     3
 72
     9
 73
     5
 74
     0
 42
0.000000001
 43
0.00000001
 40
0.0
 40
0.0
 40
0.0
 40
0.0
 40
0.4525267741078839
 40
1.0
 40
1.0
 40
1.0
 40
1.0
 10
14.17297288809558
 20
-40.14772204382258
 30
0.0
 10
34.40733429952306
 20
-45.64698915034317
 30
0.0
 10
79.1215093918537
 20
-57.79934658236898
 30
0.0
 10
123.8555148441198
 20
-69.95707480543203
 30
0.0
 10
148.3461851161474
 20
-76.61310549523198
 30
0.0
  0
SPLINE
  5
116
330
110
100
AcDbEntity
  8
0
  6
Continuous
 62
     7
370
    25
100
AcDbSpline
210
0.0
220
0.0
230
1.0
 70
     8
 71
     3
 72
    46
 73
    42
 74
     0
 42
0.000000001
 43
0.00000001
 40
0.0
 40
0.0
 40
0.0
 40
0.0
 40
0.0317243879503964
 40
0.0565686591071659
 40
0.0746636592094748
 40
0.08841737076322
 40
0.1005012654785031
 40
0.1109961426360793
 40
0.130539265113559
 40
0.1560306215380496
 40
0.1805494842732062
 40
0.2034316699583537
 40
0.2226575240122249
 40
0.2426828018362389
 40
0.2665833527886472
 40
0.294628545205726
 40
0.3219487936299051
 40
0.3432399227850147
 40
0.3629532184638771
 40
0.3824691241750608
 40
0.4024535052555858
 40
0.4325972371124317
 40
0.4659378048398717
 40
0.4995605659181248
 40
0.5463539158909216
 40
0.5912713543088566
 40
0.6344344519441446
 40
0.6758882326902972
 40
0.7171791514865687
 40
0.767478435886067
 40
0.7921672338163883
 40
0.8114903619715629
 40
0.8302940534501531
 40
0.8526441284166061
 40
0.8797994482943898
 40
0.8970083730045253
 40
0.9126285260330198
 40
0.9275720974518045
 40
0.9475609902303453
 40
0.9723820437023623
 40
1.0
 40
1.0
 40
1.0
 40
1.0
 10
-123.0759088180462
 20
44.24436360255175
 30
0.0
 10
-121.9074861329951
 20
42.97054524198694
 30
0.0
 10
-119.8240383871449
 20
40.69916346731224
 30
0.0
 10
-117.0140101304034
 20
37.75613647054991
 30
0.0
 10
-114.8567433013088
 20
35.54458922483942
 30
0.0
 10
-113.1700094014861
 20
33.84627723663792
 30
0.0
 10
-111.7651451865835
 20
32.45163331781405
 30
0.0
 10
-110.1265025384112
 20
30.84514843334292
 30
0.0
 10
-107.9496970962285
 20
28.74629069565597
 30
0.0
 10
-105.1902263955792
 20
26.15151630524547
 30
0.0
 10
-102.2604569162106
 20
23.47275681690084
 30
0.0
 10
-99.55064625831415
 20
21.06051213845674
 30
0.0
 10
-96.99701466543151
 20
18.84105563414549
 30
0.0
 10
-94.37786728348249
 20
16.61520441758055
 30
0.0
 10
-91.36154425131602
 20
14.11578558038262
 30
0.0
 10
-88.000506915736
 20
11.41329244170827
 30
0.0
 10
-84.70820809339416
 20
8.850346861918823
 30
0.0
 10
-81.74310984054992
 20
6.607378266338171
 30
0.0
 10
-79.09426728727718
 20
4.651912139239559
 30
0.0
 10
-76.48174533550991
 20
2.76808116395505
 30
0.0
 10
-73.38453087266919
 20
0.5874395678671929
 30
0.0
 10
-69.63572365132755
 20
-1.972403420614818
 30
0.0
 10
-65.22036803091214
 20
-4.871141588416589
 30
0.0
 10
-59.98313455012325
 20
-8.167155083272668
 30
0.0
 10
-54.13013404012077
 20
-11.66443787953636
 30
0.0
 10
-47.73486368868321
 20
-15.26093902290991
 30
0.0
 10
-41.50708015904458
 20
-18.55944303254602
 30
0.0
 10
-35.37639277703614
 20
-21.61900926488198
 30
0.0
 10
-28.82233257841027
 20
-24.69841490425365
 30
0.0
 10
-23.02161577148243
 20
-27.24044150410939
 30
0.0
 10
-18.27717089764439
 20
-29.19940521047382
 30
0.0
 10
-15.09633291185808
 20
-30.46618003146873
 30
0.0
 10
-12.02355155590396
 20
-31.65124235350099
 30
0.0
 10
-8.539021782146355
 20
-32.94828316820628
 30
0.0
 10
-5.11342220769187
 20
-34.16867935087282
 30
0.0
 10
-2.019768614330314
 20
-35.22704302776536
 30
0.0
 10
0.4519491498975181
 20
-36.04676557040941
 30
0.0
 10
3.074694648615761
 20
-36.89127033070067
 30
0.0
 10
6.182317913726504
 20
-37.85660656945495
 30
0.0
 10
9.969065823412976
 20
-38.98452895379204
 30
0.0
 10
12.72026358888781
 20
-39.74577976129378
 30
0.0
 10
14.16923182812052
 20
-40.14670631626641
 30
0.0
  0
LWPOLYLINE
  5
117
330
110
100
AcDbEntity
  8
0
  6
Continuous
 62
     7
370
    25
100
AcDbPolyline
 90
        4
 70
   128
 43
0.0
 10
144.4167228111
 20
172.0867391228
 10
204.0179001028
 20
155.8870128544
 10
262.6105033772
 20
139.9628106562
 10
321.2042123154
 20
124.0396875732
  0
SPLINE
  5
118
330
110
100
AcDbEntity
  8
0
  6
Continuous
 62
     7
370
    25
100
AcDbSpline
210
0.0
220
0.0
230
1.0
 70
     8
 71
     3
 72
    25
 73
    21
 74
     0
 42
0.000000001
 43
0.00000001
 40
0.0
 40
0.0
 40
0.0
 40
0.0
 40
0.0714285714285714
 40
0.1428571428571429
 40
0.2142857142857144
 40
0.2857142857142858
 40
0.3333333333333334
 40
0.380952380952381
 40
0.4285714285714286
 40
0.4761904761904763
 40
0.5238095238095238
 40
0.5714285714285714
 40
0.6190476190476191
 40
0.6666666666666667
 40
0.7142857142857143
 40
0.7619047619047619
 40
0.8095238095238095
 40
0.8571428571428572
 40
0.9285714285714286
 40
1.0
 40
1.0
 40
1.0
 40
1.0
 10
-28.14746459598364
 20
3.658802013750031
 30
0.0
 10
-32.35684724903612
 20
4.802674452273559
 30
0.0
 10
-44.07451436230988
 20
8.177495442916168
 30
0.0
 10
-68.14232368526888
 20
17.57326343268321
 30
0.0
 10
-94.0272196419828
 20
32.35029864225013
 30
0.0
 10
-113.5599388017345
 20
50.55671349446183
 30
0.0
 10
-124.3574681652299
 20
69.57913160402482
 30
0.0
 10
-127.8736201444104
 20
87.36752425544466
 30
0.0
 10
-124.6478305628154
 20
105.8215365604851
 30
0.0
 10
-114.2781600477515
 20
123.9651103188735
 30
0.0
 10
-97.02014232486667
 20
140.8060118283352
 30
0.0
 10
-73.79549443935302
 20
155.4573510965565
 30
0.0
 10
-46.03882221582453
 20
167.2409933626594
 30
0.0
 10
-15.53983474572579
 20
175.7885888852867
 30
0.0
 10
15.80818837385031
 20
181.0497629955494
 30
0.0
 10
46.22359053824737
 20
183.2976526510209
 30
0.0
 10
74.20261816840967
 20
183.0583494282067
 30
0.0
 10
102.7210582651435
 20
180.6911628127677
 30
0.0
 10
128.1884191124286
 20
176.3080718490968
 30
0.0
 10
140.2075769725581
 20
173.2308423868679
 30
0.0
 10
144.4167228110829
 20
172.0867391227629
 30
0.0
  0
LWPOLYLINE
  5
119
330
110
100
AcDbEntity
  8
0
  6
Continuous
 62
     7
370
    25
100
AcDbPolyline
 90
        4
 70
   128
 43
0.0
 10
148.6400249084
 20
-44.3882495359
 10
89.0388476166
 20
-28.1885232675
 10
30.4462443423
 20
-12.2643210693
 10
-28.147464596
 20
3.6588020138
  0
SPLINE
  5
11A
330
110
100
AcDbEntity
  8
0
  6
Continuous
 62
     7
370
    25
100
AcDbSpline
210
0.0
220
0.0
230
1.0
 70
     8
 71
     3
 72
    25
 73
    21
 74
     0
 42
0.000000001
 43
0.00000001
 40
0.0
 40
0.0
 40
0.0
 40
0.0
 40
0.0714285714285714
 40
0.1428571428571429
 40
0.2142857142857144
 40
0.2857142857142858
 40
0.3333333333333334
 40
0.380952380952381
 40
0.4285714285714286
 40
0.4761904761904763
 40
0.5238095238095238
 40
0.5714285714285714
 40
0.6190476190476191
 40
0.6666666666666667
 40
0.7142857142857143
 40
0.7619047619047619
 40
0.8095238095238095
 40
0.8571428571428572
 40
0.9285714285714286
 40
1.0
 40
1.0
 40
1.0
 40
1.0
 10
321.2042123154426
 20
124.0396875731579
 30
0.0
 10
325.4135949735378
 20
122.8958151397814
 30
0.0
 10
337.1314164770099
 20
119.5209763447584
 30
0.0
 10
361.199147855096
 20
110.1250761735332
 30
0.0
 10
387.0838691796076
 20
95.34798194900024
 30
0.0
 10
406.616776024989
 20
77.14190960454141
 30
0.0
 10
417.4139093130246
 20
58.11943880383565
 30
0.0
 10
420.9316659692595
 20
40.33167588195656
 30
0.0
 10
417.7045004231702
 20
21.87707596872476
 30
0.0
 10
407.3351498735586
 20
3.733565300239702
 30
0.0
 10
390.0768262968188
 20
-13.10741656091405
 30
0.0
 10
366.8523299926318
 20
-27.75877768885969
 30
0.0
 10
339.0956073303277
 20
-39.54242126730858
 30
0.0
 10
308.5966619733509
 20
-48.0900706929824
 30
0.0
 10
277.2485983378357
 20
-53.35129578984156
 30
0.0
 10
246.8331701470315
 20
-55.59921783654789
 30
0.0
 10
218.8539709313636
 20
-55.35997007208684
 30
0.0
 10
190.3355811591319
 20
-52.99279802960051
 30
0.0
 10
164.868119148651
 20
-48.60978448312452
 30
0.0
 10
152.849170746884
 20
-45.53235279997688
 30
0.0
 10
148.6400249083761
 20
-44.38824953585485
 30
0.0
  0
SPLINE
  5
11B
330
110
100
AcDbEntity
  8
0
  6
Continuous
 62
     7
370
    25
100
AcDbSpline
210
0.0
220
0.0
230
1.0
 70
     8
 71
     3
 72
    27
 73
    23
 74
     0
 42
0.000000001
 43
0.00000001
 40
0.0
 40
0.0
 40
0.0
 40
0.0
 40
0.0714285714285714
 40
0.1428571428571429
 40
0.2142857142857144
 40
0.2500000000000001
 40
0.2857142857142858
 40
0.3333333333333334
 40
0.380952380952381
 40
0.4285714285714286
 40
0.4761904761904763
 40
0.5238095238095238
 40
0.5714285714285714
 40
0.6190476190476191
 40
0.6666666666666667
 40
0.7142857142857143
 40
0.7619047619047619
 40
0.8095238095238095
 40
0.8571428571428572
 40
0.9285714285714286
 40
0.9642857142857143
 40
1.0
 40
1.0
 40
1.0
 40
1.0
 10
151.4256394779999
 20
178.9876356227079
 30
0.0
 10
147.2141246128692
 20
180.1322351212028
 30
0.0
 10
134.7741671791903
 20
183.3417610542144
 30
0.0
 10
104.3308644458268
 20
188.7059012594838
 30
0.0
 10
69.9489664355949
 20
191.2405042965256
 30
0.0
 10
38.52658829685281
 20
190.6557443173866
 30
0.0
 10
10.85796624651969
 20
188.3859524947904
 30
0.0
 10
-20.49190451431798
 20
183.2441581154636
 30
0.0
 10
-53.84476775608885
 20
174.0186429758428
 30
0.0
 10
-84.23617903277511
 20
161.214486263383
 30
0.0
 10
-109.6677110000908
 20
145.2386500167891
 30
0.0
 10
-128.5147385000246
 20
126.8394972411835
 30
0.0
 10
-139.7723208455736
 20
107.0111092705815
 30
0.0
 10
-143.1399142731648
 20
86.8633073807842
 30
0.0
 10
-139.1048314039355
 20
67.4753375192679
 30
0.0
 10
-128.7929061941493
 20
49.77013439333601
 30
0.0
 10
-113.8354607284137
 20
34.40872888760015
 30
0.0
 10
-96.13536603147769
 20
21.75413775031826
 30
0.0
 10
-74.54522630093416
 20
10.22609901077931
 30
0.0
 10
-55.92787740889163
 20
3.055419961887143
 30
0.0
 10
-42.50163422112235
 20
-1.198487680034444
 30
0.0
 10
-37.35827352659366
 20
-2.643667349755935
 30
0.0
 10
-35.25251609402832
 20
-3.215967099003389
 30
0.0
  0
SPLINE
  5
11D
330
110
100
AcDbEntity
  8
0
  6
Continuous
 62
     7
370
    25
100
AcDbSpline
210
0.0
220
0.0
230
1.0
 70
     8
 71
     3
 72
    27
 73
    23
 74
     0
 42
0.000000001
 43
0.00000001
 40
0.0
 40
0.0
 40
0.0
 40
0.0
 40
0.0714285714285714
 40
0.1428571428571429
 40
0.2142857142857144
 40
0.2500000000000001
 40
0.2857142857142858
 40
0.3333333333333334
 40
0.380952380952381
 40
0.4285714285714286
 40
0.4761904761904763
 40
0.5238095238095238
 40
0.5714285714285714
 40
0.6190476190476191
 40
0.6666666666666667
 40
0.7142857142857143
 40
0.7619047619047619
 40
0.8095238095238095
 40
0.8571428571428572
 40
0.9285714285714286
 40
0.9642857142857143
 40
1.0
 40
1.0
 40
1.0
 40
1.0
 10
141.631108241459
 20
-51.28914603578865
 30
0.0
 10
145.8426231065897
 20
-52.43374553428359
 30
0.0
 10
158.2825367727199
 20
-55.64345676996587
 30
0.0
 10
188.7260328853942
 20
-61.00746517175165
 30
0.0
 10
223.1078312526801
 20
-63.5420633647236
 30
0.0
 10
254.5300763160303
 20
-62.95732427287426
 30
0.0
 10
282.1986668576587
 20
-60.68751069783087
 30
0.0
 10
313.548503002959
 20
-55.54569920327792
 30
0.0
 10
346.9013919290342
 20
-46.3201656431317
 30
0.0
 10
377.2928593142751
 20
-33.51605166326624
 30
0.0
 10
402.7244475377588
 20
-17.54021513688871
 30
0.0
 10
421.5713639682246
 20
0.8589677375542559
 30
0.0
 10
432.8290691920109
 20
20.68733096742302
 30
0.0
 10
436.196564951905
 20
40.83512112797876
 30
0.0
 10
432.1616352258139
 20
60.22309317053784
 30
0.0
 10
421.8496045955763
 20
77.9283923889196
 30
0.0
 10
406.8923885442807
 20
93.28968112447905
 30
0.0
 10
389.1918059052896
 20
105.9446610711554
 30
0.0
 10
367.6026911897281
 20
117.4720971286826
 30
0.0
 10
348.9848851043083
 20
124.6430174645916
 30
0.0
 10
335.5585040888408
 20
128.8969583082226
 30
0.0
 10
330.4150212460526
 20
130.3421569366751
 30
0.0
 10
328.3092638134871
 20
130.9144566859225
 30
0.0
  0
SPLINE
  5
11F
330
110
100
AcDbEntity
  8
0
  6
Continuous
 62
     7
370
    25
100
AcDbSpline
210
0.0
220
0.0
230
1.0
 70
     8
 71
     3
 72
    38
 73
    34
 74
     0
 42
0.000000001
 43
0.00000001
 40
0.0
 40
0.0
 40
0.0
 40
0.0
 40
0.0075801354375168
 40
0.0151545785036836
 40
0.0227252897730196
 40
0.0302942327199739
 40
0.0378633721951314
 40
0.0454346728960728
 40
0.0530100978388275
 40
0.0605916068358599
 40
0.0916954605376906
 40
0.1228054034966296
 40
0.1544781606388604
 40
0.1861568517442013
 40
0.2500558791995138
 40
0.3139549066548266
 40
0.3772703951223167
 40
0.4394501372659008
 40
0.5000005018933747
 40
0.5605508665208487
 40
0.6227306086644327
 40
0.6860460971319229
 40
0.7499451245872355
 40
0.813844152042548
 40
0.8455169092681605
 40
0.8771956004752609
 40
0.908299453692112
 40
0.9394093962751519
 40
0.9515345585166676
 40
0.9636481540953633
 40
0.975758227020858
 40
0.9878728283198236
 40
1.0
 40
1.0
 40
1.0
 40
1.0
 10
147.4223851515665
 20
-32.00642096971482
 30
0.0
 10
147.6370510426606
 20
-32.00343694616814
 30
0.0
 10
148.0662216195538
 20
-31.99747113995424
 30
0.0
 10
148.7093318888267
 20
-31.98177206876199
 30
0.0
 10
149.3515776678813
 20
-31.96113431087137
 30
0.0
 10
149.9929377108987
 20
-31.93507404709628
 30
0.0
 10
150.6334179857849
 20
-31.90372073615697
 30
0.0
 10
151.2730150754086
 20
-31.86704009791046
 30
0.0
 10
151.9117359125623
 20
-31.82503987319461
 30
0.0
 10
153.2089049172835
 20
-31.72880985671796
 30
0.0
 10
155.1543867503449
 20
-31.5422987206154
 30
0.0
 10
157.7329818964334
 20
-31.2026886515399
 30
0.0
 10
160.2778226724119
 20
-30.77290498465678
 30
0.0
 10
163.6218184647271
 20
-30.07635212161484
 30
0.0
 10
167.6304039131649
 20
-28.98627210342725
 30
0.0
 10
172.0445296088305
 20
-27.35717781949793
 30
0.0
 10
175.9565992300438
 20
-25.45371524282407
 30
0.0
 10
179.2819325327574
 20
-23.33748013641849
 30
0.0
 10
182.0029521354266
 20
-21.05127445506358
 30
0.0
 10
184.1315849220441
 20
-18.60407073162726
 30
0.0
 10
185.6467182165707
 20
-15.99586204714792
 30
0.0
 10
186.4896691536189
 20
-13.25827878946425
 30
0.0
 10
186.6095042926998
 20
-10.46208829460795
 30
0.0
 10
186.0943046773096
 20
-8.142621691192346
 30
0.0
 10
185.3234479558892
 20
-6.327731446388544
 30
0.0
 10
184.5760896955063
 20
-5.003264987507628
 30
0.0
 10
183.6650369598047
 20
-3.715166309824325
 30
0.0
 10
182.8139737600726
 20
-2.722059954893635
 30
0.0
 10
182.1157786788258
 20
-1.99889979974913
 30
0.0
 10
181.6337520073288
 20
-1.530165058374729
 30
0.0
 10
181.1281452862428
 20
-1.068271451569978
 30
0.0
 10
180.6009663384875
 20
-0.6125372680341225
 30
0.0
 10
180.2303901276777
 20
-0.3147258886058921
 30
0.0
 10
180.0450059425793
 20
-0.1657429850144762
 30
0.0
  0
SPLINE
  5
120
330
110
100
AcDbEntity
  8
0
  6
Continuous
 62
     7
370
    25
100
AcDbSpline
210
0.0
220
0.0
230
1.0
 70
     8
 71
     3
 72
    10
 73
     6
 74
     0
 42
0.000000001
 43
0.00000001
 40
0.0
 40
0.0
 40
0.0
 40
0.0
 40
0.3283782138378581
 40
0.3283782138378581
 40
0.998907000535421
 40
0.998907000535421
 40
0.998907000535421
 40
0.998907000535421
 10
321.2042123154283
 20
124.039687573166
 30
0.0
 10
310.7214278339678
 20
102.6602839277214
 30
0.0
 10
298.5997800097496
 20
83.8348667877649
 30
0.0
 10
256.7411232645566
 20
34.33814232625031
 30
0.0
 10
221.8097022978247
 20
11.76174928014713
 30
0.0
 10
180.0450059425771
 20
-0.1657429850129392
 30
0.0
  0
SPLINE
  5
121
330
110
100
AcDbEntity
  8
0
  6
Continuous
 62
     7
370
    25
100
AcDbSpline
210
0.0
220
0.0
230
1.0
 70
     8
 71
     3
 72
    29
 73
    25
 74
     0
 42
0.000000001
 43
0.00000001
 40
0.0
 40
0.0
 40
0.0
 40
0.0
 40
0.015197553008129
 40
0.0303846776316569
 40
0.0455649845219417
 40
0.0607420891961817
 40
0.0759196094600265
 40
0.0911011628220169
 40
0.1062903639090886
 40
0.1214908218923528
 40
0.1837129503712709
 40
0.2459479434695243
 40
0.3092063763442778
 40
0.3724773250763621
 40
0.5000017907000774
 40
0.6275262563237948
 40
0.6907846893520453
 40
0.7540556382544793
 40
0.8162777657672365
 40
0.8785127581184361
 40
0.9088965486898525
 40
0.939253057733009
 40
0.9696112286263755
 40
1.0
 40
1.0
 40
1.0
 40
1.0
 10
113.0117417768794
 20
-22.65434543137255
 30
0.0
 10
113.1248238062192
 20
-22.74289624207067
 30
0.0
 10
113.350910269322
 20
-22.9199371009277
 30
0.0
 10
113.6999674354573
 20
-23.18197782062523
 30
0.0
 10
114.0561066697846
 20
-23.44129230663872
 30
0.0
 10
114.4200511995201
 20
-23.69763780052832
 30
0.0
 10
114.7916076258225
 20
-23.95107937785496
 30
0.0
 10
115.1708263460743
 20
-24.20159909769599
 30
0.0
 10
115.5576987382159
 20
-24.44920340974382
 30
0.0
 10
116.3588448643623
 20
-24.94608618182511
 30
0.0
 10
117.6240119149489
 20
-25.67095198211609
 30
0.0
 10
119.4407237447619
 20
-26.58769232764673
 30
0.0
 10
121.3777609741909
 20
-27.44801824779219
 30
0.0
 10
124.1236242483923
 20
-28.51693799329457
 30
0.0
 10
127.8081466865294
 20
-29.68156021374266
 30
0.0
 10
131.7541682205683
 20
-30.59076216966047
 30
0.0
 10
135.0171762880993
 20
-31.15493916402342
 30
0.0
 10
137.4891833520014
 20
-31.49292474413103
 30
0.0
 10
139.984061489295
 20
-31.74797774059136
 30
0.0
 10
142.063808945054
 20
-31.89072433155217
 30
0.0
 10
143.7230565301725
 20
-31.96420378874226
 30
0.0
 10
144.9549121115857
 20
-31.99870463454947
 30
0.0
 10
146.1883818299674
 20
-32.01498674899443
 30
0.0
 10
147.010912597983
 20
-32.00927718818031
 30
0.0
 10
147.4223851515665
 20
-32.00642096971482
 30
0.0
  0
SPLINE
  5
122
330
110
100
AcDbEntity
  8
0
  6
Continuous
 62
     7
370
    25
100
AcDbSpline
210
0.0
220
0.0
230
1.0
 70
     8
 71
     3
 72
     8
 73
     4
 74
     0
 42
0.000000001
 43
0.00000001
 40
0.0
 40
0.0
 40
0.0
 40
0.0
 40
0.9989070005354108
 40
0.9989070005354108
 40
0.9989070005354108
 40
0.9989070005354108
 10
144.4167228110829
 20
172.0867391227648
 30
0.0
 10
141.834886099246
 20
99.08707534376026
 30
0.0
 10
142.2407660181825
 20
44.78693982061463
 30
0.0
 10
145.6343625678922
 20
9.186332553327778
 30
0.0
  0
SPLINE
  5
123
330
110
100
AcDbEntity
  8
0
  6
Continuous
 62
     7
370
    25
100
AcDbSpline
210
0.0
220
0.0
230
1.0
 70
     8
 71
     3
 72
    38
 73
    34
 74
     0
 42
0.000000001
 43
0.00000001
 40
0.0
 40
0.0
 40
0.0
 40
0.0
 40
0.0075801354383161
 40
0.0151545785050539
 40
0.0227252897747323
 40
0.0302942327218005
 40
0.0378633721968444
 40
0.0454346728974449
 40
0.0530100978396316
 40
0.0605916068358708
 40
0.0916954605383431
 40
0.1228054034966284
 40
0.1544781606351459
 40
0.1861568517441946
 40
0.2500558791995086
 40
0.3139549066548221
 40
0.3772703951223139
 40
0.4394501372658992
 40
0.500000501893374
 40
0.5605508665208487
 40
0.6227306086644342
 40
0.6860460971319257
 40
0.7499451245872395
 40
0.8138441520425531
 40
0.8455169092735788
 40
0.8771956004752735
 40
0.9082994536948733
 40
0.9394093962751473
 40
0.9515345585162711
 40
0.9636481540947703
 40
0.9757582270202653
 40
0.9878728283194284
 40
0.9999999999999999
 40
0.9999999999999999
 40
0.9999999999999999
 40
0.9999999999999999
 10
145.6343625678922
 20
9.186332553327771
 30
0.0
 10
145.4196966767755
 20
9.183348529780835
 30
0.0
 10
144.9905260998435
 20
9.177382723566545
 30
0.0
 10
144.347415830522
 20
9.161683652373846
 30
0.0
 10
143.7051700514384
 20
9.14104589448296
 30
0.0
 10
143.0638100084113
 20
9.114985630707832
 30
0.0
 10
142.4233297335347
 20
9.08363231976872
 30
0.0
 10
141.7837326439401
 20
9.046951681522593
 30
0.0
 10
141.1450118068348
 20
9.004951456807534
 30
0.0
 10
139.8478428021364
 20
8.908721440322738
 30
0.0
 10
137.9023609691022
 20
8.722210304212716
 30
0.0
 10
135.3237658231068
 20
8.382600235168558
 30
0.0
 10
132.7789250471511
 20
7.952816568281101
 30
0.0
 10
129.4349292548217
 20
7.256263705257341
 30
0.0
 10
125.4263438062949
 20
6.166183687038803
 30
0.0
 10
121.012218110628
 20
4.53708940311125
 30
0.0
 10
117.100148489415
 20
2.63362682643694
 30
0.0
 10
113.7748151867014
 20
0.5173917200314709
 30
0.0
 10
111.0537955840322
 20
-1.76881396132347
 30
0.0
 10
108.9251627974147
 20
-4.216017684759772
 30
0.0
 10
107.4100295028881
 20
-6.824226369239135
 30
0.0
 10
106.5670785658404
 20
-9.56180962692273
 30
0.0
 10
106.447243426757
 20
-12.35800012177932
 30
0.0
 10
106.9624430421725
 20
-14.67746672527271
 30
0.0
 10
107.7332997635976
 20
-16.4923569700765
 30
0.0
 10
108.48065802402
 20
-17.81682342899352
 30
0.0
 10
109.3917107597186
 20
-19.10492210659288
 30
0.0
 10
110.2427739594161
 20
-20.0980284615243
 30
0.0
 10
110.9409690406171
 20
-20.82118861662597
 30
0.0
 10
111.4229957121049
 20
-21.28992335799316
 30
0.0
 10
111.9286024331912
 20
-21.75181696479783
 30
0.0
 10
112.4557813809557
 20
-22.20755114834088
 30
0.0
 10
112.8263575917748
 20
-22.50536252777632
 30
0.0
 10
113.0117417768794
 20
-22.65434543137255
 30
0.0
  0
SPLINE
  5
124
330
110
100
AcDbEntity
  8
0
  6
Continuous
 62
     7
370
    25
100
AcDbSpline
210
0.0
220
0.0
230
1.0
 70
     8
 71
     3
 72
    29
 73
    25
 74
     0
 42
0.000000001
 43
0.00000001
 40
0.0
 40
0.0
 40
0.0
 40
0.0
 40
0.0151975530111678
 40
0.0303846776368659
 40
0.0455649845284517
 40
0.0607420892031253
 40
0.0759196094665371
 40
0.0911011628272309
 40
0.1062903639121427
 40
0.1214908218923884
 40
0.1837129503785915
 40
0.2459479434695329
 40
0.3092063763379965
 40
0.3724773250763408
 40
0.500001790700058
 40
0.6275262563237746
 40
0.6907846893575587
 40
0.7540556382545048
 40
0.8162777657674982
 40
0.8785127581183998
 40
0.9088965486839555
 40
0.9392530577251524
 40
0.9696112286204821
 40
0.9999999999999999
 40
0.9999999999999999
 40
0.9999999999999999
 40
0.9999999999999999
 10
180.0450059425794
 20
-0.1657429850144762
 30
0.0
 10
179.9319239132171
 20
-0.0771921742985827
 30
0.0
 10
179.705837450076
 20
0.0998486845889164
 30
0.0
 10
179.3567802838927
 20
0.3618894043246196
 30
0.0
 10
179.0006410495369
 20
0.6212038903610009
 30
0.0
 10
178.6366965197918
 20
0.8775493842583353
 30
0.0
 10
178.2651400934993
 20
1.130990961577472
 30
0.0
 10
177.8859213732765
 20
1.381510681395713
 30
0.0
 10
177.4990489811836
 20
1.629114993405855
 30
0.0
 10
176.6979028549927
 20
2.125997765487154
 30
0.0
 10
175.4327358044236
 20
2.850863565756718
 30
0.0
 10
173.6160239746923
 20
3.767603911267813
 30
0.0
 10
171.6789867453136
 20
4.627929831364619
 30
0.0
 10
168.9331234711503
 20
5.696849576891851
 30
0.0
 10
165.2486010329279
 20
6.861471797357146
 30
0.0
 10
161.3025794988145
 20
7.77067375327745
 30
0.0
 10
158.0395714313003
 20
8.334850747668325
 30
0.0
 10
155.5675643673814
 20
8.672836327754899
 30
0.0
 10
153.0726862301498
 20
8.927889324172398
 30
0.0
 10
150.9929387744791
 20
9.070635915155293
 30
0.0
 10
149.3336911894733
 20
9.144115372361949
 30
0.0
 10
148.1018356081392
 20
9.17861621816792
 30
0.0
 10
146.8683658896774
 20
9.194898332610627
 30
0.0
 10
146.0458351215556
 20
9.189188771794463
 30
0.0
 10
145.6343625678922
 20
9.186332553327771
 30
0.0
  0
LWPOLYLINE
  5
125
330
110
100
AcDbEntity
  8
0
  6
Continuous
 62
     7
370
    25
100
AcDbPolyline
 90
       63
 70
   128
 43
0.0
 10
130.1940352472
 20
-27.3528594463
 10
127.1462130505
 20
-26.4199525191
 10
124.297278052
 20
-25.333023621
 10
121.67646418
 20
-24.1032261133
 10
119.3106645313
 20
-22.7431793827
 10
117.2241554117
 20
-21.2668393489
 10
115.4383472284
 20
-19.6893552587
 10
113.9715647898
 20
-18.0269142334
 10
112.8388592687
 20
-16.2965751675
 10
112.0518537565
 20
-14.5160936815
 10
111.6186239947
 20
-12.7037399247
 10
111.543615507
 20
-10.8781110993
 10
111.8275979819
 20
-9.0579406273
 10
112.467657375
 20
-7.261905921
 10
113.4572258107
 20
-5.5084367268
 10
114.7861489779
 20
-3.8155260116
 10
116.4407903264
 20
-2.2005453301
 10
118.4041709969
 20
-0.6800665695
 10
120.656144047
 20
0.7303081006
 10
123.1736011857
 20
2.0161063274
 10
125.930709896
 20
3.1641340812
 10
128.8991785118
 20
4.1626110438
 10
132.0485465279
 20
5.0012914903
 10
135.3464971667
 20
5.6715694245
 10
138.759188992
 20
6.1665668877
 10
142.2516031673
 20
6.4812045361
 10
145.7879027974
 20
6.6122537616
 10
149.3318006626
 20
6.558369822
 10
152.8469315751
 20
6.3201056392
 10
156.2972255351
 20
5.8999061262
 10
159.6472778576
 20
5.3020830987
 10
162.8627124723
 20
4.53277103
 10
165.9105346689
 20
3.5998641028
 10
168.7594696674
 20
2.5129352046
 10
171.3802835395
 20
1.2831376969
 10
173.7460831882
 20
-0.0769090337
 10
175.8325923078
 20
-1.5532490674
 10
177.6184004911
 20
-3.1307331577
 10
179.0851829297
 20
-4.793174183
 10
180.2178884508
 20
-6.5235132489
 10
181.004893963
 20
-8.3039947349
 10
181.4381237248
 20
-10.1163484917
 10
181.5131322125
 20
-11.9419773171
 10
181.2291497376
 20
-13.7621477891
 10
180.5890903445
 20
-15.5581824954
 10
179.5995219087
 20
-17.3116516895
 10
178.2705987416
 20
-19.0045624048
 10
176.6159573931
 20
-20.6195430863
 10
174.6525767225
 20
-22.1400218469
 10
172.4006036725
 20
-23.5503965169
 10
169.8831465338
 20
-24.8361947438
 10
167.1260378234
 20
-25.9842224976
 10
164.1575692077
 20
-26.9826994602
 10
161.0082011916
 20
-27.8213799067
 10
157.7102505527
 20
-28.4916578409
 10
154.2975587275
 20
-28.9866553041
 10
150.8051445521
 20
-29.3012929525
 10
147.2688449221
 20
-29.432342178
 10
143.7249470569
 20
-29.3784582383
 10
140.2098161443
 20
-29.1401940556
 10
136.7595221843
 20
-28.7199945426
 10
133.4094698619
 20
-28.1221715151
 10
130.1940352472
 20
-27.3528594463
  0
LWPOLYLINE
  5
126
330
110
100
AcDbEntity
  8
0
  6
Continuous
 62
     7
370
    25
100
AcDbPolyline
 90
       36
 70
   128
 43
0.0
 10
165.9076239181
 20
-26.4209494403
 10
166.8699906583
 20
-25.5694449764
 10
168.0549171043
 20
-24.2127721833
 10
168.9003571041
 20
-22.7903085144
 10
169.3929775637
 20
-21.3244870715
 10
169.5250095642
 20
-19.8384247344
 10
169.2943708821
 20
-18.3555575939
 10
168.7046988273
 20
-16.8992713506
 10
167.7652928802
 20
-15.4925325085
 10
166.4909680339
 20
-14.1575261795
 10
164.9018211523
 20
-12.9153062109
 10
163.0229140312
 20
-11.7854631537
 10
160.8838781582
 20
-10.7858153078
 10
158.5184474069
 20
-9.9321277169
 10
155.9639260332
 20
-9.2378635443
 10
153.2606003652
 20
-8.7139717507
 10
150.4511034635
 20
-8.3687144227
 10
147.5797427727
 20
-8.2075364746
 10
144.6918013661
 20
-8.2329797788
 10
141.8328238048
 20
-8.4446430794
 10
139.0478978729
 20
-8.8391883196
 10
136.3809435159
 20
-9.4103932852
 10
133.8740201972
 20
-10.1492497328
 10
131.5666635951
 20
-11.0441054547
 10
129.4952621016
 20
-12.0808480418
 10
127.6924829556
 20
-13.243127444
 10
126.1867570611
 20
-14.512613821
 10
125.0018306151
 20
-15.8692866141
 10
124.1563906154
 20
-17.291750283
 10
123.6637701558
 20
-18.7575717259
 10
123.5317381553
 20
-20.243634063
 10
123.7623768373
 20
-21.7265012035
 10
124.3520488922
 20
-23.1827874468
 10
125.2914548392
 20
-24.5895262889
 10
126.5657796856
 20
-25.9245326179
 10
127.1491238013
 20
-26.4209494403
  0
LWPOLYLINE
  5
127
330
110
100
AcDbEntity
  8
0
  6
Continuous
 62
     7
370
    25
100
AcDbPolyline
 90
       26
 70
   128
 43
0.0
 10
123.5968230947
 20
-20.9542573377
 10
123.6637701558
 20
-20.584027604
 10
124.1563906154
 20
-19.1182061611
 10
125.0018306151
 20
-17.6957424921
 10
126.1867570611
 20
-16.339069699
 10
127.6924829556
 20
-15.0695833221
 10
129.4952621016
 20
-13.9073039198
 10
131.5666635951
 20
-12.8705613328
 10
133.8740201972
 20
-11.9757056108
 10
136.3809435159
 20
-11.2368491632
 10
139.0478978729
 20
-10.6656441976
 10
141.8328238048
 20
-10.2710989574
 10
144.6918013661
 20
-10.0594356569
 10
147.5797427727
 20
-10.0339923526
 10
150.4511034635
 20
-10.1951703008
 10
153.2606003652
 20
-10.5404276288
 10
155.9639260332
 20
-11.0643194224
 10
158.5184474069
 20
-11.758583595
 10
160.8838781582
 20
-12.6122711858
 10
163.0229140312
 20
-13.6119190317
 10
164.9018211523
 20
-14.741762089
 10
166.4909680339
 20
-15.9839820575
 10
167.7652928802
 20
-17.3189883865
 10
168.7046988273
 20
-18.7257272286
 10
169.2943708821
 20
-20.1820134719
 10
169.4599246247
 20
-20.9542573377
  0
SPLINE
  5
128
330
110
100
AcDbEntity
  8
0
  6
Continuous
 62
    60
370
    25
100
AcDbSpline
210
0.0
220
0.0
230
1.0
 70
     8
 71
     3
 72
    13
 73
     9
 74
     0
 42
0.000000001
 43
0.00000001
 40
0.0
 40
0.0
 40
0.0
 40
0.0
 40
0.1780502081863061
 40
0.3512526099409527
 40
0.5205874972232153
 40
0.6871034810420122
 40
0.8519029908177227
 40
1.0
 40
1.0
 40
1.0
 40
1.0
 10
141.6311082414591
 20
-51.28914603579215
 30
0.0
 10
141.7141040723406
 20
-53.82524756645934
 30
0.0
 10
141.877835991041
 20
-58.82839971548675
 30
0.0
 10
142.548678267072
 20
-64.92402585176852
 30
0.0
 10
143.5288602895091
 20
-69.83013004271876
 30
0.0
 10
144.8573144226414
 20
-73.42068919208245
 30
0.0
 10
146.4356690654605
 20
-75.78363188225259
 30
0.0
 10
147.7378100798309
 20
-76.30752836061997
 30
0.0
 10
148.3541262677003
 20
-76.55549373212908
 30
0.0
  0
SPLINE
  5
129
330
110
100
AcDbEntity
  8
0
  6
Continuous
 62
    60
370
    25
100
AcDbSpline
210
0.0
220
0.0
230
1.0
 70
     8
 71
     3
 72
     9
 73
     5
 74
     0
 42
0.000000001
 43
0.00000001
 40
0.0
 40
0.0
 40
0.0
 40
0.0
 40
0.5443945278401593
 40
1.0
 40
1.0
 40
1.0
 40
1.0
 10
147.4223851515665
 20
-32.00642096971482
 30
0.0
 10
147.6278171110017
 20
-34.40534796754188
 30
0.0
 10
148.0051757157073
 20
-38.81194442497617
 30
0.0
 10
148.3318913323875
 20
-42.61312031610275
 30
0.0
 10
148.4807447551871
 20
-44.34495685274209
 30
0.0
  0
SPLINE
  5
12A
330
110
100
AcDbEntity
  8
0
  6
Continuous
 62
    60
370
    25
100
AcDbSpline
210
0.0
220
0.0
230
1.0
 70
     8
 71
     3
 72
    13
 73
     9
 74
     0
 42
0.000000001
 43
0.00000001
 40
0.0
 40
0.0
 40
0.0
 40
0.0
 40
0.1781012892787607
 40
0.3513425932557655
 40
0.5207027266855359
 40
0.687228957105392
 40
0.8520225894797798
 40
1.0
 40
1.0
 40
1.0
 40
1.0
 10
-35.2525160940251
 20
-3.215967099007899
 30
0.0
 10
-32.80951375913302
 20
-6.39344170126499
 30
0.0
 10
-27.99017315162383
 20
-12.66168474028087
 30
0.0
 10
-20.1109964642564
 20
-20.71641399371893
 30
0.0
 10
-11.8946169893808
 20
-27.58919313193918
 30
0.0
 10
-3.278997111619026
 20
-33.16025316488323
 30
0.0
 10
5.387452216828182
 20
-37.4494012809157
 30
0.0
 10
11.36283209200961
 20
-39.24342147145275
 30
0.0
 10
14.18988805160473
 20
-40.09220357020385
 30
0.0
  0
SPLINE
  5
12B
330
110
100
AcDbEntity
  8
0
  6
Continuous
 62
    60
370
    25
100
AcDbSpline
210
0.0
220
0.0
230
1.0
 70
     8
 71
     3
 72
     9
 73
     5
 74
     0
 42
0.000000001
 43
0.00000001
 40
0.0
 40
0.0
 40
0.0
 40
0.0
 40
0.4555419354148371
 40
1.0
 40
1.0
 40
1.0
 40
1.0
 10
91.94792816390002
 20
-28.97921752392752
 30
0.0
 10
95.13704077232875
 20
-28.1549961476725
 30
0.0
 10
102.1377411700311
 20
-26.34567561716094
 30
0.0
 10
109.1783988972896
 20
-23.95562679004701
 30
0.0
 10
113.0117417768794
 20
-22.65434543137253
 30
0.0
  0
LINE
  5
12C
330
110
100
AcDbEntity
  8
0
  6
Continuous
 62
     7
370
    25
100
AcDbLine
 10
328.3092638135
 20
130.9144566859
 30
0.0
 11
151.425639478
 21
178.9876356227
 31
0.0
  0
LINE
  5
12D
330
110
100
AcDbEntity
  8
0
  6
Continuous
 62
     7
370
    25
100
AcDbLine
 10
-35.252516094
 20
-3.215967099
 30
0.0
 11
141.6311082415
 21
-51.2891460358
 31
0.0
  0
VIEWPORT
  5
151
330
110
100
AcDbEntity
  8
0
100
AcDbViewport
 10
0.0
 20
0.0
 30
0.0
 40
205.6
 41
156.0
 68
     1
 69
     1
 12
161.1991663775
 22
-65.1817957095
 13
0.0
 23
0.0
 14
10.0
 24
10.0
 15
10.0
 25
10.0
 16
0.0
 26
0.0
 36
1.0
 17
0.0
 27
0.0
 37
0.0
 42
50.0
 43
0.0
 44
0.0
 45
464.356133633
 50
0.0
 51
0.0
 72
   100
 90
   557152
  1

281
     0
 71
     1
 74
     0
110
0.0
120
0.0
130
0.0
111
1.0
121
0.0
131
0.0
112
0.0
122
1.0
132
0.0
 79
     0
146
0.0
  0
ENDBLK
  5
113
330
110
100
AcDbEntity
  8
0
100
AcDbBlockEnd
  0
BLOCK
  5
130
330
12E
100
AcDbEntity
  8
0
100
AcDbBlockBegin
  2
*Paper_Space7
 70
     0
 10
0.0
 20
0.0
 30
0.0
  3
*Paper_Space7
  1

  0
SPLINE
  5
132
330
12E
100
AcDbEntity
  8
0
  6
Continuous
 62
     7
370
    25
100
AcDbSpline
210
0.0
220
0.0
230
1.0
 70
     8
 71
     3
 72
    73
 73
    69
 74
     0
 42
0.000000001
 43
0.00000001
 40
0.0
 40
0.0
 40
0.0
 40
0.0
 40
0.018606417706118
 40
0.0388663588043278
 40
0.0590636804468742
 40
0.0778219806346063
 40
0.0940939832009762
 40
0.1071062136179828
 40
0.1163001879519747
 40
0.1297569841161355
 40
0.1440574967938807
 40
0.1595918730888524
 40
0.178965649199788
 40
0.2012713335344685
 40
0.2234145753949029
 40
0.2439928741690195
 40
0.2618955723803802
 40
0.278176864582963
 40
0.2915371224258713
 40
0.3052758228014331
 40
0.3178116819331793
 40
0.3291484885066568
 40
0.3431455041369755
 40
0.3599189285696397
 40
0.3785352225574539
 40
0.3945173536272381
 40
0.4076407678863623
 40
0.4223383874675087
 40
0.4404525374429217
 40
0.4782380008318993
 40
0.5133498416515486
 40
0.531283918537409
 40
0.5485869736670442
 40
0.5657345721604837
 40
0.5850069190070613
 40
0.6020245506083483
 40
0.619053512107309
 40
0.6343922262526913
 40
0.6465424992609528
 40
0.658042194734318
 40
0.6718625054074358
 40
0.6901955843666855
 40
0.7059374327904245
 40
0.7186220170561549
 40
0.7314235225872091
 40
0.7499704518044089
 40
0.7609664109724051
 40
0.7691626611067981
 40
0.7775625321191018
 40
0.7865946871369602
 40
0.7972579092171276
 40
0.8097915382616975
 40
0.8226463340905533
 40
0.8318098669848165
 40
0.8384182389540463
 40
0.845631426647044
 40
0.8552649993346617
 40
0.8662486089692543
 40
0.8770040413488145
 40
0.8924061032824051
 40
0.9052641724405753
 40
0.9170483153216472
 40
0.9325567370983042
 40
0.9425884168068389
 40
0.9522480368215972
 40
0.9643118803604669
 40
0.980214716600241
 40
1.0
 40
1.0
 40
1.0
 40
1.0
 10
177.6475177520917
 20
-29.84432926960832
 30
0.0
 10
179.3038923135837
 20
-30.04306137368672
 30
0.0
 10
182.7638408667187
 20
-30.45818659472861
 30
0.0
 10
188.173907080215
 20
-30.96685409368257
 30
0.0
 10
193.676423520727
 20
-31.38362753073282
 30
0.0
 10
198.873522330928
 20
-31.67915726905055
 30
0.0
 10
203.4292390015274
 20
-31.86406225156294
 30
0.0
 10
207.0946493707513
 20
-31.96331307258837
 30
0.0
 10
210.4901481925684
 20
-32.0211320424161
 30
0.0
 10
213.9928588079504
 20
-32.04576464032269
 30
0.0
 10
218.1117424572624
 20
-32.02538663824716
 30
0.0
 10
222.8002636727042
 20
-31.94222634750896
 30
0.0
 10
228.260460343225
 20
-31.76441398183872
 30
0.0
 10
234.3732072433364
 20
-31.45725797046162
 30
0.0
 10
240.600946449367
 20
-31.02849842972358
 30
0.0
 10
246.4018618375032
 20
-30.52594064499379
 30
0.0
 10
251.6445336443764
 20
-29.98783176735854
 30
0.0
 10
256.189880942195
 20
-29.45633522732523
 30
0.0
 10
260.3321425152582
 20
-28.92021517298805
 30
0.0
 10
264.1119061957338
 20
-28.38773229291992
 30
0.0
 10
267.693326691593
 20
-27.84335649270412
 30
0.0
 10
271.2938079920566
 20
-27.25947662976599
 30
0.0
 10
275.2893078902773
 20
-26.56808519507193
 30
0.0
 10
279.965935263332
 20
-25.69636316072208
 30
0.0
 10
284.8148348480559
 20
-24.71689496089186
 30
0.0
 10
289.2965682769749
 20
-23.74239776921942
 30
0.0
 10
293.4033715335137
 20
-22.79544878662027
 30
0.0
 10
297.6979348825877
 20
-21.75054156873444
 30
0.0
 10
304.2725402025872
 20
-20.05070065878495
 30
0.0
 10
312.6889844031737
 20
-17.65066027093911
 30
0.0
 10
320.9988439471402
 20
-14.97944228689171
 30
0.0
 10
327.3783166990761
 20
-12.75381605936816
 30
0.0
 10
332.1000539981333
 20
-11.01806859085618
 30
0.0
 10
336.9128686792933
 20
-9.15842073977048
 30
0.0
 10
341.6675660099825
 20
-7.224200239384269
 30
0.0
 10
346.3766216777096
 20
-5.209796708425348
 30
0.0
 10
350.7050219197025
 20
-3.270725465434047
 30
0.0
 10
354.5778425382859
 20
-1.459528949112464
 30
0.0
 10
357.9465483198554
 20
0.1735171671459201
 30
0.0
 10
361.1656682551405
 20
1.782330733273059
 30
0.0
 10
364.8941169976592
 20
3.706776423099092
 30
0.0
 10
368.9474703878033
 20
5.885231098461993
 30
0.0
 10
372.8665580086353
 20
8.082483970969335
 30
0.0
 10
376.2929300935382
 20
10.07163087133428
 30
0.0
 10
379.9268103981295
 20
12.24757321163641
 30
0.0
 10
383.3861338164351
 20
14.39864128444179
 30
0.0
 10
386.4367451204008
 20
16.3635964542752
 30
0.0
 10
388.6535193228074
 20
17.82427980581876
 30
0.0
 10
390.7005957010549
 20
19.19978890466879
 30
0.0
 10
392.9305340558471
 20
20.72910195365706
 30
0.0
 10
395.4702539060199
 20
22.51130655209037
 30
0.0
 10
398.2857409392499
 20
24.54081252495198
 30
0.0
 10
400.9565057085415
 20
26.52300954687158
 30
0.0
 10
403.1488928787961
 20
28.19158897846177
 30
0.0
 10
404.8979127009305
 20
29.5467995705733
 30
0.0
 10
406.672877366655
 20
30.94380637155441
 30
0.0
 10
408.7634783678888
 20
32.62081187260109
 30
0.0
 10
411.0986187319767
 20
34.53785373968804
 30
0.0
 10
413.8359384054326
 20
36.84033452890449
 30
0.0
 10
416.676604356809
 20
39.30027022759311
 30
0.0
 10
419.5526923615745
 20
41.86993212468546
 30
0.0
 10
422.4014621630946
 20
44.48513819547421
 30
0.0
 10
425.0131484996075
 20
46.95540961701147
 30
0.0
 10
427.4433259496802
 20
49.3189543681311
 30
0.0
 10
429.6127368853051
 20
51.47416776556641
 30
0.0
 10
432.1516053285207
 20
54.05801376156813
 30
0.0
 10
435.3284541289594
 20
57.38119155040616
 30
0.0
 10
437.6406829741371
 20
59.92299352273501
 30
0.0
 10
438.9225690317106
 20
61.33215357029562
 30
0.0
  0
SPLINE
  5
133
330
12E
100
AcDbEntity
  8
0
  6
Continuous
 62
     7
370
    25
100
AcDbSpline
210
0.0
220
0.0
230
1.0
 70
     8
 71
     3
 72
    27
 73
    23
 74
     0
 42
0.000000001
 43
0.00000001
 40
0.0
 40
0.0
 40
0.0
 40
0.0
 40
0.0911443420341181
 40
0.1741030349530458
 40
0.2488365359163231
 40
0.3153165501276584
 40
0.3735265759038722
 40
0.4226437104724125
 40
0.4641625809842359
 40
0.5014762500470422
 40
0.5354716081213257
 40
0.5617805828919121
 40
0.5858183257435979
 40
0.6076395808445718
 40
0.6320139787447696
 40
0.6642580436667765
 40
0.7043995930768103
 40
0.7494887563035396
 40
0.8016050266637542
 40
0.8607399529743446
 40
0.926878627267946
 40
1.0
 40
1.0
 40
1.0
 40
1.0
 10
57.57278703294541
 20
-14.71642571599751
 30
0.0
 10
61.22435270896987
 20
-15.17647979623956
 30
0.0
 10
68.19953791891137
 20
-16.05527062214392
 30
0.0
 10
78.18956947393595
 20
-17.31386708689947
 30
0.0
 10
87.20713426586924
 20
-18.44983981019716
 30
0.0
 10
95.24898238601683
 20
-19.4626906796647
 30
0.0
 10
102.2808775209242
 20
-20.34791526759794
 30
0.0
 10
108.3228556705917
 20
-21.10802762361021
 30
0.0
 10
113.5543476226149
 20
-21.76491945738527
 30
0.0
 10
118.1404118774564
 20
-22.34094470491184
 30
0.0
 10
122.0764712593765
 20
-22.83609432120311
 30
0.0
 10
125.4416383324587
 20
-23.26033791071875
 30
0.0
 10
128.2914672507811
 20
-23.62033782018203
 30
0.0
 10
131.0049968934044
 20
-23.9641221039759
 30
0.0
 10
134.0350697848855
 20
-24.34753181161451
 30
0.0
 10
137.8393107648323
 20
-24.82764713290179
 30
0.0
 10
142.4787326810033
 20
-25.41277136634429
 30
0.0
 10
147.9288696245168
 20
-26.09976622029322
 30
0.0
 10
154.149810671666
 20
-26.88373592666076
 30
0.0
 10
161.2243387016622
 20
-27.77514784296785
 30
0.0
 10
169.1494420111521
 20
-28.77366741025562
 30
0.0
 10
174.7215805077404
 20
-29.47569554926083
 30
0.0
 10
177.6473472630009
 20
-29.84430996751631
 30
0.0
  0
SPLINE
  5
134
330
12E
100
AcDbEntity
  8
0
  6
Continuous
 62
     7
370
    25
100
AcDbSpline
210
0.0
220
0.0
230
1.0
 70
     8
 71
     3
 72
    66
 73
    62
 74
     0
 42
0.000000001
 43
0.00000001
 40
0.0
 40
0.0
 40
0.0
 40
0.0
 40
0.0219160509003299
 40
0.038411062481237
 40
0.0495529151587643
 40
0.0558950725757532
 40
0.0626249609578399
 40
0.0740522609074063
 40
0.0875764945781366
 40
0.0997944033693184
 40
0.1110651002214195
 40
0.1229592252545493
 40
0.1374196943360895
 40
0.1539870789860365
 40
0.1679449222675228
 40
0.1802479809141635
 40
0.1942974154991903
 40
0.2138748863453209
 40
0.2295423909904757
 40
0.2423857009747519
 40
0.2613254623883174
 40
0.2800380162318858
 40
0.2932620969008861
 40
0.3101063788395303
 40
0.3300643914540914
 40
0.3469841169528246
 40
0.3613117059128497
 40
0.3765268041517163
 40
0.3989648301158935
 40
0.4148173936916493
 40
0.4269184296311677
 40
0.4380388295248714
 40
0.4492328704761793
 40
0.4626810785162746
 40
0.4781783370810547
 40
0.4948239637763534
 40
0.5172713723509049
 40
0.5354617059982321
 40
0.5529337294438887
 40
0.5707111240158073
 40
0.588971465531293
 40
0.6076412919683792
 40
0.6265776337811693
 40
0.6528625750602809
 40
0.6804476017097886
 40
0.7105837234255371
 40
0.74152824885308
 40
0.7699408730181633
 40
0.7994507149760464
 40
0.8290265687573461
 40
0.8555792498911153
 40
0.8782906306009407
 40
0.8900317420634769
 40
0.904854678941231
 40
0.9220871647565932
 40
0.9371071313995841
 40
0.9450255574159684
 40
0.9531413628229651
 40
0.9655266316949729
 40
0.9815946620450698
 40
1.0
 40
1.0
 40
1.0
 40
1.0
 10
-132.3643765418813
 20
86.07552991316548
 30
0.0
 10
-131.3215678303979
 20
84.84323783787868
 30
0.0
 10
-129.4938940968895
 20
82.68346698708805
 30
0.0
 10
-127.0825284415786
 20
79.94143444466066
 30
0.0
 10
-125.410905444375
 20
78.07683203326344
 30
0.0
 10
-124.2108960783832
 20
76.75682604542752
 30
0.0
 10
-122.9908645411741
 20
75.42818642464765
 30
0.0
 10
-121.4012548984301
 20
73.72127290449501
 30
0.0
 10
-119.5167921466553
 20
71.73657015065955
 30
0.0
 10
-117.6208232918036
 20
69.77942898692756
 30
0.0
 10
-115.7918172314688
 20
67.9257814618139
 30
0.0
 10
-113.8306877128364
 20
65.97401440332081
 30
0.0
 10
-111.5711486513704
 20
63.77137523328613
 30
0.0
 10
-109.1746534436648
 20
61.49173911497476
 30
0.0
 10
-106.8663900181544
 20
59.3485525463765
 30
0.0
 10
-104.6737626088772
 20
57.35489216120231
 30
0.0
 10
-102.1557119558081
 20
55.11302535820897
 30
0.0
 10
-99.41925767136398
 20
52.74151325448639
 30
0.0
 10
-96.71737048883303
 20
50.46573135676058
 30
0.0
 10
-94.03365278316053
 20
48.25689524550688
 30
0.0
 10
-91.14703269389886
 20
45.94170943448167
 30
0.0
 10
-88.20088936762247
 20
43.65068102837408
 30
0.0
 10
-85.3502133982582
 20
41.49167668680703
 30
0.0
 10
-82.40535479801228
 20
39.31636456449154
 30
0.0
 10
-79.20547915292988
 20
37.02437366910079
 30
0.0
 10
-76.12569758704859
 20
34.88608679542592
 30
0.0
 10
-73.30685609142914
 20
32.98038518999212
 30
0.0
 10
-70.13326228868524
 20
30.88859211250571
 30
0.0
 10
-66.83395574208365
 20
28.7836695213697
 30
0.0
 10
-63.69284612539691
 20
26.84587062944477
 30
0.0
 10
-61.24299350524937
 20
25.37150485873552
 30
0.0
 10
-59.07404565663235
 20
24.09294460026455
 30
0.0
 10
-56.81002764966417
 20
22.78481828285055
 30
0.0
 10
-54.25639474983757
 20
21.34184577619795
 30
0.0
 10
-51.33611821132841
 20
19.7346733901791
 30
0.0
 10
-47.81765871497748
 20
17.8547676016069
 30
0.0
 10
-44.09228043972002
 20
15.93561467577091
 30
0.0
 10
-40.28558502858245
 20
14.04864918131799
 30
0.0
 10
-36.76148490435091
 20
12.36067903676286
 30
0.0
 10
-33.21022897782574
 20
10.71732768462163
 30
0.0
 10
-29.55580943873937
 20
9.085786610469237
 30
0.0
 10
-25.80030234282113
 20
7.470786009191523
 30
0.0
 10
-21.47904702113943
 20
5.683400409372583
 30
0.0
 10
-16.5196908167802
 20
3.727874592336117
 30
0.0
 10
-10.75125060247978
 20
1.582766508484601
 30
0.0
 10
-4.612515663590888
 20
-0.5563334314590967
 30
0.0
 10
1.636381514625668
 20
-2.582306777333371
 30
0.0
 10
7.856007962450562
 20
-4.456345902880125
 30
0.0
 10
14.07855861847917
 20
-6.195771975920452
 30
0.0
 10
20.17472669268847
 20
-7.766058472596211
 30
0.0
 10
25.82795349924324
 20
-9.107372763267312
 30
0.0
 10
30.2218047424725
 20
-10.07220111522467
 30
0.0
 10
33.77943936482009
 20
-10.80998205926644
 30
0.0
 10
36.94525664833295
 20
-11.43690062413762
 30
0.0
 10
40.36033860040407
 20
-12.07490346085883
 30
0.0
 10
43.28173568564971
 20
-12.58791216890432
 30
0.0
 10
45.54338001748953
 20
-12.96701827796312
 30
0.0
 10
47.61418950696206
 20
-13.30263464380289
 30
0.0
 10
50.28082467141823
 20
-13.71512072098214
 30
0.0
 10
53.70870808281074
 20
-14.21453534464299
 30
0.0
 10
56.22548477619218
 20
-14.54143889975892
 30
0.0
 10
57.56919233586284
 20
-14.71597277058174
 30
0.0
  0
LWPOLYLINE
  5
135
330
12E
100
AcDbEntity
  8
0
  6
Continuous
 62
     7
370
    25
100
AcDbPolyline
 90
        4
 70
   128
 43
0.0
 10
125.6626121544
 20
161.6680670015
 10
188.7007764017
 20
153.7251460766
 10
250.6718711177
 20
145.9175293005
 10
312.6438034602
 20
138.1106512018
  0
SPLINE
  5
136
330
12E
100
AcDbEntity
  8
0
  6
Continuous
 62
     7
370
    25
100
AcDbSpline
210
0.0
220
0.0
230
1.0
 70
     8
 71
     3
 72
    25
 73
    21
 74
     0
 42
0.000000001
 43
0.00000001
 40
0.0
 40
0.0
 40
0.0
 40
0.0
 40
0.0714285714285714
 40
0.1428571428571429
 40
0.2142857142857144
 40
0.2857142857142858
 40
0.3333333333333334
 40
0.380952380952381
 40
0.4285714285714286
 40
0.4761904761904763
 40
0.5238095238095238
 40
0.5714285714285714
 40
0.6190476190476191
 40
0.6666666666666667
 40
0.7142857142857143
 40
0.7619047619047619
 40
0.8095238095238095
 40
0.8571428571428572
 40
0.9285714285714286
 40
1.0
 40
1.0
 40
1.0
 40
1.0
 10
-5.066456497052646
 20
46.37586540581552
 30
0.0
 10
-9.518519881938165
 20
46.93668236827598
 30
0.0
 10
-21.95758139698503
 20
48.62024976741863
 30
0.0
 10
-48.09969133115172
 20
53.66065880834676
 30
0.0
 10
-77.33906737693493
 20
62.08198673254585
 30
0.0
 10
-101.0999355581252
 20
72.96799151638132
 30
0.0
 10
-116.3891278705711
 20
84.73870781501664
 30
0.0
 10
-124.1562376485279
 20
96.01754638750398
 30
0.0
 10
-125.3934034232355
 20
108.0022199281076
 30
0.0
 10
-119.4670431230836
 20
120.0824822874649
 30
0.0
 10
-106.3920945226486
 20
131.6105532615375
 30
0.0
 10
-86.86988325790335
 20
141.9788007066373
 30
0.0
 10
-62.16087883161556
 20
150.6924824633369
 30
0.0
 10
-33.95242143356864
 20
157.4411441139886
 30
0.0
 10
-4.111095872828708
 20
162.114264106334
 30
0.0
 10
25.52947322616508
 20
164.8136943720957
 30
0.0
 10
53.35058962680139
 20
165.8152127935475
 30
0.0
 10
82.21871174855791
 20
165.4724389763767
 30
0.0
 10
108.5440672624111
 20
163.7090429394085
 30
0.0
 10
121.2107282477438
 20
162.2290419818272
 30
0.0
 10
125.66261215438
 20
161.6680670015367
 30
0.0
  0
LWPOLYLINE
  5
137
330
12E
100
AcDbEntity
  8
0
  6
Continuous
 62
     7
370
    25
100
AcDbPolyline
 90
        4
 70
   128
 43
0.0
 10
181.9147348088
 20
22.8184496061
 10
118.8765705615
 20
30.7613705311
 10
56.9054758455
 20
38.5689873071
 10
-5.0664564971
 20
46.3758654058
  0
SPLINE
  5
138
330
12E
100
AcDbEntity
  8
0
  6
Continuous
 62
     7
370
    25
100
AcDbSpline
210
0.0
220
0.0
230
1.0
 70
     8
 71
     3
 72
    25
 73
    21
 74
     0
 42
0.000000001
 43
0.00000001
 40
0.0
 40
0.0
 40
0.0
 40
0.0
 40
0.0714285714285714
 40
0.1428571428571429
 40
0.2142857142857144
 40
0.2857142857142858
 40
0.3333333333333334
 40
0.380952380952381
 40
0.4285714285714286
 40
0.4761904761904763
 40
0.5238095238095238
 40
0.5714285714285714
 40
0.6190476190476191
 40
0.6666666666666667
 40
0.7142857142857143
 40
0.7619047619047619
 40
0.8095238095238095
 40
0.8571428571428572
 40
0.9285714285714286
 40
1.0
 40
1.0
 40
1.0
 40
1.0
 10
312.6438034602247
 20
138.1106512018011
 30
0.0
 10
317.0958668488762
 20
137.5498342428543
 30
0.0
 10
329.5350858470637
 20
135.8662617839202
 30
0.0
 10
355.677150225697
 20
130.8257646355667
 30
0.0
 10
384.916367176953
 20
122.4043916006879
 30
0.0
 10
408.6773392267269
 20
111.5186145304658
 30
0.0
 10
423.9661511858389
 20
99.74784803943085
 30
0.0
 10
431.7347018360891
 20
88.46948014436292
 30
0.0
 10
432.970643559768
 20
76.48437242052574
 30
0.0
 10
427.0445855881961
 20
64.40416378938868
 30
0.0
 10
413.9693528134962
 20
52.87602858391799
 30
0.0
 10
394.4472972199442
 20
42.50777335864121
 30
0.0
 10
369.7382430589169
 20
33.79408867660511
 30
0.0
 10
341.5298404131452
 20
27.04539414725676
 30
0.0
 10
311.6884869105405
 20
22.37223973760612
 30
0.0
 10
282.0478997755239
 20
19.67278759504899
 30
0.0
 10
254.2266264482442
 20
18.67122647282842
 30
0.0
 10
225.3585577681827
 20
19.01399300880352
 30
0.0
 10
199.0331204886945
 20
20.77733515026314
 30
0.0
 10
186.3666187154155
 20
22.25747462577791
 30
0.0
 10
181.9147348087919
 20
22.81844960607991
 30
0.0
  0
SPLINE
  5
139
330
12E
100
AcDbEntity
  8
0
  6
Continuous
 62
     7
370
    25
100
AcDbSpline
210
0.0
220
0.0
230
1.0
 70
     8
 71
     3
 72
    27
 73
    23
 74
     0
 42
0.000000001
 43
0.00000001
 40
0.0
 40
0.0
 40
0.0
 40
0.0
 40
0.0714285714285714
 40
0.1428571428571429
 40
0.2142857142857144
 40
0.2500000000000001
 40
0.2857142857142858
 40
0.3333333333333334
 40
0.380952380952381
 40
0.4285714285714286
 40
0.4761904761904763
 40
0.5238095238095238
 40
0.5714285714285714
 40
0.6190476190476191
 40
0.6666666666666667
 40
0.7142857142857143
 40
0.7619047619047619
 40
0.8095238095238095
 40
0.8571428571428572
 40
0.9285714285714286
 40
0.9642857142857143
 40
1.0
 40
1.0
 40
1.0
 40
1.0
 10
130.9579169116047
 20
166.3893277515218
 30
0.0
 10
126.5035628795849
 20
166.9505236093441
 30
0.0
 10
113.3875260841216
 20
168.4981136054543
 30
0.0
 10
81.8886094288702
 20
170.6861088908553
 30
0.0
 10
47.16192012177818
 20
170.8943089363314
 30
0.0
 10
16.12215379214813
 20
169.2213931713085
 30
0.0
 10
-10.78752039016484
 20
166.6213065030103
 30
0.0
 10
-40.65938969758378
 20
162.0247779573216
 30
0.0
 10
-71.5367086827031
 20
154.7229132448565
 30
0.0
 10
-98.61473287334819
 20
145.2450558448198
 30
0.0
 10
-120.0082972362064
 20
133.935075258046
 30
0.0
 10
-134.2852658516786
 20
121.3406609919094
 30
0.0
 10
-140.6875094122922
 20
108.1417214802858
 30
0.0
 10
-139.1837060490695
 20
95.06341208756103
 30
0.0
 10
-130.5169698627608
 20
82.77872301693372
 30
0.0
 10
-116.0264269138809
 20
71.83389530070923
 30
0.0
 10
-97.48981190506625
 20
62.58610011242941
 30
0.0
 10
-76.88264614481874
 20
55.18990702060353
 30
0.0
 10
-52.68632327042069
 20
48.67781828036323
 30
0.0
 10
-32.48782524645325
 20
44.84136033893141
 30
0.0
 10
-18.14192844707071
 20
42.66377224991946
 30
0.0
 10
-12.6906163092742
 20
41.94801281355529
 30
0.0
 10
-10.46343929326429
 20
41.66741488464414
 30
0.0
  0
SPLINE
  5
13B
330
12E
100
AcDbEntity
  8
0
  6
Continuous
 62
     7
370
    25
100
AcDbSpline
210
0.0
220
0.0
230
1.0
 70
     8
 71
     3
 72
    27
 73
    23
 74
     0
 42
0.000000001
 43
0.00000001
 40
0.0
 40
0.0
 40
0.0
 40
0.0
 40
0.0714285714285714
 40
0.1428571428571429
 40
0.2142857142857144
 40
0.2500000000000001
 40
0.2857142857142858
 40
0.3333333333333334
 40
0.380952380952381
 40
0.4285714285714286
 40
0.4761904761904763
 40
0.5238095238095238
 40
0.5714285714285714
 40
0.6190476190476191
 40
0.6666666666666667
 40
0.7142857142857143
 40
0.7619047619047619
 40
0.8095238095238095
 40
0.8571428571428572
 40
0.9285714285714286
 40
0.9642857142857143
 40
1.0
 40
1.0
 40
1.0
 40
1.0
 10
176.6194300515671
 20
18.09718885610726
 30
0.0
 10
181.073784083587
 20
17.53599299828494
 30
0.0
 10
194.189822013079
 20
15.98828219050534
 30
0.0
 10
225.6888988602583
 20
13.80037953586566
 30
0.0
 10
260.4154881267621
 20
13.59217848725944
 30
0.0
 10
291.4551274291029
 20
15.26507534366221
 30
0.0
 10
318.3647651139814
 20
17.86517468082201
 30
0.0
 10
348.2365959562911
 20
22.46171278899306
 30
0.0
 10
379.1139359978629
 20
29.76359039189709
 30
0.0
 10
406.1920261419912
 20
39.24142266494102
 30
0.0
 10
427.5856462605096
 20
50.55140575411152
 30
0.0
 10
441.8624974231982
 20
63.14583476438708
 30
0.0
 10
448.264868865825
 20
76.34476346050167
 30
0.0
 10
446.7609714078651
 20
89.42306128798278
 30
0.0
 10
438.0943866608284
 20
101.7077580823149
 30
0.0
 10
423.6037159934869
 20
112.6526431581578
 30
0.0
 10
405.0673567151697
 20
121.9003728267108
 30
0.0
 10
384.4596132633836
 20
129.2967954724301
 30
0.0
 10
360.2644524530102
 20
135.8085394808382
 30
0.0
 10
340.0654427279148
 20
139.6451335042925
 30
0.0
 10
325.7194011773519
 20
141.822737225363
 30
0.0
 10
320.2679632724461
 20
142.5385037940737
 30
0.0
 10
318.0407862564361
 20
142.8191017229848
 30
0.0
  0
SPLINE
  5
13D
330
12E
100
AcDbEntity
  8
0
  6
Continuous
 62
    60
370
    25
100
AcDbSpline
210
0.0
220
0.0
230
1.0
 70
     8
 71
     3
 72
    16
 73
    12
 74
     0
 42
0.000000001
 43
0.00000001
 40
0.0
 40
0.0
 40
0.0
 40
0.0
 40
0.1215765318945195
 40
0.2398428767397748
 40
0.3554683990811198
 40
0.4691691131881773
 40
0.5816977817055601
 40
0.6938307740237409
 40
0.8063526499957385
 40
0.9200399186601756
 40
1.0
 40
1.0
 40
1.0
 40
1.0
 10
176.6194300515668
 20
18.09718885610249
 30
0.0
 10
176.3297625488712
 20
14.60319685345253
 30
0.0
 10
175.7583143749355
 20
7.710344424100485
 30
0.0
 10
175.188227229993
 20
-1.319609941574929
 30
0.0
 10
174.8492300244117
 20
-9.167303601015517
 30
0.0
 10
174.7593686712519
 20
-15.75731047663091
 30
0.0
 10
174.9149061478071
 20
-21.10324181161111
 30
0.0
 10
175.3144846068195
 20
-25.21377308886869
 30
0.0
 10
175.9676855510108
 20
-28.03348600402149
 30
0.0
 10
176.7461362762917
 20
-29.59276774029518
 30
0.0
 10
177.4006540690972
 20
-29.67717691538489
 30
0.0
 10
177.6709149115509
 20
-29.71203081091122
 30
0.0
  0
SPLINE
  5
13E
330
12E
100
AcDbEntity
  8
0
  6
Continuous
 62
    60
370
    25
100
AcDbSpline
210
0.0
220
0.0
230
1.0
 70
     8
 71
     3
 72
    22
 73
    18
 74
     0
 42
0.000000001
 43
0.00000001
 40
0.0
 40
0.0
 40
0.0
 40
0.0
 40
0.061752007250654
 40
0.1307747444924626
 40
0.1983080422365847
 40
0.26462503232857
 40
0.3300140900396615
 40
0.3947759876697366
 40
0.4592202793003533
 40
0.5236610962234441
 40
0.5884126203018667
 40
0.6537845537141617
 40
0.7200779041232662
 40
0.7875813541216691
 40
0.8565683966566932
 40
0.9272953161187437
 40
1.0
 40
1.0
 40
1.0
 40
1.0
 10
196.1575172141009
 20
21.26600022757949
 30
0.0
 10
199.1240566894828
 20
22.21120519858232
 30
0.0
 10
205.4064183355615
 20
24.21290431864763
 30
0.0
 10
214.8437881030416
 20
28.11400491163202
 30
0.0
 10
224.3832588045479
 20
32.76179676683216
 30
0.0
 10
233.5891554646062
 20
38.06206123083783
 30
0.0
 10
242.4625412783411
 20
43.99349026690008
 30
0.0
 10
251.0023769218234
 20
50.56170487745059
 30
0.0
 10
259.2081199500229
 20
57.76500859941228
 30
0.0
 10
267.079139378429
 20
65.60334665521522
 30
0.0
 10
274.6148716446458
 20
74.07602136650424
 30
0.0
 10
281.8151260972686
 20
83.1822238457384
 30
0.0
 10
288.6789654343341
 20
92.92154474835796
 30
0.0
 10
295.2091192234673
 20
103.2917919697646
 30
0.0
 10
301.3950056352301
 20
114.2978712434651
 30
0.0
 10
307.2781582267996
 20
125.9177231820325
 30
0.0
 10
310.8388888596984
 20
134.0091512239508
 30
0.0
 10
312.6438034602247
 20
138.1106512018011
 30
0.0
  0
SPLINE
  5
13F
330
12E
100
AcDbEntity
  8
0
  6
Continuous
 62
    60
370
    25
100
AcDbSpline
210
0.0
220
0.0
230
1.0
 70
     8
 71
     3
 72
    16
 73
    12
 74
     0
 42
0.000000001
 43
0.00000001
 40
0.0
 40
0.0
 40
0.0
 40
0.0
 40
0.1217430722690638
 40
0.240164048756484
 40
0.3559320089275486
 40
0.4697628238913177
 40
0.5824093026275564
 40
0.6946480874180354
 40
0.8072642556800769
 40
0.9210350726764267
 40
1.0
 40
1.0
 40
1.0
 40
1.0
 10
-10.46343929326135
 20
41.66741488463877
 30
0.0
 10
-8.2570123975938
 20
37.85898477692477
 30
0.0
 10
-3.904367054640867
 20
30.34604808962629
 30
0.0
 10
3.149490853615294
 20
20.35554742014986
 30
0.0
 10
10.46408778611083
 20
11.54360141435133
 30
0.0
 10
18.0810820534123
 20
3.982578844280625
 30
0.0
 10
25.98933493034264
 20
-2.34010327595642
 30
0.0
 10
34.18945821231581
 20
-7.43364622051828
 30
0.0
 10
42.68434949297525
 20
-11.24075059422822
 30
0.0
 10
50.51328542804964
 20
-13.68554472945965
 30
0.0
 10
55.54707959674371
 20
-14.32261120496297
 30
0.0
 10
57.60945361094291
 20
-14.58362095235522
 30
0.0
  0
SPLINE
  5
140
330
12E
100
AcDbEntity
  8
0
  6
Continuous
 62
    60
370
    25
100
AcDbSpline
210
0.0
220
0.0
230
1.0
 70
     8
 71
     3
 72
    22
 73
    18
 74
     0
 42
0.000000001
 43
0.00000001
 40
0.0
 40
0.0
 40
0.0
 40
0.0
 40
0.0651665623119485
 40
0.1339381059049407
 40
0.2012256305001723
 40
0.2673012739376286
 40
0.3324523620077658
 40
0.396978572413311
 40
0.4611883326792356
 40
0.5253946308830977
 40
0.5899105054893369
 40
0.6550445315809399
 40
0.7210966213671401
 40
0.788354406841208
 40
0.8570903856307494
 40
0.9275599094333526
 40
0.9999999999999999
 40
0.9999999999999999
 40
0.9999999999999999
 40
0.9999999999999999
 10
145.5155592427419
 20
27.40481053057073
 30
0.0
 10
144.8484063252477
 20
28.88458099364583
 30
0.0
 10
143.4771939281541
 20
31.92598207369045
 30
0.0
 10
141.4932245073386
 20
37.35410775412834
 30
0.0
 10
139.5687609320287
 20
43.44773130735401
 30
0.0
 10
137.7624165841714
 20
50.1350137630968
 30
0.0
 10
136.0728220996864
 20
57.39735651947488
 30
0.0
 10
134.5005154765755
 20
65.2395540407294
 30
0.0
 10
133.0455310217212
 20
73.66000226594826
 30
0.0
 10
131.7080080131128
 20
82.6585056774496
 30
0.0
 10
130.4880347011263
 20
92.2342961263449
 30
0.0
 10
129.3856044815801
 20
102.3865384084896
 30
0.0
 10
128.4009094908163
 20
113.1146817298487
 30
0.0
 10
127.5331786744318
 20
124.4169747922002
 30
0.0
 10
126.7851763867054
 20
136.2966419311537
 30
0.0
 10
126.1458771392752
 20
148.7382455591889
 30
0.0
 10
125.825174528375
 20
157.3186882244777
 30
0.0
 10
125.66261215438
 20
161.6680670015377
 30
0.0
  0
LINE
  5
141
330
12E
100
AcDbEntity
  8
0
  6
Continuous
 62
     7
370
    25
100
AcDbLine
 10
318.0407862564
 20
142.819101723
 30
0.0
 11
130.9579169116
 21
166.3893277515
 31
0.0
  0
LINE
  5
142
330
12E
100
AcDbEntity
  8
0
  6
Continuous
 62
     7
370
    25
100
AcDbLine
 10
-10.4634392933
 20
41.6674148846
 30
0.0
 11
176.6194300516
 21
18.0971888561
 31
0.0
  0
VIEWPORT
  5
153
330
12E
100
AcDbEntity
  8
0
100
AcDbViewport
 10
0.0
 20
0.0
 30
0.0
 40
205.6
 41
156.0
 68
     1
 69
     1
 12
161.1991663775
 22
-65.1817957095
 13
0.0
 23
0.0
 14
10.0
 24
10.0
 15
10.0
 25
10.0
 16
0.0
 26
0.0
 36
1.0
 17
0.0
 27
0.0
 37
0.0
 42
50.0
 43
0.0
 44
0.0
 45
464.356133633
 50
0.0
 51
0.0
 72
   100
 90
   557152
  1

281
     0
 71
     1
 74
     0
110
0.0
120
0.0
130
0.0
111
1.0
121
0.0
131
0.0
112
0.0
122
1.0
132
0.0
 79
     0
146
0.0
  0
ENDBLK
  5
131
330
12E
100
AcDbEntity
  8
0
100
AcDbBlockEnd
  0
ENDSEC
  0
SECTION
  2
ENTITIES
  0
SPLINE
  5
73
330
1F
100
AcDbEntity
  8
0
  6
Continuous
 62
     7
370
    25
100
AcDbSpline
210
0.0
220
0.0
230
1.0
 70
     8
 71
     3
 72
    19
 73
    15
 74
     0
 42
0.000000001
 43
0.00000001
 40
0.0
 40
0.0
 40
0.0
 40
0.0
 40
0.0815833080403514
 40
0.1621524521901333
 40
0.2421077406216834
 40
0.3218587263190626
 40
0.401818102224129
 40
0.4823953599709395
 40
0.5639906896406347
 40
0.6469895568648476
 40
0.7317582832176439
 40
0.8186408069871595
 40
0.9079566508198256
 40
1.0
 40
1.0
 40
1.0
 40
1.0
 10
461.1979756878501
 20
-115.1817957095352
 30
0.0
 10
457.1599521133567
 20
-110.4040022747217
 30
0.0
 10
449.134101723938
 20
-100.9078082600128
 30
0.0
 10
435.9421275692264
 20
-87.8241876377006
 30
0.0
 10
422.0231972653283
 20
-75.74560004289584
 30
0.0
 10
407.2908341855716
 20
-64.74403278965261
 30
0.0
 10
391.769416573707
 20
-54.80153174004013
 30
0.0
 10
375.4540938788062
 20
-45.92374392649177
 30
0.0
 10
358.347988714962
 20
-38.10898553016375
 30
0.0
 10
340.4518139800091
 20
-31.35895897547194
 30
0.0
 10
321.7673762570155
 20
-25.66677198262057
 30
0.0
 10
302.2932996162223
 20
-21.05567756103882
 30
0.0
 10
282.0386925948966
 20
-17.43154659536103
 30
0.0
 10
268.2148788884311
 20
-15.93919395715751
 30
0.0
 10
261.1990221742043
 20
-15.18179570953521
 30
0.0
  0
SPLINE
  5
74
330
1F
100
AcDbEntity
  8
0
  6
Continuous
 62
     7
370
    25
100
AcDbSpline
210
0.0
220
0.0
230
1.0
 70
     8
 71
     3
 72
    19
 73
    15
 74
     0
 42
0.000000001
 43
0.00000001
 40
0.0
 40
0.0
 40
0.0
 40
0.0
 40
0.0919079237457837
 40
0.1811156005055675
 40
0.2679171694006046
 40
0.3526318356508369
 40
0.4356028936172622
 40
0.5171956483854787
 40
0.5977941478207272
 40
0.6777967591736275
 40
0.7576107722821697
 40
0.8376463557965939
 40
0.9183102979578597
 40
1.0
 40
1.0
 40
1.0
 40
1.0
 10
61.19933068561376
 20
-15.18179570953521
 30
0.0
 10
54.19475357077644
 20
-15.93925967277018
 30
0.0
 10
40.39139322123405
 20
-17.43193337239692
 30
0.0
 10
20.16454019141029
 20
-21.05625411547144
 30
0.0
 10
0.7120908016943206
 20
-25.66752633091895
 30
0.0
 10
-17.95682029165566
 20
-31.35990180562737
 30
0.0
 10
-35.84357152671782
 20
-38.11009217204045
 30
0.0
 10
-52.94635815623241
 20
-45.92497888614021
 30
0.0
 10
-69.26447464932575
 20
-54.80284020751115
 30
0.0
 10
-84.7948247994437
 20
-64.74534275744433
 30
0.0
 10
-99.54224605928164
 20
-75.7468442143119
 30
0.0
 10
-113.4825054727804
 20
-87.82525870906433
 30
0.0
 10
-126.701666231853
 20
-100.9087422974374
 30
0.0
 10
-134.7500340120938
 20
-110.4041138001392
 30
0.0
 10
-138.7996429329119
 20
-115.1817957095352
 30
0.0
  0
SPLINE
  5
76
330
1F
100
AcDbEntity
  8
0
  6
Continuous
 62
     7
370
    25
100
AcDbSpline
210
0.0
220
0.0
230
1.0
 70
     8
 71
     3
 72
     8
 73
     4
 74
     0
 42
0.000000001
 43
0.00000001
 40
0.0
 40
0.0
 40
0.0
 40
0.0
 40
1.0
 40
1.0
 40
1.0
 40
1.0
 10
261.1991770534115
 20
-115.1817957095353
 30
0.0
 10
245.1901409001942
 20
-56.47654704136817
 30
0.0
 10
228.5234742335274
 20
-23.14321370803481
 30
0.0
 10
211.1991770534111
 20
-15.18179570953521
 30
0.0
  0
SPLINE
  5
77
330
1F
100
AcDbEntity
  8
0
  6
Continuous
 62
     7
370
    25
100
AcDbSpline
210
0.0
220
0.0
230
1.0
 70
     8
 71
     3
 72
    10
 73
     6
 74
     0
 42
0.000000001
 43
0.00000001
 40
0.0
 40
0.0
 40
0.0
 40
0.0
 40
0.331358037924555
 40
0.331358037924555
 40
1.0
 40
1.0
 40
1.0
 40
1.0
 10
61.19917705341096
 20
-115.1817957095352
 30
0.0
 10
66.55286690577843
 20
-95.7293396949783
 30
0.0
 10
71.96253774796232
 20
-79.06267302831161
 30
0.0
 10
88.45723896672307
 20
-37.17180052762141
 30
0.0
 10
99.71423479120585
 20
-20.50513386095475
 30
0.0
 10
111.199177053411
 20
-15.18179570953521
 30
0.0
  0
SPLINE
  5
79
330
1F
100
AcDbEntity
  8
0
  6
Continuous
 62
     7
370
    25
100
AcDbSpline
210
0.0
220
0.0
230
1.0
 70
    24
 71
     3
 72
    22
 73
    18
 74
     0
 42
0.000000001
 43
0.00000001
 40
0.0
 40
0.0
 40
0.0
 40
0.0
 40
0.0191688319336415
 40
0.0738522680153394
 40
0.1796557659822905
 40
0.2339420596766055
 40
0.2886268969003263
 40
0.3944311878573973
 40
0.4487177854538015
 40
0.5034032651651896
 40
0.6091988555569757
 40
0.6634801799630783
 40
0.7181602980173574
 40
0.8239743191913992
 40
0.8782656501640204
 40
0.9329558070908395
 40
1.0
 40
1.0
 40
1.0
 40
1.0
 10
261.1576395269139
 20
-15.18179570953521
 30
0.0
 10
261.168675226257
 20
-15.18179570953521
 30
0.0
 10
261.211192758282
 20
-15.18179570953521
 30
0.0
 10
260.7957102412598
 20
-15.18179570953521
 30
0.0
 10
259.7152433047725
 20
-15.18179570953522
 30
0.0
 10
257.9126847948731
 20
-15.18179570953521
 30
0.0
 10
255.6707847105061
 20
-15.18179570953521
 30
0.0
 10
252.7827387541066
 20
-15.18179570953521
 30
0.0
 10
249.3234738043033
 20
-15.18179570953522
 30
0.0
 10
245.4992336233323
 20
-15.18179570953521
 30
0.0
 10
241.1672145191452
 20
-15.18179570953521
 30
0.0
 10
236.4355306996574
 20
-15.18179570953521
 30
0.0
 10
231.4615584709376
 20
-15.18179570953521
 30
0.0
 10
226.1726186689755
 20
-15.18179570953521
 30
0.0
 10
220.7008576853198
 20
-15.18179570953521
 30
0.0
 10
216.1404533144097
 20
-15.1817957095352
 30
0.0
 10
212.9540580586485
 20
-15.18179570953521
 30
0.0
 10
211.199177053411
 20
-15.18179570953521
 30
0.0
  0
SPLINE
  5
7A
330
1F
100
AcDbEntity
  8
0
  6
Continuous
 62
     7
370
    25
100
AcDbSpline
210
0.0
220
0.0
230
1.0
 70
    24
 71
     3
 72
    31
 73
    27
 74
     0
 42
0.000000001
 43
0.00000001
 40
0.0
 40
0.0
 40
0.0
 40
0.0
 40
0.03461774030094
 40
0.0709534455577175
 40
0.1072594321381161
 40
0.1601481299089476
 40
0.2130360292309684
 40
0.2493144160756411
 40
0.2856221583482709
 40
0.3219002689727068
 40
0.3748196049199244
 40
0.427738934511426
 40
0.4640395501329979
 40
0.5003699529866307
 40
0.5366709316683373
 40
0.5896095416621712
 40
0.642548641848577
 40
0.6788637684256951
 40
0.7152085925757399
 40
0.7515237911044031
 40
0.8044302034603378
 40
0.8573367874853475
 40
0.8936284205209586
 40
0.9299497332502156
 40
0.9662415213769021
 40
1.0
 40
1.0
 40
1.0
 40
1.0
 10
461.1835352687215
 20
-115.1817957095353
 30
0.0
 10
461.1321895965164
 20
-115.1817957095353
 30
0.0
 10
461.0269501347331
 20
-115.1817957095353
 30
0.0
 10
460.0571078083633
 20
-115.1817957095352
 30
0.0
 10
458.2370162163181
 20
-115.1817957095352
 30
0.0
 10
455.1269221779721
 20
-115.1817957095352
 30
0.0
 10
450.8304271948303
 20
-115.1817957095352
 30
0.0
 10
446.1578311032792
 20
-115.1817957095352
 30
0.0
 10
441.5070695886185
 20
-115.1817957095352
 30
0.0
 10
435.4715294398286
 20
-115.1817957095352
 30
0.0
 10
427.7173815778112
 20
-115.1817957095352
 30
0.0
 10
418.9394854256361
 20
-115.1817957095353
 30
0.0
 10
410.4614706857204
 20
-115.1817957095352
 30
0.0
 10
402.6200311617274
 20
-115.1817957095352
 30
0.0
 10
393.0541650638083
 20
-115.1817957095352
 30
0.0
 10
381.5211694725105
 20
-115.1817957095352
 30
0.0
 10
369.2463385956567
 20
-115.1817957095352
 30
0.0
 10
357.9136083161595
 20
-115.1817957095352
 30
0.0
 10
347.7658756755474
 20
-115.1817957095352
 30
0.0
 10
335.750131316023
 20
-115.1817957095352
 30
0.0
 10
321.7467900947379
 20
-115.1817957095352
 30
0.0
 10
307.3738184992082
 20
-115.1817957095351
 30
0.0
 10
294.4753247656428
 20
-115.1817957095352
 30
0.0
 10
283.1757715567322
 20
-115.1817957095351
 30
0.0
 10
272.0694457045592
 20
-115.1817957095352
 30
0.0
 10
264.7341752904957
 20
-115.1817957095352
 30
0.0
 10
261.1991770534109
 20
-115.1817957095352
 30
0.0
  0
SPLINE
  5
7B
330
1F
100
AcDbEntity
  8
0
  6
Continuous
 62
     7
370
    25
100
AcDbSpline
210
0.0
220
0.0
230
1.0
 70
    24
 71
     3
 72
    22
 73
    18
 74
     0
 42
0.000000001
 43
0.00000001
 40
0.0
 40
0.0
 40
0.0
 40
0.0
 40
0.0190463247407379
 40
0.0737280826479254
 40
0.1795458773196979
 40
0.2338394370737102
 40
0.2885315826124443
 40
0.3943422141809515
 40
0.4486317485894371
 40
0.5033200064460539
 40
0.609129829386189
 40
0.663419721749728
 40
0.7181101724868755
 40
0.823941239278899
 40
0.8782436401628456
 40
0.9329444824475195
 40
1.0
 40
1.0
 40
1.0
 40
1.0
 10
61.24058293032638
 20
-15.18179570953521
 30
0.0
 10
61.22954731547786
 20
-15.1817957095352
 30
0.0
 10
61.18682858970284
 20
-15.1817957095352
 30
0.0
 10
61.60152298843594
 20
-15.18179570953521
 30
0.0
 10
62.68161425050376
 20
-15.18179570953519
 30
0.0
 10
64.48362171906578
 20
-15.18179570953519
 30
0.0
 10
66.72499567265815
 20
-15.18179570953521
 30
0.0
 10
69.61285581920346
 20
-15.18179570953518
 30
0.0
 10
73.07163710876776
 20
-15.18179570953519
 30
0.0
 10
76.89549029502818
 20
-15.18179570953519
 30
0.0
 10
81.22760060678296
 20
-15.18179570953519
 30
0.0
 10
85.95956322407348
 20
-15.18179570953521
 30
0.0
 10
90.93470368435456
 20
-15.18179570953519
 30
0.0
 10
96.22342827801215
 20
-15.18179570953521
 30
0.0
 10
101.6962334605145
 20
-15.1817957095352
 30
0.0
 10
106.2572062084873
 20
-15.18179570953521
 30
0.0
 10
109.4440628237497
 20
-15.18179570953521
 30
0.0
 10
111.1991770534111
 20
-15.18179570953521
 30
0.0
  0
SPLINE
  5
7C
330
1F
100
AcDbEntity
  8
0
  6
Continuous
 62
     7
370
    25
100
AcDbSpline
210
0.0
220
0.0
230
1.0
 70
    24
 71
     3
 72
    31
 73
    27
 74
     0
 42
0.000000001
 43
0.00000001
 40
0.0
 40
0.0
 40
0.0
 40
0.0
 40
0.0405250809217686
 40
0.0810913433259037
 40
0.1216165505924566
 40
0.1637223571343439
 40
0.2058749578846837
 40
0.24798194761361
 40
0.3009300252543684
 40
0.353878242599569
 40
0.3902012508340137
 40
0.4265537907191447
 40
0.4628765132020395
 40
0.515747403011327
 40
0.5686178735386107
 40
0.6048823862783325
 40
0.6411763596649428
 40
0.6774408979085198
 40
0.7303943211329171
 40
0.7833482627670101
 40
0.8196742143531719
 40
0.8560300801735984
 40
0.8923565263420911
 40
0.9452863448923576
 40
0.9982164846967309
 40
0.9999999999999999
 40
0.9999999999999999
 40
0.9999999999999999
 40
0.9999999999999999
 10
61.19917705341099
 20
-115.1817957095352
 30
0.0
 10
56.95573601880005
 20
-115.1817957095352
 30
0.0
 10
48.46454177577958
 20
-115.1817957095352
 30
0.0
 10
35.78160442019113
 20
-115.1817957095352
 30
0.0
 10
23.03716952747292
 20
-115.1817957095351
 30
0.0
 10
10.29111130677154
 20
-115.1817957095352
 30
0.0
 10
-2.393191552596402
 20
-115.1817957095351
 30
0.0
 10
-15.86590461958848
 20
-115.1817957095352
 30
0.0
 10
-29.95960505438819
 20
-115.1817957095351
 30
0.0
 10
-42.9401414207824
 20
-115.1817957095352
 30
0.0
 10
-53.91408137652612
 20
-115.1817957095352
 30
0.0
 10
-63.06303469704194
 20
-115.1817957095351
 30
0.0
 10
-73.13451895200897
 20
-115.1817957095352
 30
0.0
 10
-83.83730202017786
 20
-115.1817957095352
 30
0.0
 10
-93.64591527882105
 20
-115.1817957095351
 30
0.0
 10
-101.5855782081678
 20
-115.1817957095352
 30
0.0
 10
-107.9483039832883
 20
-115.1817957095352
 30
0.0
 10
-114.6562846763074
 20
-115.1817957095351
 30
0.0
 10
-121.3369491919333
 20
-115.1817957095352
 30
0.0
 10
-126.8970253802548
 20
-115.1817957095352
 30
0.0
 10
-130.934478501866
 20
-115.1817957095352
 30
0.0
 10
-133.8070039997956
 20
-115.1817957095352
 30
0.0
 10
-136.4087829421635
 20
-115.1817957095351
 30
0.0
 10
-138.2205925257282
 20
-115.1817957095354
 30
0.0
 10
-138.9426286023443
 20
-115.1817957095349
 30
0.0
 10
-138.7894264916233
 20
-115.1817957095352
 30
0.0
 10
-138.7844325224135
 20
-115.1817957095352
 30
0.0
  0
LINE
  5
7D
330
1F
100
AcDbEntity
  8
0
  6
Continuous
 62
     7
370
    25
100
AcDbLine
 10
211.1991770534
 20
-15.1817957095
 30
0.0
 11
111.1991770534
 21
-15.1817957095
 31
0.0
  0
LINE
  5
7E
330
1F
100
AcDbEntity
  8
0
  6
Continuous
 62
     7
370
    25
100
AcDbLine
 10
261.1991770534
 20
-115.1817957095
 30
0.0
 11
61.1991770534
 21
-115.1817957095
 31
0.0
  0
LWPOLYLINE
  5
7F
330
1B
100
AcDbEntity
 67
     1
  8
0
  6
Continuous
 62
     7
370
    25
100
AcDbPolyline
 90
        4
 70
   128
 43
0.0
 10
61.2535262514
 20
193.3659434361
 10
128.6450693522
 20
193.3635335677
 10
194.8949485827
 20
193.363553975
 10
261.1448278555
 20
193.3659434361
  0
SPLINE
  5
80
330
1B
100
AcDbEntity
 67
     1
  8
0
  6
Continuous
 62
     7
370
    25
100
AcDbSpline
210
0.0
220
0.0
230
1.0
 70
     8
 71
     3
 72
    25
 73
    21
 74
     0
 42
0.000000001
 43
0.00000001
 40
0.0
 40
0.0
 40
0.0
 40
0.0
 40
0.0714285714285714
 40
0.1428571428571429
 40
0.2142857142857144
 40
0.2857142857142858
 40
0.3333333333333334
 40
0.380952380952381
 40
0.4285714285714286
 40
0.4761904761904763
 40
0.5238095238095238
 40
0.5714285714285714
 40
0.6190476190476191
 40
0.6666666666666667
 40
0.7142857142857143
 40
0.7619047619047619
 40
0.8095238095238095
 40
0.8571428571428572
 40
0.9285714285714286
 40
1.0
 40
1.0
 40
1.0
 40
1.0
 10
61.25352625135714
 20
-176.3917004152449
 30
0.0
 10
56.49416607286459
 20
-176.3919538216564
 30
0.0
 10
43.0727965851128
 20
-176.0653268974612
 30
0.0
 10
13.27293077981662
 20
-171.1633457057355
 30
0.0
 10
-23.0101681854426
 20
-157.8687333612659
 30
0.0
 10
-56.78277687686651
 20
-135.7206937010477
 30
0.0
 10
-83.56923668714138
 20
-108.0947487825567
 30
0.0
 10
-102.797717463897
 20
-79.18967452623116
 30
0.0
 10
-116.6666459752446
 20
-45.99517196044518
 30
0.0
 10
-123.9360966759568
 20
-9.999735005459844
 30
0.0
 10
-123.9329679121835
 20
26.97352634829886
 30
0.0
 10
-116.6687985316303
 20
62.97149256976441
 30
0.0
 10
-102.797896486985
 20
96.16015365069269
 30
0.0
 10
-83.5693373636204
 20
125.0717341970164
 30
0.0
 10
-60.6119255627095
 20
148.7361464839234
 30
0.0
 10
-35.7488901518574
 20
166.79092758311
 30
0.0
 10
-10.78688942976677
 20
179.4376817148612
 30
0.0
 10
16.58033270171394
 20
188.6821975297097
 30
0.0
 10
43.07581187548812
 20
193.0410983710836
 30
0.0
 10
56.49416635617523
 20
193.3661969212668
 30
0.0
 10
61.25352625135716
 20
193.3659434360993
 30
0.0
  0
LWPOLYLINE
  5
81
330
1B
100
AcDbEntity
 67
     1
  8
0
  6
Continuous
 62
     7
370
    25
100
AcDbPolyline
 90
        4
 70
   128
 43
0.0
 10
261.1448278555
 20
-176.3917004152
 10
193.7532847546
 20
-176.3892905469
 10
127.5034055241
 20
-176.3893109542
 10
61.2535262514
 20
-176.3917004152
  0
SPLINE
  5
82
330
1B
100
AcDbEntity
 67
     1
  8
0
  6
Continuous
 62
     7
370
    25
100
AcDbSpline
210
0.0
220
0.0
230
1.0
 70
     8
 71
     3
 72
    25
 73
    21
 74
     0
 42
0.000000001
 43
0.00000001
 40
0.0
 40
0.0
 40
0.0
 40
0.0
 40
0.0714285714285714
 40
0.1428571428571429
 40
0.2142857142857144
 40
0.2857142857142858
 40
0.3333333333333334
 40
0.380952380952381
 40
0.4285714285714286
 40
0.4761904761904763
 40
0.5238095238095238
 40
0.5714285714285714
 40
0.6190476190476191
 40
0.6666666666666667
 40
0.7142857142857143
 40
0.7619047619047619
 40
0.8095238095238095
 40
0.8571428571428572
 40
0.9285714285714286
 40
1.0
 40
1.0
 40
1.0
 40
1.0
 10
261.1448278554648
 20
193.3659434360992
 30
0.0
 10
265.9041880337533
 20
193.3661968537025
 30
0.0
 10
279.3257102002136
 20
193.0396114092008
 30
0.0
 10
309.1256268442472
 20
188.1373668603124
 30
0.0
 10
345.4086248373045
 20
174.8425716759024
 30
0.0
 10
379.1810891621315
 20
152.6952077585169
 30
0.0
 10
405.9672464215202
 20
125.0689875127429
 30
0.0
 10
425.1965757820983
 20
96.16574351693498
 30
0.0
 10
439.0648198194157
 20
62.96958976007969
 30
0.0
 10
446.3344963352358
 20
26.97441046883321
 30
0.0
 10
446.3311698784637
 20
-9.999131604614059
 30
0.0
 10
439.0671543671019
 20
-45.99706462106902
 30
0.0
 10
425.1962089026555
 20
-79.18575149508823
 30
0.0
 10
405.9677358684787
 20
-108.097404949173
 30
0.0
 10
383.0103344354117
 20
-131.7619236983448
 30
0.0
 10
358.1473053572507
 20
-149.8167725658331
 30
0.0
 10
333.1852031347311
 20
-162.4637020082662
 30
0.0
 10
305.818038716253
 20
-171.7082193614271
 30
0.0
 10
279.3225402225501
 20
-176.0673003552145
 30
0.0
 10
265.9041877506471
 20
-176.3919539004495
 30
0.0
 10
261.1448278554648
 20
-176.3917004152449
 30
0.0
  0
SPLINE
  5
83
330
1B
100
AcDbEntity
 67
     1
  8
0
  6
Continuous
 62
     7
370
    25
100
AcDbSpline
210
0.0
220
0.0
230
1.0
 70
     8
 71
     3
 72
    27
 73
    23
 74
     0
 42
0.000000001
 43
0.00000001
 40
0.0
 40
0.0
 40
0.0
 40
0.0
 40
0.0714285714285714
 40
0.1428571428571429
 40
0.2142857142857144
 40
0.2500000000000001
 40
0.2857142857142858
 40
0.3333333333333334
 40
0.380952380952381
 40
0.4285714285714286
 40
0.4761904761904763
 40
0.5238095238095238
 40
0.5714285714285714
 40
0.6190476190476191
 40
0.6666666666666667
 40
0.7142857142857143
 40
0.7619047619047619
 40
0.8095238095238095
 40
0.8571428571428572
 40
0.9285714285714286
 40
0.9642857142857143
 40
1.0
 40
1.0
 40
1.0
 40
1.0
 10
61.19917705340914
 20
208.4871215104308
 30
0.0
 10
56.43727229150431
 20
208.4871215104308
 30
0.0
 10
42.52687622973317
 20
208.1928158879708
 30
0.0
 10
10.74161822885639
 20
203.1963136500939
 30
0.0
 10
-21.96305465923037
 20
191.5028348330287
 30
0.0
 10
-49.22370228021378
 20
175.8340119829753
 30
0.0
 10
-71.63758920375837
 20
159.0235303197477
 30
0.0
 10
-94.704809560484
 20
135.5632534018115
 30
0.0
 10
-115.8430996472398
 20
104.1556655501852
 30
0.0
 10
-131.1194860979992
 20
67.98496691828392
 30
0.0
 10
-139.1352871784867
 20
28.68264538898373
 30
0.0
 10
-139.1317748500289
 20
-11.70801265905609
 30
0.0
 10
-131.1209358780194
 20
-51.01097972775951
 30
0.0
 10
-115.8426147502136
 20
-87.18021966931651
 30
0.0
 10
-94.7057449622426
 20
-118.5898889193056
 30
0.0
 10
-69.5423403503477
 20
-144.1805549412161
 30
0.0
 10
-42.3941566983313
 20
-163.5784327464563
 30
0.0
 10
-15.2730707655136
 20
-177.0482148157208
 30
0.0
 10
14.26762995109548
 20
-186.7680265341831
 30
0.0
 10
37.2307729242137
 20
-190.392812474175
 30
0.0
 10
52.95981156355689
 20
-191.4316134414218
 30
0.0
 10
58.8182246724567
 20
-191.5128784895763
 30
0.0
 10
61.19917705340913
 20
-191.5128784895763
 30
0.0
  0
SPLINE
  5
85
330
1B
100
AcDbEntity
 67
     1
  8
0
  6
Continuous
 62
     7
370
    25
100
AcDbSpline
210
0.0
220
0.0
230
1.0
 70
     8
 71
     3
 72
    27
 73
    23
 74
     0
 42
0.000000001
 43
0.00000001
 40
0.0
 40
0.0
 40
0.0
 40
0.0
 40
0.0714285714285714
 40
0.1428571428571429
 40
0.2142857142857144
 40
0.2500000000000001
 40
0.2857142857142858
 40
0.3333333333333334
 40
0.380952380952381
 40
0.4285714285714286
 40
0.4761904761904763
 40
0.5238095238095238
 40
0.5714285714285714
 40
0.6190476190476191
 40
0.6666666666666667
 40
0.7142857142857143
 40
0.7619047619047619
 40
0.8095238095238095
 40
0.8571428571428572
 40
0.9285714285714286
 40
0.9642857142857143
 40
1.0
 40
1.0
 40
1.0
 40
1.0
 10
261.1991770534125
 20
-191.5128784895763
 30
0.0
 10
265.9610818153175
 20
-191.5128784895763
 30
0.0
 10
279.8716070780014
 20
-191.218911493083
 30
0.0
 10
311.6569166749464
 20
-186.2220926743775
 30
0.0
 10
344.361497047612
 20
-174.5286520420285
 30
0.0
 10
371.6220459010667
 20
-158.8599271650874
 30
0.0
 10
394.0358852470306
 20
-142.0494228537468
 30
0.0
 10
417.103059480397
 20
-118.5891327006307
 30
0.0
 10
438.2413555912855
 20
-87.18150123071987
 30
0.0
 10
453.5178303870798
 20
-51.01084979318946
 30
0.0
 10
461.5336809680193
 20
-11.70850152895344
 30
0.0
 10
461.5300431340216
 20
28.68215636889372
 30
0.0
 10
453.5193352562617
 20
67.98513829976955
 30
0.0
 10
438.2409383776819
 20
104.154312518929
 30
0.0
 10
417.1042020559526
 20
135.5640569853788
 30
0.0
 10
391.9406171353137
 20
161.1548388170242
 30
0.0
 10
364.7927421914382
 20
180.5526231723715
 30
0.0
 10
337.6708723989952
 20
194.0228451808495
 30
0.0
 10
308.1316243370709
 20
203.7421003496829
 30
0.0
 10
285.1678583745951
 20
207.3670872552345
 30
0.0
 10
269.4386677526192
 20
208.4058809125665
 30
0.0
 10
263.5801294343652
 20
208.4871215104306
 30
0.0
 10
261.1991770534126
 20
208.4871215104306
 30
0.0
  0
SPLINE
  5
87
330
1B
100
AcDbEntity
 67
     1
  8
0
  6
Continuous
 62
     7
370
    25
100
AcDbSpline
210
0.0
220
0.0
230
1.0
 70
     8
 71
     3
 72
     8
 73
     4
 74
     0
 42
0.000000001
 43
0.00000001
 40
0.0
 40
0.0
 40
0.0
 40
0.0
 40
0.9989070005354118
 40
0.9989070005354118
 40
0.9989070005354118
 40
0.9989070005354118
 10
261.1448278554652
 20
-176.3917004152459
 30
0.0
 10
244.5767761403097
 20
-139.461997876034
 30
0.0
 10
217.7461699221338
 20
-89.4859428533341
 30
0.0
 10
180.6530092009379
 20
-26.46353534714632
 30
0.0
  0
SPLINE
  5
88
330
1B
100
AcDbEntity
 67
     1
  8
0
  6
Continuous
 62
     7
370
    25
100
AcDbSpline
210
0.0
220
0.0
230
1.0
 70
     8
 71
     3
 72
    38
 73
    34
 74
     0
 42
0.000000001
 43
0.00000001
 40
0.0
 40
0.0
 40
0.0
 40
0.0
 40
0.0075801354375168
 40
0.0151545785036836
 40
0.0227252897730196
 40
0.0302942327199739
 40
0.0378633721951314
 40
0.0454346728960728
 40
0.0530100978388275
 40
0.0605916068358599
 40
0.0916954605376906
 40
0.1228054034966296
 40
0.1544781606388604
 40
0.1861568517442013
 40
0.2500558791995138
 40
0.3139549066548266
 40
0.3772703951223167
 40
0.4394501372659008
 40
0.5000005018933747
 40
0.5605508665208487
 40
0.6227306086644327
 40
0.6860460971319229
 40
0.7499451245872355
 40
0.813844152042548
 40
0.8455169092681605
 40
0.8771956004752609
 40
0.908299453692112
 40
0.9394093962751519
 40
0.9515345585166676
 40
0.9636481540953633
 40
0.975758227020858
 40
0.9878728283198236
 40
1.0
 40
1.0
 40
1.0
 40
1.0
 10
180.6530092009379
 20
-26.46353534714632
 30
0.0
 10
180.8401596690545
 20
-26.35822763085637
 30
0.0
 10
181.2143200629489
 20
-26.14769128005963
 30
0.0
 10
181.7688729199123
 20
-25.82059639811409
 30
0.0
 10
182.31818607612
 20
-25.48542430741221
 30
0.0
 10
182.8618023346065
 20
-25.1413541139149
 30
0.0
 10
183.399844280916
 20
-24.78860533762005
 30
0.0
 10
183.9322778303475
 20
-24.42712070777586
 30
0.0
 10
184.4591161286531
 20
-24.05691028136756
 30
0.0
 10
185.5191582626776
 20
-23.28628228679324
 30
0.0
 10
187.0707728893632
 20
-22.05805986815093
 30
0.0
 10
189.0435956963972
 20
-20.27146646168783
 30
0.0
 10
190.9048558351484
 20
-18.34578088298205
 30
0.0
 10
193.2311735408768
 20
-15.5890400042271
 30
0.0
 10
195.7886766118588
 20
-11.84637738606814
 30
0.0
 10
198.2164257085022
 20
-6.988861212819699
 30
0.0
 10
199.9515318758074
 20
-1.894509864577563
 30
0.0
 10
200.9749166111067
 20
3.291385164116551
 30
0.0
 10
201.3098186221918
 20
8.487121510769692
 30
0.0
 10
200.9749166112148
 20
13.68285785534952
 30
0.0
 10
199.951531875358
 20
18.86875289047069
 30
0.0
 10
198.216425710227
 20
23.96310421452149
 30
0.0
 10
195.7886766053575
 20
28.82062047906156
 30
0.0
 10
193.2312687206418
 20
32.56314355471771
 30
0.0
 10
190.9049686923652
 20
35.31989926853714
 30
0.0
 10
189.0438425839048
 20
37.24547088973253
 30
0.0
 10
187.0708963307079
 20
39.03219667168848
 30
0.0
 10
185.4183095592354
 20
40.34036148986291
 30
0.0
 10
184.1455305360676
 20
41.25632029698501
 30
0.0
 10
183.2944792173974
 20
41.83626718232473
 30
0.0
 10
182.4287722851373
 20
42.39346184084225
 30
0.0
 10
181.549567769989
 20
42.93001194191884
 30
0.0
 10
180.9519653513036
 20
43.26846439201909
 30
0.0
 10
180.6530092009378
 20
43.4377783680007
 30
0.0
  0
SPLINE
  5
89
330
1B
100
AcDbEntity
 67
     1
  8
0
  6
Continuous
 62
     7
370
    25
100
AcDbSpline
210
0.0
220
0.0
230
1.0
 70
     8
 71
     3
 72
    10
 73
     6
 74
     0
 42
0.000000001
 43
0.00000001
 40
0.0
 40
0.0
 40
0.0
 40
0.0
 40
0.3283782138378581
 40
0.3283782138378581
 40
0.998907000535421
 40
0.998907000535421
 40
0.998907000535421
 40
0.998907000535421
 10
261.1448278554475
 20
193.3659434361013
 30
0.0
 10
255.6982875608265
 20
181.2257644696011
 30
0.0
 10
249.1426898363959
 20
167.6756875922567
 30
0.0
 10
225.8272646113799
 20
122.1683338336007
 30
0.0
 10
205.5522561176397
 20
85.74235568824542
 30
0.0
 10
180.6530092009345
 20
43.43777836800227
 30
0.0
  0
SPLINE
  5
8A
330
1B
100
AcDbEntity
 67
     1
  8
0
  6
Continuous
 62
     7
370
    25
100
AcDbSpline
210
0.0
220
0.0
230
1.0
 70
     8
 71
     3
 72
     8
 73
     4
 74
     0
 42
0.000000001
 43
0.00000001
 40
0.0
 40
0.0
 40
0.0
 40
0.0
 40
0.9989070005354108
 40
0.9989070005354108
 40
0.9989070005354108
 40
0.9989070005354108
 10
141.7453449058841
 20
-26.46353534714631
 30
0.0
 10
104.652184184688
 20
-89.48594285333402
 30
0.0
 10
77.8215779665122
 20
-139.4619978760338
 30
0.0
 10
61.25352625135672
 20
-176.3917004152459
 30
0.0
  0
SPLINE
  5
8B
330
1B
100
AcDbEntity
 67
     1
  8
0
  6
Continuous
 62
     7
370
    25
100
AcDbSpline
210
0.0
220
0.0
230
1.0
 70
     8
 71
     3
 72
    29
 73
    25
 74
     0
 42
0.000000001
 43
0.00000001
 40
0.0
 40
0.0
 40
0.0
 40
0.0
 40
0.015197553008129
 40
0.0303846776316569
 40
0.0455649845219417
 40
0.0607420891961817
 40
0.0759196094600265
 40
0.0911011628220169
 40
0.1062903639090886
 40
0.1214908218923528
 40
0.1837129503712709
 40
0.2459479434695243
 40
0.3092063763442778
 40
0.3724773250763621
 40
0.5000017907000774
 40
0.6275262563237948
 40
0.6907846893520453
 40
0.7540556382544793
 40
0.8162777657672365
 40
0.8785127581184361
 40
0.9088965486898525
 40
0.939253057733009
 40
0.9696112286263755
 40
1.0
 40
1.0
 40
1.0
 40
1.0
 10
141.7453449058841
 20
-26.46353534714631
 30
0.0
 10
141.9255959250482
 20
-26.56281903316241
 30
0.0
 10
142.2859742772176
 20
-26.76131827788085
 30
0.0
 10
142.8321317214185
 20
-27.04838855537393
 30
0.0
 10
143.3820823320936
 20
-27.32747220366112
 30
0.0
 10
143.936245771938
 20
-27.59781483362191
 30
0.0
 10
144.4945099629271
 20
-27.85961845069237
 30
0.0
 10
145.0569032204741
 20
-28.11282872667736
 30
0.0
 10
145.6234237633822
 20
-28.35746076079822
 30
0.0
 10
146.7822161010155
 20
-28.83681157896334
 30
0.0
 10
148.557980957629
 20
-29.49109609876619
 30
0.0
 10
150.9954067607064
 20
-30.21746222260972
 30
0.0
 10
153.488131293069
 20
-30.79079876222242
 30
0.0
 10
156.885210954645
 20
-31.34485510263536
 30
0.0
 10
161.1991774062723
 20
-31.62518285194187
 30
0.0
 10
165.5129724798103
 20
-31.34486510957254
 30
0.0
 10
168.9100579596569
 20
-30.79083326267525
 30
0.0
 10
171.402607261913
 20
-30.21754435055243
 30
0.0
 10
173.8402358197948
 20
-29.49117062836572
 30
0.0
 10
175.8089502181246
 20
-28.76568506861948
 30
0.0
 10
177.3430013531391
 20
-28.11750004492482
 30
0.0
 10
178.4637392678439
 20
-27.60184322528275
 30
0.0
 10
179.5693960761803
 20
-27.05414807594977
 30
0.0
 10
180.2916835450532
 20
-26.66047235975081
 30
0.0
 10
180.6530092009379
 20
-26.46353534714632
 30
0.0
  0
SPLINE
  5
8C
330
1B
100
AcDbEntity
 67
     1
  8
0
  6
Continuous
 62
     7
370
    25
100
AcDbSpline
210
0.0
220
0.0
230
1.0
 70
     8
 71
     3
 72
    29
 73
    25
 74
     0
 42
0.000000001
 43
0.00000001
 40
0.0
 40
0.0
 40
0.0
 40
0.0
 40
0.0151975530111678
 40
0.0303846776368659
 40
0.0455649845284517
 40
0.0607420892031253
 40
0.0759196094665371
 40
0.0911011628272309
 40
0.1062903639121427
 40
0.1214908218923884
 40
0.1837129503785915
 40
0.2459479434695329
 40
0.3092063763379965
 40
0.3724773250763408
 40
0.500001790700058
 40
0.6275262563237746
 40
0.6907846893575587
 40
0.7540556382545048
 40
0.8162777657674982
 40
0.8785127581183998
 40
0.9088965486839555
 40
0.9392530577251524
 40
0.9696112286204821
 40
0.9999999999999999
 40
0.9999999999999999
 40
0.9999999999999999
 40
0.9999999999999999
 10
180.6530092009378
 20
43.43777836800071
 30
0.0
 10
180.4727581817379
 20
43.53706205403687
 30
0.0
 10
180.1123798295069
 20
43.73556129878974
 30
0.0
 10
179.566222385229
 20
44.02263157632601
 30
0.0
 10
179.0162717745079
 20
44.30171522463915
 30
0.0
 10
178.4621083346481
 20
44.57205785460876
 30
0.0
 10
177.9038441436744
 20
44.83386147167097
 30
0.0
 10
177.3414508861738
 20
45.08707174763031
 30
0.0
 10
176.774930343343
 20
45.33170378170927
 30
0.0
 10
175.6161380056703
 20
45.81105459985354
 30
0.0
 10
173.8403731490916
 20
46.46533911962778
 30
0.0
 10
171.4029473461042
 20
47.19170524347592
 30
0.0
 10
168.9102228138301
 20
47.76504178302855
 30
0.0
 10
165.5131431522653
 20
48.31909812350193
 30
0.0
 10
161.1991767005471
 20
48.59942587279822
 30
0.0
 10
156.8853816269409
 20
48.3191081303984
 30
0.0
 10
153.4882961470838
 20
47.76507628355687
 30
0.0
 10
150.9957468448319
 20
47.19178737139011
 30
0.0
 10
148.5581182870437
 20
46.46541364915874
 30
0.0
 10
146.5894038887721
 20
45.73992808949162
 30
0.0
 10
145.0553527538422
 20
45.09174306587801
 30
0.0
 10
143.9346148392085
 20
44.57608624627073
 30
0.0
 10
142.8289580308034
 20
44.02839109689657
 30
0.0
 10
142.1066705618383
 20
43.63471538064448
 30
0.0
 10
141.7453449058841
 20
43.43777836800069
 30
0.0
  0
SPLINE
  5
8D
330
1B
100
AcDbEntity
 67
     1
  8
0
  6
Continuous
 62
     7
370
    25
100
AcDbSpline
210
0.0
220
0.0
230
1.0
 70
     8
 71
     3
 72
     8
 73
     4
 74
     0
 42
0.000000001
 43
0.00000001
 40
0.0
 40
0.0
 40
0.0
 40
0.0
 40
0.9989070005354108
 40
0.9989070005354108
 40
0.9989070005354108
 40
0.9989070005354108
 10
61.25352625135673
 20
193.3659434361003
 30
0.0
 10
77.8215779665123
 20
156.4362408968882
 30
0.0
 10
104.6521841846881
 20
106.4601858741884
 30
0.0
 10
141.7453449058841
 20
43.43777836800069
 30
0.0
  0
SPLINE
  5
8E
330
1B
100
AcDbEntity
 67
     1
  8
0
  6
Continuous
 62
     7
370
    25
100
AcDbSpline
210
0.0
220
0.0
230
1.0
 70
     8
 71
     3
 72
    38
 73
    34
 74
     0
 42
0.000000001
 43
0.00000001
 40
0.0
 40
0.0
 40
0.0
 40
0.0
 40
0.0075801354383161
 40
0.0151545785050539
 40
0.0227252897747323
 40
0.0302942327218005
 40
0.0378633721968444
 40
0.0454346728974449
 40
0.0530100978396316
 40
0.0605916068358708
 40
0.0916954605383431
 40
0.1228054034966284
 40
0.1544781606351459
 40
0.1861568517441946
 40
0.2500558791995086
 40
0.3139549066548221
 40
0.3772703951223139
 40
0.4394501372658992
 40
0.500000501893374
 40
0.5605508665208487
 40
0.6227306086644342
 40
0.6860460971319257
 40
0.7499451245872395
 40
0.8138441520425531
 40
0.8455169092735788
 40
0.8771956004752735
 40
0.9082994536948733
 40
0.9394093962751473
 40
0.9515345585162711
 40
0.9636481540947703
 40
0.9757582270202653
 40
0.9878728283194284
 40
0.9999999999999999
 40
0.9999999999999999
 40
0.9999999999999999
 40
0.9999999999999999
 10
141.7453449058841
 20
43.43777836800069
 30
0.0
 10
141.5581944377476
 20
43.33247065169975
 30
0.0
 10
141.1840340438193
 20
43.12193430088421
 30
0.0
 10
140.6294811868134
 20
42.79483941891526
 30
0.0
 10
140.0801680305802
 20
42.45966732819934
 30
0.0
 10
139.5365517720852
 20
42.11559713469741
 30
0.0
 10
138.998509825784
 20
41.76284835840742
 30
0.0
 10
138.4660762763778
 20
41.40136372857744
 30
0.0
 10
137.9392379781144
 20
41.0311533021931
 30
0.0
 10
136.8791958441173
 20
40.26052530761542
 30
0.0
 10
135.3275812174626
 20
39.03230288897296
 30
0.0
 10
133.3547584104826
 20
37.24570948260718
 30
0.0
 10
131.4934982717554
 20
35.32002390390456
 30
0.0
 10
129.167180565998
 20
32.56328302517423
 30
0.0
 10
126.6096774949654
 20
28.82062040692062
 30
0.0
 10
124.1819283983193
 20
23.96310423367458
 30
0.0
 10
122.4468222310147
 20
18.86875288543183
 30
0.0
 10
121.4234374957153
 20
13.68285785673786
 30
0.0
 10
121.0885354846303
 20
8.487121510084698
 30
0.0
 10
121.4234374956073
 20
3.291385165504927
 30
0.0
 10
122.446822231464
 20
-1.894509869616361
 30
0.0
 10
124.1819283965954
 20
-6.988861193666741
 30
0.0
 10
126.6096775014629
 20
-11.84637745820848
 30
0.0
 10
129.1670853862715
 20
-15.58890053398645
 30
0.0
 10
131.4933854145522
 20
-18.34565624780361
 30
0.0
 10
133.3545115230803
 20
-20.27122786904259
 30
0.0
 10
135.3274577761985
 20
-22.05795365085577
 30
0.0
 10
136.9800445476409
 20
-23.36611846904762
 30
0.0
 10
138.2528235707296
 20
-24.28207727611751
 30
0.0
 10
139.1038748893851
 20
-24.86202416144916
 30
0.0
 10
139.9695818216453
 20
-25.41921881996643
 30
0.0
 10
140.8487863368083
 20
-25.955768921051
 30
0.0
 10
141.4463887555085
 20
-26.29422137115929
 30
0.0
 10
141.7453449058841
 20
-26.46353534714631
 30
0.0
  0
CIRCLE
  5
8F
330
1B
100
AcDbEntity
 67
     1
  8
0
  6
Continuous
 62
     7
370
    25
100
AcDbCircle
 10
161.1991770534
 20
8.4871215104
 30
0.0
 40
35.00000000000004
  0
CIRCLE
  5
90
330
1B
100
AcDbEntity
 67
     1
  8
0
  6
Continuous
 62
     7
370
    25
100
AcDbCircle
 10
161.1991770534
 20
8.4871215104
 30
0.0
 40
22.99999999999997
  0
LINE
  5
91
330
1B
100
AcDbEntity
 67
     1
  8
0
  6
Continuous
 62
     7
370
    25
100
AcDbLine
 10
261.1991770534
 20
208.4871215104
 30
0.0
 11
61.1991770534
 21
208.4871215104
 31
0.0
  0
LINE
  5
92
330
1B
100
AcDbEntity
 67
     1
  8
0
  6
Continuous
 62
     7
370
    25
100
AcDbLine
 10
61.1991770534
 20
-191.5128784896
 30
0.0
 11
261.1991770534
 21
-191.5128784896
 31
0.0
  0
VIEWPORT
  5
143
330
1B
100
AcDbEntity
 67
     1
  8
0
100
AcDbViewport
 10
0.0
 20
0.0
 30
0.0
 40
205.6
 41
156.0
 68
     1
 69
     1
 12
161.1991663775
 22
-65.1817957095
 13
0.0
 23
0.0
 14
10.0
 24
10.0
 15
10.0
 25
10.0
 16
0.0
 26
0.0
 36
1.0
 17
0.0
 27
0.0
 37
0.0
 42
50.0
 43
0.0
 44
0.0
 45
464.356133633
 50
0.0
 51
0.0
 72
   100
 90
   557152
  1

281
     0
 71
     1
 74
     0
110
0.0
120
0.0
130
0.0
111
1.0
121
0.0
131
0.0
112
0.0
122
1.0
132
0.0
 79
     0
146
0.0
  0
ENDSEC
  0
SECTION
  2
OBJECTS
  0
DICTIONARY
  5
C
330
0
100
AcDbDictionary
281
     1
  3
ACAD_GROUP
350
D
  3
ACAD_LAYOUT
350
1A
  3
ACAD_MLINESTYLE
350
17
  3
ACAD_PLOTSETTINGS
350
19
  3
ACAD_PLOTSTYLENAME
350
E
  3
ACAD_SCALELIST
350
47
  0
DICTIONARY
  5
D
102
{ACAD_REACTORS
330
C
102
}
330
C
100
AcDbDictionary
281
     1
  0
DICTIONARY
  5
1A
102
{ACAD_REACTORS
330
C
102
}
330
C
100
AcDbDictionary
281
     1
  3
_Dimetrisch
350
12F
  3
_Isometrisch
350
EF
  3
_Links
350
B6
  3
_Normal auf
350
D7
  3
_Oben
350
1E
  3
_Rechts
350
26
  3
_Trimetrisch
350
111
  3
_Unten
350
A1
  3
_Vorderseite
350
C7
  3
Model
350
22
  0
DICTIONARY
  5
17
102
{ACAD_REACTORS
330
C
102
}
330
C
100
AcDbDictionary
281
     1
  3
Standard
350
18
  0
DICTIONARY
  5
19
102
{ACAD_REACTORS
330
C
102
}
330
C
100
AcDbDictionary
281
     1
  0
ACDBDICTIONARYWDFLT
  5
E
102
{ACAD_REACTORS
330
C
102
}
330
C
100
AcDbDictionary
281
     1
  3
Normal
350
F
100
AcDbDictionaryWithDefault
340
F
  0
DICTIONARY
  5
47
102
{ACAD_REACTORS
330
C
102
}
330
C
100
AcDbDictionary
281
     1
  3
A0
350
48
  3
A1
350
49
  3
A2
350
4A
  3
A3
350
4B
  3
A4
350
4C
  3
A5
350
4D
  3
A6
350
4E
  3
A7
350
4F
  3
A8
350
50
  3
A9
350
51
  3
B0
350
52
  3
B1
350
53
  3
B2
350
54
  3
B3
350
55
  3
B4
350
56
  3
B5
350
57
  3
B6
350
58
  3
B7
350
59
  3
B8
350
5A
  3
B9
350
5B
  3
C0
350
5C
  3
C1
350
5D
  3
C2
350
5E
  3
C3
350
5F
  3
C4
350
60
  3
C5
350
61
  3
C6
350
62
  3
C7
350
63
  3
C8
350
64
  3
C9
350
65
  3
D0
350
66
  3
D1
350
67
  3
D2
350
68
  0
LAYOUT
  5
12F
102
{ACAD_REACTORS
330
1A
102
}
330
1A
100
AcDbPlotSettings
  1

  2
none_device
  4
ISO_A4_(210.00_x_297.00_MM)
  6

 40
7.5
 41
20.0
 42
7.5
 43
20.0
 44
210.0
 45
297.0
 46
0.0
 47
0.0
 48
0.0
 49
0.0
140
0.0
141
0.0
142
1.0
143
2.3346210821
 70
   688
 72
     1
 73
     1
 74
     1
  7

 75
     0
147
0.4283350338
148
138.7996426798
149
191.5128784896
100
AcDbLayout
  1
_Dimetrisch
 70
     1
 71
     9
 10
0.0
 20
0.0
 11
0.0
 21
0.0
 12
0.0
 22
0.0
 32
0.0
 14
0.0
 24
0.0
 34
0.0
 15
0.0
 25
0.0
 35
0.0
146
0.0
 13
0.0
 23
0.0
 33
0.0
 16
1.0
 26
0.0
 36
0.0
 17
0.0
 27
1.0
 37
0.0
 76
     0
330
12E
331
153
  0
LAYOUT
  5
EF
102
{ACAD_REACTORS
330
1A
102
}
330
1A
100
AcDbPlotSettings
  1

  2
none_device
  4
ISO_A4_(210.00_x_297.00_MM)
  6

 40
7.5
 41
20.0
 42
7.5
 43
20.0
 44
210.0
 45
297.0
 46
0.0
 47
0.0
 48
0.0
 49
0.0
140
0.0
141
0.0
142
1.0
143
2.3346210821
 70
   688
 72
     1
 73
     1
 74
     1
  7

 75
     0
147
0.4283350338
148
138.7996426798
149
191.5128784896
100
AcDbLayout
  1
_Isometrisch
 70
     1
 71
     7
 10
0.0
 20
0.0
 11
0.0
 21
0.0
 12
0.0
 22
0.0
 32
0.0
 14
0.0
 24
0.0
 34
0.0
 15
0.0
 25
0.0
 35
0.0
146
0.0
 13
0.0
 23
0.0
 33
0.0
 16
1.0
 26
0.0
 36
0.0
 17
0.0
 27
1.0
 37
0.0
 76
     0
330
EE
331
14F
  0
LAYOUT
  5
B6
102
{ACAD_REACTORS
330
1A
102
}
330
1A
100
AcDbPlotSettings
  1

  2
none_device
  4
ISO_A4_(210.00_x_297.00_MM)
  6

 40
7.5
 41
20.0
 42
7.5
 43
20.0
 44
210.0
 45
297.0
 46
0.0
 47
0.0
 48
0.0
 49
0.0
140
0.0
141
0.0
142
1.0
143
2.3346210821
 70
   688
 72
     1
 73
     1
 74
     1
  7

 75
     0
147
0.4283350338
148
138.7996426798
149
191.5128784896
100
AcDbLayout
  1
_Links
 70
     1
 71
     4
 10
0.0
 20
0.0
 11
0.0
 21
0.0
 12
0.0
 22
0.0
 32
0.0
 14
0.0
 24
0.0
 34
0.0
 15
0.0
 25
0.0
 35
0.0
146
0.0
 13
0.0
 23
0.0
 33
0.0
 16
1.0
 26
0.0
 36
0.0
 17
0.0
 27
1.0
 37
0.0
 76
     0
330
B5
331
149
  0
LAYOUT
  5
D7
102
{ACAD_REACTORS
330
1A
102
}
330
1A
100
AcDbPlotSettings
  1

  2
none_device
  4
ISO_A4_(210.00_x_297.00_MM)
  6

 40
7.5
 41
20.0
 42
7.5
 43
20.0
 44
210.0
 45
297.0
 46
0.0
 47
0.0
 48
0.0
 49
0.0
140
0.0
141
0.0
142
1.0
143
2.3346210821
 70
   688
 72
     1
 73
     1
 74
     1
  7

 75
     0
147
0.4283350338
148
138.7996426798
149
191.5128784896
100
AcDbLayout
  1
_Normal auf
 70
     1
 71
     6
 10
0.0
 20
0.0
 11
0.0
 21
0.0
 12
0.0
 22
0.0
 32
0.0
 14
0.0
 24
0.0
 34
0.0
 15
0.0
 25
0.0
 35
0.0
146
0.0
 13
0.0
 23
0.0
 33
0.0
 16
1.0
 26
0.0
 36
0.0
 17
0.0
 27
1.0
 37
0.0
 76
     0
330
D6
331
14D
  0
LAYOUT
  5
1E
102
{ACAD_REACTORS
330
1A
102
}
330
1A
100
AcDbPlotSettings
  1

  2
none_device
  4
ISO_A4_(210.00_x_297.00_MM)
  6

 40
7.5
 41
20.0
 42
7.5
 43
20.0
 44
210.0
 45
297.0
 46
0.0
 47
0.0
 48
0.0
 49
0.0
140
0.0
141
0.0
142
1.0
143
2.3346210821
 70
   688
 72
     1
 73
     1
 74
     1
  7

 75
     0
147
0.4283350338
148
138.7996426798
149
191.5128784896
100
AcDbLayout
  1
_Oben
 70
     1
 71
     1
 10
-185.4920643216
 20
-209.0225366052
 11
507.8903970582
 21
281.247890633
 12
0.0
 22
0.0
 32
0.0
 14
-138.7996426798
 24
-191.5128784896
 34
0.0
 15
461.1979754165
 25
208.4871215104
 35
0.0
146
0.0
 13
0.0
 23
0.0
 33
0.0
 16
1.0
 26
0.0
 36
0.0
 17
0.0
 27
1.0
 37
0.0
 76
     0
330
1B
331
143
  0
LAYOUT
  5
26
102
{ACAD_REACTORS
330
1A
102
}
330
1A
100
AcDbPlotSettings
  1

  2
none_device
  4
ISO_A4_(210.00_x_297.00_MM)
  6

 40
7.5
 41
20.0
 42
7.5
 43
20.0
 44
210.0
 45
297.0
 46
0.0
 47
0.0
 48
0.0
 49
0.0
140
0.0
141
0.0
142
1.0
143
2.3346210821
 70
   688
 72
     1
 73
     1
 74
     1
  7

 75
     0
147
0.4283350338
148
138.7996426798
149
191.5128784896
100
AcDbLayout
  1
_Rechts
 70
     1
 71
     2
 10
0.0
 20
0.0
 11
0.0
 21
0.0
 12
0.0
 22
0.0
 32
0.0
 14
0.0
 24
0.0
 34
0.0
 15
0.0
 25
0.0
 35
0.0
146
0.0
 13
0.0
 23
0.0
 33
0.0
 16
1.0
 26
0.0
 36
0.0
 17
0.0
 27
1.0
 37
0.0
 76
     0
330
23
331
145
  0
LAYOUT
  5
111
102
{ACAD_REACTORS
330
1A
102
}
330
1A
100
AcDbPlotSettings
  1

  2
none_device
  4
ISO_A4_(210.00_x_297.00_MM)
  6

 40
7.5
 41
20.0
 42
7.5
 43
20.0
 44
210.0
 45
297.0
 46
0.0
 47
0.0
 48
0.0
 49
0.0
140
0.0
141
0.0
142
1.0
143
2.3346210821
 70
   688
 72
     1
 73
     1
 74
     1
  7

 75
     0
147
0.4283350338
148
138.7996426798
149
191.5128784896
100
AcDbLayout
  1
_Trimetrisch
 70
     1
 71
     8
 10
0.0
 20
0.0
 11
0.0
 21
0.0
 12
0.0
 22
0.0
 32
0.0
 14
0.0
 24
0.0
 34
0.0
 15
0.0
 25
0.0
 35
0.0
146
0.0
 13
0.0
 23
0.0
 33
0.0
 16
1.0
 26
0.0
 36
0.0
 17
0.0
 27
1.0
 37
0.0
 76
     0
330
110
331
151
  0
LAYOUT
  5
A1
102
{ACAD_REACTORS
330
1A
102
}
330
1A
100
AcDbPlotSettings
  1

  2
none_device
  4
ISO_A4_(210.00_x_297.00_MM)
  6

 40
7.5
 41
20.0
 42
7.5
 43
20.0
 44
210.0
 45
297.0
 46
0.0
 47
0.0
 48
0.0
 49
0.0
140
0.0
141
0.0
142
1.0
143
2.3346210821
 70
   688
 72
     1
 73
     1
 74
     1
  7

 75
     0
147
0.4283350338
148
138.7996426798
149
191.5128784896
100
AcDbLayout
  1
_Unten
 70
     1
 71
     3
 10
0.0
 20
0.0
 11
0.0
 21
0.0
 12
0.0
 22
0.0
 32
0.0
 14
0.0
 24
0.0
 34
0.0
 15
0.0
 25
0.0
 35
0.0
146
0.0
 13
0.0
 23
0.0
 33
0.0
 16
1.0
 26
0.0
 36
0.0
 17
0.0
 27
1.0
 37
0.0
 76
     0
330
A0
331
147
  0
LAYOUT
  5
C7
102
{ACAD_REACTORS
330
1A
102
}
330
1A
100
AcDbPlotSettings
  1

  2
none_device
  4
ISO_A4_(210.00_x_297.00_MM)
  6

 40
7.5
 41
20.0
 42
7.5
 43
20.0
 44
210.0
 45
297.0
 46
0.0
 47
0.0
 48
0.0
 49
0.0
140
0.0
141
0.0
142
1.0
143
2.3346210821
 70
   688
 72
     1
 73
     1
 74
     1
  7

 75
     0
147
0.4283350338
148
138.7996426798
149
191.5128784896
100
AcDbLayout
  1
_Vorderseite
 70
     1
 71
     5
 10
0.0
 20
0.0
 11
0.0
 21
0.0
 12
0.0
 22
0.0
 32
0.0
 14
0.0
 24
0.0
 34
0.0
 15
0.0
 25
0.0
 35
0.0
146
0.0
 13
0.0
 23
0.0
 33
0.0
 16
1.0
 26
0.0
 36
0.0
 17
0.0
 27
1.0
 37
0.0
 76
     0
330
C6
331
14B
  0
LAYOUT
  5
22
102
{ACAD_REACTORS
330
1A
102
}
330
1A
100
AcDbPlotSettings
  1

  2
none_device
  4
ANSI_A_(11.00_x_8.50_Inches)
  6

 40
6.35
 41
19.05
 42
6.35000508
 43
19.05000254
 44
279.4
 45
215.9
 46
59.0352748158
 47
118.9495776358
 48
0.0
 49
0.0
140
0.0
141
0.0
142
0.018150072
143
1.0
 70
  1696
 72
     0
 73
     0
 74
     0
  7

 75
     0
147
0.0179189148
148
-1300.4909072572
149
0.0
100
AcDbLayout
  1
Model
 70
     1
 71
     0
 10
0.0
 20
0.0
 11
420.0
 21
297.0
 12
0.0
 22
0.0
 32
0.0
 14
-138.7996429329
 24
-115.1817957095
 34
0.0
 15
461.1979756879
 25
-15.1817957095
 35
0.0
146
0.0
 13
0.0
 23
0.0
 33
0.0
 16
1.0
 26
0.0
 36
0.0
 17
0.0
 27
1.0
 37
0.0
 76
     0
330
1F
331
29
  0
MLINESTYLE
  5
18
102
{ACAD_REACTORS
330
17
102
}
330
17
100
AcDbMlineStyle
  2
Standard
 70
     0
  3

 62
   256
 51
90.0
 52
90.0
 71
     2
 49
0.5
 62
   256
  6
BYLAYER
 49
-0.5
 62
   256
  6
BYLAYER
  0
ACDBPLACEHOLDER
  5
F
102
{ACAD_REACTORS
330
E
102
}
330
E
  0
SCALE
  5
48
102
{ACAD_REACTORS
330
47
102
}
330
47
100
AcDbScale
 70
     0
300
1:1
140
1.0
141
1.0
290
     1
  0
SCALE
  5
49
102
{ACAD_REACTORS
330
47
102
}
330
47
100
AcDbScale
 70
     0
300
1:2
140
1.0
141
2.0
290
     0
  0
SCALE
  5
4A
102
{ACAD_REACTORS
330
47
102
}
330
47
100
AcDbScale
 70
     0
300
1:4
140
1.0
141
4.0
290
     0
  0
SCALE
  5
4B
102
{ACAD_REACTORS
330
47
102
}
330
47
100
AcDbScale
 70
     0
300
1:5
140
1.0
141
5.0
290
     0
  0
SCALE
  5
4C
102
{ACAD_REACTORS
330
47
102
}
330
47
100
AcDbScale
 70
     0
300
1:8
140
1.0
141
8.0
290
     0
  0
SCALE
  5
4D
102
{ACAD_REACTORS
330
47
102
}
330
47
100
AcDbScale
 70
     0
300
1:10
140
1.0
141
10.0
290
     0
  0
SCALE
  5
4E
102
{ACAD_REACTORS
330
47
102
}
330
47
100
AcDbScale
 70
     0
300
1:16
140
1.0
141
16.0
290
     0
  0
SCALE
  5
4F
102
{ACAD_REACTORS
330
47
102
}
330
47
100
AcDbScale
 70
     0
300
1:20
140
1.0
141
20.0
290
     0
  0
SCALE
  5
50
102
{ACAD_REACTORS
330
47
102
}
330
47
100
AcDbScale
 70
     0
300
1:30
140
1.0
141
30.0
290
     0
  0
SCALE
  5
51
102
{ACAD_REACTORS
330
47
102
}
330
47
100
AcDbScale
 70
     0
300
1:40
140
1.0
141
40.0
290
     0
  0
SCALE
  5
52
102
{ACAD_REACTORS
330
47
102
}
330
47
100
AcDbScale
 70
     0
300
1:50
140
1.0
141
50.0
290
     0
  0
SCALE
  5
53
102
{ACAD_REACTORS
330
47
102
}
330
47
100
AcDbScale
 70
     0
300
1:100
140
1.0
141
100.0
290
     0
  0
SCALE
  5
54
102
{ACAD_REACTORS
330
47
102
}
330
47
100
AcDbScale
 70
     0
300
2:1
140
2.0
141
1.0
290
     0
  0
SCALE
  5
55
102
{ACAD_REACTORS
330
47
102
}
330
47
100
AcDbScale
 70
     0
300
4:1
140
4.0
141
1.0
290
     0
  0
SCALE
  5
56
102
{ACAD_REACTORS
330
47
102
}
330
47
100
AcDbScale
 70
     0
300
8:1
140
8.0
141
1.0
290
     0
  0
SCALE
  5
57
102
{ACAD_REACTORS
330
47
102
}
330
47
100
AcDbScale
 70
     0
300
10:1
140
10.0
141
1.0
290
     0
  0
SCALE
  5
58
102
{ACAD_REACTORS
330
47
102
}
330
47
100
AcDbScale
 70
     0
300
100:1
140
100.0
141
1.0
290
     0
  0
SCALE
  5
59
102
{ACAD_REACTORS
330
47
102
}
330
47
100
AcDbScale
 70
     0
300
1/128" = 1'-0"
140
0.0078125
141
12.0
290
     0
  0
SCALE
  5
5A
102
{ACAD_REACTORS
330
47
102
}
330
47
100
AcDbScale
 70
     0
300
1/64" = 1'-0"
140
0.015625
141
12.0
290
     0
  0
SCALE
  5
5B
102
{ACAD_REACTORS
330
47
102
}
330
47
100
AcDbScale
 70
     0
300
1/32" = 1'-0"
140
0.03125
141
12.0
290
     0
  0
SCALE
  5
5C
102
{ACAD_REACTORS
330
47
102
}
330
47
100
AcDbScale
 70
     0
300
1/16" = 1'-0"
140
0.0625
141
12.0
290
     0
  0
SCALE
  5
5D
102
{ACAD_REACTORS
330
47
102
}
330
47
100
AcDbScale
 70
     0
300
3/32" = 1'-0"
140
0.09375
141
12.0
290
     0
  0
SCALE
  5
5E
102
{ACAD_REACTORS
330
47
102
}
330
47
100
AcDbScale
 70
     0
300
1/8" = 1'-0"
140
0.125
141
12.0
290
     0
  0
SCALE
  5
5F
102
{ACAD_REACTORS
330
47
102
}
330
47
100
AcDbScale
 70
     0
300
3/16" = 1'-0"
140
0.1875
141
12.0
290
     0
  0
SCALE
  5
60
102
{ACAD_REACTORS
330
47
102
}
330
47
100
AcDbScale
 70
     0
300
1/4" = 1'-0"
140
0.25
141
12.0
290
     0
  0
SCALE
  5
61
102
{ACAD_REACTORS
330
47
102
}
330
47
100
AcDbScale
 70
     0
300
3/8" = 1'-0"
140
0.375
141
12.0
290
     0
  0
SCALE
  5
62
102
{ACAD_REACTORS
330
47
102
}
330
47
100
AcDbScale
 70
     0
300
1/2" = 1'-0"
140
0.5
141
12.0
290
     0
  0
SCALE
  5
63
102
{ACAD_REACTORS
330
47
102
}
330
47
100
AcDbScale
 70
     0
300
3/4" = 1'-0"
140
0.75
141
12.0
290
     0
  0
SCALE
  5
64
102
{ACAD_REACTORS
330
47
102
}
330
47
100
AcDbScale
 70
     0
300
1" = 1'-0"
140
1.0
141
12.0
290
     0
  0
SCALE
  5
65
102
{ACAD_REACTORS
330
47
102
}
330
47
100
AcDbScale
 70
     0
300
1-1/2" = 1'-0"
140
1.5
141
12.0
290
     0
  0
SCALE
  5
66
102
{ACAD_REACTORS
330
47
102
}
330
47
100
AcDbScale
 70
     0
300
3" = 1'-0"
140
3.0
141
12.0
290
     0
  0
SCALE
  5
67
102
{ACAD_REACTORS
330
47
102
}
330
47
100
AcDbScale
 70
     0
300
6" = 1'-0"
140
6.0
141
12.0
290
     0
  0
SCALE
  5
68
102
{ACAD_REACTORS
330
47
102
}
330
47
100
AcDbScale
 70
     0
300
1'-0" = 1'-0"
140
12.0
141
12.0
290
     0
  0
ENDSEC
  0
EOF
