  0
SECTION
  2
HEADER
  9
$ACADVER
  1
AC1027
  9
$ACADMAINTVER
 70
   105
  9
$DWGCODEPAGE
  3
ANSI_1252
  9
$REQUIREDVERSIONS
160
                 0
  9
$INSBASE
 10
0.0
 20
0.0
 30
0.0
  9
$EXTMIN
 10
-200.0
 20
-400.0
 30
0.0
  9
$EXTMAX
 10
200.0
 20
400.0
 30
0.0
  9
$LIMMIN
 10
0.0
 20
0.0
  9
$LIMMAX
 10
420.0
 20
297.0
  9
$ORTHOMODE
 70
     0
  9
$REGENMODE
 70
     1
  9
$FILLMODE
 70
     1
  9
$QTEXTMODE
 70
     0
  9
$MIRRTEXT
 70
     1
  9
$LTSCALE
 40
1.0
  9
$ATTMODE
 70
     1
  9
$TEXTSIZE
 40
3.5
  9
$TRACEWID
 40
1.0
  9
$TEXTSTYLE
  7
STANDARD
  9
$CLAYER
  8
0
  9
$CELTYPE
  6
ByLayer
  9
$CECOLOR
 62
   256
  9
$CELTSCALE
 40
1.0
  9
$DISPSILH
 70
     0
  9
$DIMSCALE
 40
1.0
  9
$DIMASZ
 40
6.0
  9
$DIMEXO
 40
1.0
  9
$DIMDLI
 40
3.75
  9
$DIMRND
 40
0.0
  9
$DIMDLE
 40
0.0
  9
$DIMEXE
 40
1.0
  9
$DIMTP
 40
0.0
  9
$DIMTM
 40
0.0
  9
$DIMTXT
 40
3.5
  9
$DIMCEN
 40
2.5
  9
$DIMTSZ
 40
0.0
  9
$DIMTOL
 70
     0
  9
$DIMLIM
 70
     0
  9
$DIMTIH
 70
     1
  9
$DIMTOH
 70
     1
  9
$DIMSE1
 70
     0
  9
$DIMSE2
 70
     0
  9
$DIMTAD
 70
     1
  9
$DIMZIN
 70
     0
  9
$DIMBLK
  1

  9
$DIMASO
 70
     1
  9
$DIMSHO
 70
     1
  9
$DIMPOST
  1

  9
$DIMAPOST
  1

  9
$DIMALT
 70
     0
  9
$DIMALTD
 70
     3
  9
$DIMALTF
 40
0.0393700787
  9
$DIMLFAC
 40
1.0
  9
$DIMTOFL
 70
     1
  9
$DIMTVP
 40
0.0
  9
$DIMTIX
 70
     0
  9
$DIMSOXD
 70
     0
  9
$DIMSAH
 70
     0
  9
$DIMBLK1
  1

  9
$DIMBLK2
  1

  9
$DIMSTYLE
  2
ISO-25
  9
$DIMCLRD
 70
     0
  9
$DIMCLRE
 70
     0
  9
$DIMCLRT
 70
     0
  9
$DIMTFAC
 40
1.0
  9
$DIMGAP
 40
1.524
  9
$DIMJUST
 70
     0
  9
$DIMSD1
 70
     0
  9
$DIMSD2
 70
     0
  9
$DIMTOLJ
 70
     0
  9
$DIMTZIN
 70
     0
  9
$DIMALTZ
 70
     0
  9
$DIMALTTZ
 70
     0
  9
$DIMUPT
 70
     0
  9
$DIMDEC
 70
     2
  9
$DIMTDEC
 70
     2
  9
$DIMALTU
 70
     2
  9
$DIMALTTD
 70
     3
  9
$DIMTXSTY
  7
STANDARD
  9
$DIMAUNIT
 70
     0
  9
$DIMADEC
 70
     2
  9
$DIMALTRND
 40
0.0
  9
$DIMAZIN
 70
     0
  9
$DIMDSEP
 70
    44
  9
$DIMATFIT
 70
     3
  9
$DIMFRAC
 70
     0
  9
$DIMLDRBLK
  1

  9
$DIMLUNIT
 70
     2
  9
$DIMLWD
 70
    -2
  9
$DIMLWE
 70
    -2
  9
$DIMTMOVE
 70
     0
  9
$DIMFXL
 40
1.0
  9
$DIMFXLON
 70
     0
  9
$DIMJOGANG
 40
0.7853981634
  9
$DIMTFILL
 70
     0
  9
$DIMTFILLCLR
 70
     0
  9
$DIMARCSYM
 70
     0
  9
$DIMLTYPE
  6

  9
$DIMLTEX1
  6

  9
$DIMLTEX2
  6

  9
$DIMTXTDIRECTION
 70
     0
  9
$LUNITS
 70
     2
  9
$LUPREC
 70
     2
  9
$SKETCHINC
 40
1.0
  9
$FILLETRAD
 40
10.0
  9
$AUNITS
 70
     0
  9
$AUPREC
 70
     2
  9
$MENU
  1
.
  9
$ELEVATION
 40
0.0
  9
$PELEVATION
 40
0.0
  9
$THICKNESS
 40
0.0
  9
$LIMCHECK
 70
     0
  9
$CHAMFERA
 40
0.0
  9
$CHAMFERB
 40
0.0
  9
$CHAMFERC
 40
0.0
  9
$CHAMFERD
 40
0.0
  9
$SKPOLY
 70
     0
  9
$TDCREATE
 40
2458299.43823853
  9
$TDUCREATE
 40
2458299.354905197
  9
$TDUPDATE
 40
2458299.43826581
  9
$TDUUPDATE
 40
2458299.354932477
  9
$TDINDWG
 40
0.0000000116
  9
$TDUSRTIMER
 40
0.0000000116
  9
$USRTIMER
 70
     1
  9
$ANGBASE
 50
0.0
  9
$ANGDIR
 70
     0
  9
$PDMODE
 70
     0
  9
$PDSIZE
 40
-1.0
  9
$PLINEWID
 40
0.0
  9
$SPLFRAME
 70
     0
  9
$SPLINETYPE
 70
     6
  9
$SPLINESEGS
 70
     8
  9
$HANDSEED
  5
109
  9
$SURFTAB1
 70
     6
  9
$SURFTAB2
 70
     6
  9
$SURFTYPE
 70
     6
  9
$SURFU
 70
     6
  9
$SURFV
 70
     6
  9
$UCSBASE
  2

  9
$UCSNAME
  2

  9
$UCSORG
 10
0.0
 20
0.0
 30
0.0
  9
$UCSXDIR
 10
1.0
 20
0.0
 30
0.0
  9
$UCSYDIR
 10
0.0
 20
1.0
 30
0.0
  9
$UCSORTHOREF
  2

  9
$UCSORTHOVIEW
 70
     0
  9
$UCSORGTOP
 10
0.0
 20
0.0
 30
0.0
  9
$UCSORGBOTTOM
 10
0.0
 20
0.0
 30
0.0
  9
$UCSORGLEFT
 10
0.0
 20
0.0
 30
0.0
  9
$UCSORGRIGHT
 10
0.0
 20
0.0
 30
0.0
  9
$UCSORGFRONT
 10
0.0
 20
0.0
 30
0.0
  9
$UCSORGBACK
 10
0.0
 20
0.0
 30
0.0
  9
$PUCSBASE
  2

  9
$PUCSNAME
  2

  9
$PUCSORG
 10
0.0
 20
0.0
 30
0.0
  9
$PUCSXDIR
 10
1.0
 20
0.0
 30
0.0
  9
$PUCSYDIR
 10
0.0
 20
1.0
 30
0.0
  9
$PUCSORTHOREF
  2

  9
$PUCSORTHOVIEW
 70
     0
  9
$PUCSORGTOP
 10
0.0
 20
0.0
 30
0.0
  9
$PUCSORGBOTTOM
 10
0.0
 20
0.0
 30
0.0
  9
$PUCSORGLEFT
 10
0.0
 20
0.0
 30
0.0
  9
$PUCSORGRIGHT
 10
0.0
 20
0.0
 30
0.0
  9
$PUCSORGFRONT
 10
0.0
 20
0.0
 30
0.0
  9
$PUCSORGBACK
 10
0.0
 20
0.0
 30
0.0
  9
$USERI1
 70
     0
  9
$USERI2
 70
     0
  9
$USERI3
 70
     0
  9
$USERI4
 70
     0
  9
$USERI5
 70
     0
  9
$USERR1
 40
0.0
  9
$USERR2
 40
0.0
  9
$USERR3
 40
0.0
  9
$USERR4
 40
0.0
  9
$USERR5
 40
0.0
  9
$WORLDVIEW
 70
     1
  9
$SHADEDGE
 70
     3
  9
$SHADEDIF
 70
    70
  9
$TILEMODE
 70
     1
  9
$MAXACTVP
 70
    64
  9
$PINSBASE
 10
0.0
 20
0.0
 30
0.0
  9
$PLIMCHECK
 70
     0
  9
$PEXTMIN
 10
-200.0
 20
-0.0000086946
 30
0.0
  9
$PEXTMAX
 10
200.0
 20
120.0
 30
0.0
  9
$PLIMMIN
 10
-231.1284046693
 20
-11.6731604455
  9
$PLIMMAX
 10
231.1284046693
 20
315.1750885817
  9
$UNITMODE
 70
     0
  9
$VISRETAIN
 70
     1
  9
$PLINEGEN
 70
     0
  9
$PSLTSCALE
 70
     1
  9
$TREEDEPTH
 70
  3020
  9
$CMLSTYLE
  2
Standard
  9
$CMLJUST
 70
     0
  9
$CMLSCALE
 40
20.0
  9
$PROXYGRAPHICS
 70
     1
  9
$MEASUREMENT
 70
     1
  9
$CELWEIGHT
370
    -1
  9
$ENDCAPS
280
     0
  9
$JOINSTYLE
280
     0
  9
$LWDISPLAY
290
     1
  9
$INSUNITS
 70
     4
  9
$HYPERLINKBASE
  1

  9
$STYLESHEET
  1

  9
$XEDIT
290
     1
  9
$CEPSNTYPE
380
     0
  9
$PSTYLEMODE
290
     1
  9
$FINGERPRINTGUID
  2
{9E162F5B-3C7C-4585-A7FD-332EEEB96095}
  9
$VERSIONGUID
  2
{FAEB1C32-E019-11D5-929B-00C0DF256EC4}
  9
$EXTNAMES
290
     1
  9
$PSVPSCALE
 40
0.0
  9
$OLESTARTUP
290
     0
  9
$SORTENTS
280
   127
  9
$INDEXCTL
280
     0
  9
$HIDETEXT
280
     1
  9
$XCLIPFRAME
280
     2
  9
$HALOGAP
280
     0
  9
$OBSCOLOR
 70
   257
  9
$OBSLTYPE
280
     0
  9
$INTERSECTIONDISPLAY
280
     0
  9
$INTERSECTIONCOLOR
 70
   257
  9
$DIMASSOC
280
     2
  9
$PROJECTNAME
  1

  9
$CAMERADISPLAY
290
     0
  9
$LENSLENGTH
 40
50.0
  9
$CAMERAHEIGHT
 40
0.0
  9
$STEPSPERSEC
 40
2.0
  9
$STEPSIZE
 40
6.0
  9
$3DDWFPREC
 40
2.0
  9
$PSOLWIDTH
 40
5.0
  9
$PSOLHEIGHT
 40
80.0
  9
$LOFTANG1
 40
1.5707963268
  9
$LOFTANG2
 40
1.5707963268
  9
$LOFTMAG1
 40
0.0
  9
$LOFTMAG2
 40
0.0
  9
$LOFTPARAM
 70
     7
  9
$LOFTNORMALS
280
     1
  9
$LATITUDE
 40
37.795
  9
$LONGITUDE
 40
-122.394
  9
$NORTHDIRECTION
 40
0.0
  9
$TIMEZONE
 70
 -8000
  9
$LIGHTGLYPHDISPLAY
280
     1
  9
$TILEMODELIGHTSYNCH
280
     1
  9
$CMATERIAL
347
44
  9
$SOLIDHIST
280
     0
  9
$SHOWHIST
280
     1
  9
$DWFFRAME
280
     2
  9
$DGNFRAME
280
     2
  9
$REALWORLDSCALE
290
     1
  9
$INTERFERECOLOR
 62
   256
  9
$CSHADOW
280
     0
  9
$SHADOWPLANELOCATION
 40
0.0
  0
ENDSEC
  0
SECTION
  2
CLASSES
  0
CLASS
  1
ACDBDICTIONARYWDFLT
  2
AcDbDictionaryWithDefault
  3
ObjectDBX Classes
 90
        0
 91
        4
280
     0
281
     0
  0
CLASS
  1
VISUALSTYLE
  2
AcDbVisualStyle
  3
ObjectDBX Classes
 90
     4095
 91
        4
280
     0
281
     0
  0
CLASS
  1
MATERIAL
  2
AcDbMaterial
  3
ObjectDBX Classes
 90
     1153
 91
        4
280
     0
281
     0
  0
CLASS
  1
SCALE
  2
AcDbScale
  3
ObjectDBX Classes
 90
     1153
 91
        4
280
     0
281
     0
  0
CLASS
  1
TABLESTYLE
  2
AcDbTableStyle
  3
ObjectDBX Classes
 90
     4095
 91
        4
280
     0
281
     0
  0
CLASS
  1
MLEADERSTYLE
  2
AcDbMLeaderStyle
  3
ACDB_MLEADERSTYLE_CLASS
 90
     4095
 91
        4
280
     0
281
     0
  0
CLASS
  1
SUN
  2
AcDbSun
  3
SCENEOE
 90
     1153
 91
        4
280
     0
281
     0
  0
CLASS
  1
DICTIONARYVAR
  2
AcDbDictionaryVar
  3
ObjectDBX Classes
 90
        0
 91
        4
280
     0
281
     0
  0
CLASS
  1
CELLSTYLEMAP
  2
AcDbCellStyleMap
  3
ObjectDBX Classes
 90
     1152
 91
        4
280
     0
281
     0
  0
ENDSEC
  0
SECTION
  2
TABLES
  0
TABLE
  2
VPORT
  5
8
330
0
100
AcDbSymbolTable
 70
     1
  0
VPORT
  5
29
330
8
100
AcDbSymbolTableRecord
100
AcDbViewportTableRecord
  2
*Active
 70
     0
 10
0.0
 20
0.0
 11
1.0
 21
1.0
 12
0.0
 22
0.0
 13
0.0
 23
0.0
 14
10.0
 24
10.0
 15
10.0
 25
10.0
 16
0.0
 26
0.0
 36
1.0
 17
0.0
 27
0.0
 37
0.0
 40
816.0
 41
0.5
 42
50.0
 43
0.0
 44
0.0
 50
0.0
 51
0.0
 71
     0
 72
   100
 73
     1
 74
     3
 75
     0
 76
     0
 77
     0
 78
     0
281
     0
 65
     1
110
0.0
120
0.0
130
0.0
111
1.0
121
0.0
131
0.0
112
0.0
122
1.0
132
0.0
 79
     0
146
0.0
348
2F
 60
     3
 61
     5
292
     1
282
     1
141
0.0
142
0.0
 63
   250
361
6D
  0
ENDTAB
  0
TABLE
  2
LTYPE
  5
5
330
0
100
AcDbSymbolTable
 70
     6
  0
LTYPE
  5
14
330
5
100
AcDbSymbolTableRecord
100
AcDbLinetypeTableRecord
  2
ByBlock
 70
     0
  3

 72
    65
 73
     0
 40
0.0
  0
LTYPE
  5
15
330
5
100
AcDbSymbolTableRecord
100
AcDbLinetypeTableRecord
  2
ByLayer
 70
     0
  3

 72
    65
 73
     0
 40
0.0
  0
LTYPE
  5
16
330
5
100
AcDbSymbolTableRecord
100
AcDbLinetypeTableRecord
  2
Continuous
 70
     0
  3
Solid line
 72
    65
 73
     0
 40
0.0
  0
LTYPE
  5
6E
330
5
100
AcDbSymbolTableRecord
100
AcDbLinetypeTableRecord
  2
HIDDEN
 70
     0
  3
Hidden __ __ __ __ __ __ __ __ __ __ __ __ __ __
 72
    65
 73
     2
 40
1.905
 49
1.27
 74
     0
 49
-0.635
 74
     0
  0
LTYPE
  5
6F
330
5
100
AcDbSymbolTableRecord
100
AcDbLinetypeTableRecord
  2
PHANTOM
 70
     0
  3
Phantom ______  __  __  ______  __  __  ______
 72
    65
 73
     6
 40
12.7
 49
6.35
 74
     0
 49
-1.27
 74
     0
 49
1.27
 74
     0
 49
-1.27
 74
     0
 49
1.27
 74
     0
 49
-1.27
 74
     0
  0
LTYPE
  5
70
330
5
100
AcDbSymbolTableRecord
100
AcDbLinetypeTableRecord
  2
CENTER
 70
     0
  3
Center ____ _ ____ _ ____ _ ____ _ ____ _ ____
 72
    65
 73
     4
 40
10.16
 49
6.35
 74
     0
 49
-1.27
 74
     0
 49
1.27
 74
     0
 49
-1.27
 74
     0
  0
LTYPE
  5
71
330
5
100
AcDbSymbolTableRecord
100
AcDbLinetypeTableRecord
  2
CENTERX2
 70
     0
  3
Center (2x) ________  __  ________  __  _____
 72
    65
 73
     4
 40
20.32
 49
12.7
 74
     0
 49
-2.54
 74
     0
 49
2.54
 74
     0
 49
-2.54
 74
     0
  0
LTYPE
  5
72
330
5
100
AcDbSymbolTableRecord
100
AcDbLinetypeTableRecord
  2
DOT2
 70
     0
  3
Dot (.5x) ........................................
 72
    65
 73
     2
 40
0.635
 49
0.0
 74
     0
 49
-0.635
 74
     0
  0
ENDTAB
  0
TABLE
  2
LAYER
  5
2
330
0
100
AcDbSymbolTable
 70
     1
  0
LAYER
  5
10
330
2
100
AcDbSymbolTableRecord
100
AcDbLayerTableRecord
  2
0
 70
     0
 62
     7
  6
Continuous
370
    -3
390
F
347
46
348
0
  0
ENDTAB
  0
TABLE
  2
STYLE
  5
3
330
0
100
AcDbSymbolTable
 70
     1
  0
STYLE
  5
11
330
3
100
AcDbSymbolTableRecord
100
AcDbTextStyleTableRecord
  2
STANDARD
 70
     0
 40
0.0
 41
1.0
 50
0.0
 71
     0
 42
3.5
  3
GOTHIC.TTF
  4

1001
ACAD
1000
CENTURY GOTHIC
1071
       34
  0
ENDTAB
  0
TABLE
  2
VIEW
  5
6
330
0
100
AcDbSymbolTable
 70
     0
  0
ENDTAB
  0
TABLE
  2
UCS
  5
7
330
0
100
AcDbSymbolTable
 70
     0
  0
ENDTAB
  0
TABLE
  2
APPID
  5
9
330
0
100
AcDbSymbolTable
 70
     1
  0
APPID
  5
12
330
9
100
AcDbSymbolTableRecord
100
AcDbRegAppTableRecord
  2
ACAD
 70
     0
  0
ENDTAB
  0
TABLE
  2
DIMSTYLE
  5
A
330
0
100
AcDbSymbolTable
 70
     1
100
AcDbDimStyleTable
  0
DIMSTYLE
105
27
330
A
100
AcDbSymbolTableRecord
100
AcDbDimStyleTableRecord
  2
ISO-25
 70
     0
 41
2.5
 42
0.625
 43
3.75
 44
1.25
 73
     0
 74
     0
 77
     1
 78
     8
140
2.5
141
2.5
143
0.0393700787
147
0.625
171
     3
172
     1
178
     0
271
     2
272
     2
274
     3
278
    44
283
     0
284
     8
340
11
  0
ENDTAB
  0
TABLE
  2
BLOCK_RECORD
  5
1
330
0
100
AcDbSymbolTable
 70
     8
  0
BLOCK_RECORD
  5
1F
330
1
100
AcDbSymbolTableRecord
100
AcDbBlockTableRecord
  2
*Model_Space
340
22
 70
     0
280
     1
281
     0
  0
BLOCK_RECORD
  5
1B
330
1
100
AcDbSymbolTableRecord
100
AcDbBlockTableRecord
  2
*Paper_Space
340
1E
 70
     0
280
     1
281
     0
  0
BLOCK_RECORD
  5
23
330
1
100
AcDbSymbolTableRecord
100
AcDbBlockTableRecord
  2
*Paper_Space0
340
26
 70
     0
280
     1
281
     0
  0
BLOCK_RECORD
  5
89
330
1
100
AcDbSymbolTableRecord
100
AcDbBlockTableRecord
  2
*Paper_Space1
340
8A
 70
     0
280
     1
281
     0
  0
BLOCK_RECORD
  5
98
330
1
100
AcDbSymbolTableRecord
100
AcDbBlockTableRecord
  2
*Paper_Space2
340
99
 70
     0
280
     1
281
     0
  0
BLOCK_RECORD
  5
A7
330
1
100
AcDbSymbolTableRecord
100
AcDbBlockTableRecord
  2
*Paper_Space3
340
A8
 70
     0
280
     1
281
     0
  0
BLOCK_RECORD
  5
B7
330
1
100
AcDbSymbolTableRecord
100
AcDbBlockTableRecord
  2
*Paper_Space4
340
B8
 70
     0
280
     1
281
     0
  0
BLOCK_RECORD
  5
BD
330
1
100
AcDbSymbolTableRecord
100
AcDbBlockTableRecord
  2
*Paper_Space5
340
BE
 70
     0
280
     1
281
     0
  0
BLOCK_RECORD
  5
CE
330
1
100
AcDbSymbolTableRecord
100
AcDbBlockTableRecord
  2
*Paper_Space6
340
CF
 70
     0
280
     1
281
     0
  0
BLOCK_RECORD
  5
DF
330
1
100
AcDbSymbolTableRecord
100
AcDbBlockTableRecord
  2
*Paper_Space7
340
E0
 70
     0
280
     1
281
     0
  0
ENDTAB
  0
ENDSEC
  0
SECTION
  2
BLOCKS
  0
BLOCK
  5
20
330
1F
100
AcDbEntity
  8
0
100
AcDbBlockBegin
  2
*Model_Space
 70
     0
 10
0.0
 20
0.0
 30
0.0
  3
*Model_Space
  1

  0
ENDBLK
  5
21
330
1F
100
AcDbEntity
  8
0
100
AcDbBlockEnd
  0
BLOCK
  5
1C
330
1B
100
AcDbEntity
 67
     1
  8
0
100
AcDbBlockBegin
  2
*Paper_Space
 70
     0
 10
0.0
 20
0.0
 30
0.0
  3
*Paper_Space
  1

  0
ENDBLK
  5
1D
330
1B
100
AcDbEntity
 67
     1
  8
0
100
AcDbBlockEnd
  0
BLOCK
  5
24
330
23
100
AcDbEntity
  8
0
100
AcDbBlockBegin
  2
*Paper_Space0
 70
     0
 10
0.0
 20
0.0
 30
0.0
  3
*Paper_Space0
  1

  0
SPLINE
  5
83
330
23
100
AcDbEntity
  8
0
  6
Continuous
 62
     7
370
    25
100
AcDbSpline
210
0.0
220
0.0
230
1.0
 70
     8
 71
     3
 72
    75
 73
    71
 74
     0
 42
0.000000001
 43
0.00000001
 40
0.0
 40
0.0
 40
0.0
 40
0.0
 40
0.044200495793089
 40
0.0870669646368866
 40
0.1284542174146877
 40
0.1682452229734867
 40
0.2063484046754554
 40
0.2426951616923238
 40
0.2753128869761059
 40
0.3063012279553294
 40
0.3356479456509509
 40
0.3633523200053084
 40
0.3894257259853738
 40
0.4126319071965474
 40
0.4344172772431029
 40
0.4548087579696918
 40
0.4738364475820903
 40
0.4915083585072154
 40
0.5076959219691527
 40
0.5224340816685806
 40
0.5364571333103414
 40
0.5502568627741043
 40
0.5637763509218943
 40
0.576923821495403
 40
0.58962732546329
 40
0.5988320434282323
 40
0.6077724969553551
 40
0.6182151722460915
 40
0.6288811640153401
 40
0.6409667189344234
 40
0.6546884011583374
 40
0.670079796537042
 40
0.6793592493274158
 40
0.6886529363036349
 40
0.6965972098078886
 40
0.7017686500782464
 40
0.7063615941846203
 40
0.7105227281793368
 40
0.7144466142333666
 40
0.7197958430889164
 40
0.7262094563731084
 40
0.733689582916403
 40
0.7421271644861014
 40
0.7507420181457557
 40
0.7588364640156228
 40
0.7703378597690039
 40
0.7815076435332686
 40
0.7952278860356407
 40
0.8094327370240579
 40
0.8242558043345551
 40
0.8400600154459972
 40
0.8568453703552176
 40
0.8861427158496995
 40
0.9153459543752687
 40
0.9226200914660675
 40
0.9298835595385853
 40
0.9370950751458229
 40
0.9436586048177144
 40
0.9493889470214805
 40
0.9542854863129229
 40
0.9583475213051947
 40
0.9615745029402749
 40
0.9641335954454272
 40
0.9666002384310751
 40
0.9693529045328432
 40
0.9726699071452154
 40
0.9782882120825608
 40
0.9852301055299378
 40
0.9925211961688427
 40
1.0
 40
1.0
 40
1.0
 40
1.0
 10
-61.23910034148564
 20
0.0000000000000902
 30
0.0
 10
-53.18900381153766
 20
0.0000000000000833
 30
0.0
 10
-37.33177286151531
 20
0.0000000000000555
 30
0.0
 10
-13.93620786205661
 20
0.0000000000000208
 30
0.0
 10
8.656352415995007
 20
-0.0000000000000139
 30
0.0
 10
30.38123390914471
 20
-0.0000000000000555
 30
0.0
 10
51.18773725924588
 20
-0.0000000000000902
 30
0.0
 10
70.68731938680688
 20
-0.0000000000001249
 30
0.0
 10
88.89059658584121
 20
-0.0000000000001596
 30
0.0
 10
105.818502318241
 20
-0.0000000000001874
 30
0.0
 10
121.8510687937248
 20
-0.0000000000002151
 30
0.0
 10
136.9880339673009
 20
-0.0000000000002429
 30
0.0
 10
151.0062570289504
 20
-0.0000000000002776
 30
0.0
 10
163.9462053886871
 20
-0.0000000000002706
 30
0.0
 10
175.8510078364598
 20
-0.0000000000004025
 30
0.0
 10
186.9949015097965
 20
-0.0000000000000486
 30
0.0
 10
197.3883236717482
 20
-0.0000000000013184
 30
0.0
 10
207.0197188807828
 20
0.0000000000028311
 30
0.0
 10
215.8693505742483
 20
-0.0000000000108524
 30
0.0
 10
223.9705025430418
 20
0.0000000000341185
 30
0.0
 10
231.4991085465059
 20
-0.000000000121958
 30
0.0
 10
238.5844730392368
 20
0.00000000044207
 30
0.0
 10
245.203987928422
 20
-0.0000000015970003
 30
0.0
 10
251.2191751970756
 20
0.0000000056975119
 30
0.0
 10
256.0869181107558
 20
-0.0000000181112764
 30
0.0
 10
259.8910349679046
 20
0.0000000467350117
 30
0.0
 10
262.9712043642618
 20
-0.000000182705566
 30
0.0
 10
265.5890987952198
 20
0.0000008196066742
 30
0.0
 10
267.6681292977214
 20
-0.0000032916106577
 30
0.0
 10
269.2014873576629
 20
0.0000149185295853
 30
0.0
 10
271.0788734801541
 20
-0.0000671625839041
 30
0.0
 10
272.7133986028018
 20
0.00023530019444
 30
0.0
 10
274.0482589022176
 20
-0.00049973124501
 30
0.0
 10
275.0011090682456
 20
0.0017829425766336
 30
0.0
 10
276.5006898398836
 20
-0.0047815458880107
 30
0.0
 10
278.2091774640739
 20
0.0110735367100656
 30
0.0
 10
279.908501524233
 20
0.0842522010299218
 30
0.0
 10
281.7923246493152
 20
0.2320305566929845
 30
0.0
 10
284.0923741855602
 20
0.5058882777283848
 30
0.0
 10
286.9468222900059
 20
0.9939368147429615
 30
0.0
 10
290.3454246764208
 20
1.806188549619357
 30
0.0
 10
294.2275395356468
 20
3.049042742507481
 30
0.0
 10
298.3525028936992
 20
4.779375701491985
 30
0.0
 10
302.399397165353
 20
6.939522909149967
 30
0.0
 10
306.6981478388971
 20
9.76522200305653
 30
0.0
 10
311.0337610040672
 20
13.33850999989959
 30
0.0
 10
315.6127614285656
 20
18.15503156651357
 30
0.0
 10
319.725860852311
 20
23.99960405608524
 30
0.0
 10
323.4729530902095
 20
30.8272788193552
 30
0.0
 10
327.5973682609671
 20
37.87437643765288
 30
0.0
 10
331.9028166399114
 20
45.35995075773991
 30
0.0
 10
337.5431281469385
 20
55.11877382041654
 30
0.0
 10
344.3945944762393
 20
66.99652510711118
 30
0.0
 10
350.393052766652
 20
77.36563847364492
 30
0.0
 10
354.3658286212171
 20
84.27180694456324
 30
0.0
 10
356.3693660206768
 20
87.68732359102248
 30
0.0
 10
358.2019539054939
 20
91.06021891537596
 30
0.0
 10
360.4376366339136
 20
93.8494220921588
 30
0.0
 10
362.7934409403658
 20
95.93106313148348
 30
0.0
 10
365.0373670333348
 20
97.40059286078447
 30
0.0
 10
367.0366259247153
 20
98.38172688198689
 30
0.0
 10
368.7108061965856
 20
99.0081838061714
 30
0.0
 10
370.1804607192817
 20
99.4266041440001
 30
0.0
 10
371.4361669280076
 20
99.69062413785302
 30
0.0
 10
372.4403836348632
 20
99.84189285193285
 30
0.0
 10
373.3422160588096
 20
99.93713939011857
 30
0.0
 10
374.0099895046421
 20
99.97737625629821
 30
0.0
 10
374.3592376723261
 20
99.99085881231034
 30
0.0
 10
374.7612139669713
 20
100.0001411602935
 30
0.0
 10
374.9839627671164
 20
100.0000474504222
 30
0.0
 10
375.0967526440709
 20
99.9999999999989
 30
0.0
  0
SPLINE
  5
84
330
23
100
AcDbEntity
  8
0
  6
Continuous
 62
     7
370
    25
100
AcDbSpline
210
0.0
220
0.0
230
1.0
 70
     8
 71
     3
 72
    73
 73
    69
 74
     0
 42
0.000000001
 43
0.00000001
 40
0.0
 40
0.0
 40
0.0
 40
0.0
 40
0.009437374211153
 40
0.0173165412467165
 40
0.0236830510080221
 40
0.0286274169479019
 40
0.0315151163759714
 40
0.0338674583593256
 40
0.0349302495444851
 40
0.038598548800742
 40
0.0425660508102736
 40
0.0478739638876441
 40
0.0545211198284461
 40
0.0625062176695707
 40
0.0745560616175441
 40
0.0870234536310494
 40
0.0992928699708212
 40
0.1113643106334644
 40
0.1232377756159024
 40
0.1349132649163718
 40
0.1463907785347452
 40
0.1771693517796928
 40
0.2085054413679002
 40
0.2267283698382964
 40
0.2452544375151495
 40
0.2637353233604805
 40
0.2806049804981715
 40
0.2963999355001332
 40
0.3117421048103524
 40
0.3271391132708146
 40
0.3415206222832428
 40
0.349992331773004
 40
0.357457695592507
 40
0.3640488764036157
 40
0.3690774312377512
 40
0.3745273420723196
 40
0.3806355871070419
 40
0.3875732941627279
 40
0.3982853955088586
 40
0.4106021326920121
 40
0.4224334568442035
 40
0.4334315166741101
 40
0.443597704402379
 40
0.4529311417061464
 40
0.4630287803048149
 40
0.471937086169245
 40
0.4797406579225466
 40
0.4881039273314713
 40
0.4983477439880863
 40
0.5084607747463726
 40
0.5201684228638199
 40
0.5336550540399769
 40
0.549069563399526
 40
0.5665286546177996
 40
0.5861099035074392
 40
0.6042255239684073
 40
0.6239446486827813
 40
0.645368856359763
 40
0.6685598090939139
 40
0.6933619213818862
 40
0.7197107948316842
 40
0.7476348130016395
 40
0.777158332264344
 40
0.816572653833195
 40
0.8585718050955142
 40
0.9031608208759047
 40
0.9503187851898044
 40
1.0
 40
1.0
 40
1.0
 40
1.0
 10
-375.1218547654557
 20
100.000000000001
 30
0.0
 10
-374.9693887764373
 20
100.000086769777
 30
0.0
 10
-374.6896304953213
 20
100.0002459827499
 30
0.0
 10
-374.0802440093755
 20
99.98254700050967
 30
0.0
 10
-373.3706663328531
 20
99.9382699246177
 30
0.0
 10
-372.5956932779169
 20
99.86050929710242
 30
0.0
 10
-371.7859254560591
 20
99.74473924968152
 30
0.0
 10
-371.1017304926939
 20
99.62012831031525
 30
0.0
 10
-370.1924748252165
 20
99.42240010797916
 30
0.0
 10
-368.9901989148145
 20
99.09901672371245
 30
0.0
 10
-367.3022647077457
 20
98.49246132912158
 30
0.0
 10
-365.2851960331285
 20
97.54349073519951
 30
0.0
 10
-362.9371471413397
 20
96.0459075773143
 30
0.0
 10
-360.1039849515055
 20
93.59927147567817
 30
0.0
 10
-357.4834226180303
 20
89.85517535901103
 30
0.0
 10
-355.0299115897097
 20
85.35875543308028
 30
0.0
 10
-352.4352194424947
 20
80.93026198608918
 30
0.0
 10
-349.9189392752132
 20
76.5547707340099
 30
0.0
 10
-347.4343729399807
 20
72.25586469559626
 30
0.0
 10
-344.9937329456757
 20
68.027371626961
 30
0.0
 10
-341.2347495334722
 20
61.51714820611841
 30
0.0
 10
-336.1062820534859
 20
52.63299988746232
 30
0.0
 10
-330.505576783347
 20
42.93654817435594
 30
0.0
 10
-325.7639575456716
 20
34.71421841565805
 30
0.0
 10
-321.9030671210579
 20
28.05835758328303
 30
0.0
 10
-318.1905934015098
 20
21.51374403476089
 30
0.0
 10
-313.6759810739356
 20
15.95551926541866
 30
0.0
 10
-308.7970025156631
 20
11.35134290656599
 30
0.0
 10
-303.5220442844318
 20
7.544961494747884
 30
0.0
 10
-297.9769580409196
 20
4.539658710115129
 30
0.0
 10
-292.9993342483052
 20
2.597011129995205
 30
0.0
 10
-288.9258174456436
 20
1.442238339347375
 30
0.0
 10
-285.8656000655041
 20
0.7893529883992791
 30
0.0
 10
-283.1946606982048
 20
0.3852187048824715
 30
0.0
 10
-281.0445516319817
 20
0.1652179453289632
 30
0.0
 10
-279.2756641802954
 20
0.050989089822949
 30
0.0
 10
-277.6890810457803
 20
0.0006476406816253
 30
0.0
 10
-276.095655074145
 20
-0.0002944417733172
 30
0.0
 10
-274.7627776102975
 20
0.0001081729010394
 30
0.0
 10
-273.8554339645513
 20
-0.0000294181504573
 30
0.0
 10
-272.7387089118405
 20
0.000007163312013
 30
0.0
 10
-271.627276448443
 20
-0.0000017082970941
 30
0.0
 10
-270.5321025852632
 20
0.0000004011894567
 30
0.0
 10
-269.4295637247825
 20
-0.0000001135802147
 30
0.0
 10
-268.3426168839293
 20
0.0000000274826759
 30
0.0
 10
-267.3351704281783
 20
-0.0000000059923871
 30
0.0
 10
-266.1391988200244
 20
0.0000000016271984
 30
0.0
 10
-264.6218910911235
 20
-0.0000000005614328
 30
0.0
 10
-262.603636884646
 20
0.0000000001604342
 30
0.0
 10
-259.9854694714462
 20
-0.0000000000495715
 30
0.0
 10
-256.7238679778453
 20
0.0000000000169378
 30
0.0
 10
-252.5574362448868
 20
-0.0000000000050376
 30
0.0
 10
-247.3604734481802
 20
0.0000000000021233
 30
0.0
 10
-241.0241249690082
 20
-0.0000000000001943
 30
0.0
 10
-233.960950876801
 20
0.0000000000005204
 30
0.0
 10
-226.3124317223539
 20
0.0000000000003192
 30
0.0
 10
-218.2109120724931
 20
0.0000000000003469
 30
0.0
 10
-209.2753838102381
 20
0.0000000000003192
 30
0.0
 10
-199.5890463476554
 20
0.0000000000003123
 30
0.0
 10
-189.2332530195143
 20
0.0000000000002914
 30
0.0
 10
-178.2126276115052
 20
0.0000000000002776
 30
0.0
 10
-166.5352576652915
 20
0.0000000000002567
 30
0.0
 10
-153.0363469984907
 20
0.0000000000002359
 30
0.0
 10
-137.5755959370421
 20
0.0000000000002082
 30
0.0
 10
-120.014601637481
 20
0.0000000000001804
 30
0.0
 10
-101.3737658664414
 20
0.0000000000001527
 30
0.0
 10
-81.6616581468187
 20
0.0000000000001249
 30
0.0
 10
-68.16385295821289
 20
0.0000000000001041
 30
0.0
 10
-61.23910034148564
 20
0.0000000000000902
 30
0.0
  0
SPLINE
  5
85
330
23
100
AcDbEntity
  8
0
  6
Continuous
 62
     7
370
    25
100
AcDbSpline
210
0.0
220
0.0
230
1.0
 70
    24
 71
     3
 72
    29
 73
    25
 74
     0
 42
0.000000001
 43
0.00000001
 40
0.2656250000000011
 40
0.2656250000000011
 40
0.2656250000000011
 40
0.2656250000000011
 40
0.2947126895491455
 40
0.2947126895491455
 40
0.3065708965163818
 40
0.3184291034836182
 40
0.3302873104508544
 40
0.3421455174180907
 40
0.3540037243853271
 40
0.3658619313525633
 40
0.3658619313525633
 40
0.4166666666666666
 40
0.5
 40
0.5833333333333333
 40
0.6341380686474369
 40
0.6341380686474369
 40
0.6459962756146733
 40
0.6578544825819097
 40
0.6697126895491459
 40
0.6815708965163823
 40
0.6934291034836186
 40
0.7052873104508548
 40
0.7052873104508548
 40
0.7187499999999996
 40
0.7187499999999996
 40
0.7187499999999996
 40
0.7187499999999996
 10
400.0000000000006
 20
120.0000000000001
 30
0.0
 10
400.0000000000006
 20
120.0000000000001
 30
0.0
 10
400.0000000000006
 20
120.0000000000001
 30
0.0
 10
400.0000000000007
 20
120.0000000000001
 30
0.0
 10
397.6520662592161
 20
120.0000000000001
 30
0.0
 10
387.6607435241642
 20
120.0000000000002
 30
0.0
 10
371.538481331839
 20
120.0000000000002
 30
0.0
 10
350.4493998604109
 20
120.0000000000003
 30
0.0
 10
326.2865120157422
 20
120.0000000000004
 30
0.0
 10
308.8402994666666
 20
120.0000000000004
 30
0.0
 10
262.1250433777774
 20
120.0000000000006
 30
0.0
 10
162.1250433777785
 20
120.0000000000008
 30
0.0
 10
0.0000000000015057
 20
120.0000000000013
 30
0.0
 10
-162.1250433777766
 20
120.0000000000017
 30
0.0
 10
-262.1250433777772
 20
120.000000000002
 30
0.0
 10
-308.8402994666659
 20
120.0000000000021
 30
0.0
 10
-326.2865120157417
 20
120.0000000000021
 30
0.0
 10
-350.4493998604103
 20
120.0000000000023
 30
0.0
 10
-371.5384813318385
 20
120.0000000000023
 30
0.0
 10
-387.6607435241639
 20
120.0000000000023
 30
0.0
 10
-397.6520662592154
 20
120.0000000000023
 30
0.0
 10
-400.0
 20
120.0000000000023
 30
0.0
 10
-400.0
 20
120.0000000000023
 30
0.0
 10
-400.0
 20
120.0000000000023
 30
0.0
 10
-400.0
 20
120.0000000000023
 30
0.0
  0
SPLINE
  5
86
330
23
100
AcDbEntity
  8
0
  6
Continuous
 62
     7
370
    25
100
AcDbSpline
210
0.0
220
0.0
230
1.0
 70
    24
 71
     3
 72
    29
 73
    25
 74
     0
 42
0.000000001
 43
0.00000001
 40
0.2656250000000007
 40
0.2656250000000007
 40
0.2656250000000007
 40
0.2656250000000007
 40
0.2947126895491455
 40
0.2947126895491455
 40
0.3065708965163818
 40
0.3184291034836182
 40
0.3302873104508544
 40
0.3421455174180907
 40
0.3540037243853271
 40
0.3658619313525633
 40
0.3658619313525633
 40
0.4166666666666666
 40
0.5
 40
0.5833333333333333
 40
0.6341380686474369
 40
0.6341380686474369
 40
0.6459962756146733
 40
0.6578544825819097
 40
0.6697126895491459
 40
0.6815708965163823
 40
0.6934291034836186
 40
0.7052873104508548
 40
0.7052873104508548
 40
0.7187499999999925
 40
0.7187499999999925
 40
0.7187499999999925
 40
0.7187499999999925
 10
400.0000000000006
 20
99.99999999999878
 30
0.0
 10
400.0000000000006
 20
99.99999999999878
 30
0.0
 10
400.0000000000006
 20
99.9999999999988
 30
0.0
 10
400.0000000000007
 20
99.99999999999882
 30
0.0
 10
397.652066259216
 20
99.99999999999885
 30
0.0
 10
387.6607435241644
 20
99.99999999999889
 30
0.0
 10
371.5384813318392
 20
99.99999999999892
 30
0.0
 10
350.449399860411
 20
99.99999999999903
 30
0.0
 10
326.2865120157422
 20
99.99999999999906
 30
0.0
 10
308.8402994666666
 20
99.99999999999915
 30
0.0
 10
262.1250433777776
 20
99.99999999999923
 30
0.0
 10
162.125043377778
 20
99.99999999999952
 30
0.0
 10
0.0000000000007702
 20
100.0
 30
0.0
 10
-162.1250433777768
 20
100.0000000000004
 30
0.0
 10
-262.1250433777772
 20
100.0000000000007
 30
0.0
 10
-308.840299466666
 20
100.0000000000009
 30
0.0
 10
-326.2865120157416
 20
100.0000000000009
 30
0.0
 10
-350.4493998604105
 20
100.000000000001
 30
0.0
 10
-371.5384813318386
 20
100.000000000001
 30
0.0
 10
-387.6607435241638
 20
100.0000000000011
 30
0.0
 10
-397.6520662592158
 20
100.0000000000011
 30
0.0
 10
-400.0000000000001
 20
100.0000000000011
 30
0.0
 10
-400.0
 20
100.000000000001
 30
0.0
 10
-400.0
 20
100.000000000001
 30
0.0
 10
-400.0
 20
100.000000000001
 30
0.0
  0
LINE
  5
87
330
23
100
AcDbEntity
  8
0
  6
Continuous
 62
     7
370
    25
100
AcDbLine
 10
400.0
 20
100.0
 30
0.0
 11
400.0
 21
120.0
 31
0.0
  0
LINE
  5
88
330
23
100
AcDbEntity
  8
0
  6
Continuous
 62
     7
370
    25
100
AcDbLine
 10
-400.0
 20
120.0
 30
0.0
 11
-400.0
 21
100.0
 31
0.0
  0
VIEWPORT
  5
F0
330
23
100
AcDbEntity
  8
0
100
AcDbViewport
 10
0.0
 20
0.0
 30
0.0
 40
205.6
 41
156.0
 68
     1
 69
     1
 12
0.0
 22
0.0
 13
0.0
 23
0.0
 14
10.0
 24
10.0
 15
10.0
 25
10.0
 16
0.0
 26
0.0
 36
1.0
 17
0.0
 27
0.0
 37
0.0
 42
50.0
 43
0.0
 44
0.0
 45
816.0
 50
0.0
 51
0.0
 72
   100
 90
   557152
  1

281
     0
 71
     1
 74
     0
110
0.0
120
0.0
130
0.0
111
1.0
121
0.0
131
0.0
112
0.0
122
1.0
132
0.0
 79
     0
146
0.0
170
     0
 61
     5
348
2F
292
     1
282
     1
141
0.0
142
0.0
 63
   256
361
F1
  0
ENDBLK
  5
25
330
23
100
AcDbEntity
  8
0
100
AcDbBlockEnd
  0
BLOCK
  5
8B
330
89
100
AcDbEntity
  8
0
100
AcDbBlockBegin
  2
*Paper_Space1
 70
     0
 10
0.0
 20
0.0
 30
0.0
  3
*Paper_Space1
  1

  0
SPLINE
  5
8F
330
89
100
AcDbEntity
  8
0
  6
Continuous
 62
     7
370
    25
100
AcDbSpline
210
0.0
220
0.0
230
1.0
 70
     8
 71
     3
 72
    49
 73
    45
 74
     0
 42
0.000000001
 43
0.00000001
 40
0.0
 40
0.0
 40
0.0
 40
0.0
 40
0.0692699858634934
 40
0.1350963206729304
 40
0.1974447537056591
 40
0.2563015025259349
 40
0.3116702330434039
 40
0.3626725795731731
 40
0.4103558539796243
 40
0.4547563182037929
 40
0.495916141619877
 40
0.5388141204090015
 40
0.5776593787789492
 40
0.6125238208294496
 40
0.6434786425527078
 40
0.6705958004247633
 40
0.6939532010480995
 40
0.7136471063615598
 40
0.7298201308515178
 40
0.7427261987623753
 40
0.7528846689454642
 40
0.7587950842901521
 40
0.7660983016813582
 40
0.7749038294970135
 40
0.7872125095097606
 40
0.801612716441127
 40
0.8214869279743402
 40
0.8443349367197251
 40
0.8686785498686272
 40
0.8860324447998209
 40
0.9023788779900627
 40
0.917758268150454
 40
0.928782394729208
 40
0.9393235168094161
 40
0.9492987311017924
 40
0.9576337571664044
 40
0.9638104584272723
 40
0.9679235210469925
 40
0.9707784662938982
 40
0.9723037956034752
 40
0.9740335171601446
 40
0.9783459985985457
 40
0.9874361299310795
 40
1.0
 40
1.0
 40
1.0
 40
1.0
 10
122.4260256737706
 20
28.93920531114858
 30
0.0
 10
122.4871574860543
 20
29.04474106294724
 30
0.0
 10
122.6063820363793
 20
29.25056601858596
 30
0.0
 10
122.8533290014428
 20
29.67150351227292
 30
0.0
 10
123.1468685689016
 20
30.16700000011095
 30
0.0
 10
123.4925649325855
 20
30.74443010279316
 30
0.0
 10
123.8883760119712
 20
31.3983855161856
 30
0.0
 10
124.3345542951222
 20
32.12744708943247
 30
0.0
 10
124.8305582968341
 20
32.92916727585936
 30
0.0
 10
125.3801799916449
 20
33.80828641072898
 30
0.0
 10
126.0082237423104
 20
34.80296081051042
 30
0.0
 10
126.7251632706335
 20
35.92781248508816
 30
0.0
 10
127.5463861662727
 20
37.20522787170363
 30
0.0
 10
128.4370899531242
 20
38.58102844581003
 30
0.0
 10
129.396119834848
 20
40.05452869510838
 30
0.0
 10
130.4214550268842
 20
41.62442103132934
 30
0.0
 10
131.511112057993
 20
43.29021333531256
 30
0.0
 10
132.660627823961
 20
45.04826054592001
 30
0.0
 10
133.8724532461752
 20
46.90640136831225
 30
0.0
 10
135.1395677693868
 20
48.85812206192696
 30
0.0
 10
136.4132980761751
 20
50.83403326087114
 30
0.0
 10
137.6586923114266
 20
52.78230444277522
 30
0.0
 10
138.8080863055293
 20
54.57866654461662
 30
0.0
 10
140.3053697248851
 20
56.91901233586602
 30
0.0
 10
142.1759068997975
 20
59.84184618318308
 30
0.0
 10
144.6340964000286
 20
63.6818013434895
 30
0.0
 10
147.6511251449614
 20
68.39251045960962
 30
0.0
 10
151.1954997035195
 20
73.92440917132231
 30
0.0
 10
154.6113295631922
 20
79.24968800005294
 30
0.0
 10
157.6955515313041
 20
84.06758472159451
 30
0.0
 10
160.3209918185385
 20
88.14293320095598
 30
0.0
 10
162.5940926237122
 20
91.75874591826874
 30
0.0
 10
164.9469653339149
 20
94.40077402658308
 30
0.0
 10
167.1560324381261
 20
96.32478880287694
 30
0.0
 10
169.3236273440225
 20
97.7503831612554
 30
0.0
 10
171.3047007991523
 20
98.71658810035632
 30
0.0
 10
172.9421867883792
 20
99.29923525674506
 30
0.0
 10
174.226990371441
 20
99.63247999500574
 30
0.0
 10
175.1521457805433
 20
99.8017954131426
 30
0.0
 10
175.6906420797684
 20
99.87597630350149
 30
0.0
 10
176.2409267188303
 20
99.9379556789267
 30
0.0
 10
177.0051062325131
 20
99.99179745686037
 30
0.0
 10
177.7428423569818
 20
100.0026398252033
 30
0.0
 10
178.0578986861505
 20
100.0009692718867
 30
0.0
 10
178.2406975467712
 20
99.9999999999991
 30
0.0
  0
SPLINE
  5
90
330
89
100
AcDbEntity
  8
0
  6
Continuous
 62
     7
370
    25
100
AcDbSpline
210
0.0
220
0.0
230
1.0
 70
     8
 71
     3
 72
    42
 73
    38
 74
     0
 42
0.000000001
 43
0.00000001
 40
0.0
 40
0.0
 40
0.0
 40
0.0
 40
0.013582379840659
 40
0.0243554484373178
 40
0.0348175931165258
 40
0.0405691808440262
 40
0.0469020662475395
 40
0.0544142701731532
 40
0.0631655684027892
 40
0.0731215635247843
 40
0.0842320170597612
 40
0.0964258133174047
 40
0.1093121643861101
 40
0.1331440950279949
 40
0.1540373212705198
 40
0.1719943255699292
 40
0.1870180610561884
 40
0.1991457704680269
 40
0.2112218657464154
 40
0.2257011479372876
 40
0.2430736758818081
 40
0.263602054251594
 40
0.2874343318006404
 40
0.3146624135503205
 40
0.3453514088362689
 40
0.3795545807235919
 40
0.4173209209676685
 40
0.4586986772607772
 40
0.5037364650711541
 40
0.5524824099384911
 40
0.6049807753762677
 40
0.6612696508393774
 40
0.7213777308973705
 40
0.7853201565663301
 40
0.853093826783051
 40
0.9246722500918866
 40
1.0
 40
1.0
 40
1.0
 40
1.0
 10
-178.2941888211639
 20
99.99999999999928
 30
0.0
 10
-178.0736477657023
 20
100.0002335676695
 30
0.0
 10
-177.6781812592712
 20
100.000652393046
 30
0.0
 10
-176.9288279643838
 20
99.99042663478045
 30
0.0
 10
-175.4753154786467
 20
99.86503032435627
 30
0.0
 10
-173.8902530712326
 20
99.55038976090619
 30
0.0
 10
-172.3649114902165
 20
99.1069671655699
 30
0.0
 10
-170.6541934553689
 20
98.4174589060184
 30
0.0
 10
-168.7128368584681
 20
97.37434748615537
 30
0.0
 10
-166.601595669164
 20
95.87881410574116
 30
0.0
 10
-164.3978009771358
 20
93.843899898983
 30
0.0
 10
-162.2268616756307
 20
91.2146818789819
 30
0.0
 10
-159.7016465161797
 20
87.14793964955861
 30
0.0
 10
-156.6584488973864
 20
82.45722300659989
 30
0.0
 10
-153.3826240437936
 20
77.32973757584357
 30
0.0
 10
-150.5619096823605
 20
72.93041437441512
 30
0.0
 10
-148.2275967738332
 20
69.28847715872364
 30
0.0
 10
-146.1548947428374
 20
66.04924838137818
 30
0.0
 10
-144.3362665361614
 20
63.23355145836898
 30
0.0
 10
-142.6959685338612
 20
60.72213392304445
 30
0.0
 10
-141.0889010615735
 20
58.27791116484126
 30
0.0
 10
-139.5267108453002
 20
55.91425297560214
 30
0.0
 10
-138.0047548720408
 20
53.61742699314291
 30
0.0
 10
-136.5283025952018
 20
51.39027202736187
 30
0.0
 10
-135.1002356793026
 20
49.23216788725937
 30
0.0
 10
-133.7240421601604
 20
47.144104227642
 30
0.0
 10
-132.402475233293
 20
45.12654361430116
 30
0.0
 10
-131.1378709313709
 20
43.1799911359687
 30
0.0
 10
-129.9320184038748
 20
41.30481212727891
 30
0.0
 10
-128.7862142385375
 20
39.50132957990925
 30
0.0
 10
-127.7009398654718
 20
37.7697506166846
 30
0.0
 10
-126.675994224474
 20
36.11020544375499
 30
0.0
 10
-125.7106059828601
 20
34.5229765404485
 30
0.0
 10
-124.8028339110411
 20
33.00753934190384
 30
0.0
 10
-123.9519041403023
 20
31.56651430367208
 30
0.0
 10
-123.1486308247767
 20
30.18962421692995
 30
0.0
 10
-122.6709577675415
 20
29.36304358611442
 30
0.0
 10
-122.426025673775
 20
28.93920531115635
 30
0.0
  0
SPLINE
  5
91
330
89
100
AcDbEntity
  8
0
  6
Continuous
 62
     7
370
    25
100
AcDbSpline
210
0.0
220
0.0
230
1.0
 70
     8
 71
     3
 72
    15
 73
    11
 74
     0
 42
0.000000001
 43
0.00000001
 40
0.0
 40
0.0
 40
0.0
 40
0.0
 40
0.1168438014696241
 40
0.2458068768570986
 40
0.3898082008661305
 40
0.5385707652248292
 40
0.6783003937726582
 40
0.8014504018417128
 40
0.9078177136622042
 40
1.0
 40
1.0
 40
1.0
 40
1.0
 10
-122.4260256737783
 20
28.93920531116219
 30
0.0
 10
-121.4732081341867
 20
27.23985478697752
 30
0.0
 10
-119.4687449048508
 20
23.66489368693232
 30
0.0
 10
-115.7446992665078
 20
18.31836459513479
 30
0.0
 10
-110.9234932270532
 20
13.16559600181278
 30
0.0
 10
-105.2698593344763
 20
8.650748285734144
 30
0.0
 10
-99.32680976305517
 20
5.172522385222186
 30
0.0
 10
-93.63622135293045
 20
2.792463450752875
 30
0.0
 10
-88.48088937183282
 20
1.263674362090558
 30
0.0
 10
-85.21334398858755
 20
0.7222219477817025
 30
0.0
 10
-83.69629330234075
 20
0.4708372965052041
 30
0.0
  0
SPLINE
  5
92
330
89
100
AcDbEntity
  8
0
  6
Continuous
 62
     7
370
    25
100
AcDbSpline
210
0.0
220
0.0
230
1.0
 70
     8
 71
     3
 72
    15
 73
    11
 74
     0
 42
0.000000001
 43
0.00000001
 40
0.0
 40
0.0
 40
0.0
 40
0.0
 40
0.0921822863377955
 40
0.1985495981582869
 40
0.3216996062273421
 40
0.4614292347751713
 40
0.6101917991338693
 40
0.7541931231429022
 40
0.8831561985303759
 40
1.0
 40
1.0
 40
1.0
 40
1.0
 10
83.6962933023408
 20
0.470837296505093
 30
0.0
 10
85.2133439885876
 20
0.7222219477815914
 30
0.0
 10
88.48088937183289
 20
1.26367436209044
 30
0.0
 10
93.63622135293053
 20
2.792463450752764
 30
0.0
 10
99.32680976305527
 20
5.172522385222061
 30
0.0
 10
105.2698593344764
 20
8.650748285733991
 30
0.0
 10
110.9234932270532
 20
13.1655960018127
 30
0.0
 10
115.7446992665079
 20
18.3183645951346
 30
0.0
 10
119.4687449048508
 20
23.66489368693222
 30
0.0
 10
121.4732081341867
 20
27.23985478697738
 30
0.0
 10
122.4260256737784
 20
28.93920531116205
 30
0.0
  0
SPLINE
  5
93
330
89
100
AcDbEntity
  8
0
  6
Continuous
 62
     7
370
    25
100
AcDbSpline
210
0.0
220
0.0
230
1.0
 70
     8
 71
     3
 72
    84
 73
    80
 74
     0
 42
0.000000001
 43
0.00000001
 40
0.0
 40
0.0
 40
0.0
 40
0.0
 40
0.0318106666681986
 40
0.0619471759508696
 40
0.0903748329625715
 40
0.1170729775220907
 40
0.1420334263593364
 40
0.1652589443212344
 40
0.185578928073088
 40
0.2043834797180768
 40
0.221694092020151
 40
0.2375369656774659
 40
0.2519414516065318
 40
0.266603826294213
 40
0.2794955680242217
 40
0.2906634807564881
 40
0.3001526687087124
 40
0.3080043474988184
 40
0.3133309926849961
 40
0.317610654886926
 40
0.3208749017181548
 40
0.3231571026418638
 40
0.324578082700285
 40
0.3266721326938165
 40
0.3300521963942825
 40
0.3347008299947903
 40
0.340582503130363
 40
0.3476504896211648
 40
0.3558508204242738
 40
0.3647852321580162
 40
0.3778622442269307
 40
0.390396382751752
 40
0.3984233948731442
 40
0.4061700365201593
 40
0.4136488021980393
 40
0.419114551267676
 40
0.4244859858543112
 40
0.4337349525366067
 40
0.4429537421650019
 40
0.4522163633316953
 40
0.4615434752625151
 40
0.4709617555031974
 40
0.4804978770129162
 40
0.4901788523384378
 40
0.5000324762705209
 40
0.5154471375505495
 40
0.5311751617879477
 40
0.5461745476630863
 40
0.5533633421078106
 40
0.5603440147226229
 40
0.5671494432526472
 40
0.577167187906312
 40
0.5870709200331601
 40
0.596901701195391
 40
0.6064098573979966
 40
0.615407924098087
 40
0.6237743881794585
 40
0.6314050558907915
 40
0.6382157116612548
 40
0.6441943637861627
 40
0.6508025718611107
 40
0.6579009716482305
 40
0.6661780646301404
 40
0.6757031628768282
 40
0.6865467973471843
 40
0.6987198172208984
 40
0.7120150112432281
 40
0.7267072865276073
 40
0.7428984014015979
 40
0.7606513913089679
 40
0.7803850683464398
 40
0.8018421351599717
 40
0.8250649749154535
 40
0.8500861851022393
 40
0.8769276699506184
 40
0.9050715416693359
 40
0.934978393393783
 40
0.9666318183393947
 40
1.0
 40
1.0
 40
1.0
 40
1.0
 10
-83.69629330234694
 20
0.4708372965060645
 30
0.0
 10
-83.53679115844552
 20
0.450294671067511
 30
0.0
 10
-83.22618127793393
 20
0.4102905540268806
 30
0.0
 10
-82.82276590975171
 20
0.3719144149630649
 30
0.0
 10
-82.46897487001516
 20
0.342171504978353
 30
0.0
 10
-82.15938695546788
 20
0.3176122686732313
 30
0.0
 10
-81.88474863395336
 20
0.2941741914763013
 30
0.0
 10
-81.64197080035484
 20
0.2700892105221911
 30
0.0
 10
-81.423472641774
 20
0.2443118634045324
 30
0.0
 10
-81.2233923855387
 20
0.2168371299919314
 30
0.0
 10
-81.03254066655917
 20
0.187341042300497
 30
0.0
 10
-80.84689896681857
 20
0.1564745664306699
 30
0.0
 10
-80.65583281299578
 20
0.1239940715099599
 30
0.0
 10
-80.45551247981558
 20
0.090905310605377
 30
0.0
 10
-80.240247856079
 20
0.0589705603631988
 30
0.0
 10
-80.0176015318541
 20
0.0316806485315124
 30
0.0
 10
-79.78486056372967
 20
0.0113371564495132
 30
0.0
 10
-79.55303217474145
 20
-0.000186267122948
 30
0.0
 10
-79.31842842998687
 20
0.0000328336674585
 30
0.0
 10
-79.10420774324082
 20
-0.000005972148942
 30
0.0
 10
-78.86174041727949
 20
0.000000962905429
 30
0.0
 10
-78.62033446055365
 20
-0.0000001256313664
 30
0.0
 10
-78.10556455218534
 20
0.0000000410723608
 30
0.0
 10
-77.79202312685177
 20
-0.0000000213385282
 30
0.0
 10
-77.43064416921919
 20
0.0000000095850619
 30
0.0
 10
-76.94987560460532
 20
-0.0000000037395156
 30
0.0
 10
-76.27348008615546
 20
0.0000000013395673
 30
0.0
 10
-75.30929927695493
 20
-0.0000000004542894
 30
0.0
 10
-73.97038002726141
 20
0.0000000001399159
 30
0.0
 10
-71.91562907545502
 20
-0.0000000000599451
 30
0.0
 10
-68.79482196483485
 20
0.0000000000173958
 30
0.0
 10
-64.8531634956961
 20
-0.0000000000033307
 30
0.0
 10
-60.89640128166977
 20
0.000000000000118
 30
0.0
 10
-57.24623539547863
 20
-0.0000000000006384
 30
0.0
 10
-53.6581653941075
 20
-0.000000000000458
 30
0.0
 10
-50.24529332632792
 20
-0.0000000000004996
 30
0.0
 10
-46.30983641713721
 20
-0.0000000000004927
 30
0.0
 10
-41.36311441865515
 20
-0.0000000000005065
 30
0.0
 10
-35.43513081315226
 20
-0.0000000000005065
 30
0.0
 10
-29.52168130495497
 20
-0.0000000000005135
 30
0.0
 10
-23.56176820894717
 20
-0.0000000000005135
 30
0.0
 10
-17.54802445501219
 20
-0.0000000000005204
 30
0.0
 10
-11.45941786897981
 20
-0.0000000000005204
 30
0.0
 10
-5.27772137942405
 20
-0.0000000000005274
 30
0.0
 10
2.157294392213212
 20
-0.0000000000005343
 30
0.0
 10
10.88421013394297
 20
-0.0000000000005412
 30
0.0
 10
20.72134424383098
 20
-0.0000000000005482
 30
0.0
 10
28.82048558400007
 20
-0.0000000000005551
 30
0.0
 10
35.01365809460808
 20
-0.0000000000005551
 30
0.0
 10
39.46151831656284
 20
-0.0000000000005621
 30
0.0
 10
44.41962174832228
 20
-0.0000000000005482
 30
0.0
 10
49.67735996732528
 20
-0.0000000000006661
 30
0.0
 10
54.96533694956201
 20
-0.0000000000001943
 30
0.0
 10
59.50959012618836
 20
-0.0000000000018527
 30
0.0
 10
63.43363185971641
 20
0.0000000000040801
 30
0.0
 10
66.72287036353009
 20
-0.0000000000163064
 30
0.0
 10
69.4042510465008
 20
0.0000000000518058
 30
0.0
 10
71.5513195922786
 20
-0.0000000001692882
 30
0.0
 10
73.23941845188031
 20
0.0000000005277792
 30
0.0
 10
74.67185345979196
 20
-0.000000001787355
 30
0.0
 10
75.9230650861325
 20
0.0000000077286441
 30
0.0
 10
77.04683953001454
 20
-0.0000000333419611
 30
0.0
 10
77.97585496016268
 20
0.0000001567452695
 30
0.0
 10
78.6128932890947
 20
-0.0000007204040836
 30
0.0
 10
78.68242956327656
 20
0.0000032512898762
 30
0.0
 10
78.7927295862365
 20
-0.0000142734410888
 30
0.0
 10
78.91357715200688
 20
0.0000611273482942
 30
0.0
 10
79.05716348601291
 20
-0.00026516429108
 30
0.0
 10
79.2238919766428
 20
0.0108834529143689
 30
0.0
 10
79.42033658377059
 20
0.0302970950652043
 30
0.0
 10
79.6518686564839
 20
0.0566946997957243
 30
0.0
 10
79.92562330068957
 20
0.0882632437404773
 30
0.0
 10
80.2479261507679
 20
0.1231890237764627
 30
0.0
 10
80.62717072098361
 20
0.1605519465033775
 30
0.0
 10
81.07026660554125
 20
0.2003561446174973
 30
0.0
 10
81.58635884058539
 20
0.2443961989523069
 30
0.0
 10
82.18733990178305
 20
0.2978599770154869
 30
0.0
 10
82.882050262445
 20
0.3657917628647894
 30
0.0
 10
83.42014869272924
 20
0.4352118671710967
 30
0.0
 10
83.69629330234726
 20
0.4708372965059882
 30
0.0
  0
SPLINE
  5
94
330
89
100
AcDbEntity
  8
0
  6
Continuous
 62
     7
370
    25
100
AcDbSpline
210
0.0
220
0.0
230
1.0
 70
    24
 71
     3
 72
    27
 73
    23
 74
     0
 42
0.000000001
 43
0.00000001
 40
0.125
 40
0.125
 40
0.125
 40
0.125
 40
0.1341380686474368
 40
0.1341380686474368
 40
0.1459962756146732
 40
0.1578544825819096
 40
0.1697126895491459
 40
0.1815708965163823
 40
0.1934291034836186
 40
0.2052873104508549
 40
0.2052873104508549
 40
0.25
 40
0.2947126895491455
 40
0.2947126895491455
 40
0.3065708965163818
 40
0.3184291034836182
 40
0.3302873104508544
 40
0.3421455174180907
 40
0.3540037243853271
 40
0.3658619313525633
 40
0.3658619313525633
 40
0.3749999999999993
 40
0.3749999999999993
 40
0.3749999999999993
 40
0.3749999999999993
 10
200.0
 20
120.0000000000003
 30
0.0
 10
200.0
 20
120.0000000000003
 30
0.0
 10
200.0
 20
120.0000000000002
 30
0.0
 10
200.0000000000001
 20
120.0000000000002
 30
0.0
 10
197.6520662592156
 20
120.0000000000001
 30
0.0
 10
187.6607435241637
 20
120.0000000000001
 30
0.0
 10
171.5384813318387
 20
120.0
 30
0.0
 10
150.4493998604104
 20
120.0
 30
0.0
 10
126.2865120157417
 20
119.9999999999999
 30
0.0
 10
108.840299466666
 20
120.0
 30
0.0
 10
66.6666666666664
 20
120.0
 30
0.0
 10
-0.0000000000001318
 20
120.0
 30
0.0
 10
-66.66666666666424
 20
120.0000000000002
 30
0.0
 10
-108.8402994666666
 20
120.0000000000001
 30
0.0
 10
-126.2865120157422
 20
120.0000000000001
 30
0.0
 10
-150.4493998604106
 20
120.0000000000002
 30
0.0
 10
-171.5384813318387
 20
120.0000000000002
 30
0.0
 10
-187.6607435241638
 20
120.0000000000003
 30
0.0
 10
-197.6520662592154
 20
120.0000000000004
 30
0.0
 10
-199.9999999999999
 20
120.0000000000004
 30
0.0
 10
-199.9999999999999
 20
120.0000000000005
 30
0.0
 10
-199.9999999999999
 20
120.0000000000005
 30
0.0
 10
-199.9999999999999
 20
120.0000000000005
 30
0.0
  0
SPLINE
  5
95
330
89
100
AcDbEntity
  8
0
  6
Continuous
 62
     7
370
    25
100
AcDbSpline
210
0.0
220
0.0
230
1.0
 70
    24
 71
     3
 72
    27
 73
    23
 74
     0
 42
0.000000001
 43
0.00000001
 40
0.1250000000000001
 40
0.1250000000000001
 40
0.1250000000000001
 40
0.1250000000000001
 40
0.1341380686474368
 40
0.1341380686474368
 40
0.1459962756146732
 40
0.1578544825819096
 40
0.1697126895491459
 40
0.1815708965163823
 40
0.1934291034836186
 40
0.2052873104508549
 40
0.2052873104508549
 40
0.25
 40
0.2947126895491455
 40
0.2947126895491455
 40
0.3065708965163818
 40
0.3184291034836182
 40
0.3302873104508544
 40
0.3421455174180907
 40
0.3540037243853271
 40
0.3658619313525633
 40
0.3658619313525633
 40
0.3749999999999993
 40
0.3749999999999993
 40
0.3749999999999993
 40
0.3749999999999993
 10
200.0
 20
99.99999999999896
 30
0.0
 10
200.0
 20
99.99999999999895
 30
0.0
 10
200.0
 20
99.99999999999893
 30
0.0
 10
200.0
 20
99.9999999999989
 30
0.0
 10
197.6520662592156
 20
99.99999999999886
 30
0.0
 10
187.6607435241639
 20
99.99999999999885
 30
0.0
 10
171.5384813318389
 20
99.99999999999872
 30
0.0
 10
150.4493998604107
 20
99.99999999999876
 30
0.0
 10
126.2865120157423
 20
99.99999999999868
 30
0.0
 10
108.8402994666667
 20
99.99999999999872
 30
0.0
 10
66.6666666666648
 20
99.99999999999874
 30
0.0
 10
-0.0000000000001093
 20
99.99999999999875
 30
0.0
 10
-66.6666666666659
 20
99.99999999999878
 30
0.0
 10
-108.8402994666658
 20
99.99999999999882
 30
0.0
 10
-126.2865120157415
 20
99.99999999999885
 30
0.0
 10
-150.4493998604102
 20
99.99999999999889
 30
0.0
 10
-171.5384813318385
 20
99.99999999999892
 30
0.0
 10
-187.6607435241635
 20
99.99999999999903
 30
0.0
 10
-197.6520662592155
 20
99.99999999999906
 30
0.0
 10
-199.9999999999999
 20
99.99999999999915
 30
0.0
 10
-199.9999999999999
 20
99.99999999999918
 30
0.0
 10
-199.9999999999999
 20
99.9999999999992
 30
0.0
 10
-199.9999999999999
 20
99.99999999999922
 30
0.0
  0
LINE
  5
96
330
89
100
AcDbEntity
  8
0
  6
Continuous
 62
     7
370
    25
100
AcDbLine
 10
200.0
 20
100.0
 30
0.0
 11
200.0
 21
120.0
 31
0.0
  0
LINE
  5
97
330
89
100
AcDbEntity
  8
0
  6
Continuous
 62
     7
370
    25
100
AcDbLine
 10
-200.0
 20
120.0
 30
0.0
 11
-200.0
 21
100.0
 31
0.0
  0
VIEWPORT
  5
F2
330
89
100
AcDbEntity
  8
0
100
AcDbViewport
 10
0.0
 20
0.0
 30
0.0
 40
205.6
 41
156.0
 68
     1
 69
     1
 12
0.0
 22
0.0
 13
0.0
 23
0.0
 14
10.0
 24
10.0
 15
10.0
 25
10.0
 16
0.0
 26
0.0
 36
1.0
 17
0.0
 27
0.0
 37
0.0
 42
50.0
 43
0.0
 44
0.0
 45
816.0
 50
0.0
 51
0.0
 72
   100
 90
   557152
  1

281
     0
 71
     1
 74
     0
110
0.0
120
0.0
130
0.0
111
1.0
121
0.0
131
0.0
112
0.0
122
1.0
132
0.0
 79
     0
146
0.0
170
     0
 61
     5
348
2F
292
     1
282
     1
141
0.0
142
0.0
 63
   256
361
F3
  0
ENDBLK
  5
8C
330
89
100
AcDbEntity
  8
0
100
AcDbBlockEnd
  0
BLOCK
  5
9A
330
98
100
AcDbEntity
  8
0
100
AcDbBlockBegin
  2
*Paper_Space2
 70
     0
 10
0.0
 20
0.0
 30
0.0
  3
*Paper_Space2
  1

  0
SPLINE
  5
9E
330
98
100
AcDbEntity
  8
0
  6
Continuous
 62
     7
370
    25
100
AcDbSpline
210
0.0
220
0.0
230
1.0
 70
     8
 71
     3
 72
    15
 73
    11
 74
     0
 42
0.000000001
 43
0.00000001
 40
0.0
 40
0.0
 40
0.0
 40
0.0
 40
0.1168438014696243
 40
0.2458068768570978
 40
0.3898082008661307
 40
0.5385707652248286
 40
0.6783003937726578
 40
0.8014504018417129
 40
0.9078177136622044
 40
0.9999999999999999
 40
0.9999999999999999
 40
0.9999999999999999
 40
0.9999999999999999
 10
-122.4260256737784
 20
28.93920531116205
 30
0.0
 10
-121.4732081341868
 20
27.23985478697739
 30
0.0
 10
-119.4687449048508
 20
23.66489368693222
 30
0.0
 10
-115.744699266508
 20
18.31836459513461
 30
0.0
 10
-110.9234932270532
 20
13.1655960018127
 30
0.0
 10
-105.2698593344764
 20
8.650748285733991
 30
0.0
 10
-99.3268097630553
 20
5.172522385222061
 30
0.0
 10
-93.6362213529305
 20
2.792463450752764
 30
0.0
 10
-88.48088937183289
 20
1.26367436209044
 30
0.0
 10
-85.21334398858762
 20
0.7222219477815914
 30
0.0
 10
-83.69629330234082
 20
0.470837296505093
 30
0.0
  0
SPLINE
  5
9F
330
98
100
AcDbEntity
  8
0
  6
Continuous
 62
     7
370
    25
100
AcDbSpline
210
0.0
220
0.0
230
1.0
 70
     8
 71
     3
 72
    40
 73
    36
 74
     0
 42
0.000000001
 43
0.00000001
 40
0.0
 40
0.0
 40
0.0
 40
0.0
 40
0.0738996059286285
 40
0.1442195475583731
 40
0.2109071327784491
 40
0.2739361684807934
 40
0.3333020416565648
 40
0.3890171374603373
 40
0.4411066471191363
 40
0.4896048234475444
 40
0.5345519084249404
 40
0.5759922136036464
 40
0.6139710497872926
 40
0.6485333801688701
 40
0.6797243643687979
 40
0.7075917244067884
 40
0.732191041779851
 40
0.753596177604828
 40
0.7719193145951162
 40
0.7873499746066409
 40
0.800230971191531
 40
0.8114858499053718
 40
0.8246997994375341
 40
0.8407137329062249
 40
0.8595307804949858
 40
0.8811534748949614
 40
0.8971283934238286
 40
0.9138490689170142
 40
0.9290651085275108
 40
0.9423628910669073
 40
0.9536214606197206
 40
0.9627671844216937
 40
0.9745808236542012
 40
0.9864778752666908
 40
1.0
 40
1.0
 40
1.0
 40
1.0
 10
122.4260256737804
 20
28.93920531116575
 30
0.0
 10
122.6646325168188
 20
29.35210703005038
 30
0.0
 10
123.1302881927174
 20
30.15790969077264
 30
0.0
 10
123.9110546306344
 20
31.49671289737751
 30
0.0
 10
124.7368819790481
 20
32.89637693896233
 30
0.0
 10
125.616486163309
 20
34.36670442069376
 30
0.0
 10
126.5505985311149
 20
35.90519855913617
 30
0.0
 10
127.5411053252979
 20
37.51237263077131
 30
0.0
 10
128.5888131277725
 20
39.18797077489384
 30
0.0
 10
129.6940101499052
 20
40.93188486231188
 30
0.0
 10
130.8563923480957
 20
42.74394480404948
 30
0.0
 10
132.0749143465881
 20
44.623890240213
 30
0.0
 10
133.3480295544925
 20
46.57139938794664
 30
0.0
 10
134.6737471275103
 20
48.58609463715592
 30
0.0
 10
136.0495904196017
 20
50.66746486530393
 30
0.0
 10
137.472728329866
 20
52.81505718639078
 30
0.0
 10
138.939776757654
 20
55.02805088581714
 30
0.0
 10
140.4480407617
 20
57.3073545169264
 30
0.0
 10
141.9936263935806
 20
59.651902610081
 30
0.0
 10
143.5824785373211
 20
62.07779829084927
 30
0.0
 10
145.224781554537
 20
64.60360966333339
 30
0.0
 10
147.1434282681363
 20
67.59500586017835
 30
0.0
 10
149.2314903805689
 20
70.85411139396147
 30
0.0
 10
151.7218286338968
 20
74.74063843737449
 30
0.0
 10
154.6560550043779
 20
79.31878768188135
 30
0.0
 10
157.593822551547
 20
83.90710697688532
 30
0.0
 10
160.4287084628551
 20
88.31809303475728
 30
0.0
 10
162.9228871978787
 20
92.25214797022223
 30
0.0
 10
165.7926623505558
 20
95.24845362571217
 30
0.0
 10
168.5667153356054
 20
97.32278821504433
 30
0.0
 10
171.0417916659032
 20
98.61861661414054
 30
0.0
 10
173.5370996206679
 20
99.50666085166743
 30
0.0
 10
175.8612844871615
 20
99.92841523842112
 30
0.0
 10
177.3664438239823
 20
100.0031090362023
 30
0.0
 10
177.8609006320428
 20
100.0010795934954
 30
0.0
 10
178.123934592816
 20
100.0000000000008
 30
0.0
  0
SPLINE
  5
A0
330
98
100
AcDbEntity
  8
0
  6
Continuous
 62
     7
370
    25
100
AcDbSpline
210
0.0
220
0.0
230
1.0
 70
     8
 71
     3
 72
    41
 73
    37
 74
     0
 42
0.000000001
 43
0.00000001
 40
0.0
 40
0.0
 40
0.0
 40
0.0
 40
0.0118485977274093
 40
0.0185056976810712
 40
0.0234291503512023
 40
0.0253657707487836
 40
0.0270684835285061
 40
0.0304379808770473
 40
0.035279698956438
 40
0.0421425543717685
 40
0.0511085654667417
 40
0.0610678199107466
 40
0.0758365679905177
 40
0.0891401805610562
 40
0.10103009208449
 40
0.1116348809118543
 40
0.1210766361508109
 40
0.1339423050894258
 40
0.149438693934736
 40
0.1679610548445722
 40
0.1897100190384003
 40
0.2147866348102649
 40
0.2432408365081885
 40
0.2750963394542812
 40
0.3103639315828046
 40
0.3490487823303152
 40
0.3911544254930715
 40
0.436684713945695
 40
0.4856443864194488
 40
0.5458028451056195
 40
0.6104479314789815
 40
0.6795727104606206
 40
0.7531548686977925
 40
0.8311481926068297
 40
0.9134722198089441
 40
1.0
 40
1.0
 40
1.0
 40
1.0
 10
-178.1738484133903
 20
100.0000000000006
 30
0.0
 10
-177.9880466356592
 20
100.0014452346198
 30
0.0
 10
-177.6978526729302
 20
100.0037024700798
 30
0.0
 10
-176.9998825730629
 20
99.98861800661433
 30
0.0
 10
-176.3629942868928
 20
99.94958515814747
 30
0.0
 10
-175.7620681741118
 20
99.88548510890728
 30
0.0
 10
-175.1525431106183
 20
99.80329449160854
 30
0.0
 10
-174.1373004486681
 20
99.61491932605911
 30
0.0
 10
-172.7761413016234
 20
99.24980131144238
 30
0.0
 10
-171.0740473028393
 20
98.61885160447038
 30
0.0
 10
-169.1323338787714
 20
97.63553681794846
 30
0.0
 10
-166.7613168424477
 20
96.04023626409072
 30
0.0
 10
-164.2791418978121
 20
93.76454109648138
 30
0.0
 10
-162.0082716897375
 20
90.87806416023432
 30
0.0
 10
-160.2383061026293
 20
88.00409928604394
 30
0.0
 10
-158.6319424043668
 20
85.52311567902633
 30
0.0
 10
-156.9722118572126
 20
82.9262982815295
 30
0.0
 10
-155.2909930774558
 20
80.34346988013915
 30
0.0
 10
-153.5554274639548
 20
77.70916171343626
 30
0.0
 10
-151.799591667331
 20
75.07140481700989
 30
0.0
 10
-150.0278007484546
 20
72.42854411729994
 30
0.0
 10
-148.2405881558867
 20
69.77457786523466
 30
0.0
 10
-146.4432636423838
 20
67.11021274468506
 30
0.0
 10
-144.6405687120394
 20
64.4354678563589
 30
0.0
 10
-142.8375807289772
 20
61.75094967128778
 30
0.0
 10
-141.0390845803887
 20
59.05708357064559
 30
0.0
 10
-139.2496116362732
 20
56.35427181324096
 30
0.0
 10
-137.4732943737005
 20
53.64281702098969
 30
0.0
 10
-135.6208612487643
 20
50.77926823175168
 30
0.0
 10
-133.7099109781018
 20
47.77890252992964
 30
0.0
 10
-131.7541486978005
 20
44.65196290096831
 30
0.0
 10
-129.8291157156661
 20
41.51490946692378
 30
0.0
 10
-127.9339206536877
 20
38.36734675724381
 30
0.0
 10
-126.0671453388763
 20
35.21212338315976
 30
0.0
 10
-124.2164691318756
 20
32.03890704098944
 30
0.0
 10
-123.0326642052827
 20
29.98944708058494
 30
0.0
 10
-122.4260256737873
 20
28.93920531117748
 30
0.0
  0
SPLINE
  5
A1
330
98
100
AcDbEntity
  8
0
  6
Continuous
 62
     7
370
    25
100
AcDbSpline
210
0.0
220
0.0
230
1.0
 70
     8
 71
     3
 72
    82
 73
    78
 74
     0
 42
0.000000001
 43
0.00000001
 40
0.0
 40
0.0
 40
0.0
 40
0.0
 40
0.0326232709698863
 40
0.0635239560524684
 40
0.0926603939464738
 40
0.120005256927786
 40
0.1455439387747327
 40
0.1692729554677904
 40
0.1899934531902791
 40
0.2091209840880611
 40
0.2266712357924716
 40
0.2426642324699222
 40
0.2571223910209123
 40
0.2717173144190669
 40
0.2843892618211616
 40
0.2951639123223089
 40
0.3041599063517404
 40
0.3114690203421581
 40
0.3168220818807684
 40
0.3208086945631572
 40
0.3234962620072093
 40
0.3241879378037021
 40
0.3247329354477584
 40
0.325357516452319
 40
0.3256927345890995
 40
0.3261374688144255
 40
0.3270987542783994
 40
0.3299772362935709
 40
0.3341982428829856
 40
0.3397406195752937
 40
0.3465643282074951
 40
0.3546196014256943
 40
0.3635048751184928
 40
0.3766573112263174
 40
0.3894224069474796
 40
0.4016973919984781
 40
0.4134075428245884
 40
0.4246027890652306
 40
0.4353945218090913
 40
0.4513499676263814
 40
0.4675980998441461
 40
0.4841914366948741
 40
0.5011890675829427
 40
0.5167063635718022
 40
0.5324339285054791
 40
0.5474042984856299
 40
0.5580713169182813
 40
0.5683201783222792
 40
0.5783854680010555
 40
0.5883099649119177
 40
0.5980708287188489
 40
0.6074074621965857
 40
0.6161261556452848
 40
0.624099316398489
 40
0.6298699843828289
 40
0.6350530168768239
 40
0.6396159956098586
 40
0.6437352359319353
 40
0.6485471599268315
 40
0.6558584667145148
 40
0.6647096349766212
 40
0.675213657698416
 40
0.68747382690874
 40
0.698576023352367
 40
0.710878320495047
 40
0.7244290599426055
 40
0.7392779931290303
 40
0.7555222790885116
 40
0.7754405749053648
 40
0.7972095921756063
 40
0.8208568693211435
 40
0.8464018284040371
 40
0.8738552416056877
 40
0.9026760843986477
 40
0.9333262166609828
 40
0.9657808470229181
 40
1.0
 40
1.0
 40
1.0
 40
1.0
 10
-83.69629330233509
 20
0.4708372965043089
 30
0.0
 10
-83.53562694667815
 20
0.450135072494473
 30
0.0
 10
-83.22277779904722
 20
0.4098237508798272
 30
0.0
 10
-82.80038932169727
 20
0.3691005709548223
 30
0.0
 10
-82.41668481744523
 20
0.3358142212970122
 30
0.0
 10
-82.06574900323464
 20
0.3064003867712523
 30
0.0
 10
-81.73901028069507
 20
0.276850574152776
 30
0.0
 10
-81.43473912952409
 20
0.2455787645689878
 30
0.0
 10
-81.14637643301867
 20
0.2119040975987335
 30
0.0
 10
-80.8691816176719
 20
0.1762927478213758
 30
0.0
 10
-80.59257257489013
 20
0.1388333451375276
 30
0.0
 10
-80.31265524470787
 20
0.101099102086534
 30
0.0
 10
-80.01515251569843
 20
0.0635492050925987
 30
0.0
 10
-79.69466486519975
 20
0.0300895958905492
 30
0.0
 10
-79.3434183098232
 20
0.0033839102886735
 30
0.0
 10
-78.97254276977283
 20
-0.0006954003652082
 30
0.0
 10
-78.5824868512659
 20
0.0001379617743658
 30
0.0
 10
-78.17913991914578
 20
-0.0000240621815112
 30
0.0
 10
-77.76681793858738
 20
0.0000040822059899
 30
0.0
 10
-77.35090952236605
 20
-0.0000006436899902
 30
0.0
 10
-76.97800175869271
 20
0.0000000320134405
 30
0.0
 10
-76.60685075249123
 20
-0.0000000029168404
 30
0.0
 10
-76.39218392223852
 20
0.0000000008320705
 30
0.0
 10
-76.09938807012735
 20
-0.000000000116171
 30
0.0
 10
-75.86987213731936
 20
0.0000000000311279
 30
0.0
 10
-75.67463135050932
 20
-0.0000000000208583
 30
0.0
 10
-75.32658447431858
 20
0.000000000023842
 30
0.0
 10
-74.90626180913591
 20
-0.000000000012941
 30
0.0
 10
-74.33876483289446
 20
0.0000000000056968
 30
0.0
 10
-73.61395314453203
 20
-0.0000000000017972
 30
0.0
 10
-72.63398864006858
 20
0.0000000000009645
 30
0.0
 10
-71.3219823035577
 20
0.0000000000000486
 30
0.0
 10
-69.34005958449725
 20
0.0000000000003816
 30
0.0
 10
-66.35933671013902
 20
0.0000000000002567
 30
0.0
 10
-62.20515366062759
 20
0.0000000000003123
 30
0.0
 10
-57.35536635600176
 20
0.0000000000003331
 30
0.0
 10
-51.93472287506443
 20
0.00000000000034
 30
0.0
 10
-46.04902600589208
 20
0.0000000000003331
 30
0.0
 10
-38.71091207178426
 20
0.0000000000003331
 30
0.0
 10
-29.8922920399062
 20
0.0000000000003539
 30
0.0
 10
-19.89791273405413
 20
0.0000000000003539
 30
0.0
 10
-9.565323026383203
 20
0.0000000000003608
 30
0.0
 10
0.65564201061955
 20
0.0000000000003608
 30
0.0
 10
10.69327861076767
 20
0.0000000000003608
 30
0.0
 10
20.26232511050637
 20
0.0000000000003608
 30
0.0
 10
28.75594012304458
 20
0.0000000000003678
 30
0.0
 10
36.0601628366756
 20
0.0000000000003678
 30
0.0
 10
42.30644292942008
 20
0.0000000000003886
 30
0.0
 10
47.93360159534458
 20
0.0000000000003469
 30
0.0
 10
52.97710754202216
 20
0.0000000000005412
 30
0.0
 10
57.35566245589754
 20
-0.0000000000001596
 30
0.0
 10
61.16538429474305
 20
0.0000000000022274
 30
0.0
 10
64.39812933448957
 20
-0.0000000000058634
 30
0.0
 10
66.93123184950423
 20
0.0000000000189848
 30
0.0
 10
68.90947180101541
 20
-0.0000000000462616
 30
0.0
 10
70.44779004505597
 20
0.0000000001485409
 30
0.0
 10
71.76852839801484
 20
-0.0000000004619291
 30
0.0
 10
73.06225710087269
 20
0.0000000016551829
 30
0.0
 10
74.35313921437951
 20
-0.0000000090149069
 30
0.0
 10
75.6749623157435
 20
0.0000000581785037
 30
0.0
 10
76.84483076091881
 20
-0.0000002856953354
 30
0.0
 10
77.5468190962236
 20
0.0000013716394062
 30
0.0
 10
77.6904521567549
 20
-0.0000057938318726
 30
0.0
 10
77.96301857674156
 20
0.0000201348095141
 30
0.0
 10
78.18949801445166
 20
-0.0000881638357805
 30
0.0
 10
78.43607434103839
 20
0.0003800985409197
 30
0.0
 10
78.6914121142875
 20
-0.0016276609543023
 30
0.0
 10
78.97472665358454
 20
0.0086967245386885
 30
0.0
 10
79.2902042828047
 20
0.0331199839050181
 30
0.0
 10
79.64668079595917
 20
0.0665604272369405
 30
0.0
 10
80.04144493932704
 20
0.1053731289793747
 30
0.0
 10
80.48293151445631
 20
0.1471469011443474
 30
0.0
 10
80.97750702910162
 20
0.1912073368164485
 30
0.0
 10
81.53436484455612
 20
0.2389331137528511
 30
0.0
 10
82.16491001821228
 20
0.2952793702798509
 30
0.0
 10
82.87860133396437
 20
0.3653195265471351
 30
0.0
 10
83.41896242491657
 20
0.4350495709825319
 30
0.0
 10
83.69629330233411
 20
0.4708372965042881
 30
0.0
  0
SPLINE
  5
A2
330
98
100
AcDbEntity
  8
0
  6
Continuous
 62
     7
370
    25
100
AcDbSpline
210
0.0
220
0.0
230
1.0
 70
     8
 71
     3
 72
    15
 73
    11
 74
     0
 42
0.000000001
 43
0.00000001
 40
0.0
 40
0.0
 40
0.0
 40
0.0
 40
0.0921822863377958
 40
0.1985495981582872
 40
0.3216996062273419
 40
0.4614292347751709
 40
0.6101917991338695
 40
0.7541931231429014
 40
0.8831561985303759
 40
1.0
 40
1.0
 40
1.0
 40
1.0
 10
83.69629330234075
 20
0.4708372965052041
 30
0.0
 10
85.21334398858757
 20
0.7222219477817025
 30
0.0
 10
88.48088937183284
 20
1.263674362090558
 30
0.0
 10
93.63622135293048
 20
2.792463450752881
 30
0.0
 10
99.32680976305521
 20
5.172522385222186
 30
0.0
 10
105.2698593344763
 20
8.650748285734151
 30
0.0
 10
110.9234932270532
 20
13.16559600181279
 30
0.0
 10
115.7446992665078
 20
18.31836459513478
 30
0.0
 10
119.4687449048508
 20
23.66489368693234
 30
0.0
 10
121.4732081341867
 20
27.23985478697752
 30
0.0
 10
122.4260256737783
 20
28.93920531116219
 30
0.0
  0
SPLINE
  5
A3
330
98
100
AcDbEntity
  8
0
  6
Continuous
 62
     7
370
    25
100
AcDbSpline
210
0.0
220
0.0
230
1.0
 70
    24
 71
     3
 72
    27
 73
    23
 74
     0
 42
0.000000001
 43
0.00000001
 40
0.5937500000000028
 40
0.5937500000000028
 40
0.5937500000000028
 40
0.5937500000000028
 40
0.6341380686474369
 40
0.6341380686474369
 40
0.6459962756146733
 40
0.6578544825819097
 40
0.6697126895491459
 40
0.6815708965163823
 40
0.6934291034836186
 40
0.7052873104508548
 40
0.7052873104508548
 40
0.75
 40
0.7947126895491452
 40
0.7947126895491452
 40
0.8065708965163816
 40
0.818429103483618
 40
0.8302873104508544
 40
0.8421455174180905
 40
0.8540037243853269
 40
0.8658619313525633
 40
0.8658619313525633
 40
0.8749999999999959
 40
0.8749999999999959
 40
0.8749999999999959
 40
0.8749999999999959
 10
199.9999999999998
 20
120.0000000000018
 30
0.0
 10
199.9999999999998
 20
120.0000000000019
 30
0.0
 10
199.9999999999997
 20
120.000000000002
 30
0.0
 10
200.0
 20
120.0000000000021
 30
0.0
 10
197.6520662592156
 20
120.0000000000021
 30
0.0
 10
187.6607435241636
 20
120.0000000000023
 30
0.0
 10
171.5384813318385
 20
120.0000000000023
 30
0.0
 10
150.4493998604103
 20
120.0000000000023
 30
0.0
 10
126.2865120157415
 20
120.0000000000023
 30
0.0
 10
108.8402994666658
 20
120.0000000000023
 30
0.0
 10
66.66666666666596
 20
120.0000000000023
 30
0.0
 10
-0.0000000000000087
 20
120.0000000000023
 30
0.0
 10
-66.66666666666474
 20
120.0000000000022
 30
0.0
 10
-108.8402994666667
 20
120.0000000000022
 30
0.0
 10
-126.2865120157423
 20
120.0000000000022
 30
0.0
 10
-150.4493998604108
 20
120.0000000000022
 30
0.0
 10
-171.5384813318389
 20
120.0000000000021
 30
0.0
 10
-187.660743524164
 20
120.000000000002
 30
0.0
 10
-197.6520662592156
 20
120.0000000000019
 30
0.0
 10
-200.0000000000001
 20
120.0000000000019
 30
0.0
 10
-200.0000000000001
 20
120.0000000000019
 30
0.0
 10
-200.0
 20
120.0000000000018
 30
0.0
 10
-200.0
 20
120.0000000000018
 30
0.0
  0
SPLINE
  5
A4
330
98
100
AcDbEntity
  8
0
  6
Continuous
 62
     7
370
    25
100
AcDbSpline
210
0.0
220
0.0
230
1.0
 70
    24
 71
     3
 72
    27
 73
    23
 74
     0
 42
0.000000001
 43
0.00000001
 40
0.5937500000000009
 40
0.5937500000000009
 40
0.5937500000000009
 40
0.5937500000000009
 40
0.6341380686474369
 40
0.6341380686474369
 40
0.6459962756146733
 40
0.6578544825819097
 40
0.6697126895491459
 40
0.6815708965163823
 40
0.6934291034836186
 40
0.7052873104508548
 40
0.7052873104508548
 40
0.75
 40
0.7947126895491452
 40
0.7947126895491452
 40
0.8065708965163816
 40
0.818429103483618
 40
0.8302873104508544
 40
0.8421455174180905
 40
0.8540037243853269
 40
0.8658619313525633
 40
0.8658619313525633
 40
0.8749999999999994
 40
0.8749999999999994
 40
0.8749999999999994
 40
0.8749999999999994
 10
199.9999999999999
 20
100.0000000000006
 30
0.0
 10
199.9999999999999
 20
100.0000000000007
 30
0.0
 10
199.9999999999999
 20
100.0000000000007
 30
0.0
 10
199.9999999999999
 20
100.0000000000009
 30
0.0
 10
197.6520662592154
 20
100.0000000000009
 30
0.0
 10
187.6607435241636
 20
100.000000000001
 30
0.0
 10
171.5384813318385
 20
100.000000000001
 30
0.0
 10
150.4493998604102
 20
100.0000000000011
 30
0.0
 10
126.2865120157415
 20
100.0000000000011
 30
0.0
 10
108.8402994666658
 20
100.0000000000011
 30
0.0
 10
66.66666666666585
 20
100.000000000001
 30
0.0
 10
-0.0000000000000807
 20
100.000000000001
 30
0.0
 10
-66.66666666666643
 20
100.000000000001
 30
0.0
 10
-108.840299466666
 20
100.0000000000009
 30
0.0
 10
-126.2865120157417
 20
100.0000000000009
 30
0.0
 10
-150.4493998604104
 20
100.0000000000009
 30
0.0
 10
-171.5384813318386
 20
100.0000000000008
 30
0.0
 10
-187.6607435241637
 20
100.0000000000008
 30
0.0
 10
-197.6520662592157
 20
100.0000000000006
 30
0.0
 10
-200.0000000000001
 20
100.0000000000006
 30
0.0
 10
-200.0000000000001
 20
100.0000000000006
 30
0.0
 10
-200.0
 20
100.0000000000006
 30
0.0
 10
-200.0
 20
100.0000000000006
 30
0.0
  0
LINE
  5
A5
330
98
100
AcDbEntity
  8
0
  6
Continuous
 62
     7
370
    25
100
AcDbLine
 10
200.0
 20
100.0
 30
0.0
 11
200.0
 21
120.0
 31
0.0
  0
LINE
  5
A6
330
98
100
AcDbEntity
  8
0
  6
Continuous
 62
     7
370
    25
100
AcDbLine
 10
-200.0
 20
120.0
 30
0.0
 11
-200.0
 21
100.0
 31
0.0
  0
VIEWPORT
  5
F4
330
98
100
AcDbEntity
  8
0
100
AcDbViewport
 10
0.0
 20
0.0
 30
0.0
 40
205.6
 41
156.0
 68
     1
 69
     1
 12
0.0
 22
0.0
 13
0.0
 23
0.0
 14
10.0
 24
10.0
 15
10.0
 25
10.0
 16
0.0
 26
0.0
 36
1.0
 17
0.0
 27
0.0
 37
0.0
 42
50.0
 43
0.0
 44
0.0
 45
816.0
 50
0.0
 51
0.0
 72
   100
 90
   557152
  1

281
     0
 71
     1
 74
     0
110
0.0
120
0.0
130
0.0
111
1.0
121
0.0
131
0.0
112
0.0
122
1.0
132
0.0
 79
     0
146
0.0
170
     0
 61
     5
348
2F
292
     1
282
     1
141
0.0
142
0.0
 63
   256
361
F5
  0
ENDBLK
  5
9B
330
98
100
AcDbEntity
  8
0
100
AcDbBlockEnd
  0
BLOCK
  5
A9
330
A7
100
AcDbEntity
  8
0
100
AcDbBlockBegin
  2
*Paper_Space3
 70
     0
 10
0.0
 20
0.0
 30
0.0
  3
*Paper_Space3
  1

  0
SPLINE
  5
AB
330
A7
100
AcDbEntity
  8
0
  6
Continuous
 62
     7
370
    25
100
AcDbSpline
210
0.0
220
0.0
230
1.0
 70
     8
 71
     3
 72
    43
 73
    39
 74
     0
 42
0.000000001
 43
0.00000001
 40
0.0
 40
0.0
 40
0.0
 40
0.0
 40
0.046622793560963
 40
0.0871565444568826
 40
0.1218166406656946
 40
0.1507947573879616
 40
0.1743099116808824
 40
0.1863925059821205
 40
0.1966398577831765
 40
0.205328782926657
 40
0.2129433877867849
 40
0.2227010164944389
 40
0.2327860169235923
 40
0.2432057336521513
 40
0.2765483370577739
 40
0.3134688453597431
 40
0.3509320181634671
 40
0.3890524708040469
 40
0.4293123671477561
 40
0.470140181536487
 40
0.5102551638707142
 40
0.5502065246119193
 40
0.6141886463465873
 40
0.6796481941836835
 40
0.7463865971138989
 40
0.788974718105636
 40
0.8272663829214735
 40
0.844782624320918
 40
0.861227796978031
 40
0.8766004719789148
 40
0.8904631023147594
 40
0.9028382394611714
 40
0.9143516176333147
 40
0.9257894630916166
 40
0.9379494842242326
 40
0.9563636029774623
 40
0.9775424291451789
 40
1.0
 40
1.0
 40
1.0
 40
1.0
 10
274.7534167812233
 20
0.0263098586084087
 30
0.0
 10
275.6203541682727
 20
0.0381972110162013
 30
0.0
 10
277.2410049518192
 20
0.0604194006250044
 30
0.0
 10
279.5220397608577
 20
0.1409803368098983
 30
0.0
 10
281.5881091815512
 20
0.2718846188998272
 30
0.0
 10
283.522209971063
 20
0.4668916668622083
 30
0.0
 10
285.229463391144
 20
0.7112933854544132
 30
0.0
 10
286.7280488990441
 20
0.9851770691309131
 30
0.0
 10
287.9412147850423
 20
1.241382109875344
 30
0.0
 10
289.1932213753091
 20
1.541553014901352
 30
0.0
 10
290.6620606084078
 20
1.936524735497644
 30
0.0
 10
292.3177361325124
 20
2.440282202369755
 30
0.0
 10
294.0840780694593
 20
3.051035187951884
 30
0.0
 10
297.2001762639528
 20
4.262251446719448
 30
0.0
 10
301.7105570790711
 20
6.454228738156383
 30
0.0
 10
307.3078176769166
 20
10.14291213528581
 30
0.0
 10
312.5534028077203
 20
14.77124017610645
 30
0.0
 10
317.2791555167232
 20
20.22554828141083
 30
0.0
 10
321.0948967376724
 20
26.57764998938178
 30
0.0
 10
324.8200616778084
 20
33.10053445597993
 30
0.0
 10
328.5771318768273
 20
39.58954545718741
 30
0.0
 10
333.0413536219614
 20
47.32646332918149
 30
0.0
 10
338.2922725597902
 20
56.42466672777019
 30
0.0
 10
344.3848118797832
 20
66.95453852501464
 30
0.0
 10
349.77081574341
 20
76.36155558196654
 30
0.0
 10
354.4291894487355
 20
84.24036277659967
 30
0.0
 10
357.2796645560854
 20
89.64547120242219
 30
0.0
 10
359.923486426532
 20
93.28349329395789
 30
0.0
 10
362.1423651606314
 20
95.41142232804394
 30
0.0
 10
364.450851411598
 20
97.06571039996379
 30
0.0
 10
366.7463083804057
 20
98.27105271394883
 30
0.0
 10
368.8736539190959
 20
99.0763850218067
 30
0.0
 10
370.7292995820898
 20
99.56347791702564
 30
0.0
 10
372.2363032718416
 20
99.82247916632915
 30
0.0
 10
373.5076474865247
 20
99.95454940640269
 30
0.0
 10
374.3022263003826
 20
99.98943385534908
 30
0.0
 10
374.6107528096566
 20
99.99749955615843
 30
0.0
 10
374.8620712142385
 20
99.99915039304645
 30
0.0
 10
374.9914128020671
 20
100.000000000001
 30
0.0
  0
SPLINE
  5
AC
330
A7
100
AcDbEntity
  8
0
  6
Continuous
 62
     7
370
    25
100
AcDbSpline
210
0.0
220
0.0
230
1.0
 70
     8
 71
     3
 72
    88
 73
    84
 74
     0
 42
0.000000001
 43
0.00000001
 40
0.0
 40
0.0
 40
0.0
 40
0.0
 40
0.0057099605564486
 40
0.0104373793252334
 40
0.0142022528764987
 40
0.0170475173578939
 40
0.0186365059914153
 40
0.0198581189549783
 40
0.0203914653977424
 40
0.021239258869533
 40
0.0226184912018869
 40
0.0254256237720103
 40
0.0293184054456732
 40
0.0337112862810142
 40
0.0383323754845457
 40
0.0456587093482027
 40
0.0535070155767041
 40
0.0618665829590192
 40
0.070555916217216
 40
0.0791197811796015
 40
0.0875363286480895
 40
0.1004646903455937
 40
0.1130292680275549
 40
0.125104912840738
 40
0.1347762801923545
 40
0.1437590735657502
 40
0.1517996846748422
 40
0.1601416445400856
 40
0.1691521816539409
 40
0.178321614669284
 40
0.1876995060525938
 40
0.1923638019330714
 40
0.1966263919721845
 40
0.2005440601593401
 40
0.2042018408962663
 40
0.2077887871319753
 40
0.2114858788203534
 40
0.2192293925878234
 40
0.2274984264180541
 40
0.2364357040684455
 40
0.2453015986668873
 40
0.2537250580021364
 40
0.2618304363775533
 40
0.2697404859483671
 40
0.277461525538198
 40
0.2849760302633871
 40
0.2924224036597109
 40
0.3028408326937158
 40
0.3138011791813048
 40
0.3252331403549013
 40
0.3363963517319186
 40
0.3479673317105705
 40
0.3599403190971227
 40
0.3722308753537389
 40
0.3847563314854226
 40
0.3975150944718304
 40
0.4105053030568791
 40
0.4237248172446072
 40
0.466335606294213
 40
0.5101134263586807
 40
0.5633686418662451
 40
0.6174119885752828
 40
0.6717605781560275
 40
0.7087060626411491
 40
0.7449447232156758
 40
0.7801808240267841
 40
0.8142601458766792
 40
0.8470524022808755
 40
0.8603087435409199
 40
0.873314312872734
 40
0.8860603841229553
 40
0.8984314563969332
 40
0.9104618651217965
 40
0.9228752951936249
 40
0.9324953369658706
 40
0.9422993668901315
 40
0.9521790806779792
 40
0.962023271048523
 40
0.9717264508105501
 40
0.9812630024525169
 40
0.9875325694784496
 40
0.9937391331803577
 40
1.0
 40
1.0
 40
1.0
 40
1.0
 10
-375.4060363944101
 20
99.99999999999886
 30
0.0
 10
-375.2822401963621
 20
100.0002979521506
 30
0.0
 10
-375.0559500380899
 20
100.0008425863207
 30
0.0
 10
-374.5293963046722
 20
99.99751219583928
 30
0.0
 10
-373.9017526382119
 20
99.97357493531035
 30
0.0
 10
-373.203125507956
 20
99.9236856972065
 30
0.0
 10
-372.4612079178603
 20
99.84207667526759
 30
0.0
 10
-371.8128254525476
 20
99.74766875944667
 30
0.0
 10
-371.1849179195498
 20
99.63513260261516
 30
0.0
 10
-370.4775411233617
 20
99.48871591458277
 30
0.0
 10
-369.2230656352723
 20
99.1712486436079
 30
0.0
 10
-367.2426320154964
 20
98.49557846741544
 30
0.0
 10
-364.6657078850308
 20
97.2249477078657
 30
0.0
 10
-361.9445683408971
 20
95.28013420265682
 30
0.0
 10
-358.9472361712473
 20
92.26756382768443
 30
0.0
 10
-356.4163861204216
 20
87.78772070372104
 30
0.0
 10
-353.3717936723292
 20
82.5460892621583
 30
0.0
 10
-350.1613762308835
 20
76.97615855330031
 30
0.0
 10
-346.8556900751092
 20
71.25319432175458
 30
0.0
 10
-343.5434967270421
 20
65.51555109854333
 30
0.0
 10
-339.6839640389345
 20
58.83108848939435
 30
0.0
 10
-335.3089032433123
 20
51.25182202686868
 30
0.0
 10
-330.4589737161575
 20
42.85676364161492
 30
0.0
 10
-326.0385271523886
 20
35.18289567691187
 30
0.0
 10
-322.0524413929003
 20
28.32994144588127
 30
0.0
 10
-318.6739005586516
 20
22.31520982996238
 30
0.0
 10
-314.6784401315581
 20
17.1025997850236
 30
0.0
 10
-310.0657431899796
 20
12.42432780916971
 30
0.0
 10
-304.6294277236654
 20
8.227865488561886
 30
0.0
 10
-298.424110544729
 20
4.702770961609259
 30
0.0
 10
-292.8286706400284
 20
2.513389577983693
 30
0.0
 10
-288.2552122684256
 20
1.277102830982924
 30
0.0
 10
-285.0675252861793
 20
0.6497517833003036
 30
0.0
 10
-282.3114041825318
 20
0.2788285268522581
 30
0.0
 10
-280.045978701142
 20
0.095350636593973
 30
0.0
 10
-278.6556358404325
 20
0.0331260322405241
 30
0.0
 10
-276.9445090714701
 20
-0.0082624206402329
 30
0.0
 10
-275.0158310484804
 20
0.0030434178910285
 30
0.0
 10
-273.2844162694321
 20
-0.0009138520602192
 30
0.0
 10
-272.2197803919882
 20
0.0002510729195312
 30
0.0
 10
-270.9302602064051
 20
-0.0000634194234073
 30
0.0
 10
-269.5777231704309
 20
0.0000159397107596
 30
0.0
 10
-267.3751303443914
 20
-0.0000040922249617
 30
0.0
 10
-264.2599079339197
 20
0.0000010572569972
 30
0.0
 10
-260.5406889374376
 20
-0.0000002719072675
 30
0.0
 10
-256.3541984540001
 20
0.0000000704894129
 30
0.0
 10
-251.2117822711182
 20
-0.0000000272946249
 30
0.0
 10
-244.8961606564764
 20
0.0000000087805874
 30
0.0
 10
-237.2141552139776
 20
-0.0000000025205185
 30
0.0
 10
-228.9882961122753
 20
0.0000000006679032
 30
0.0
 10
-220.362130028742
 20
-0.0000000001848036
 30
0.0
 10
-211.4515617030688
 20
0.000000000051549
 30
0.0
 10
-202.1921161192797
 20
-0.0000000000150088
 30
0.0
 10
-192.7053308962462
 20
0.0000000000035735
 30
0.0
 10
-183.0100599482348
 20
-0.0000000000015404
 30
0.0
 10
-173.1353776963552
 20
-0.000000000000111
 30
0.0
 10
-163.0808467628964
 20
-0.0000000000004788
 30
0.0
 10
-145.3235272875499
 20
-0.0000000000002845
 30
0.0
 10
-119.6206777948924
 20
-0.0000000000003469
 30
0.0
 10
-83.58473924672155
 20
-0.0000000000002776
 30
0.0
 10
-44.59631320780127
 20
-0.000000000000118
 30
0.0
 10
-2.87861901907101
 20
-0.0000000000004718
 30
0.0
 10
34.62940397529007
 20
0.0000000000011657
 30
0.0
 10
67.54072455502104
 20
-0.0000000000029976
 30
0.0
 10
95.51867986418144
 20
0.0000000000109149
 30
0.0
 10
122.7558364104689
 20
-0.0000000000387954
 30
0.0
 10
149.1023343389823
 20
0.0000000001378619
 30
0.0
 10
169.7767992804274
 20
-0.0000000003691908
 30
0.0
 10
185.0128742418091
 20
0.00000000050384
 30
0.0
 10
195.0781005738517
 20
-0.0000000018770679
 30
0.0
 10
204.9100803965474
 20
0.0000000067838166
 30
0.0
 10
214.5084485703698
 20
-0.0000000242250525
 30
0.0
 10
223.9238677395375
 20
0.0000000889112048
 30
0.0
 10
232.4592224669467
 20
-0.0000003111495298
 30
0.0
 10
240.1809288053137
 20
0.0000008807575294
 30
0.0
 10
247.0118991468609
 20
-0.0000033969191765
 30
0.0
 10
253.5128263362475
 20
0.0000127666489741
 30
0.0
 10
259.502944525108
 20
-0.0000471557395354
 30
0.0
 10
264.8113075238891
 20
0.000171945731986
 30
0.0
 10
268.7625457027748
 20
-0.0005387406487173
 30
0.0
 10
271.5400631853797
 20
0.0040799485824042
 30
0.0
 10
273.2951266736436
 20
0.0119746497097284
 30
0.0
 10
274.2659106304172
 20
0.0215176005557219
 30
0.0
 10
274.7534167812233
 20
0.0263098586084087
 30
0.0
  0
SPLINE
  5
AF
330
A7
100
AcDbEntity
  8
0
  6
Continuous
 62
     7
370
    25
100
AcDbSpline
210
0.0
220
0.0
230
1.0
 70
    24
 71
     3
 72
    21
 73
    17
 74
     0
 42
0.000000001
 43
0.00000001
 40
0.0
 40
0.0
 40
0.0
 40
0.0
 40
0.0083333333333333
 40
0.0125
 40
0.0166666666666666
 40
0.0833333333333334
 40
0.1341380686474368
 40
0.1341380686474368
 40
0.1459962756146732
 40
0.1578544825819096
 40
0.1697126895491459
 40
0.1815708965163823
 40
0.1934291034836186
 40
0.2052873104508549
 40
0.2052873104508549
 40
0.2187499999999996
 40
0.2187499999999996
 40
0.2187499999999996
 40
0.2187499999999996
 10
-0.0000000000000481
 20
99.99999999999977
 30
0.0
 10
-6.212504337777739
 20
99.99999999999976
 30
0.0
 10
-15.53126084444435
 20
99.9999999999997
 30
0.0
 10
-27.95626951999984
 20
99.99999999999964
 30
0.0
 10
-83.86880855999979
 20
99.99999999999943
 30
0.0
 10
-174.5500520533332
 20
99.99999999999926
 30
0.0
 10
-262.125043377778
 20
99.999999999999
 30
0.0
 10
-308.8402994666666
 20
99.9999999999989
 30
0.0
 10
-326.2865120157421
 20
99.99999999999886
 30
0.0
 10
-350.4493998604109
 20
99.99999999999885
 30
0.0
 10
-371.5384813318387
 20
99.99999999999872
 30
0.0
 10
-387.6607435241642
 20
99.99999999999876
 30
0.0
 10
-397.6520662592161
 20
99.99999999999868
 30
0.0
 10
-400.0000000000006
 20
99.99999999999872
 30
0.0
 10
-400.0000000000005
 20
99.99999999999874
 30
0.0
 10
-400.0000000000005
 20
99.99999999999874
 30
0.0
 10
-400.0000000000005
 20
99.99999999999874
 30
0.0
  0
SPLINE
  5
B1
330
A7
100
AcDbEntity
  8
0
  6
Continuous
 62
     7
370
    25
100
AcDbSpline
210
0.0
220
0.0
230
1.0
 70
    24
 71
     3
 72
    21
 73
    17
 74
     0
 42
0.000000001
 43
0.00000001
 40
0.0
 40
0.0
 40
0.0
 40
0.0
 40
0.0083333333333333
 40
0.0125
 40
0.0166666666666666
 40
0.0833333333333334
 40
0.1341380686474368
 40
0.1341380686474368
 40
0.1459962756146732
 40
0.1578544825819096
 40
0.1697126895491459
 40
0.1815708965163823
 40
0.1934291034836186
 40
0.2052873104508549
 40
0.2052873104508549
 40
0.2187499999999984
 40
0.2187499999999984
 40
0.2187499999999984
 40
0.2187499999999984
 10
0.0000000000000026
 20
120.000000000001
 30
0.0
 10
-6.21250433777774
 20
120.000000000001
 30
0.0
 10
-15.53126084444436
 20
120.000000000001
 30
0.0
 10
-27.95626951999984
 20
120.0000000000009
 30
0.0
 10
-83.8688085599998
 20
120.0000000000007
 30
0.0
 10
-174.5500520533332
 20
120.0000000000006
 30
0.0
 10
-262.1250433777781
 20
120.0000000000004
 30
0.0
 10
-308.8402994666666
 20
120.0000000000002
 30
0.0
 10
-326.2865120157425
 20
120.0000000000001
 30
0.0
 10
-350.4493998604111
 20
120.0000000000001
 30
0.0
 10
-371.5384813318392
 20
120.0
 30
0.0
 10
-387.6607435241646
 20
120.0
 30
0.0
 10
-397.652066259216
 20
119.9999999999999
 30
0.0
 10
-400.0000000000007
 20
120.0
 30
0.0
 10
-400.0000000000006
 20
120.0
 30
0.0
 10
-400.0000000000006
 20
120.0
 30
0.0
 10
-400.0000000000006
 20
120.0
 30
0.0
  0
LINE
  5
B3
330
A7
100
AcDbEntity
  8
0
  6
Continuous
 62
     7
370
    25
100
AcDbLine
 10
400.0
 20
100.0
 30
0.0
 11
400.0
 21
120.0
 31
0.0
  0
LINE
  5
B4
330
A7
100
AcDbEntity
  8
0
  6
Continuous
 62
     7
370
    25
100
AcDbLine
 10
-400.0
 20
120.0
 30
0.0
 11
-400.0
 21
100.0
 31
0.0
  0
LINE
  5
B5
330
A7
100
AcDbEntity
  8
0
  6
Continuous
 62
     7
370
    25
100
AcDbLine
 10
400.0
 20
100.0
 30
0.0
 11
0.0
 21
100.0
 31
0.0
  0
LINE
  5
B6
330
A7
100
AcDbEntity
  8
0
  6
Continuous
 62
     7
370
    25
100
AcDbLine
 10
0.0
 20
120.0
 30
0.0
 11
400.0
 21
120.0
 31
0.0
  0
VIEWPORT
  5
F6
330
A7
100
AcDbEntity
  8
0
100
AcDbViewport
 10
0.0
 20
0.0
 30
0.0
 40
205.6
 41
156.0
 68
     1
 69
     1
 12
0.0
 22
0.0
 13
0.0
 23
0.0
 14
10.0
 24
10.0
 15
10.0
 25
10.0
 16
0.0
 26
0.0
 36
1.0
 17
0.0
 27
0.0
 37
0.0
 42
50.0
 43
0.0
 44
0.0
 45
816.0
 50
0.0
 51
0.0
 72
   100
 90
   557152
  1

281
     0
 71
     1
 74
     0
110
0.0
120
0.0
130
0.0
111
1.0
121
0.0
131
0.0
112
0.0
122
1.0
132
0.0
 79
     0
146
0.0
170
     0
 61
     5
348
2F
292
     1
282
     1
141
0.0
142
0.0
 63
   256
361
F7
  0
ENDBLK
  5
AA
330
A7
100
AcDbEntity
  8
0
100
AcDbBlockEnd
  0
BLOCK
  5
B9
330
B7
100
AcDbEntity
  8
0
100
AcDbBlockBegin
  2
*Paper_Space4
 70
     0
 10
0.0
 20
0.0
 30
0.0
  3
*Paper_Space4
  1

  0
SPLINE
  5
BB
330
B7
100
AcDbEntity
  8
0
  6
Continuous
 62
     7
370
    25
100
AcDbSpline
210
0.0
220
0.0
230
1.0
 70
    11
 71
     3
 72
    57
 73
    53
 74
     0
 42
0.000000001
 43
0.00000001
 40
0.0
 40
0.0
 40
0.0
 40
0.0
 40
0.0083333333333333
 40
0.0125
 40
0.0166666666666666
 40
0.0833333333333334
 40
0.1341380686474368
 40
0.1341380686474368
 40
0.1459962756146732
 40
0.1578544825819096
 40
0.1697126895491459
 40
0.1815708965163823
 40
0.1934291034836186
 40
0.2052873104508549
 40
0.2052873104508549
 40
0.25
 40
0.2947126895491455
 40
0.2947126895491455
 40
0.3065708965163818
 40
0.3184291034836182
 40
0.3302873104508544
 40
0.3421455174180907
 40
0.3540037243853271
 40
0.3658619313525633
 40
0.3658619313525633
 40
0.4166666666666666
 40
0.5
 40
0.5833333333333333
 40
0.6341380686474369
 40
0.6341380686474369
 40
0.6459962756146733
 40
0.6578544825819097
 40
0.6697126895491459
 40
0.6815708965163823
 40
0.6934291034836186
 40
0.7052873104508548
 40
0.7052873104508548
 40
0.75
 40
0.7947126895491452
 40
0.7947126895491452
 40
0.8065708965163816
 40
0.818429103483618
 40
0.8302873104508544
 40
0.8421455174180905
 40
0.8540037243853269
 40
0.8658619313525633
 40
0.8658619313525633
 40
0.9166666666666666
 40
0.9833333333333333
 40
0.9875
 40
0.9916666666666667
 40
1.0
 40
1.0
 40
1.0
 40
1.0
 10
199.9999999999999
 20
-0.0000000000001739
 30
0.0
 10
199.9999999999999
 20
6.212504337777517
 30
0.0
 10
199.9999999999999
 20
15.53126084444413
 30
0.0
 10
199.9999999999999
 20
27.95626951999962
 30
0.0
 10
200.0000000000001
 20
83.86880855999956
 30
0.0
 10
199.9999999999999
 20
174.550052053333
 30
0.0
 10
199.9999999999999
 20
262.1250433777777
 30
0.0
 10
199.9999999999999
 20
308.8402994666664
 30
0.0
 10
197.6520662592154
 20
326.2865120157418
 30
0.0
 10
187.6607435241638
 20
350.4493998604107
 30
0.0
 10
171.5384813318387
 20
371.5384813318385
 30
0.0
 10
150.4493998604106
 20
387.660743524164
 30
0.0
 10
126.2865120157421
 20
397.6520662592159
 30
0.0
 10
108.8402994666666
 20
400.0000000000004
 30
0.0
 10
66.66666666666468
 20
400.0000000000001
 30
0.0
 10
-0.0000000000002203
 20
400.0000000000004
 30
0.0
 10
-66.66666666666602
 20
400.0000000000003
 30
0.0
 10
-108.840299466666
 20
400.0000000000005
 30
0.0
 10
-126.2865120157416
 20
397.6520662592158
 30
0.0
 10
-150.4493998604103
 20
387.6607435241642
 30
0.0
 10
-171.5384813318386
 20
371.538481331839
 30
0.0
 10
-187.6607435241636
 20
350.4493998604108
 30
0.0
 10
-197.6520662592156
 20
326.286512015742
 30
0.0
 10
-200.0000000000001
 20
308.8402994666664
 30
0.0
 10
-199.9999999999999
 20
262.1250433777773
 30
0.0
 10
-200.0
 20
162.1250433777778
 30
0.0
 10
-200.0
 20
0.0000000000005482
 30
0.0
 10
-200.0
 20
-162.125043377777
 30
0.0
 10
-199.9999999999999
 20
-262.1250433777774
 30
0.0
 10
-200.0000000000001
 20
-308.8402994666662
 30
0.0
 10
-197.6520662592156
 20
-326.2865120157418
 30
0.0
 10
-187.6607435241637
 20
-350.4493998604107
 30
0.0
 10
-171.5384813318386
 20
-371.5384813318389
 30
0.0
 10
-150.4493998604103
 20
-387.660743524164
 30
0.0
 10
-126.2865120157416
 20
-397.652066259216
 30
0.0
 10
-108.8402994666659
 20
-400.0000000000003
 30
0.0
 10
-66.66666666666596
 20
-400.0000000000001
 30
0.0
 10
-0.0000000000000304
 20
-400.0000000000003
 30
0.0
 10
66.66666666666632
 20
-400.0000000000002
 30
0.0
 10
108.8402994666659
 20
-400.0000000000003
 30
0.0
 10
126.2865120157416
 20
-397.6520662592158
 30
0.0
 10
150.4493998604103
 20
-387.660743524164
 30
0.0
 10
171.5384813318385
 20
-371.5384813318389
 30
0.0
 10
187.6607435241636
 20
-350.4493998604107
 30
0.0
 10
197.6520662592156
 20
-326.2865120157419
 30
0.0
 10
200.0
 20
-308.8402994666662
 30
0.0
 10
199.9999999999999
 20
-262.1250433777777
 30
0.0
 10
200.0
 20
-174.5500520533333
 30
0.0
 10
199.9999999999996
 20
-83.86880855999922
 30
0.0
 10
199.9999999999998
 20
-27.95626951999978
 30
0.0
 10
199.9999999999999
 20
-15.53126084444434
 30
0.0
 10
199.9999999999999
 20
-6.212504337777863
 30
0.0
 10
199.9999999999999
 20
-0.0000000000001739
 30
0.0
  0
CIRCLE
  5
BC
330
B7
100
AcDbEntity
  8
0
  6
Continuous
 62
     7
370
    25
100
AcDbCircle
 10
-0.0050945962
 20
-0.0737453869
 30
0.0
 40
23.00521279538723
  0
VIEWPORT
  5
F8
330
B7
100
AcDbEntity
  8
0
100
AcDbViewport
 10
0.0
 20
0.0
 30
0.0
 40
205.6
 41
156.0
 68
     1
 69
     1
 12
0.0
 22
0.0
 13
0.0
 23
0.0
 14
10.0
 24
10.0
 15
10.0
 25
10.0
 16
0.0
 26
0.0
 36
1.0
 17
0.0
 27
0.0
 37
0.0
 42
50.0
 43
0.0
 44
0.0
 45
816.0
 50
0.0
 51
0.0
 72
   100
 90
   557152
  1

281
     0
 71
     1
 74
     0
110
0.0
120
0.0
130
0.0
111
1.0
121
0.0
131
0.0
112
0.0
122
1.0
132
0.0
 79
     0
146
0.0
170
     0
 61
     5
348
2F
292
     1
282
     1
141
0.0
142
0.0
 63
   256
361
F9
  0
ENDBLK
  5
BA
330
B7
100
AcDbEntity
  8
0
100
AcDbBlockEnd
  0
BLOCK
  5
BF
330
BD
100
AcDbEntity
  8
0
100
AcDbBlockBegin
  2
*Paper_Space5
 70
     0
 10
0.0
 20
0.0
 30
0.0
  3
*Paper_Space5
  1

  0
SPLINE
  5
C3
330
BD
100
AcDbEntity
  8
0
  6
Continuous
 62
     7
370
    25
100
AcDbSpline
210
0.0
220
0.0
230
1.0
 70
     8
 71
     3
 72
    87
 73
    83
 74
     0
 42
0.000000001
 43
0.00000001
 40
0.0
 40
0.0
 40
0.0
 40
0.0
 40
0.002310521234636
 40
0.0055741043327702
 40
0.010860504408977
 40
0.0175936634341792
 40
0.0257811692125722
 40
0.0354283668112865
 40
0.0465390515111086
 40
0.056297243056659
 40
0.0669612070870913
 40
0.0785312334326983
 40
0.0909736199672943
 40
0.1032792461138912
 40
0.1204608198823955
 40
0.1362844821544409
 40
0.1507444833752162
 40
0.1638361368062688
 40
0.1755557273734344
 40
0.1859003551319707
 40
0.1936711172124074
 40
0.2004289787126838
 40
0.2061731028736908
 40
0.2116486543363982
 40
0.2180321843954406
 40
0.2253384852670257
 40
0.2335677492805373
 40
0.2436860407007284
 40
0.2549210505290077
 40
0.2672722953449154
 40
0.2802570532985859
 40
0.2931766339911393
 40
0.3414640407668432
 40
0.388707626675399
 40
0.4348908688976815
 40
0.4615756336222462
 40
0.4872385071830299
 40
0.5116285899663945
 40
0.5347459238010933
 40
0.5542230571363096
 40
0.5726997881166564
 40
0.5901793834004679
 40
0.6066760477243386
 40
0.6233621227181255
 40
0.6410361345589859
 40
0.6501774965876078
 40
0.6594658281463207
 40
0.6689033177036036
 40
0.6785063798267786
 40
0.6884098879598961
 40
0.6986732922075641
 40
0.7093079131457494
 40
0.7202899519036636
 40
0.7315925552627401
 40
0.7431867308241185
 40
0.7550092661387454
 40
0.7665656415431028
 40
0.7772958150353761
 40
0.7877208672832213
 40
0.7978783779864806
 40
0.8077540097406914
 40
0.8173066600597393
 40
0.8265395909819666
 40
0.8358951832673904
 40
0.8542693296023633
 40
0.8742258453375604
 40
0.8957672240258104
 40
0.9112461709266565
 40
0.9260382421401201
 40
0.9397808274320208
 40
0.9524705038781714
 40
0.9641046348840575
 40
0.9695082969160544
 40
0.9745294264766979
 40
0.9791510145479425
 40
0.983374724949775
 40
0.9876121696615241
 40
0.9906321998241483
 40
0.9946168758812836
 40
0.9970641536892895
 40
0.9993124914023642
 40
1.0
 40
1.0
 40
1.0
 40
1.0
 10
290.1569564185539
 20
132.0106323875081
 30
0.0
 10
289.7673050103878
 20
131.8071366662596
 30
0.0
 10
288.8272757347552
 20
131.3162057176462
 30
0.0
 10
286.829579379551
 20
130.2509567997353
 30
0.0
 10
283.9652412103829
 20
128.7166889994789
 30
0.0
 10
280.0984581521876
 20
126.6354758436385
 30
0.0
 10
275.3500758519678
 20
124.073206444457
 30
0.0
 10
269.7127443463775
 20
121.0243569828841
 30
0.0
 10
263.739520297992
 20
117.7873646199065
 30
0.0
 10
257.5473783395965
 20
114.4256190996189
 30
0.0
 10
251.2512084274725
 20
111.0014946056062
 30
0.0
 10
244.4163051353656
 20
107.277373947663
 30
0.0
 10
237.247151797237
 20
103.3629779329739
 30
0.0
 10
228.9767278273034
 20
98.83713623730833
 30
0.0
 10
220.0520910708445
 20
93.93970723679486
 30
0.0
 10
210.7177791100129
 20
88.80072585186203
 30
0.0
 10
202.2009423123915
 20
84.0972046653214
 30
0.0
 10
194.501266902999
 20
79.83251757049386
 30
0.0
 10
187.6180775873696
 20
76.00971228884049
 30
0.0
 10
181.7843144816321
 20
72.76171437736217
 30
0.0
 10
176.9263912172819
 20
70.05140135443911
 30
0.0
 10
172.9708535168673
 20
67.84080482991158
 30
0.0
 10
169.4668475415835
 20
65.87965760271756
 30
0.0
 10
166.0382661465083
 20
63.95815066809959
 30
0.0
 10
162.3057425567636
 20
61.8633025102926
 30
0.0
 10
158.0392330002709
 20
59.46473709088632
 30
0.0
 10
153.0491002794977
 20
56.65393061400597
 30
0.0
 10
147.3000083950406
 20
53.40808833673346
 30
0.0
 10
140.7575179053028
 20
49.70409065632535
 30
0.0
 10
133.667931971761
 20
45.67781657543156
 30
0.0
 10
126.2647881801091
 20
41.45898527437733
 30
0.0
 10
111.9406187874784
 20
33.2669040739238
 30
0.0
 10
91.11654690555117
 20
21.25153756042389
 30
0.0
 10
64.14650246753331
 20
5.474111301088658
 30
0.0
 10
41.47380928723744
 20
-7.951286365571172
 30
0.0
 10
22.99509030067018
 20
-18.98886517035027
 30
0.0
 10
8.650799620959951
 20
-27.60794103748129
 30
0.0
 10
-4.988874898070553
 20
-35.84778404437086
 30
0.0
 10
-17.44348001529501
 20
-43.40831261367832
 30
0.0
 10
-28.77422736513581
 20
-50.31431776817884
 30
0.0
 10
-39.03984758540594
 20
-56.5939802540821
 30
0.0
 10
-48.7388115492043
 20
-62.54064298889269
 30
0.0
 10
-58.08858363785066
 20
-68.3051018309461
 30
0.0
 10
-67.47585426825506
 20
-74.04634865951598
 30
0.0
 10
-75.27064743231293
 20
-79.02655135305598
 30
0.0
 10
-82.13862194640744
 20
-82.9230334535793
 30
0.0
 10
-87.89710478270848
 20
-85.63366467992469
 30
0.0
 10
-94.1157692580387
 20
-88.10518175365415
 30
0.0
 10
-100.8257642323006
 20
-90.3012894821908
 30
0.0
 10
-108.0995891953392
 20
-92.20405886168578
 30
0.0
 10
-115.9558960050091
 20
-93.7538222735984
 30
0.0
 10
-124.3532708297412
 20
-94.88156235217113
 30
0.0
 10
-133.2059416416253
 20
-95.51386282811761
 30
0.0
 10
-142.3898975916516
 20
-95.56601062724692
 30
0.0
 10
-151.7403649224744
 20
-94.98965790179922
 30
0.0
 10
-160.9437717094626
 20
-93.75759771302126
 30
0.0
 10
-169.5716459349732
 20
-91.92386853202835
 30
0.0
 10
-177.3932151281425
 20
-89.60152610031616
 30
0.0
 10
-184.3975528710224
 20
-86.91175322601744
 30
0.0
 10
-190.5406034677484
 20
-83.81028375224068
 30
0.0
 10
-196.2193270253595
 20
-80.63284088463615
 30
0.0
 10
-201.7790657511941
 20
-77.58709178184714
 30
0.0
 10
-207.2067387077621
 20
-74.57911222568083
 30
0.0
 10
-214.329990414754
 20
-70.61915707389294
 30
0.0
 10
-223.4967717079209
 20
-65.48181344840516
 30
0.0
 10
-234.9593067472047
 20
-58.98544041230032
 30
0.0
 10
-245.8077072667572
 20
-52.75507578466581
 30
0.0
 10
-255.6251208776303
 20
-47.04631934395157
 30
0.0
 10
-263.9028502937216
 20
-42.18538700946356
 30
0.0
 10
-271.5954841616759
 20
-37.62653134151928
 30
0.0
 10
-278.6431308106358
 20
-33.41463036693293
 30
0.0
 10
-284.0974524592331
 20
-30.1294947654082
 30
0.0
 10
-288.1222728834584
 20
-27.69233641658111
 30
0.0
 10
-290.8075488440739
 20
-26.06032644247747
 30
0.0
 10
-293.2034092732264
 20
-24.60271549069579
 30
0.0
 10
-295.4272680031135
 20
-23.24126925465057
 30
0.0
 10
-297.1584095149934
 20
-22.20726937051958
 30
0.0
 10
-298.3843240574831
 20
-21.39963830199238
 30
0.0
 10
-299.00352395956
 20
-20.94811919658427
 30
0.0
 10
-299.4031755954985
 20
-20.6395465250173
 30
0.0
 10
-299.590294107773
 20
-20.48286605947819
 30
0.0
 10
-299.5715760488793
 20
-20.50596098086481
 30
0.0
 10
-299.5671927041607
 20
-20.51136928747713
 30
0.0
  0
SPLINE
  5
C4
330
BD
100
AcDbEntity
  8
0
  6
Continuous
 62
     7
370
    25
100
AcDbSpline
210
0.0
220
0.0
230
1.0
 70
     8
 71
     3
 72
    18
 73
    14
 74
     0
 42
0.000000001
 43
0.00000001
 40
0.0
 40
0.0
 40
0.0
 40
0.0
 40
0.0032040882554579
 40
0.0548595212791554
 40
0.1901816507014074
 40
0.3317336283972457
 40
0.3825812137270803
 40
0.4355947165205825
 40
0.4961536660413279
 40
0.572639749649238
 40
0.681856960184471
 40
0.8241989670809566
 40
1.0
 40
1.0
 40
1.0
 40
1.0
 10
296.9322034703862
 20
136.2626222351645
 30
0.0
 10
296.9337596027519
 20
136.2640586293995
 30
0.0
 10
296.9604032747805
 20
136.2886521779585
 30
0.0
 10
296.7884413601578
 20
136.1405613156593
 30
0.0
 10
296.499421997969
 20
135.9074024225071
 30
0.0
 10
296.1038525369112
 20
135.6037735339305
 30
0.0
 10
295.7747508855424
 20
135.3641291360899
 30
0.0
 10
295.5439970415602
 20
135.2002154489295
 30
0.0
 10
295.2452872560416
 20
134.9927661728641
 30
0.0
 10
294.5464414412207
 20
134.5254118676001
 30
0.0
 10
293.5300478097869
 20
133.8846599728277
 30
0.0
 10
292.052664399944
 20
133.0096661210142
 30
0.0
 10
290.8316632115643
 20
132.3662013111294
 30
0.0
 10
290.1569564185539
 20
132.0106323875081
 30
0.0
  0
SPLINE
  5
C5
330
BD
100
AcDbEntity
  8
0
  6
Continuous
 62
     7
370
    25
100
AcDbSpline
210
0.0
220
0.0
230
1.0
 70
     8
 71
     3
 72
    29
 73
    25
 74
     0
 42
0.000000001
 43
0.00000001
 40
0.0
 40
0.0
 40
0.0
 40
0.0
 40
0.0731522458734199
 40
0.1529601649448517
 40
0.2259235410375086
 40
0.2920945535936024
 40
0.3512607447004136
 40
0.403054219337348
 40
0.446981185085588
 40
0.4825066781184641
 40
0.5077273528207163
 40
0.5250754383819586
 40
0.5387569155419678
 40
0.5551915049114873
 40
0.5744946196966959
 40
0.5967193079274998
 40
0.6376698280205424
 40
0.6861626758855828
 40
0.7423661747284965
 40
0.796477352487557
 40
0.8565052454695422
 40
0.9227039011011511
 40
0.9953514891923362
 40
0.9999999999999999
 40
0.9999999999999999
 40
0.9999999999999999
 40
0.9999999999999999
 10
-186.1373993114447
 20
-133.1760887777935
 30
0.0
 10
-184.203111075326
 20
-134.0527731640258
 30
0.0
 10
-180.1585456062143
 20
-135.8859060599685
 30
0.0
 10
-173.9751093277174
 20
-138.4436274364074
 30
0.0
 10
-167.3648207859255
 20
-140.2869592415623
 30
0.0
 10
-161.1173191036961
 20
-141.525057213977
 30
0.0
 10
-155.3826553225733
 20
-142.2738523448106
 30
0.0
 10
-150.3030736456432
 20
-142.6677841147016
 30
0.0
 10
-145.9754710121829
 20
-142.8192188056712
 30
0.0
 10
-142.5198361185538
 20
-142.8250210017281
 30
0.0
 10
-139.9425554185611
 20
-142.7659581758945
 30
0.0
 10
-138.087296049075
 20
-142.6931049648695
 30
0.0
 10
-136.5287737841498
 20
-142.6140652278644
 30
0.0
 10
-134.899922852367
 20
-142.5101559774652
 30
0.0
 10
-132.9923277762377
 20
-142.3605659773828
 30
0.0
 10
-130.2848121838111
 20
-142.1024773141442
 30
0.0
 10
-126.6411797949966
 20
-141.6631555110055
 30
0.0
 10
-121.9487005664912
 20
-140.9319558474738
 30
0.0
 10
-116.9283143573631
 20
-139.9426358420463
 30
0.0
 10
-111.6801578703066
 20
-138.6724714110968
 30
0.0
 10
-106.2837675872948
 20
-137.1195311365422
 30
0.0
 10
-100.5986857424572
 20
-135.1370765374713
 30
0.0
 10
-96.59383591301473
 20
-133.6025458682116
 30
0.0
 10
-94.61209536693526
 20
-132.6471811863489
 30
0.0
 10
-94.49291545387788
 20
-132.5897265008969
 30
0.0
  0
SPLINE
  5
C6
330
BD
100
AcDbEntity
  8
0
  6
Continuous
 62
     7
370
    25
100
AcDbSpline
210
0.0
220
0.0
230
1.0
 70
    11
 71
     3
 72
    57
 73
    53
 74
     0
 42
0.000000001
 43
0.00000001
 40
0.0
 40
0.0
 40
0.0
 40
0.0
 40
0.0083333333333333
 40
0.0125
 40
0.0166666666666666
 40
0.0833333333333334
 40
0.1341380686474368
 40
0.1341380686474368
 40
0.1459962756146732
 40
0.1578544825819096
 40
0.1697126895491459
 40
0.1815708965163823
 40
0.1934291034836186
 40
0.2052873104508549
 40
0.2052873104508549
 40
0.25
 40
0.2947126895491455
 40
0.2947126895491455
 40
0.3065708965163818
 40
0.3184291034836182
 40
0.3302873104508544
 40
0.3421455174180907
 40
0.3540037243853271
 40
0.3658619313525633
 40
0.3658619313525633
 40
0.4166666666666666
 40
0.5
 40
0.5833333333333333
 40
0.6341380686474369
 40
0.6341380686474369
 40
0.6459962756146733
 40
0.6578544825819097
 40
0.6697126895491459
 40
0.6815708965163823
 40
0.6934291034836186
 40
0.7052873104508548
 40
0.7052873104508548
 40
0.75
 40
0.7947126895491452
 40
0.7947126895491452
 40
0.8065708965163816
 40
0.818429103483618
 40
0.8302873104508544
 40
0.8421455174180905
 40
0.8540037243853269
 40
0.8658619313525633
 40
0.8658619313525633
 40
0.9166666666666666
 40
0.9833333333333333
 40
0.9875
 40
0.9916666666666667
 40
1.0
 40
1.0
 40
1.0
 40
1.0
 10
141.4213562373093
 20
16.34408624401976
 30
0.0
 10
137.0284522919158
 20
13.80811677597196
 30
0.0
 10
130.4390963738255
 20
10.00416257390036
 30
0.0
 10
121.6532884830385
 20
4.932223637804809
 30
0.0
 10
82.11715297449685
 20
-17.89150157462524
 30
0.0
 10
17.99583077393227
 20
-54.90795296368916
 30
0.0
 10
-43.92903945393592
 20
-90.65641961872927
 30
0.0
 10
-76.96171381925518
 20
-109.7257766271514
 30
0.0
 10
-90.95828888861391
 20
-115.8889552739764
 30
0.0
 10
-115.1089627956077
 20
-121.6738456303338
 30
0.0
 10
-141.4213562373105
 20
-123.7013214050424
 30
0.0
 10
-167.7337496790139
 20
-121.6738456303338
 30
0.0
 10
-191.8844235860073
 20
-115.8889552739763
 30
0.0
 10
-205.8809986553661
 20
-109.7257766271514
 30
0.0
 10
-235.7022603955171
 20
-92.51032866567529
 30
0.0
 10
-282.84271247462
 20
-65.29672493825167
 30
0.0
 10
-329.9831645537213
 20
-38.08312121082891
 30
0.0
 10
-359.8044262938743
 20
-20.86767324935193
 30
0.0
 10
-370.4805216234621
 20
-12.78762245052825
 30
0.0
 10
-380.5013314124986
 20
1.1542648345641
 30
0.0
 10
-384.0134030056803
 20
16.34408624401954
 30
0.0
 10
-380.5013314124984
 20
31.53390765347491
 30
0.0
 10
-370.4805216234615
 20
45.47579493856729
 30
0.0
 10
-359.8044262938736
 20
53.55584573739089
 30
0.0
 10
-326.7717519285537
 20
72.62520274581314
 30
0.0
 10
-256.0610738098997
 20
113.4456083369483
 30
0.0
 10
-141.4213562373102
 20
179.6257086085614
 30
0.0
 10
-26.78163866472
 20
245.8058088801749
 30
0.0
 10
43.92903945393547
 20
286.6262144713107
 30
0.0
 10
76.96171381925471
 20
305.6955714797328
 30
0.0
 10
90.95828888861335
 20
311.8587501265578
 30
0.0
 10
115.1089627956072
 20
317.6436404829153
 30
0.0
 10
141.4213562373102
 20
319.6711162576239
 30
0.0
 10
167.7337496790134
 20
317.6436404829154
 30
0.0
 10
191.8844235860069
 20
311.8587501265577
 30
0.0
 10
205.8809986553657
 20
305.6955714797328
 30
0.0
 10
235.702260395517
 20
288.4801235182568
 30
0.0
 10
282.8427124746196
 20
261.2665197908334
 30
0.0
 10
329.9831645537215
 20
234.0529160634105
 30
0.0
 10
359.804426293874
 20
216.8374681019334
 30
0.0
 10
370.4805216234618
 20
208.7574173031098
 30
0.0
 10
380.5013314124982
 20
194.8155300180174
 30
0.0
 10
384.0134030056798
 20
179.6257086085619
 30
0.0
 10
380.501331412498
 20
164.4358871991066
 30
0.0
 10
370.4805216234611
 20
150.4939999140142
 30
0.0
 10
359.8044262938733
 20
142.4139491151906
 30
0.0
 10
326.7717519285541
 20
123.3445921067688
 30
0.0
 10
264.8468817006862
 20
87.59612545172864
 30
0.0
 10
200.7255595001216
 20
50.57967406266476
 30
0.0
 10
161.18942399158
 20
27.75594885023476
 30
0.0
 10
152.403616100793
 20
22.68400991413918
 30
0.0
 10
145.8142601827028
 20
18.88005571206754
 30
0.0
 10
141.4213562373093
 20
16.34408624401976
 30
0.0
  0
SPLINE
  5
C7
330
BD
100
AcDbEntity
  8
0
  6
Continuous
 62
     7
370
    25
100
AcDbSpline
210
0.0
220
0.0
230
1.0
 70
     8
 71
     3
 72
    40
 73
    36
 74
     0
 42
0.000000001
 43
0.00000001
 40
0.0
 40
0.0
 40
0.0
 40
0.0
 40
0.380096276593318
 40
0.3936711436145079
 40
0.4072460106356977
 40
0.4207594912538312
 40
0.4341727961098918
 40
0.4475169534671964
 40
0.4608259660347448
 40
0.4741457543036904
 40
0.4897548287874465
 40
0.5054338898235069
 40
0.5211362157129567
 40
0.536822331910031
 40
0.5524463734266437
 40
0.5679897433486345
 40
0.5828953126171907
 40
0.5978490580382108
 40
0.6128972735993998
 40
0.6280731560697713
 40
0.6432770071335047
 40
0.6584808581972378
 40
0.6736847092609708
 40
0.7573058901115001
 40
0.8637328475576285
 40
0.8776697110327166
 40
0.891606574507805
 40
0.905487270893153
 40
0.9192610975923359
 40
0.9329613629902063
 40
0.9466248634315909
 40
0.9621682333535819
 40
0.9777922748701946
 40
0.9934783910672688
 40
1.0
 40
1.0
 40
1.0
 40
1.0
 10
141.4213562373093
 20
0.0132700063037242
 30
0.0
 10
75.58471924561708
 20
-38.05772247238357
 30
0.0
 10
7.396773789935917
 20
-77.48839325388116
 30
0.0
 10
-63.3319787443253
 20
-118.1740411962204
 30
0.0
 10
-70.31850747951846
 20
-122.2782905498645
 30
0.0
 10
-77.57683683046304
 20
-126.2007214696381
 30
0.0
 10
-85.52413363507053
 20
-129.6024662646205
 30
0.0
 10
-93.94140024452142
 20
-132.5410106731007
 30
0.0
 10
-102.8024264202471
 20
-134.9799528716513
 30
0.0
 10
-112.5565132834469
 20
-137.014908401438
 30
0.0
 10
-123.204398257331
 20
-138.5167831052003
 30
0.0
 10
-134.6589846739614
 20
-139.3519401800761
 30
0.0
 10
-146.2241161959734
 20
-139.4184905049026
 30
0.0
 10
-157.7102723650178
 20
-138.711029501179
 30
0.0
 10
-168.9444873131561
 20
-137.2596570743246
 30
0.0
 10
-179.6341014683539
 20
-135.1083957671594
 30
0.0
 10
-189.6888140409749
 20
-132.3203143270487
 30
0.0
 10
-199.0430232061994
 20
-128.9470575729852
 30
0.0
 10
-207.7830076778005
 20
-124.9914453514833
 30
0.0
 10
-215.6301284212076
 20
-120.4196859683574
 30
0.0
 10
-223.5401200594829
 20
-115.8645734213688
 30
0.0
 10
-231.445299923301
 20
-111.2979994460934
 30
0.0
 10
-251.2147954360714
 20
-99.88733209840129
 30
0.0
 10
-286.7880662770926
 20
-79.3399177028099
 30
0.0
 10
-322.181842941491
 20
-58.94471681913202
 30
0.0
 10
-345.4322717292715
 20
-45.48417087017932
 30
0.0
 10
-352.7167456634468
 20
-41.33403852565468
 30
0.0
 10
-359.7544141121418
 20
-37.06412835535552
 30
0.0
 10
-365.8308160139813
 20
-32.36234912865268
 30
0.0
 10
-371.0669505267149
 20
-27.37593073615396
 30
0.0
 10
-375.5813616382299
 20
-21.88021004611529
 30
0.0
 10
-379.2243528772496
 20
-15.87543083265569
 30
0.0
 10
-381.6744945461089
 20
-9.390279626045995
 30
0.0
 10
-382.853321128476
 20
-4.053757905474797
 30
0.0
 10
-382.7186475765087
 20
-0.9096686251176545
 30
0.0
 10
-382.679098805332
 20
0.0136371442140404
 30
0.0
  0
SPLINE
  5
C8
330
BD
100
AcDbEntity
  8
0
  6
Continuous
 62
     7
370
    25
100
AcDbSpline
210
0.0
220
0.0
230
1.0
 70
     8
 71
     3
 72
    17
 73
    13
 74
     0
 42
0.000000001
 43
0.00000001
 40
0.0
 40
0.0
 40
0.0
 40
0.0
 40
0.0178402529165534
 40
0.0483082888767165
 40
0.0786403248055358
 40
0.1088287098982445
 40
0.1390095198741813
 40
0.1693160934521969
 40
0.1998452621836972
 40
0.2306095506310387
 40
0.261385168605796
 40
1.0
 40
1.0
 40
1.0
 40
1.0
 10
382.6790988053317
 20
163.2945252329352
 30
0.0
 10
382.69832515629
 20
161.9941729990973
 30
0.0
 10
382.7503867565647
 20
158.4730462725005
 30
0.0
 10
381.3509406719626
 20
152.7784523782835
 30
0.0
 10
378.6675890446963
 20
146.3266725695179
 30
0.0
 10
374.6698649489791
 20
140.1183489315994
 30
0.0
 10
369.4817423469976
 20
134.2175172587919
 30
0.0
 10
363.1454521115445
 20
128.670640761318
 30
0.0
 10
355.661057788725
 20
123.5667894417217
 30
0.0
 10
347.3100697810742
 20
118.9016710341688
 30
0.0
 10
276.1708282963681
 20
77.55646076950705
 30
0.0
 10
207.4210976539912
 20
37.99360833930132
 30
0.0
 10
141.4213562373093
 20
0.0132700063037242
 30
0.0
  0
SPLINE
  5
C9
330
BD
100
AcDbEntity
  8
0
  6
Continuous
 62
     7
370
    25
100
AcDbSpline
210
0.0
220
0.0
230
1.0
 70
    11
 71
     3
 72
    57
 73
    53
 74
     0
 42
0.000000001
 43
0.00000001
 40
0.0
 40
0.0
 40
0.0
 40
0.0
 40
0.0083333333333333
 40
0.0125
 40
0.0166666666666666
 40
0.0833333333333334
 40
0.1341380686474368
 40
0.1341380686474368
 40
0.1459962756146732
 40
0.1578544825819096
 40
0.1697126895491459
 40
0.1815708965163823
 40
0.1934291034836186
 40
0.2052873104508549
 40
0.2052873104508549
 40
0.25
 40
0.2947126895491455
 40
0.2947126895491455
 40
0.3065708965163818
 40
0.3184291034836182
 40
0.3302873104508544
 40
0.3421455174180907
 40
0.3540037243853271
 40
0.3658619313525633
 40
0.3658619313525633
 40
0.4166666666666666
 40
0.5
 40
0.5833333333333333
 40
0.6341380686474369
 40
0.6341380686474369
 40
0.6459962756146733
 40
0.6578544825819097
 40
0.6697126895491459
 40
0.6815708965163823
 40
0.6934291034836186
 40
0.7052873104508548
 40
0.7052873104508548
 40
0.75
 40
0.7947126895491452
 40
0.7947126895491452
 40
0.8065708965163816
 40
0.818429103483618
 40
0.8302873104508544
 40
0.8421455174180905
 40
0.8540037243853269
 40
0.8658619313525633
 40
0.8658619313525633
 40
0.9166666666666666
 40
0.9833333333333333
 40
0.9875
 40
0.9916666666666667
 40
1.0
 40
1.0
 40
1.0
 40
1.0
 10
24.74873734152903
 20
2.043674280817615
 30
0.0
 10
24.30990287927955
 20
1.790340538121327
 30
0.0
 10
23.63300390111253
 20
1.42110477245154
 30
0.0
 10
22.69625666417413
 20
0.9508906666025052
 30
0.0
 10
18.38286725510908
 20
-1.097916237144059
 30
0.0
 10
10.0995475904014
 20
-3.483160109889076
 30
0.0
 10
1.669322982767018
 20
-3.98269923805248
 30
0.0
 10
-2.805835074929104
 20
-3.832983585063829
 30
0.0
 10
-4.497649758175292
 20
-3.739554352585079
 30
0.0
 10
-7.022103953013224
 20
-3.489114109239646
 30
0.0
 10
-9.52620690012773
 20
-3.128245996111036
 30
0.0
 10
-11.99999041793911
 20
-2.657743726234826
 30
0.0
 10
-14.42514066516657
 20
-2.081077594199204
 30
0.0
 10
-15.99765511716632
 20
-1.628049567543498
 30
0.0
 10
-19.68169570194255
 20
-0.4682566789842926
 30
0.0
 10
-25.1066264033493
 20
1.837069323139096
 30
0.0
 10
-29.10000085747545
 20
4.96881515597683
 30
0.0
 10
-31.10903875015689
 20
7.0955665163926
 30
0.0
 10
-31.8937913391546
 20
8.003359786608994
 30
0.0
 10
-32.89271461426177
 20
9.40336922429462
 30
0.0
 10
-33.70773676011073
 20
10.83145405148687
 30
0.0
 10
-34.33284639881222
 20
12.27704191265327
 30
0.0
 10
-34.76666863008866
 20
13.73437829905601
 30
0.0
 10
-34.92851034354072
 20
14.71104212681992
 30
0.0
 10
-35.18785356158319
 20
17.29449588316848
 30
0.0
 10
-34.19976221657281
 20
22.85163611522244
 30
0.0
 10
-25.99188966104956
 20
31.33561475292223
 30
0.0
 10
-11.29561523828363
 20
36.07391872158993
 30
0.0
 10
-1.669322982767001
 20
36.64433171348247
 30
0.0
 10
2.805835074929132
 20
36.49461606049382
 30
0.0
 10
4.497649758175326
 20
36.40118682801508
 30
0.0
 10
7.022103953013248
 20
36.15074658466963
 30
0.0
 10
9.526206900127736
 20
35.78987847154102
 30
0.0
 10
11.99999041793911
 20
35.31937620166483
 30
0.0
 10
14.42514066516657
 20
34.74271006962921
 30
0.0
 10
15.99765511716631
 20
34.28968204297352
 30
0.0
 10
19.68169570194251
 20
33.12988915441429
 30
0.0
 10
25.10662640334925
 20
30.82456315229091
 30
0.0
 10
29.10000085747545
 20
27.69281731945319
 30
0.0
 10
31.10903875015686
 20
25.56606595903743
 30
0.0
 10
31.89379133915459
 20
24.65827268882104
 30
0.0
 10
32.89271461426176
 20
23.25826325113541
 30
0.0
 10
33.70773676011073
 20
21.83017842394314
 30
0.0
 10
34.33284639881222
 20
20.38459056277676
 30
0.0
 10
34.76666863008867
 20
18.92725417637402
 30
0.0
 10
34.92851034354072
 20
17.9505903486101
 30
0.0
 10
35.18785356158317
 20
15.36713659226153
 30
0.0
 10
34.32253265191276
 20
10.50047151615306
 30
0.0
 10
30.19072138552017
 20
5.718612858440789
 30
0.0
 10
26.64169918938693
 20
3.228546155147609
 30
0.0
 10
25.82717621235991
 20
2.687773485932986
 30
0.0
 10
25.18757180377851
 20
2.297008023513902
 30
0.0
 10
24.74873734152903
 20
2.043674280817615
 30
0.0
  0
SPLINE
  5
CA
330
BD
100
AcDbEntity
  8
0
  6
Continuous
 62
     7
370
    25
100
AcDbSpline
210
0.0
220
0.0
230
1.0
 70
     8
 71
     3
 72
    21
 73
    17
 74
     0
 42
0.000000001
 43
0.00000001
 40
0.0
 40
0.0
 40
0.0
 40
0.0
 40
0.052089891049431
 40
0.1272262312488308
 40
0.2027139940864287
 40
0.2782017569240266
 40
0.3533380971234264
 40
0.4272954275635642
 40
0.5000001171580362
 40
0.5727043042701672
 40
0.6466621698836856
 40
0.7217985100830854
 40
0.7972862729206833
 40
0.8727740357582812
 40
0.947910375957681
 40
1.0
 40
1.0
 40
1.0
 40
1.0
 10
22.20084425600168
 20
3.266158361385524
 30
0.0
 10
21.92773046321734
 20
3.854917025595796
 30
0.0
 10
21.26066747156986
 20
5.292922451475571
 30
0.0
 10
19.25239036875167
 20
7.384370830853748
 30
0.0
 10
16.38349195278143
 20
9.455788122167332
 30
0.0
 10
12.79549524508372
 20
11.12526109734661
 30
0.0
 10
8.758216091283689
 20
12.35690916638696
 30
0.0
 10
4.442635729765419
 20
13.11923657755906
 30
0.0
 10
0.0000107773956339
 20
13.37560100175082
 30
0.0
 10
-4.442628640512885
 20
13.11924700827784
 30
0.0
 10
-8.75820526890916
 20
12.35690962475453
 30
0.0
 10
-12.79549560147841
 20
11.12526177395628
 30
0.0
 10
-16.38349174245278
 20
9.45578792142103
 30
0.0
 10
-19.25239085171295
 20
7.384370955360452
 30
0.0
 10
-21.26066333724315
 20
5.292924952504892
 30
0.0
 10
-21.92772984883526
 20
3.854923421107506
 30
0.0
 10
-22.20084425600169
 20
3.266168133700488
 30
0.0
  0
SPLINE
  5
CB
330
BD
100
AcDbEntity
  8
0
  6
Continuous
 62
     7
370
    25
100
AcDbSpline
210
0.0
220
0.0
230
1.0
 70
     8
 71
     3
 72
    29
 73
    25
 74
     0
 42
0.000000001
 43
0.00000001
 40
0.0
 40
0.0
 40
0.0
 40
0.0
 40
0.0379571169801405
 40
0.0840578674117101
 40
0.1293777935130508
 40
0.1746974063957713
 40
0.220798490423677
 40
0.2676341677968311
 40
0.3146889018509545
 40
0.361743635905078
 40
0.408579313278232
 40
0.4546803973061378
 40
0.5000000101888583
 40
0.545319936290199
 40
0.5914206867217686
 40
0.6382563640949227
 40
0.6853110981490461
 40
0.7323658322031696
 40
0.7792015095763238
 40
0.8253022600078934
 40
0.8706221861092341
 40
0.9159417989919546
 40
0.9620428830198603
 40
1.0
 40
1.0
 40
1.0
 40
1.0
 10
-19.5554943212782
 20
-0.364148683757802
 30
0.0
 10
-20.171881988935
 20
0.2533061041752119
 30
0.0
 10
-21.53690222662105
 20
1.620689531213526
 30
0.0
 10
-22.71229784102456
 20
3.972088134365517
 30
0.0
 10
-23.17327321892751
 20
6.531126012666963
 30
0.0
 10
-22.72472255306326
 20
9.097378998847432
 30
0.0
 10
-21.40527882133235
 20
11.58802927553675
 30
0.0
 10
-19.27192189982229
 20
13.91984336118135
 30
0.0
 10
-16.37824719658161
 20
15.98726962379853
 30
0.0
 10
-12.79689390636583
 20
17.65781366351462
 30
0.0
 10
-8.757839424972376
 20
18.88917657627298
 30
0.0
 10
-4.442717702821533
 20
19.65159009351316
 30
0.0
 10
0.0000107784413114
 20
19.90791927274715
 30
0.0
 10
4.442724788869121
 20
19.65157966236103
 30
0.0
 10
8.757850263679728
 20
18.88917612045942
 30
0.0
 10
12.79689349995704
 20
17.65781297907085
 30
0.0
 10
16.37824759546731
 20
15.98726985410529
 30
0.0
 10
19.27192071440255
 20
13.91984312654219
 30
0.0
 10
21.40527803020711
 20
11.5880355329309
 30
0.0
 10
22.72470449150534
 20
9.0973830876259
 30
0.0
 10
23.17327322690236
 20
6.531138452054829
 30
0.0
 10
22.71231601163208
 20
3.972092200262033
 30
0.0
 10
21.53690438532595
 20
1.620695501707188
 30
0.0
 10
20.17188097523888
 20
0.253306273351267
 30
0.0
 10
19.55549432127819
 20
-0.364148683757802
 30
0.0
  0
LINE
  5
CC
330
BD
100
AcDbEntity
  8
0
  6
Continuous
 62
     7
370
    25
100
AcDbLine
 10
382.8427124489
 20
163.2935926847
 30
0.0
 11
382.8427124489
 21
179.6244089224
 31
0.0
  0
LINE
  5
CD
330
BD
100
AcDbEntity
  8
0
  6
Continuous
 62
     7
370
    25
100
AcDbLine
 10
-382.8427124489
 20
16.3453859302
 30
0.0
 11
-382.8427124489
 21
0.0145696924
 31
0.0
  0
VIEWPORT
  5
FA
330
BD
100
AcDbEntity
  8
0
100
AcDbViewport
 10
0.0
 20
0.0
 30
0.0
 40
205.6
 41
156.0
 68
     1
 69
     1
 12
0.0
 22
0.0
 13
0.0
 23
0.0
 14
10.0
 24
10.0
 15
10.0
 25
10.0
 16
0.0
 26
0.0
 36
1.0
 17
0.0
 27
0.0
 37
0.0
 42
50.0
 43
0.0
 44
0.0
 45
816.0
 50
0.0
 51
0.0
 72
   100
 90
   557152
  1

281
     0
 71
     1
 74
     0
110
0.0
120
0.0
130
0.0
111
1.0
121
0.0
131
0.0
112
0.0
122
1.0
132
0.0
 79
     0
146
0.0
170
     0
 61
     5
348
2F
292
     1
282
     1
141
0.0
142
0.0
 63
   256
361
FB
  0
ENDBLK
  5
C0
330
BD
100
AcDbEntity
  8
0
100
AcDbBlockEnd
  0
BLOCK
  5
D0
330
CE
100
AcDbEntity
  8
0
100
AcDbBlockBegin
  2
*Paper_Space6
 70
     0
 10
0.0
 20
0.0
 30
0.0
  3
*Paper_Space6
  1

  0
SPLINE
  5
D4
330
CE
100
AcDbEntity
  8
0
  6
Continuous
 62
     7
370
    25
100
AcDbSpline
210
0.0
220
0.0
230
1.0
 70
     8
 71
     3
 72
    88
 73
    84
 74
     0
 42
0.000000001
 43
0.00000001
 40
0.0
 40
0.0
 40
0.0
 40
0.0
 40
0.0125188772013007
 40
0.0260657103763582
 40
0.0406488903747591
 40
0.0562573277329836
 40
0.0728311840668244
 40
0.0959723290022102
 40
0.1207480392518702
 40
0.1471602549531623
 40
0.1684783584391271
 40
0.1907521417605099
 40
0.2137115919308817
 40
0.2359782104486117
 40
0.2573497892119386
 40
0.2778200626757071
 40
0.2973840965268611
 40
0.3190584965814162
 40
0.3394902576313544
 40
0.3586769648037879
 40
0.3771902167825036
 40
0.3960620492798717
 40
0.4153069086927422
 40
0.4462839177977374
 40
0.4777130225189377
 40
0.5088927593584821
 40
0.5223521637198716
 40
0.5363482909344074
 40
0.5511610554891568
 40
0.5667822686677029
 40
0.5832027078932087
 40
0.5909603600614678
 40
0.5976732536744361
 40
0.6033580590517084
 40
0.6080237420459847
 40
0.6117098919027378
 40
0.6159053724829385
 40
0.6214116115906737
 40
0.6281610468687564
 40
0.6347706722478732
 40
0.641632401120707
 40
0.6487459414012725
 40
0.6561142319083398
 40
0.6631380629548299
 40
0.6679860145169149
 40
0.6719168945622697
 40
0.6749379051004343
 40
0.6793187133206293
 40
0.6849998451933543
 40
0.6904711163499461
 40
0.6967511967904266
 40
0.7038223381252832
 40
0.7116598751893141
 40
0.7200619806850558
 40
0.730315460952157
 40
0.7402361412976199
 40
0.7498784477643975
 40
0.7592805026642522
 40
0.7729286537957998
 40
0.786056710523692
 40
0.798645175200656
 40
0.8109936308439102
 40
0.8232620562870342
 40
0.8354475335176578
 40
0.8544215627421441
 40
0.8726956399063189
 40
0.8894705711525972
 40
0.9002902783172078
 40
0.9119907603046078
 40
0.9247584707026028
 40
0.9385213673299625
 40
0.9531783491432435
 40
0.9588060344915256
 40
0.9635168127178703
 40
0.9673698549011066
 40
0.9712285854180032
 40
0.9760705154992839
 40
0.9802706838584855
 40
0.9845349787978873
 40
0.9895202633646577
 40
0.9955197447260448
 40
0.9995517170807812
 40
1.0
 40
1.0
 40
1.0
 40
1.0
 10
243.8775535784066
 20
164.3348454243988
 30
0.0
 10
242.3990506591795
 20
163.0245517993301
 30
0.0
 10
239.3206412887952
 20
160.2963730984895
 30
0.0
 10
234.1780475259798
 20
155.6553766389502
 30
0.0
 10
228.4433803095755
 20
150.4584811046086
 30
0.0
 10
222.0606323643873
 20
144.6527700999252
 30
0.0
 10
214.5206704525793
 20
137.771923004015
 30
0.0
 10
205.7597463459731
 20
129.7410439031411
 30
0.0
 10
195.7020770928104
 20
120.468550819715
 30
0.0
 10
185.9369215981395
 20
111.4068598498072
 30
0.0
 10
176.5528472101069
 20
102.6424085467727
 30
0.0
 10
167.6721327674981
 20
94.29660961411062
 30
0.0
 10
158.7097040491622
 20
85.81706587324295
 30
0.0
 10
149.9151035058731
 20
77.43723839629044
 30
0.0
 10
141.4956235761769
 20
69.35726834975506
 30
0.0
 10
133.4755189409966
 20
61.60526191792209
 30
0.0
 10
125.4603477066827
 20
53.80237867036644
 30
0.0
 10
117.4973371431506
 20
45.9910677680612
 30
0.0
 10
109.6286206345856
 20
38.2144946673238
 30
0.0
 10
102.2054390032883
 20
30.82831047757158
 30
0.0
 10
95.01484242260018
 20
23.62878702896565
 30
0.0
 10
87.84315793482916
 20
16.40509745103278
 30
0.0
 10
79.12665139882591
 20
7.573459578972104
 30
0.0
 10
68.87503024543543
 20
-2.891718584774452
 30
0.0
 10
57.19443047683118
 20
-14.92056249946448
 30
0.0
 10
47.76036626746533
 20
-24.71614072899784
 30
0.0
 10
40.515538534691
 20
-32.27930950175762
 30
0.0
 10
35.30981061574384
 20
-37.73112000449049
 30
0.0
 10
29.8547462085364
 20
-43.46227136531224
 30
0.0
 10
24.12616623719359
 20
-49.5003487006835
 30
0.0
 10
19.25704338113032
 20
-54.64815645887092
 30
0.0
 10
15.52550394526957
 20
-58.60401533013881
 30
0.0
 10
13.17505618517015
 20
-61.09648593132648
 30
0.0
 10
11.29213400414646
 20
-63.10993009050209
 30
0.0
 10
9.809685218282002
 20
-64.67334141484064
 30
0.0
 10
8.589778824165784
 20
-65.82756888516677
 30
0.0
 10
7.247243043821683
 20
-67.01467079924569
 30
0.0
 10
5.376018755424789
 20
-68.52403380539262
 30
0.0
 10
3.016971216357439
 20
-70.22629602257786
 30
0.0
 10
0.1946871247948123
 20
-72.03777546098935
 30
0.0
 10
-2.972810344862187
 20
-73.84503679433064
 30
0.0
 10
-6.569113107490587
 20
-75.65908116627624
 30
0.0
 10
-10.51225331562838
 20
-77.40369206929115
 30
0.0
 10
-14.30677115371759
 20
-78.86903508402551
 30
0.0
 10
-17.59445480725314
 20
-79.9973560886161
 30
0.0
 10
-20.14899344336228
 20
-80.7978839162832
 30
0.0
 10
-22.68966984742188
 20
-81.53601789194443
 30
0.0
 10
-25.75550521367412
 20
-82.3536208451327
 30
0.0
 10
-29.52735796027194
 20
-83.239432193081
 30
0.0
 10
-33.89861755547091
 20
-84.1159631107039
 30
0.0
 10
-38.75108573182303
 20
-84.91816470815985
 30
0.0
 10
-44.35158304312881
 20
-85.6301056415602
 30
0.0
 10
-50.6437247721489
 20
-86.16953068324665
 30
0.0
 10
-57.90460209576398
 20
-86.46743411520069
 30
0.0
 10
-65.80401200011734
 20
-86.38234415306398
 30
0.0
 10
-74.01338232629367
 20
-85.82519623567353
 30
0.0
 10
-81.85373635186974
 20
-84.84182900853185
 30
0.0
 10
-90.45621227021586
 20
-83.25799148716068
 30
0.0
 10
-99.43571508785814
 20
-80.85707567098399
 30
0.0
 10
-109.2390443514537
 20
-78.34305662156521
 30
0.0
 10
-118.65405258944
 20
-75.87925013899552
 30
0.0
 10
-127.8346523575468
 20
-73.46777073802157
 30
0.0
 10
-136.8951782868581
 20
-71.06856946699364
 30
0.0
 10
-147.5617811190604
 20
-68.22435153095316
 30
0.0
 10
-159.6663200955229
 20
-64.96643043086107
 30
0.0
 10
-172.843772697451
 20
-61.37890563790162
 30
0.0
 10
-183.9858786221868
 20
-58.31308702615745
 30
0.0
 10
-193.4974777199747
 20
-55.6745419496144
 30
0.0
 10
-202.0055974640452
 20
-53.29920008840785
 30
0.0
 10
-211.2258477732479
 20
-50.70586337386156
 30
0.0
 10
-220.9848828770012
 20
-47.94494718465968
 30
0.0
 10
-228.9178143411071
 20
-45.67436566771359
 30
0.0
 10
-234.6096337748766
 20
-44.07333407197352
 30
0.0
 10
-237.5435389854549
 20
-43.10588858842631
 30
0.0
 10
-239.7604784332147
 20
-42.28626287296513
 30
0.0
 10
-241.5738602619591
 20
-41.54799824999294
 30
0.0
 10
-243.3097572025009
 20
-40.76727764980933
 30
0.0
 10
-244.8546854933025
 20
-39.99294395196195
 30
0.0
 10
-246.1521240912735
 20
-39.27867465297018
 30
0.0
 10
-247.3563575201244
 20
-38.54023133976122
 30
0.0
 10
-248.1732186990928
 20
-37.98133480068741
 30
0.0
 10
-248.6071883005295
 20
-37.63919714698407
 30
0.0
 10
-248.5804646291805
 20
-37.67126659979308
 30
0.0
 10
-248.5777907267638
 20
-37.67447538747231
 30
0.0
  0
SPLINE
  5
D5
330
CE
100
AcDbEntity
  8
0
  6
Continuous
 62
     7
370
    25
100
AcDbSpline
210
0.0
220
0.0
230
1.0
 70
     8
 71
     3
 72
    13
 73
     9
 74
     0
 42
0.000000001
 43
0.00000001
 40
0.0
 40
0.0
 40
0.0
 40
0.0
 40
0.011207658826199
 40
0.0919134213069281
 40
0.2299084197449922
 40
0.4267139494801252
 40
0.6832120004211637
 40
1.0
 40
1.0
 40
1.0
 40
1.0
 10
250.8536972032039
 20
170.5266977039792
 30
0.0
 10
250.8502165633695
 20
170.5235155930985
 30
0.0
 10
250.821672018922
 20
170.4974192689192
 30
0.0
 10
250.4167610305736
 20
170.0761163318512
 30
0.0
 10
249.6036862614561
 20
169.2945601402242
 30
0.0
 10
248.1404737659901
 20
168.0446370596778
 30
0.0
 10
246.18927301254
 20
166.3636660136939
 30
0.0
 10
244.7003221728234
 20
165.056926936511
 30
0.0
 10
243.8775535784066
 20
164.3348454243988
 30
0.0
  0
SPLINE
  5
D6
330
CE
100
AcDbEntity
  8
0
  6
Continuous
 62
     7
370
    25
100
AcDbSpline
210
0.0
220
0.0
230
1.0
 70
     8
 71
     3
 72
    55
 73
    51
 74
     0
 42
0.000000001
 43
0.00000001
 40
0.0
 40
0.0
 40
0.0
 40
0.0
 40
0.0134227649133501
 40
0.0319096653035488
 40
0.0477759894587776
 40
0.0588977275505392
 40
0.0712124669227275
 40
0.0847463345641871
 40
0.0976372489504653
 40
0.1095298229457074
 40
0.1215341393026904
 40
0.1337609515883746
 40
0.1461543098016788
 40
0.1704737434347128
 40
0.1948704406791499
 40
0.2082262521392314
 40
0.2236931425334521
 40
0.2402630461370451
 40
0.2538512883747523
 40
0.2642882572022814
 40
0.278128320722386
 40
0.2950395808772596
 40
0.3147293485250184
 40
0.3478661948866636
 40
0.3763489860094258
 40
0.4045119347483348
 40
0.4561329588270382
 40
0.5104976606198224
 40
0.5670954888446098
 40
0.626052449512018
 40
0.6461283227475562
 40
0.6664667513804967
 40
0.6871417421168157
 40
0.7082103185517425
 40
0.7297232314260956
 40
0.749575187738
 40
0.7659312881971718
 40
0.7785911252029603
 40
0.7874143068249044
 40
0.795978994360967
 40
0.8070256624535034
 40
0.8206388016666931
 40
0.840125946348269
 40
0.8621096640922657
 40
0.8866349413968647
 40
0.9129577539619026
 40
0.9377206193517457
 40
0.9657046225639164
 40
0.9898406822296171
 40
1.0
 40
1.0
 40
1.0
 40
1.0
 10
-233.6767935995225
 20
-83.71364989461938
 30
0.0
 10
-232.9868814515511
 20
-84.3698639670256
 30
0.0
 10
-231.3467673712753
 20
-85.92986829945148
 30
0.0
 10
-228.8916284162412
 20
-88.26835247377477
 30
0.0
 10
-226.5608312195545
 20
-90.49046458699931
 30
0.0
 10
-224.5265879265645
 20
-92.43097117389021
 30
0.0
 10
-222.5397553136784
 20
-94.32936896232438
 30
0.0
 10
-220.4635317838828
 20
-96.30449661712412
 30
0.0
 10
-218.2297381911644
 20
-98.46040326901831
 30
0.0
 10
-215.836673075331
 20
-100.5810726709025
 30
0.0
 10
-213.5230833701372
 20
-102.4755567992858
 30
0.0
 10
-211.0674936061081
 20
-104.343716052567
 30
0.0
 10
-207.6933842483247
 20
-106.7218250720312
 30
0.0
 10
-203.3196100383839
 20
-109.4753615767518
 30
0.0
 10
-198.6786996997202
 20
-111.9828602765158
 30
0.0
 10
-194.6120736358057
 20
-113.9259017634795
 30
0.0
 10
-191.1258245610786
 20
-115.4350661540664
 30
0.0
 10
-187.5642354775181
 20
-116.7882526851633
 30
0.0
 10
-184.4130971323477
 20
-117.9636584598688
 30
0.0
 10
-181.5690977844775
 20
-119.0020019144951
 30
0.0
 10
-178.5618254856678
 20
-120.0844021277236
 30
0.0
 10
-174.8397159410816
 20
-121.3971439501687
 30
0.0
 10
-169.6804623932403
 20
-123.1714720606486
 30
0.0
 10
-163.6153836046998
 20
-125.1781593798437
 30
0.0
 10
-156.8687910951218
 20
-127.3019131081116
 30
0.0
 10
-148.7093599310527
 20
-129.7457416067687
 30
0.0
 10
-138.5267189203601
 20
-132.5701842695252
 30
0.0
 10
-126.0166830399878
 20
-135.6677355904992
 30
0.0
 10
-112.7926900068727
 20
-138.5892528903648
 30
0.0
 10
-102.1101271361777
 20
-140.6365840893795
 30
0.0
 10
-94.31950256403249
 20
-142.0896843911073
 30
0.0
 10
-89.37053650592972
 20
-142.7471802211219
 30
0.0
 10
-84.20962221279268
 20
-143.1402961172475
 30
0.0
 10
-78.86933324862636
 20
-143.2771150442184
 30
0.0
 10
-73.55730349458211
 20
-143.1544911858535
 30
0.0
 10
-68.64219662333944
 20
-142.8207339076672
 30
0.0
 10
-64.49881995244185
 20
-142.3818538500597
 30
0.0
 10
-61.31162099307468
 20
-141.9491400137339
 30
0.0
 10
-58.78712529312
 20
-141.5508341458807
 30
0.0
 10
-56.41597771355872
 20
-141.1342881727122
 30
0.0
 10
-53.6931575689572
 20
-140.600274501914
 30
0.0
 10
-50.1510538051856
 20
-139.8122758532934
 30
0.0
 10
-45.84205768562623
 20
-138.6972964772
 30
0.0
 10
-40.6148822413216
 20
-137.1202433703465
 30
0.0
 10
-34.91524037812054
 20
-135.0997722598992
 30
0.0
 10
-29.09949663284199
 20
-132.6451074687937
 30
0.0
 10
-23.40984464260062
 20
-129.8010301511532
 30
0.0
 10
-18.34061926357648
 20
-126.8195349846199
 30
0.0
 10
-14.42489257899084
 20
-124.1666911111161
 30
0.0
 10
-12.44514423432211
 20
-122.6142272659995
 30
0.0
 10
-11.85868349113994
 20
-122.1543409866032
 30
0.0
  0
SPLINE
  5
D7
330
CE
100
AcDbEntity
  8
0
  6
Continuous
 62
     7
370
    25
100
AcDbSpline
210
0.0
220
0.0
230
1.0
 70
    11
 71
     3
 72
    57
 73
    53
 74
     0
 42
0.000000001
 43
0.00000001
 40
0.0
 40
0.0
 40
0.0
 40
0.0
 40
0.0083333333333333
 40
0.0125
 40
0.0166666666666666
 40
0.0833333333333334
 40
0.1341380686474368
 40
0.1341380686474368
 40
0.1459962756146732
 40
0.1578544825819096
 40
0.1697126895491459
 40
0.1815708965163823
 40
0.1934291034836186
 40
0.2052873104508549
 40
0.2052873104508549
 40
0.25
 40
0.2947126895491455
 40
0.2947126895491455
 40
0.3065708965163818
 40
0.3184291034836182
 40
0.3302873104508544
 40
0.3421455174180907
 40
0.3540037243853271
 40
0.3658619313525633
 40
0.3658619313525633
 40
0.4166666666666666
 40
0.5
 40
0.5833333333333333
 40
0.6341380686474369
 40
0.6341380686474369
 40
0.6459962756146733
 40
0.6578544825819097
 40
0.6697126895491459
 40
0.6815708965163823
 40
0.6934291034836186
 40
0.7052873104508548
 40
0.7052873104508548
 40
0.75
 40
0.7947126895491452
 40
0.7947126895491452
 40
0.8065708965163816
 40
0.818429103483618
 40
0.8302873104508544
 40
0.8421455174180905
 40
0.8540037243853269
 40
0.8658619313525633
 40
0.8658619313525633
 40
0.9166666666666666
 40
0.9833333333333333
 40
0.9875
 40
0.9916666666666667
 40
1.0
 40
1.0
 40
1.0
 40
1.0
 10
176.8836243354843
 20
54.78689714747266
 30
0.0
 10
173.9842772073355
 20
51.95704546680425
 30
0.0
 10
169.6352565151121
 20
47.71226794580168
 30
0.0
 10
163.8365622588143
 20
42.05256458446487
 30
0.0
 10
137.7424381054742
 20
16.58389945844918
 30
0.0
 10
95.4219199046914
 20
-24.72222370097574
 30
0.0
 10
54.5510752679827
 20
-64.61342102006662
 30
0.0
 10
32.74928065861152
 20
-85.8926409237237
 30
0.0
 10
22.53065855881642
 20
-93.27518468018731
 30
0.0
 10
2.417443332067753
 20
-101.8800244955488
 30
0.0
 10
-21.68355459274515
 20
-107.6110490748266
 30
0.0
 10
-47.8593058398876
 20
-109.8857887775488
 30
0.0
 10
-73.89230597153231
 20
-108.6289921183221
 30
0.0
 10
-90.4178223549084
 20
-105.5050225964247
 30
0.0
 10
-127.7169474601973
 20
-95.36791961638153
 30
0.0
 10
-186.6781555720252
 20
-79.34352663745348
 30
0.0
 10
-245.6393636838511
 20
-63.31913365852584
 30
0.0
 10
-282.9384887891425
 20
-53.1820306784822
 30
0.0
 10
-297.2724654718435
 20
-47.91905122397074
 30
0.0
 10
-313.9796571039665
 20
-37.55997957333531
 30
0.0
 10
-325.1070375025494
 20
-25.14704799872921
 30
0.0
 10
-329.5236812683906
 20
-11.66553946707754
 30
0.0
 10
-327.0834798144567
 20
1.742446804857134
 30
0.0
 10
-321.0179680123571
 20
10.25371694984503
 30
0.0
 10
-299.2161734029853
 20
31.53293685350236
 30
0.0
 10
-252.5466345099797
 20
77.08383753392945
 30
0.0
 10
-176.8836243354849
 20
150.9332550210407
 30
0.0
 10
-101.2206141609896
 20
224.7826725081524
 30
0.0
 10
-54.55107526798287
 20
270.3335731885804
 30
0.0
 10
-32.74928065861177
 20
291.6127930922375
 30
0.0
 10
-22.53065855881678
 20
298.9953368487011
 30
0.0
 10
-2.417443332068003
 20
307.6001766640626
 30
0.0
 10
21.68355459274496
 20
313.3312012433403
 30
0.0
 10
47.85930583988737
 20
315.6059409460626
 30
0.0
 10
73.8923059715321
 20
314.3491442868358
 30
0.0
 10
90.4178223549082
 20
311.2251747649385
 30
0.0
 10
127.7169474601975
 20
301.0880717848953
 30
0.0
 10
186.6781555720249
 20
285.0636788059674
 30
0.0
 10
245.6393636838514
 20
269.0392858270397
 30
0.0
 10
282.9384887891423
 20
258.902182846996
 30
0.0
 10
297.2724654718434
 20
253.6392033924846
 30
0.0
 10
313.9796571039664
 20
243.2801317418491
 30
0.0
 10
325.1070375025492
 20
230.8672001672428
 30
0.0
 10
329.5236812683904
 20
217.3856916355913
 30
0.0
 10
327.0834798144566
 20
203.9777053636567
 30
0.0
 10
321.017968012357
 20
195.4664352186687
 30
0.0
 10
299.2161734029856
 20
174.1872153150119
 30
0.0
 10
258.3453287662772
 20
134.296017995921
 30
0.0
 10
216.0248105654944
 20
92.98989483649613
 30
0.0
 10
189.9306864121544
 20
67.5212297104805
 30
0.0
 10
184.1319921558566
 20
61.86152634914366
 30
0.0
 10
179.7829714636332
 20
57.61674882814107
 30
0.0
 10
176.8836243354843
 20
54.78689714747266
 30
0.0
  0
SPLINE
  5
D8
330
CE
100
AcDbEntity
  8
0
  6
Continuous
 62
     7
370
    25
100
AcDbSpline
210
0.0
220
0.0
230
1.0
 70
     8
 71
     3
 72
    43
 73
    39
 74
     0
 42
0.000000001
 43
0.00000001
 40
0.0
 40
0.0
 40
0.0
 40
0.0
 40
0.3651991281115666
 40
0.3782419541155511
 40
0.3912847801195355
 40
0.4042686256434295
 40
0.4171562216031477
 40
0.4299773801684165
 40
0.4427647713769206
 40
0.4555625159537616
 40
0.4705598225393122
 40
0.4856243726877573
 40
0.5007112758680436
 40
0.5157826046639253
 40
0.5307942916780312
 40
0.5457284688667754
 40
0.5600498427820152
 40
0.5744175046773248
 40
0.5888759341358725
 40
0.6034570268426374
 40
0.6180649919671006
 40
0.6326729570915637
 40
0.6472809222160265
 40
0.7276247304005706
 40
0.8298804862718085
 40
0.8432711209692325
 40
0.8566617556666567
 40
0.8699984246362773
 40
0.8832324124732154
 40
0.8963957221037189
 40
0.9095237077100725
 40
0.924457884898817
 40
0.9394695719129228
 40
0.9545409007088044
 40
0.9696278038890908
 40
0.9846923540375359
 40
0.9996896606230871
 40
1.0
 40
1.0
 40
1.0
 40
1.0
 10
176.8836243354843
 20
37.64355113342891
 30
0.0
 10
133.4638917378172
 20
-4.822371713929324
 30
0.0
 10
88.49345440451911
 20
-48.80493466297888
 30
0.0
 10
41.73769755610274
 20
-94.24372274760148
 30
0.0
 10
37.16287407319005
 20
-98.8048818804875
 30
0.0
 10
32.23534822641439
 20
-103.2524147648797
 30
0.0
 10
26.38318174941731
 20
-107.3609468410079
 30
0.0
 10
19.84501405767536
 20
-111.1461608161863
 30
0.0
 10
12.62726060053499
 20
-114.5730418335721
 30
0.0
 10
4.349589960047667
 20
-117.7914407053669
 30
0.0
 10
-5.054754599325861
 20
-120.6914347163364
 30
0.0
 10
-15.57093903161069
 20
-123.1458670487657
 30
0.0
 10
-26.58600094086902
 20
-124.9619856568716
 30
0.0
 10
-37.92164128487621
 20
-126.1063522987276
 30
0.0
 10
-49.39721077491694
 20
-126.5783098259552
 30
0.0
 10
-60.71058332294443
 20
-126.3708593093907
 30
0.0
 10
-71.74321751713232
 20
-125.5240207429912
 30
0.0
 10
-82.4060140384029
 20
-124.0718342357571
 30
0.0
 10
-92.77995917592284
 20
-122.0298288242526
 30
0.0
 10
-102.6161361738269
 20
-119.3268126461976
 30
0.0
 10
-112.5038613609372
 20
-116.6475500883017
 30
0.0
 10
-122.3928537948979
 20
-113.9577862354884
 30
0.0
 10
-147.1186377952514
 20
-107.239288516371
 30
0.0
 10
-191.6179540061929
 20
-95.13719314803129
 30
0.0
 10
-235.8679196994526
 20
-83.13753487825434
 30
0.0
 10
-264.9681486709035
 20
-75.20134880220405
 30
0.0
 10
-274.0510733638449
 20
-72.77211923413257
 30
0.0
 10
-282.959397657571
 20
-70.2032355040113
 30
0.0
 10
-291.1706584298219
 20
-67.12005786817016
 30
0.0
 10
-298.7235115227308
 20
-63.66624545560903
 30
0.0
 10
-305.8523214804758
 20
-59.66926004949696
 30
0.0
 10
-312.3886755324809
 20
-55.10275308519246
 30
0.0
 10
-318.1112115185194
 20
-49.957307890681
 30
0.0
 10
-322.6657680989653
 20
-44.49204525796473
 30
0.0
 10
-326.0053144341975
 20
-38.78319450993164
 30
0.0
 10
-327.8813437898482
 20
-32.92902410398607
 30
0.0
 10
-328.6623100797356
 20
-28.93011414917512
 30
0.0
 10
-328.4432719222555
 20
-26.92144789405925
 30
0.0
 10
-328.4388312547957
 20
-26.88072522281589
 30
0.0
  0
SPLINE
  5
D9
330
CE
100
AcDbEntity
  8
0
  6
Continuous
 62
     7
370
    25
100
AcDbSpline
210
0.0
220
0.0
230
1.0
 70
     8
 71
     3
 72
    14
 73
    10
 74
     0
 42
0.000000001
 43
0.00000001
 40
0.0
 40
0.0
 40
0.0
 40
0.0
 40
0.0321056763455343
 40
0.0648848232766118
 40
0.0978005610942297
 40
0.1309580578059276
 40
0.1643709162431093
 40
0.1977960795933836
 40
1.0
 40
1.0
 40
1.0
 40
1.0
 10
328.4388312547954
 20
198.3141853632413
 30
0.0
 10
328.3231298224665
 20
196.3921306075917
 30
0.0
 10
328.0892999255749
 20
192.5077027635528
 30
0.0
 10
326.0841375634022
 20
186.7286336062504
 30
0.0
 10
322.8906862869794
 20
181.0368743864762
 30
0.0
 10
318.3457158980177
 20
175.5479207424887
 30
0.0
 10
312.7558706639213
 20
170.3011329526028
 30
0.0
 10
265.9425918711721
 20
124.2376966320052
 30
0.0
 10
220.5043431284742
 20
80.05701015313976
 30
0.0
 10
176.8836243354843
 20
37.6435511334289
 30
0.0
  0
SPLINE
  5
DA
330
CE
100
AcDbEntity
  8
0
  6
Continuous
 62
     7
370
    25
100
AcDbSpline
210
0.0
220
0.0
230
1.0
 70
    11
 71
     3
 72
    57
 73
    53
 74
     0
 42
0.000000001
 43
0.00000001
 40
0.0
 40
0.0
 40
0.0
 40
0.0
 40
0.0083333333333333
 40
0.0125
 40
0.0166666666666666
 40
0.0833333333333334
 40
0.1341380686474368
 40
0.1341380686474368
 40
0.1459962756146732
 40
0.1578544825819096
 40
0.1697126895491459
 40
0.1815708965163823
 40
0.1934291034836186
 40
0.2052873104508549
 40
0.2052873104508549
 40
0.25
 40
0.2947126895491455
 40
0.2947126895491455
 40
0.3065708965163818
 40
0.3184291034836182
 40
0.3302873104508544
 40
0.3421455174180907
 40
0.3540037243853271
 40
0.3658619313525633
 40
0.3658619313525633
 40
0.4166666666666666
 40
0.5
 40
0.5833333333333333
 40
0.6341380686474369
 40
0.6341380686474369
 40
0.6459962756146733
 40
0.6578544825819097
 40
0.6697126895491459
 40
0.6815708965163823
 40
0.6934291034836186
 40
0.7052873104508548
 40
0.7052873104508548
 40
0.75
 40
0.7947126895491452
 40
0.7947126895491452
 40
0.8065708965163816
 40
0.818429103483618
 40
0.8302873104508544
 40
0.8421455174180905
 40
0.8540037243853269
 40
0.8658619313525633
 40
0.8658619313525633
 40
0.9166666666666666
 40
0.9833333333333333
 40
0.9875
 40
0.9916666666666667
 40
1.0
 40
1.0
 40
1.0
 40
1.0
 10
30.95463425870964
 20
8.730539700105455
 30
0.0
 10
30.66500046437412
 20
8.447848237699569
 30
0.0
 10
30.20722656762147
 20
8.030149791521675
 30
0.0
 10
29.55286494316526
 20
7.486850792935977
 30
0.0
 10
26.48022331932344
 20
5.084334240439158
 30
0.0
 10
19.78692474680125
 20
1.791109614940223
 30
0.0
 10
11.98843769847103
 20
0.0828387250198098
 30
0.0
 10
7.636350973118555
 20
-0.470351412786181
 30
0.0
 10
5.972218552521047
 20
-0.6480902609821773
 30
0.0
 10
3.432261594745122
 20
-0.8186677012274948
 30
0.0
 10
0.8552464060150502
 20
-0.8920246507161944
 30
0.0
 10
-1.74889748655719
 20
-0.867321188913188
 30
0.0
 10
-4.360897769149791
 20
-0.7447291923970492
 30
0.0
 10
-6.095044989187612
 20
-0.5978108039499108
 30
0.0
 10
-10.20812802077769
 20
-0.1696978900464913
 30
0.0
 10
-16.57054788015343
 20
0.9699832893844893
 30
0.0
 10
-21.98813066912408
 20
3.031854414850217
 30
0.0
 10
-24.99570028513875
 20
4.538982313435726
 30
0.0
 10
-26.20991920181468
 20
5.193366665103026
 30
0.0
 10
-27.88059977263856
 20
6.234715557795194
 30
0.0
 10
-29.3899496337759
 20
7.327971556741177
 30
0.0
 10
-30.72681618272728
 20
8.465037698190542
 30
0.0
 10
-31.88694151775068
 20
9.64121822244552
 30
0.0
 10
-32.54128114723339
 20
10.44906809500659
 30
0.0
 10
-34.11090078473279
 20
12.61165113541697
 30
0.0
 10
-36.01025857107304
 20
17.49866141866696
 30
0.0
 10
-32.50951460866801
 20
25.97873549004283
 30
0.0
 10
-20.89336241543577
 20
32.25321549644372
 30
0.0
 10
-11.988437698471
 20
34.20385330306554
 30
0.0
 10
-7.636350973118528
 20
34.75704344087153
 30
0.0
 10
-5.972218552521022
 20
34.93478228906754
 30
0.0
 10
-3.432261594745099
 20
35.10535972931285
 30
0.0
 10
-0.8552464060150398
 20
35.17871667880155
 30
0.0
 10
1.748897486557188
 20
35.15401321699855
 30
0.0
 10
4.360897769149783
 20
35.03142122048241
 30
0.0
 10
6.095044989187592
 20
34.88450283203529
 30
0.0
 10
10.20812802077765
 20
34.45638991813184
 30
0.0
 10
16.57054788015338
 20
33.31670873870087
 30
0.0
 10
21.98813066912404
 20
31.25483761323516
 30
0.0
 10
24.9957002851387
 20
29.74770971464966
 30
0.0
 10
26.20991920181465
 20
29.09332536298236
 30
0.0
 10
27.88059977263854
 20
28.05197647029019
 30
0.0
 10
29.3899496337759
 20
26.9587204713442
 30
0.0
 10
30.72681618272726
 20
25.82165432989485
 30
0.0
 10
31.88694151775066
 20
24.64547380563987
 30
0.0
 10
32.54128114723338
 20
23.83762393307879
 30
0.0
 10
34.11090078473276
 20
21.6750408926684
 30
0.0
 10
35.77426320134041
 20
17.39524206108752
 30
0.0
 10
34.27348909252751
 20
12.690800548693
 30
0.0
 10
32.15688442479942
 20
10.02845363691846
 30
0.0
 10
31.65539553929905
 20
9.443607103551125
 30
0.0
 10
31.24426805304516
 20
9.013231162511348
 30
0.0
 10
30.95463425870964
 20
8.730539700105455
 30
0.0
  0
SPLINE
  5
DB
330
CE
100
AcDbEntity
  8
0
  6
Continuous
 62
     7
370
    25
100
AcDbSpline
210
0.0
220
0.0
230
1.0
 70
     8
 71
     3
 72
    21
 73
    17
 74
     0
 42
0.000000001
 43
0.00000001
 40
0.0
 40
0.0
 40
0.0
 40
0.0
 40
0.0012878210134256
 40
0.07649063425208
 40
0.1529891289123481
 40
0.2307071439533079
 40
0.3087886564684423
 40
0.3868701689835768
 40
0.4645881840245366
 40
0.5410866786848045
 40
0.616289491923459
 40
0.6914917854145451
 40
0.7679908336366812
 40
0.8457088486776411
 40
0.9237903611927755
 40
0.9999999999999999
 40
0.9999999999999999
 40
0.9999999999999999
 40
0.9999999999999999
 10
22.01038600236677
 20
3.464285600263787
 30
0.0
 10
22.0054011016933
 20
3.476995855484603
 30
0.0
 10
21.70932097081911
 20
4.231926450039454
 30
0.0
 10
20.33457082951541
 20
5.635379943705138
 30
0.0
 10
17.88091661636767
 20
7.567874045063573
 30
0.0
 10
14.62739868382732
 20
9.228055612654543
 30
0.0
 10
10.8110400942285
 20
10.55080077460378
 30
0.0
 10
6.533121966576348
 20
11.42967409270795
 30
0.0
 10
2.044666905208582
 20
11.86484169079296
 30
0.0
 10
-2.468058780306127
 20
11.85820401463967
 30
0.0
 10
-6.843927135149207
 20
11.40087391730826
 30
0.0
 10
-10.9563381088726
 20
10.50637541849225
 30
0.0
 10
-14.69243099032112
 20
9.200616662590477
 30
0.0
 10
-17.9075061060677
 20
7.534501941354965
 30
0.0
 10
-20.50497508827711
 20
5.589320919723681
 30
0.0
 10
-21.51265746115558
 20
4.119196952737325
 30
0.0
 10
-22.01038600236679
 20
3.393052805353299
 30
0.0
  0
SPLINE
  5
DC
330
CE
100
AcDbEntity
  8
0
  6
Continuous
 62
     7
370
    25
100
AcDbSpline
210
0.0
220
0.0
230
1.0
 70
     8
 71
     3
 72
    28
 73
    24
 74
     0
 42
0.000000001
 43
0.00000001
 40
0.0
 40
0.0
 40
0.0
 40
0.0
 40
0.006520333845698
 40
0.0571808728364644
 40
0.1087149795146527
 40
0.1610702515215391
 40
0.2136703960862771
 40
0.2662705406510152
 40
0.3186258126579016
 40
0.3701599193360899
 40
0.4208204583268563
 40
0.4714813474491246
 40
0.5230150812165768
 40
0.5753703532234633
 40
0.6279704977882014
 40
0.6805706423529394
 40
0.7329259143598259
 40
0.7844596481272782
 40
0.8351205372495464
 40
0.8857810762403128
 40
0.937315182918501
 40
0.9896704549253874
 40
0.9999999999999999
 40
0.9999999999999999
 40
0.9999999999999999
 40
0.9999999999999999
 10
-21.77487063558883
 20
3.085540170354145
 30
0.0
 10
-21.85016112433308
 20
3.175008431413683
 30
0.0
 10
-22.51043036277414
 20
3.959611394944461
 30
0.0
 10
-22.97301468445886
 20
5.596409770327868
 30
0.0
 10
-23.05079072717934
 20
7.90756356870604
 30
0.0
 10
-22.18819124187084
 20
10.22308337216769
 30
0.0
 10
-20.48618732070015
 20
12.42456351129601
 30
0.0
 10
-17.91810632218334
 20
14.39354782730446
 30
0.0
 10
-14.68964458720802
 20
16.05750611068506
 30
0.0
 10
-10.95706408534696
 20
17.36383124932701
 30
0.0
 10
-6.84374006667305
 20
18.25818040428324
 30
0.0
 10
-2.468087522526188
 20
18.71555376932587
 30
0.0
 10
2.044589252900148
 20
18.72216687220588
 30
0.0
 10
6.533468561450012
 20
18.28705454721359
 30
0.0
 10
10.80972690036961
 20
17.40798372879729
 30
0.0
 10
14.63229263761144
 20
16.08597232771291
 30
0.0
 10
17.86286650073917
 20
14.42307977135909
 30
0.0
 10
20.40029633951238
 20
12.50048396022355
 30
0.0
 10
22.13271363215614
 20
10.38275594240778
 30
0.0
 10
23.03602017199147
 20
8.12616181390017
 30
0.0
 10
22.99066193295128
 20
5.813273451401459
 30
0.0
 10
22.53580073525268
 20
4.094369347751377
 30
0.0
 10
21.83164867612802
 20
3.229597075172376
 30
0.0
 10
21.71561467024343
 20
3.087095196970098
 30
0.0
  0
LINE
  5
DD
330
CE
100
AcDbEntity
  8
0
  6
Continuous
 62
     7
370
    25
100
AcDbLine
 10
328.4521853462
 20
198.3138063908
 30
0.0
 11
328.4521853462
 21
215.4571524048
 31
0.0
  0
LINE
  5
DE
330
CE
100
AcDbEntity
  8
0
  6
Continuous
 62
     7
370
    25
100
AcDbLine
 10
-328.4521853462
 20
-9.7370002363
 30
0.0
 11
-328.4521853462
 21
-26.8803462503
 31
0.0
  0
VIEWPORT
  5
FC
330
CE
100
AcDbEntity
  8
0
100
AcDbViewport
 10
0.0
 20
0.0
 30
0.0
 40
205.6
 41
156.0
 68
     1
 69
     1
 12
0.0
 22
0.0
 13
0.0
 23
0.0
 14
10.0
 24
10.0
 15
10.0
 25
10.0
 16
0.0
 26
0.0
 36
1.0
 17
0.0
 27
0.0
 37
0.0
 42
50.0
 43
0.0
 44
0.0
 45
816.0
 50
0.0
 51
0.0
 72
   100
 90
   557152
  1

281
     0
 71
     1
 74
     0
110
0.0
120
0.0
130
0.0
111
1.0
121
0.0
131
0.0
112
0.0
122
1.0
132
0.0
 79
     0
146
0.0
170
     0
 61
     5
348
2F
292
     1
282
     1
141
0.0
142
0.0
 63
   256
361
FD
  0
ENDBLK
  5
D1
330
CE
100
AcDbEntity
  8
0
100
AcDbBlockEnd
  0
BLOCK
  5
E1
330
DF
100
AcDbEntity
  8
0
100
AcDbBlockBegin
  2
*Paper_Space7
 70
     0
 10
0.0
 20
0.0
 30
0.0
  3
*Paper_Space7
  1

  0
SPLINE
  5
E5
330
DF
100
AcDbEntity
  8
0
  6
Continuous
 62
     7
370
    25
100
AcDbSpline
210
0.0
220
0.0
230
1.0
 70
     8
 71
     3
 72
   107
 73
   103
 74
     0
 42
0.000000001
 43
0.00000001
 40
0.0
 40
0.0
 40
0.0
 40
0.0
 40
0.0018142632816753
 40
0.0051597025167506
 40
0.0093441969140217
 40
0.0144046910813257
 40
0.020360070018293
 40
0.0275677416340888
 40
0.0357008657178647
 40
0.0440375244021222
 40
0.0888302141801387
 40
0.1088955957825303
 40
0.1290006915083878
 40
0.1490797216058086
 40
0.1683905854155649
 40
0.1870795375899304
 40
0.2047378872193043
 40
0.2213622685927091
 40
0.2371221812476894
 40
0.2527696981140339
 40
0.2683900495547447
 40
0.284135497673392
 40
0.3006706687000797
 40
0.3180698589729239
 40
0.3363305925970164
 40
0.3554494846862816
 40
0.3754221137654749
 40
0.3962428931670409
 40
0.4177767546866255
 40
0.4465756504653314
 40
0.4739976685684241
 40
0.5000503757680392
 40
0.5247454414564711
 40
0.5347107400784279
 40
0.5444403570681473
 40
0.5539354326268541
 40
0.5631971363169025
 40
0.57211460365671
 40
0.5800080232250783
 40
0.5867793133978905
 40
0.5898263902899689
 40
0.5925795029088178
 40
0.5950371694289934
 40
0.5972065839854803
 40
0.5990963117294813
 40
0.6014156980402052
 40
0.6046599123999796
 40
0.6088034619284537
 40
0.6131435606257187
 40
0.6175698184250006
 40
0.622153079425597
 40
0.6283677826926704
 40
0.6348915564381196
 40
0.6414660232299674
 40
0.6480439655551284
 40
0.6542015989743989
 40
0.6586106673187193
 40
0.6626091042473451
 40
0.6670917523359406
 40
0.6721417125695455
 40
0.6777520118135939
 40
0.6839140201659026
 40
0.6905958062796078
 40
0.6973237266427588
 40
0.703902442613748
 40
0.7135124327655773
 40
0.7228648796886238
 40
0.7320077768112211
 40
0.7409754912078529
 40
0.7497982182432185
 40
0.7584684830086486
 40
0.7772216890447738
 40
0.7948327700230288
 40
0.8112398500643001
 40
0.8264354567339224
 40
0.8353637979812482
 40
0.844158719959216
 40
0.8539503199578994
 40
0.8648225487087358
 40
0.8767722720556842
 40
0.8870448139154229
 40
0.8978042850777938
 40
0.9076747431435043
 40
0.9163845008310121
 40
0.9224142100515061
 40
0.9277283206491197
 40
0.932600452144609
 40
0.9381551707457384
 40
0.9429032730965546
 40
0.9478138338553123
 40
0.9525392635357673
 40
0.9571908488069825
 40
0.9621422926999258
 40
0.9672485293030143
 40
0.9719363958988245
 40
0.9766084295478881
 40
0.9820710929961216
 40
0.9873714429405261
 40
0.9915498428067896
 40
0.9959420028791899
 40
0.9997468645807149
 40
1.0
 40
1.0
 40
1.0
 40
1.0
 10
233.2034126515052
 20
164.6498312036173
 30
0.0
 10
233.1904840225054
 20
164.6628497217801
 30
0.0
 10
233.1537154452749
 20
164.6998739407058
 30
0.0
 10
232.5337286807087
 20
164.2380205050284
 30
0.0
 10
231.5710404663067
 20
163.4973300448493
 30
0.0
 10
230.1552013126404
 20
162.3730996695129
 30
0.0
 10
228.3002425560946
 20
160.8902882269998
 30
0.0
 10
225.9776277228254
 20
159.0265709235443
 30
0.0
 10
223.2533641500914
 20
156.8369726174242
 30
0.0
 10
216.225511165054
 20
151.1776061299909
 30
0.0
 10
207.8750543047399
 20
144.4108371096885
 30
0.0
 10
198.2649476447994
 20
136.5521278788134
 30
0.0
 10
191.4879289332799
 20
130.9765745946701
 30
0.0
 10
184.8356252048877
 20
125.4683929428706
 30
0.0
 10
178.3796821695718
 20
120.0871232684562
 30
0.0
 10
172.2298538019825
 20
114.9262260808465
 30
0.0
 10
166.4124125869682
 20
110.0109870192542
 30
0.0
 10
160.9497125602998
 20
105.3644172772477
 30
0.0
 10
155.7386040781325
 20
100.902508071002
 30
0.0
 10
150.6526342302228
 20
96.51863081117737
 30
0.0
 10
145.5877535104547
 20
92.1226096714451
 30
0.0
 10
140.4471517507937
 20
87.62839961129869
 30
0.0
 10
135.1722109415924
 20
82.98088871788755
 30
0.0
 10
129.684107588401
 20
78.10557028881858
 30
0.0
 10
123.9814269971834
 20
72.99707116019555
 30
0.0
 10
118.0692635271835
 20
67.6555806649849
 30
0.0
 10
111.9532717161867
 20
62.08203834884245
 30
0.0
 10
105.6523740546511
 20
56.28979391794933
 30
0.0
 10
98.52682906036814
 20
49.68215476511361
 30
0.0
 10
90.83167444020562
 20
42.47490004071174
 30
0.0
 10
82.79669978876935
 20
34.86987653321395
 30
0.0
 10
75.25974735260392
 20
27.66829523504855
 30
0.0
 10
69.47833388037132
 20
22.09720706111915
 30
0.0
 10
65.28813331051595
 20
18.03748712544569
 30
0.0
 10
62.54709137642768
 20
15.3737373492675
 30
0.0
 10
59.88456929280714
 20
12.77893289717762
 30
0.0
 10
57.31531240734179
 20
10.26770652477012
 30
0.0
 10
54.89269264012804
 20
7.89503105702366
 30
0.0
 10
52.82250010143691
 20
5.854983569184152
 30
0.0
 10
51.37429216020618
 20
4.423269578048575
 30
0.0
 10
50.44876914784066
 20
3.484605042738523
 30
0.0
 10
49.86202877862732
 20
2.910880473843205
 30
0.0
 10
49.34425045247841
 20
2.449198357284799
 30
0.0
 10
48.9128416586608
 20
2.088337762596815
 30
0.0
 10
48.5689690763195
 20
1.815986138747547
 30
0.0
 10
48.18926681116017
 20
1.528857136691542
 30
0.0
 10
47.59650878337599
 20
1.106735455307109
 30
0.0
 10
46.81260614360354
 20
0.5894720885332716
 30
0.0
 10
45.76432629394144
 20
-0.0486112509426734
 30
0.0
 10
44.50626996136791
 20
-0.7522800414052344
 30
0.0
 10
42.80582971483739
 20
-1.625428946914073
 30
0.0
 10
40.50846663166641
 20
-2.689509337052712
 30
0.0
 10
37.46765914194866
 20
-3.928917022934839
 30
0.0
 10
34.20534536815045
 20
-5.092111724630241
 30
0.0
 10
30.85238120731456
 20
-6.146806678333699
 30
0.0
 10
27.6670860915802
 20
-7.040276328246025
 30
0.0
 10
24.67150629778063
 20
-7.800929625987302
 30
0.0
 10
21.79898337596421
 20
-8.468832609221474
 30
0.0
 10
18.65093151549438
 20
-9.135335949426212
 30
0.0
 10
14.97166985876369
 20
-9.832472319470542
 30
0.0
 10
10.71540627232703
 20
-10.53650230355912
 30
0.0
 10
5.867466985274447
 20
-11.21649434161591
 30
0.0
 10
0.5499488422767707
 20
-11.82468859766995
 30
0.0
 10
-5.031247176645396
 20
-12.31816289901398
 30
0.0
 10
-11.56824226167707
 20
-12.73160729219933
 30
0.0
 10
-18.99978619081927
 20
-12.97732153310052
 30
0.0
 10
-27.26414581856768
 20
-12.96136353418158
 30
0.0
 10
-35.32380193181798
 20
-12.66540443422905
 30
0.0
 10
-43.13578032213823
 20
-12.12064882374697
 30
0.0
 10
-50.5758142949764
 20
-11.28783556618598
 30
0.0
 10
-60.6440844969975
 20
-10.05828126296401
 30
0.0
 10
-73.13276130939863
 20
-8.557580332409124
 30
0.0
 10
-87.72878197568245
 20
-6.772059466438122
 30
0.0
 10
-101.3228655668664
 20
-5.097415699075944
 30
0.0
 10
-112.4994686712278
 20
-3.707851985267643
 30
0.0
 10
-121.5646473182119
 20
-2.573333729650878
 30
0.0
 10
-129.1326344964991
 20
-1.621398404353561
 30
0.0
 10
-137.2212752478935
 20
-0.5985557813865117
 30
0.0
 10
-146.1631053288368
 20
0.5387459369287501
 30
0.0
 10
-155.2236339689131
 20
1.698376776457108
 30
0.0
 10
-164.2419453679486
 20
2.859499635509508
 30
0.0
 10
-172.6822216053396
 20
3.95219775203659
 30
0.0
 10
-180.6882810147721
 20
4.994272368936015
 30
0.0
 10
-187.3978724885525
 20
5.871516768133911
 30
0.0
 10
-192.8598964950974
 20
6.588789642014231
 30
0.0
 10
-197.2756593306736
 20
7.168850682832018
 30
0.0
 10
-201.5505067680163
 20
7.73685070496953
 30
0.0
 10
-205.5530981065092
 20
8.250090089438514
 30
0.0
 10
-209.36449626142
 20
8.817133590782733
 30
0.0
 10
-212.7543958087194
 20
9.404927541996107
 30
0.0
 10
-215.8932286692763
 20
10.02697877488075
 30
0.0
 10
-218.7787154362794
 20
10.67297979456426
 30
0.0
 10
-221.4920277380929
 20
11.35574609787549
 30
0.0
 10
-223.9491153028864
 20
12.05211020849777
 30
0.0
 10
-226.0709588704178
 20
12.72598959119546
 30
0.0
 10
-227.8931986476166
 20
13.36990584899671
 30
0.0
 10
-229.3996402325729
 20
13.96468485346622
 30
0.0
 10
-230.5560168091022
 20
14.47859000694854
 30
0.0
 10
-231.3084108195044
 20
14.85469332507858
 30
0.0
 10
-231.6053359597136
 20
15.01432489622519
 30
0.0
 10
-231.7481871117045
 20
15.10130470462946
 30
0.0
 10
-231.7129649674762
 20
15.07537299719419
 30
0.0
 10
-231.7107678313073
 20
15.07375539288375
 30
0.0
  0
SPLINE
  5
E6
330
DF
100
AcDbEntity
  8
0
  6
Continuous
 62
     7
370
    25
100
AcDbSpline
210
0.0
220
0.0
230
1.0
 70
     8
 71
     3
 72
    85
 73
    81
 74
     0
 42
0.000000001
 43
0.00000001
 40
0.0
 40
0.0
 40
0.0
 40
0.0
 40
0.0066276739147408
 40
0.0257033288514576
 40
0.0414440718443258
 40
0.0559615036145629
 40
0.0690332150288009
 40
0.0805763124518114
 40
0.086128818671391
 40
0.0924973426174623
 40
0.0996816833273098
 40
0.1075442003136123
 40
0.1144638942600008
 40
0.1191594584239114
 40
0.122894494495673
 40
0.1259063431768135
 40
0.129943945419263
 40
0.1355163560459993
 40
0.1414814948419906
 40
0.1475819498481616
 40
0.1530203466738428
 40
0.159985914703565
 40
0.1683297608999234
 40
0.1770770783192749
 40
0.1835223391551204
 40
0.1888003787241457
 40
0.1940555945593447
 40
0.2002900487489219
 40
0.2171709073810283
 40
0.2334018900127561
 40
0.2503852617056191
 40
0.2662244802751524
 40
0.2792125163617498
 40
0.2888466365336504
 40
0.3005825318938741
 40
0.3138185465384541
 40
0.3263877166465888
 40
0.3381149951755879
 40
0.3491626541487438
 40
0.3769524008673244
 40
0.4048670422337767
 40
0.4335480082970938
 40
0.4623560646213018
 40
0.4792540718099938
 40
0.496742594626285
 40
0.5150041706392734
 40
0.5333380596277194
 40
0.5476383114471574
 40
0.5615236768965017
 40
0.5747930258768916
 40
0.5867515767221924
 40
0.5979206466774308
 40
0.6066125382002785
 40
0.6155396461828111
 40
0.6231602948834142
 40
0.6294676047981959
 40
0.6356444918546407
 40
0.6439967793124246
 40
0.6532779139552838
 40
0.6610483847148655
 40
0.66796614503051
 40
0.6738086316069848
 40
0.679047964721393
 40
0.6835823024003557
 40
0.6884332046430589
 40
0.6921214283632848
 40
0.6959641072681029
 40
0.705231927340959
 40
0.7166296876906879
 40
0.7301829740629046
 40
0.7459194082892524
 40
0.7638683117406256
 40
0.7840601645354236
 40
0.8051320754898984
 40
0.8282421861829212
 40
0.8534095650888944
 40
0.8795157970386352
 40
0.905701069207675
 40
0.9319537086771302
 40
1.0
 40
1.0
 40
1.0
 40
1.0
 10
-231.4371774245896
 20
-19.10008123493762
 30
0.0
 10
-230.8603136589731
 20
-19.73537328776888
 30
0.0
 10
-228.623130710495
 20
-22.19915179599055
 30
0.0
 10
-225.0197176689755
 20
-26.1711239300254
 30
0.0
 10
-220.7334399754289
 20
-30.89815428546566
 30
0.0
 10
-216.9722335458325
 20
-35.04891420805644
 30
0.0
 10
-213.5747486215264
 20
-38.80054337324898
 30
0.0
 10
-210.9556858166344
 20
-41.69430882878952
 30
0.0
 10
-208.9125123224263
 20
-43.95274941315838
 30
0.0
 10
-207.2459690241201
 20
-45.79544880247109
 30
0.0
 10
-205.3751201115351
 20
-47.86476046272956
 30
0.0
 10
-203.4597153807071
 20
-49.98434047245903
 30
0.0
 10
-201.7391003933744
 20
-51.88875749414906
 30
0.0
 10
-200.355943880917
 20
-53.42038723529072
 30
0.0
 10
-199.3051248027618
 20
-54.5815380523681
 30
0.0
 10
-198.2727150388026
 20
-55.72598038504729
 30
0.0
 10
-196.9991933048843
 20
-57.06107162104901
 30
0.0
 10
-195.429448413938
 20
-58.60614332225617
 30
0.0
 10
-193.6009732442003
 20
-60.28159284390817
 30
0.0
 10
-191.7241286455015
 20
-61.88082010597648
 30
0.0
 10
-189.7026300552223
 20
-63.49203976794237
 30
0.0
 10
-187.3754282634011
 20
-65.22063913818877
 30
0.0
 10
-184.6044852032251
 20
-67.11057278591495
 30
0.0
 10
-181.8119900991865
 20
-68.84661659757127
 30
0.0
 10
-179.3272372933639
 20
-70.27116750766623
 30
0.0
 10
-177.2365320750328
 20
-71.39751521181174
 30
0.0
 10
-175.1251801825578
 20
-72.47276896761531
 30
0.0
 10
-171.5308290269592
 20
-74.19337642738796
 30
0.0
 10
-166.415132971446
 20
-76.35245204796678
 30
0.0
 10
-159.6735305419297
 20
-78.69537677500757
 30
0.0
 10
-152.9909258614557
 20
-80.58003974031163
 30
0.0
 10
-146.62618049389
 20
-81.90852733380596
 30
0.0
 10
-141.3899038158981
 20
-82.90398938093365
 30
0.0
 10
-136.8300777392601
 20
-83.74729302820269
 30
0.0
 10
-132.226412821576
 20
-84.56719413358934
 30
0.0
 10
-127.2200133145087
 20
-85.41987995481135
 30
0.0
 10
-122.1787725481796
 20
-86.23545207780111
 30
0.0
 10
-117.4068087150182
 20
-86.9677035769696
 30
0.0
 10
-110.5479676266128
 20
-87.96507871190245
 30
0.0
 10
-101.4422097699975
 20
-89.16219022916286
 30
0.0
 10
-89.78419328792604
 20
-90.45566153264309
 30
0.0
 10
-77.88197917346068
 20
-91.56450332007879
 30
0.0
 10
-67.46650114574517
 20
-92.32524777638507
 30
0.0
 10
-58.66356223438274
 20
-92.95253774601211
 30
0.0
 10
-51.09589697381243
 20
-93.12356527229656
 30
0.0
 10
-43.22004579809197
 20
-92.84338355161267
 30
0.0
 10
-35.87878306144427
 20
-92.20697673510972
 30
0.0
 10
-29.28660352021274
 20
-91.34241692446012
 30
0.0
 10
-23.52211006123657
 20
-90.36840990837722
 30
0.0
 10
-18.1872884349777
 20
-89.26517187443552
 30
0.0
 10
-13.33378292351853
 20
-88.08078046538373
 30
0.0
 10
-9.15014898214736
 20
-86.91061070837611
 30
0.0
 10
-5.423769877379178
 20
-85.74527091365658
 30
0.0
 10
-2.217192338457102
 20
-84.64071432867917
 30
0.0
 10
0.6182326161771473
 20
-83.57274763416586
 30
0.0
 10
3.069960213478828
 20
-82.57814199492877
 30
0.0
 10
5.582892288220412
 20
-81.48814430175442
 30
0.0
 10
8.384727094205582
 20
-80.17379577139802
 30
0.0
 10
11.27588911837926
 20
-78.68095212627993
 30
0.0
 10
13.92041175191572
 20
-77.17934919335615
 30
0.0
 10
16.16088499784316
 20
-75.79212013634132
 30
0.0
 10
18.05163258810605
 20
-74.52584861853101
 30
0.0
 10
19.60758699348159
 20
-73.40838425649909
 30
0.0
 10
20.96241288834043
 20
-72.37402688465208
 30
0.0
 10
22.0666624077766
 20
-71.47441147343814
 30
0.0
 10
22.81806860718572
 20
-70.82789494313468
 30
0.0
 10
23.75749861210769
 20
-70.02463034067432
 30
0.0
 10
25.11711955581114
 20
-68.85730123016783
 30
0.0
 10
26.96401199691345
 20
-67.27060087008478
 30
0.0
 10
29.13133279874754
 20
-65.40593423643507
 30
0.0
 10
31.61756005447763
 20
-63.26495549918733
 30
0.0
 10
34.4282530440051
 20
-60.84236185355716
 30
0.0
 10
37.49471213982679
 20
-58.19708399633253
 30
0.0
 10
40.80880519580983
 20
-55.33581936674727
 30
0.0
 10
44.36216625044101
 20
-52.26543966399682
 30
0.0
 10
48.15461616049097
 20
-48.98559458913832
 30
0.0
 10
52.09995994194122
 20
-45.57043715639693
 30
0.0
 10
56.10527530133793
 20
-42.09955079504048
 30
0.0
 10
62.25124104638911
 20
-36.77049201024396
 30
0.0
 10
67.0777749582045
 20
-32.56488208104193
 30
0.0
 10
70.56061118851551
 20
-29.53010580067157
 30
0.0
  0
SPLINE
  5
E7
330
DF
100
AcDbEntity
  8
0
  6
Continuous
 62
     7
370
    25
100
AcDbSpline
210
0.0
220
0.0
230
1.0
 70
    11
 71
     3
 72
    57
 73
    53
 74
     0
 42
0.000000001
 43
0.00000001
 40
0.0
 40
0.0
 40
0.0
 40
0.0
 40
0.0083333333333333
 40
0.0125
 40
0.0166666666666666
 40
0.0833333333333334
 40
0.1341380686474368
 40
0.1341380686474368
 40
0.1459962756146732
 40
0.1578544825819096
 40
0.1697126895491459
 40
0.1815708965163823
 40
0.1934291034836186
 40
0.2052873104508549
 40
0.2052873104508549
 40
0.25
 40
0.2947126895491455
 40
0.2947126895491455
 40
0.3065708965163818
 40
0.3184291034836182
 40
0.3302873104508544
 40
0.3421455174180907
 40
0.3540037243853271
 40
0.3658619313525633
 40
0.3658619313525633
 40
0.4166666666666666
 40
0.5
 40
0.5833333333333333
 40
0.6341380686474369
 40
0.6341380686474369
 40
0.6459962756146733
 40
0.6578544825819097
 40
0.6697126895491459
 40
0.6815708965163823
 40
0.6934291034836186
 40
0.7052873104508548
 40
0.7052873104508548
 40
0.75
 40
0.7947126895491452
 40
0.7947126895491452
 40
0.8065708965163816
 40
0.818429103483618
 40
0.8302873104508544
 40
0.8421455174180905
 40
0.8540037243853269
 40
0.8658619313525633
 40
0.8658619313525633
 40
0.9166666666666666
 40
0.9833333333333333
 40
0.9875
 40
0.9916666666666667
 40
1.0
 40
1.0
 40
1.0
 40
1.0
 10
187.0828693448283
 20
89.56685896467717
 30
0.0
 10
184.8864173726354
 20
87.62977040292361
 30
0.0
 10
181.5917394143461
 20
84.7241375602933
 30
0.0
 10
177.1988354699604
 20
80.8499604367862
 30
0.0
 10
157.4307677202244
 20
63.41616338100421
 30
0.0
 10
125.3701066272972
 20
35.14131800691518
 30
0.0
 10
94.40767152046614
 20
7.835016913702739
 30
0.0
 10
77.8913343415956
 20
-6.731023334977909
 30
0.0
 10
69.52687583698649
 20
-11.8941291936335
 30
0.0
 10
51.63797828582002
 20
-18.25074449862458
 30
0.0
 10
29.10086667246031
 20
-22.92639413310735
 30
0.0
 10
3.673756844029236
 20
-25.46802049894876
 30
0.0
 10
-22.46102113283896
 20
-25.73573906790863
 30
0.0
 10
-39.61057858199541
 20
-24.41178017087896
 30
0.0
 10
-79.0603997565908
 20
-19.44156988317648
 30
0.0
 10
-141.4213562048667
 20
-11.5848278736644
 30
0.0
 10
-203.7823126531404
 20
-3.728085864152464
 30
0.0
 10
-243.2321338277384
 20
1.242124423550164
 30
0.0
 10
-258.7214514073902
 20
4.030277257756509
 30
0.0
 10
-277.7912973269006
 20
9.993243106726544
 30
0.0
 10
-291.818246233686
 20
17.50561364272581
 30
0.0
 10
-299.4431253330244
 20
25.9813169168528
 30
0.0
 10
-300.2462810400949
 20
34.69290957373618
 30
0.0
 10
-296.2744043480608
 20
40.40942872209485
 30
0.0
 10
-279.7580671691898
 20
54.97546897077569
 30
0.0
 10
-244.4027281179737
 20
86.1559471874948
 30
0.0
 10
-187.0828693448287
 20
136.7073110217495
 30
0.0
 10
-129.7630105716832
 20
187.2586748560045
 30
0.0
 10
-94.40767152046622
 20
218.4391530727242
 30
0.0
 10
-77.89133434159575
 20
233.0051933214048
 30
0.0
 10
-69.52687583698676
 20
238.1682991800604
 30
0.0
 10
-51.63797828582019
 20
244.5249144850515
 30
0.0
 10
-29.10086667246037
 20
249.2005641195342
 30
0.0
 10
-3.673756844029402
 20
251.7421904853757
 30
0.0
 10
22.46102113283883
 20
252.0099090543355
 30
0.0
 10
39.61057858199531
 20
250.6859501573058
 30
0.0
 10
79.06039975659104
 20
245.7157398696034
 30
0.0
 10
141.4213562048664
 20
237.8589978600914
 30
0.0
 10
203.7823126531408
 20
230.0022558505795
 30
0.0
 10
243.2321338277384
 20
225.0320455628767
 30
0.0
 10
258.7214514073902
 20
222.2438927286704
 30
0.0
 10
277.7912973269005
 20
216.2809268797004
 30
0.0
 10
291.8182462336859
 20
208.768556343701
 30
0.0
 10
299.4431253330242
 20
200.2928530695741
 30
0.0
 10
300.2462810400949
 20
191.5812604126907
 30
0.0
 10
296.2744043480608
 20
185.8647412643321
 30
0.0
 10
279.7580671691901
 20
171.2987010156516
 30
0.0
 10
248.7956320623593
 20
143.9923999224391
 30
0.0
 10
216.734970969432
 20
115.7175545483501
 30
0.0
 10
196.9669032196962
 20
98.28375749256814
 30
0.0
 10
192.5739992753104
 20
94.40958036906102
 30
0.0
 10
189.2793213170212
 20
91.50394752643072
 30
0.0
 10
187.0828693448283
 20
89.56685896467717
 30
0.0
  0
SPLINE
  5
E8
330
DF
100
AcDbEntity
  8
0
  6
Continuous
 62
     7
370
    25
100
AcDbSpline
210
0.0
220
0.0
230
1.0
 70
     8
 71
     3
 72
    44
 73
    40
 74
     0
 42
0.000000001
 43
0.00000001
 40
0.0
 40
0.0
 40
0.0
 40
0.0
 40
0.3593969276059048
 40
0.3722325321632585
 40
0.3850681367206122
 40
0.3978456978662993
 40
0.4105285386389476
 40
0.4231459975593261
 40
0.4357302256110074
 40
0.4483246425390694
 40
0.4630836753360045
 40
0.4779088833454339
 40
0.4927560892468297
 40
0.5075879682060904
 40
0.5223611529586095
 40
0.5370580593442053
 40
0.5511518985350264
 40
0.5652912902930407
 40
0.5795200075199376
 40
0.5938694391493231
 40
0.6082453162535599
 40
0.6226211933577965
 40
0.6369970704620329
 40
0.7160643945353314
 40
0.8166955342649841
 40
0.8298734216105338
 40
0.8430513089560837
 40
0.8561760879690127
 40
0.8691998172236906
 40
0.8821539911911676
 40
0.8950734023545389
 40
0.9097703087401349
 40
0.924543493492654
 40
0.9393753724519145
 40
0.9542225783533105
 40
0.9690477863627399
 40
0.9838068191596755
 40
0.9984959539976853
 40
1.0
 40
1.0
 40
1.0
 40
1.0
 10
187.0828693448282
 20
70.71067813247389
 30
0.0
 10
154.2103858054273
 20
41.64560473544788
 30
0.0
 10
120.1638849967621
 20
11.54249300281378
 30
0.0
 10
84.69602932506415
 20
-19.56954434401705
 30
0.0
 10
81.2533759277678
 20
-22.68768592762219
 30
0.0
 10
77.43340963432107
 20
-25.74741720328289
 30
0.0
 10
72.614394942975
 20
-28.62761301180386
 30
0.0
 10
67.03690516621798
 20
-31.32849207276349
 30
0.0
 10
60.69888541996943
 20
-33.82730235596942
 30
0.0
 10
53.25897167002976
 20
-36.23598384199614
 30
0.0
 10
44.62448530485496
 20
-38.48669852188631
 30
0.0
 10
34.7795654442532
 20
-40.49717161256715
 30
0.0
 10
24.28609807096307
 20
-42.11830630821374
 30
0.0
 10
13.31296741111196
 20
-43.32126634752257
 30
0.0
 10
2.039273556441651
 20
-44.09817101825972
 30
0.0
 10
-9.236867250382918
 20
-44.43205125082329
 30
0.0
 10
-20.38820182495236
 20
-44.34371421997218
 30
0.0
 10
-31.3181304837937
 20
-43.85134232509073
 30
0.0
 10
-42.10328118233729
 20
-42.96825235902059
 30
0.0
 10
-52.51377538853565
 20
-41.63844635429435
 30
0.0
 10
-62.96970817028775
 20
-40.32602366700689
 30
0.0
 10
-73.42942395903516
 20
-39.00690918843924
 30
0.0
 10
-99.58056911248136
 20
-35.71305609615606
 30
0.0
 10
-146.647706445267
 20
-29.77817641994208
 30
0.0
 10
-193.4427770144876
 20
-23.89878837843376
 30
0.0
 10
-224.2275298070418
 20
-20.00352759793167
 30
0.0
 10
-233.8247269463272
 20
-18.81845166382486
 30
0.0
 10
-243.2822588059515
 20
-17.5364785683053
 30
0.0
 10
-252.1717647646036
 20
-15.89543617793904
 30
0.0
 10
-260.4971285007709
 20
-13.98918255539312
 30
0.0
 10
-268.5321183040925
 20
-11.71658084973119
 30
0.0
 10
-276.1171292782858
 20
-9.053781960656481
 30
0.0
 10
-283.0301032764524
 20
-5.985495948345299
 30
0.0
 10
-288.875021091093
 20
-2.663902535324392
 30
0.0
 10
-293.520471165421
 20
0.8654469183776714
 30
0.0
 10
-296.9437940618063
 20
4.544250688312504
 30
0.0
 10
-298.9456398594451
 20
8.313098436682958
 30
0.0
 10
-299.7808181235479
 20
10.99054406881449
 30
0.0
 10
-299.569661767536
 20
12.38857938315739
 30
0.0
 10
-299.5500492605026
 20
12.51843092044129
 30
0.0
  0
SPLINE
  5
E9
330
DF
100
AcDbEntity
  8
0
  6
Continuous
 62
     7
370
    25
100
AcDbSpline
210
0.0
220
0.0
230
1.0
 70
     8
 71
     3
 72
    13
 73
     9
 74
     0
 42
0.000000001
 43
0.00000001
 40
0.0
 40
0.0
 40
0.0
 40
0.0
 40
0.0305037398134991
 40
0.0646296801359281
 40
0.0990062680251077
 40
0.1336476064434348
 40
0.168301702185696
 40
1.0
 40
1.0
 40
1.0
 40
1.0
 10
299.5500492605026
 20
176.0433774015793
 30
0.0
 10
299.4719382497661
 20
174.9032978984833
 30
0.0
 10
299.3064408494519
 20
172.4877588837553
 30
0.0
 10
297.4553115704547
 20
168.8285921446641
 30
0.0
 10
294.2968229868512
 20
165.1160016148206
 30
0.0
 10
290.0034963894136
 20
161.5155853308129
 30
0.0
 10
254.6436695245359
 20
130.0000908768548
 30
0.0
 10
220.173873514481
 20
99.75039049706866
 30
0.0
 10
187.0828693448283
 20
70.7106781324739
 30
0.0
  0
SPLINE
  5
EA
330
DF
100
AcDbEntity
  8
0
  6
Continuous
 62
     7
370
    25
100
AcDbSpline
210
0.0
220
0.0
230
1.0
 70
    11
 71
     3
 72
    57
 73
    53
 74
     0
 42
0.000000001
 43
0.00000001
 40
0.0
 40
0.0
 40
0.0
 40
0.0
 40
0.0083333333333333
 40
0.0125
 40
0.0166666666666666
 40
0.0833333333333334
 40
0.1341380686474368
 40
0.1341380686474368
 40
0.1459962756146732
 40
0.1578544825819096
 40
0.1697126895491459
 40
0.1815708965163823
 40
0.1934291034836186
 40
0.2052873104508549
 40
0.2052873104508549
 40
0.25
 40
0.2947126895491455
 40
0.2947126895491455
 40
0.3065708965163818
 40
0.3184291034836182
 40
0.3302873104508544
 40
0.3421455174180907
 40
0.3540037243853271
 40
0.3658619313525633
 40
0.3658619313525633
 40
0.4166666666666666
 40
0.5
 40
0.5833333333333333
 40
0.6341380686474369
 40
0.6341380686474369
 40
0.6459962756146733
 40
0.6578544825819097
 40
0.6697126895491459
 40
0.6815708965163823
 40
0.6934291034836186
 40
0.7052873104508548
 40
0.7052873104508548
 40
0.75
 40
0.7947126895491452
 40
0.7947126895491452
 40
0.8065708965163816
 40
0.818429103483618
 40
0.8302873104508544
 40
0.8421455174180905
 40
0.8540037243853269
 40
0.8658619313525633
 40
0.8658619313525633
 40
0.9166666666666666
 40
0.9833333333333333
 40
0.9875
 40
0.9916666666666667
 40
1.0
 40
1.0
 40
1.0
 40
1.0
 10
32.73950213534483
 20
14.73139127720824
 30
0.0
 10
32.52008490427043
 20
14.53788346827513
 30
0.0
 10
32.16629101856383
 20
14.25072963567281
 30
0.0
 10
31.64762971619415
 20
13.87479620202093
 30
0.0
 10
29.17644542639166
 20
12.20499465237589
 30
0.0
 10
23.32669799730418
 20
9.81367460780231
 30
0.0
 10
15.99909814910573
 20
8.394608104469349
 30
0.0
 10
11.81356619995087
 20
7.859650074185612
 30
0.0
 10
10.20499449709299
 20
7.676794108013634
 30
0.0
 10
7.725620573037493
 20
7.462376121956993
 30
0.0
 10
5.186092670593544
 20
7.308864753303515
 30
0.0
 10
2.596061853510266
 20
7.217209385671095
 30
0.0
 10
-0.0253066422368359
 20
7.188095355683225
 30
0.0
 10
-1.781432699055367
 20
7.210849110556486
 30
0.0
 10
-5.965800833538202
 20
7.315968936144793
 30
0.0
 10
-12.55331319879483
 20
7.78519921396173
 30
0.0
 10
-18.42504744057537
 20
8.885686461333371
 30
0.0
 10
-21.77191422920296
 20
9.729413048211248
 30
0.0
 10
-23.13415935461083
 20
10.09953713332062
 30
0.0
 10
-25.04241436446137
 20
10.69933008343089
 30
0.0
 10
-26.80306449575368
 20
11.33911972808388
 30
0.0
 10
-28.40309574420666
 20
12.01416652746296
 30
0.0
 10
-29.83715368672121
 20
12.72163058430824
 30
0.0
 10
-30.68073890485751
 20
13.21342928311888
 30
0.0
 10
-32.75836343466909
 20
14.53747085899026
 30
0.0
 10
-35.81840038138617
 20
17.59757254465231
 30
0.0
 10
-34.38403807501094
 20
23.18816244035251
 30
0.0
 10
-24.36632689486878
 20
27.69735202535099
 30
0.0
 10
-15.9990981491057
 20
29.31775355993481
 30
0.0
 10
-11.81356619995084
 20
29.85271159021854
 30
0.0
 10
-10.20499449709296
 20
30.03556755639053
 30
0.0
 10
-7.725620573037467
 20
30.24998554244716
 30
0.0
 10
-5.186092670593532
 20
30.40349691110064
 30
0.0
 10
-2.596061853510272
 20
30.49515227873308
 30
0.0
 10
0.0253066422368255
 20
30.52426630872094
 30
0.0
 10
1.781432699055348
 20
30.50151255384769
 30
0.0
 10
5.965800833538166
 20
30.39639272825936
 30
0.0
 10
12.55331319879478
 20
29.92716245044243
 30
0.0
 10
18.42504744057533
 20
28.8266752030708
 30
0.0
 10
21.7719142292029
 20
27.98294861619293
 30
0.0
 10
23.13415935461079
 20
27.61282453108355
 30
0.0
 10
25.04241436446134
 20
27.01303158097328
 30
0.0
 10
26.80306449575367
 20
26.37324193632029
 30
0.0
 10
28.40309574420663
 20
25.69819513694122
 30
0.0
 10
29.83715368672119
 20
24.99073108009594
 30
0.0
 10
30.6807389048575
 20
24.4989323812853
 30
0.0
 10
32.75836343466907
 20
23.17489080541391
 30
0.0
 10
35.43819052528136
 20
20.49500701967619
 30
0.0
 10
35.08037249024277
 20
17.4117689090401
 30
0.0
 10
33.62035097834799
 20
15.61457282396596
 30
0.0
 10
33.26337717393583
 20
15.21826868033837
 30
0.0
 10
32.95891936641923
 20
14.92489908614136
 30
0.0
 10
32.73950213534483
 20
14.73139127720824
 30
0.0
  0
SPLINE
  5
EB
330
DF
100
AcDbEntity
  8
0
  6
Continuous
 62
     7
370
    25
100
AcDbSpline
210
0.0
220
0.0
230
1.0
 70
     8
 71
     3
 72
    21
 73
    17
 74
     0
 42
0.000000001
 43
0.00000001
 40
0.0
 40
0.0
 40
0.0
 40
0.0
 40
0.0255834641426824
 40
0.1039150798984993
 40
0.1818820338597622
 40
0.2586261165241522
 40
0.3340692908166344
 40
0.4095129865214908
 40
0.4862565138508961
 40
0.564223467812159
 40
0.642555083567976
 40
0.7208866993237928
 40
0.7988536532850558
 40
0.875597180614461
 40
0.9510408763193174
 40
0.9999999999999999
 40
0.9999999999999999
 40
0.9999999999999999
 40
0.9999999999999999
 10
-21.89679823223125
 20
9.771096402853743
 30
0.0
 10
-21.78001813916407
 20
9.932923831346203
 30
0.0
 10
-21.30568000286048
 20
10.59023552564124
 30
0.0
 10
-19.55346923736221
 20
11.63877912245197
 30
0.0
 10
-16.79939815210035
 20
12.84546239657631
 30
0.0
 10
-13.39677124980674
 20
13.83726794528757
 30
0.0
 10
-9.533604016506915
 20
14.5817941540636
 30
0.0
 10
-5.300746500655697
 20
15.05610135609062
 30
0.0
 10
-0.8246207703274735
 20
15.24669638830117
 30
0.0
 10
3.734252316484131
 20
15.15257622055356
 30
0.0
 10
8.18953335528327
 20
14.76463724427331
 30
0.0
 10
12.29852036259647
 20
14.07324037240331
 30
0.0
 10
15.91183860935801
 20
13.13944249060178
 30
0.0
 10
18.86397160339892
 20
12.00672397586693
 30
0.0
 10
20.92404681201172
 20
10.87704847237152
 30
0.0
 10
21.62260532966778
 20
10.10120111136632
 30
0.0
 10
21.89752524734364
 20
9.795863924537269
 30
0.0
  0
LINE
  5
EC
330
DF
100
AcDbEntity
  8
0
  6
Continuous
 62
     7
370
    25
100
AcDbLine
 10
299.6101411578
 20
176.0424648246
 30
0.0
 11
299.6101411578
 21
194.8986456569
 31
0.0
  0
LINE
  5
ED
330
DF
100
AcDbEntity
  8
0
  6
Continuous
 62
     7
370
    25
100
AcDbLine
 10
-299.6101411578
 20
31.3755243296
 30
0.0
 11
-299.6101411578
 21
12.5193434974
 31
0.0
  0
VIEWPORT
  5
FE
330
DF
100
AcDbEntity
  8
0
100
AcDbViewport
 10
0.0
 20
0.0
 30
0.0
 40
205.6
 41
156.0
 68
     1
 69
     1
 12
0.0
 22
0.0
 13
0.0
 23
0.0
 14
10.0
 24
10.0
 15
10.0
 25
10.0
 16
0.0
 26
0.0
 36
1.0
 17
0.0
 27
0.0
 37
0.0
 42
50.0
 43
0.0
 44
0.0
 45
816.0
 50
0.0
 51
0.0
 72
   100
 90
   557152
  1

281
     0
 71
     1
 74
     0
110
0.0
120
0.0
130
0.0
111
1.0
121
0.0
131
0.0
112
0.0
122
1.0
132
0.0
 79
     0
146
0.0
170
     0
 61
     5
348
2F
292
     1
282
     1
141
0.0
142
0.0
 63
   256
361
FF
  0
ENDBLK
  5
E2
330
DF
100
AcDbEntity
  8
0
100
AcDbBlockEnd
  0
ENDSEC
  0
SECTION
  2
ENTITIES
  0
SPLINE
  5
73
330
1F
100
AcDbEntity
  8
0
  6
Continuous
 62
     7
370
    25
100
AcDbSpline
210
0.0
220
0.0
230
1.0
 70
    11
 71
     3
 72
    57
 73
    53
 74
     0
 42
0.000000001
 43
0.00000001
 40
0.0
 40
0.0
 40
0.0
 40
0.0
 40
0.0083333333333333
 40
0.0125
 40
0.0166666666666666
 40
0.0833333333333334
 40
0.1341380686474368
 40
0.1341380686474368
 40
0.1459962756146732
 40
0.1578544825819096
 40
0.1697126895491459
 40
0.1815708965163823
 40
0.1934291034836186
 40
0.2052873104508549
 40
0.2052873104508549
 40
0.25
 40
0.2947126895491455
 40
0.2947126895491455
 40
0.3065708965163818
 40
0.3184291034836182
 40
0.3302873104508544
 40
0.3421455174180907
 40
0.3540037243853271
 40
0.3658619313525633
 40
0.3658619313525633
 40
0.4166666666666666
 40
0.5
 40
0.5833333333333333
 40
0.6341380686474369
 40
0.6341380686474369
 40
0.6459962756146733
 40
0.6578544825819097
 40
0.6697126895491459
 40
0.6815708965163823
 40
0.6934291034836186
 40
0.7052873104508548
 40
0.7052873104508548
 40
0.75
 40
0.7947126895491452
 40
0.7947126895491452
 40
0.8065708965163816
 40
0.818429103483618
 40
0.8302873104508544
 40
0.8421455174180905
 40
0.8540037243853269
 40
0.8658619313525633
 40
0.8658619313525633
 40
0.9166666666666666
 40
0.9833333333333333
 40
0.9875
 40
0.9916666666666667
 40
1.0
 40
1.0
 40
1.0
 40
1.0
 10
34.99999999999977
 20
0.0000000000002182
 30
0.0
 10
34.99999999999977
 20
-0.6206056481496951
 30
0.0
 10
34.97362875694435
 20
-1.551514120374565
 30
0.0
 10
34.8872031539355
 20
-2.789849164359533
 30
0.0
 10
34.34671391435476
 20
-8.349413726875046
 30
0.0
 10
31.41115417375325
 20
-17.12823699757488
 30
0.0
 10
26.06195946989973
 20
-23.7011802676893
 30
0.0
 10
22.7141615122886
 20
-26.68221152903527
 30
0.0
 10
21.40342850419344
 20
-27.76406579100881
 30
0.0
 10
19.31161118266366
 20
-29.24236582940848
 30
0.0
 10
17.09892374345887
 20
-30.57101473959147
 30
0.0
 10
14.7733869566799
 20
-31.74393615407638
 30
0.0
 10
12.35220134975577
 20
-32.7524309175738
 30
0.0
 10
10.6853618399989
 20
-33.30946267286267
 30
0.0
 10
6.659747442761432
 20
-34.49386843494866
 30
0.0
 10
-0.0000000000001567
 20
-35.50613156505068
 30
0.0
 10
-6.659747442761734
 20
-34.49386843494859
 30
0.0
 10
-10.68536183999924
 20
-33.30946267286264
 30
0.0
 10
-12.3522013497561
 20
-32.75243091757375
 30
0.0
 10
-14.77338695668022
 20
-31.74393615407634
 30
0.0
 10
-17.09892374345917
 20
-30.57101473959141
 30
0.0
 10
-19.31161118266395
 20
-29.24236582940844
 30
0.0
 10
-21.40342850419373
 20
-27.76406579100877
 30
0.0
 10
-22.71416151228887
 20
-26.68221152903523
 30
0.0
 10
-26.06195946989997
 20
-23.70118026768929
 30
0.0
 10
-32.17008991097076
 20
-16.19567764564138
 30
0.0
 10
-36.7580828703615
 20
0.0000000000002268
 30
0.0
 10
-32.17008991097074
 20
16.19567764564184
 30
0.0
 10
-26.06195946989993
 20
23.70118026768975
 30
0.0
 10
-22.7141615122888
 20
26.68221152903573
 30
0.0
 10
-21.40342850419364
 20
27.76406579100928
 30
0.0
 10
-19.31161118266386
 20
29.24236582940894
 30
0.0
 10
-17.09892374345908
 20
30.57101473959191
 30
0.0
 10
-14.77338695668013
 20
31.74393615407683
 30
0.0
 10
-12.35220134975601
 20
32.75243091757424
 30
0.0
 10
-10.68536183999915
 20
33.30946267286313
 30
0.0
 10
-6.659747442761675
 20
34.49386843494906
 30
0.0
 10
-0.0000000000001107
 20
35.50613156505111
 30
0.0
 10
6.659747442761456
 20
34.49386843494907
 30
0.0
 10
10.68536183999895
 20
33.30946267286312
 30
0.0
 10
12.35220134975582
 20
32.75243091757423
 30
0.0
 10
14.77338695667996
 20
31.74393615407681
 30
0.0
 10
17.09892374345892
 20
30.5710147395919
 30
0.0
 10
19.31161118266369
 20
29.24236582940891
 30
0.0
 10
21.40342850419347
 20
27.76406579100925
 30
0.0
 10
22.71416151228863
 20
26.6822115290357
 30
0.0
 10
26.06195946989973
 20
23.70118026768972
 30
0.0
 10
31.41115417375322
 20
17.12823699757532
 30
0.0
 10
34.34671391435472
 20
8.349413726875492
 30
0.0
 10
34.88720315393549
 20
2.789849164359977
 30
0.0
 10
34.97362875694434
 20
1.551514120375001
 30
0.0
 10
34.99999999999977
 20
0.6206056481501314
 30
0.0
 10
34.99999999999977
 20
0.0000000000002182
 30
0.0
  0
SPLINE
  5
74
330
1F
100
AcDbEntity
  8
0
  6
Continuous
 62
     7
370
    25
100
AcDbSpline
210
0.0
220
0.0
230
1.0
 70
    11
 71
     3
 72
    57
 73
    53
 74
     0
 42
0.000000001
 43
0.00000001
 40
0.0
 40
0.0
 40
0.0
 40
0.0
 40
0.0083333333333333
 40
0.0125
 40
0.0166666666666666
 40
0.0833333333333334
 40
0.1341380686474368
 40
0.1341380686474368
 40
0.1459962756146732
 40
0.1578544825819096
 40
0.1697126895491459
 40
0.1815708965163823
 40
0.1934291034836186
 40
0.2052873104508549
 40
0.2052873104508549
 40
0.25
 40
0.2947126895491455
 40
0.2947126895491455
 40
0.3065708965163818
 40
0.3184291034836182
 40
0.3302873104508544
 40
0.3421455174180907
 40
0.3540037243853271
 40
0.3658619313525633
 40
0.3658619313525633
 40
0.4166666666666666
 40
0.5
 40
0.5833333333333333
 40
0.6341380686474369
 40
0.6341380686474369
 40
0.6459962756146733
 40
0.6578544825819097
 40
0.6697126895491459
 40
0.6815708965163823
 40
0.6934291034836186
 40
0.7052873104508548
 40
0.7052873104508548
 40
0.75
 40
0.7947126895491452
 40
0.7947126895491452
 40
0.8065708965163816
 40
0.818429103483618
 40
0.8302873104508544
 40
0.8421455174180905
 40
0.8540037243853269
 40
0.8658619313525633
 40
0.8658619313525633
 40
0.9166666666666666
 40
0.9833333333333333
 40
0.9875
 40
0.9916666666666667
 40
1.0
 40
1.0
 40
1.0
 40
1.0
 10
199.9999999999999
 20
0.0000000000002246
 30
0.0
 10
199.9999999999999
 20
-6.212504337777518
 30
0.0
 10
199.9999999999999
 20
-15.53126084444413
 30
0.0
 10
199.9999999999999
 20
-27.95626951999962
 30
0.0
 10
199.9999999999998
 20
-83.86880855999958
 30
0.0
 10
199.9999999999999
 20
-174.550052053333
 30
0.0
 10
199.9999999999999
 20
-262.1250433777778
 30
0.0
 10
199.9999999999999
 20
-308.8402994666664
 30
0.0
 10
197.6520662592155
 20
-326.2865120157422
 30
0.0
 10
187.6607435241636
 20
-350.4493998604109
 30
0.0
 10
171.5384813318386
 20
-371.538481331839
 30
0.0
 10
150.4493998604103
 20
-387.6607435241643
 30
0.0
 10
126.2865120157416
 20
-397.6520662592158
 30
0.0
 10
108.8402994666659
 20
-400.0000000000005
 30
0.0
 10
66.66666666666629
 20
-400.0000000000003
 30
0.0
 10
-0.0000000000002429
 20
-400.0000000000003
 30
0.0
 10
-66.66666666666436
 20
-400.0000000000003
 30
0.0
 10
-108.8402994666667
 20
-400.0000000000005
 30
0.0
 10
-126.2865120157423
 20
-397.6520662592159
 30
0.0
 10
-150.4493998604107
 20
-387.660743524164
 30
0.0
 10
-171.5384813318388
 20
-371.5384813318387
 30
0.0
 10
-187.660743524164
 20
-350.4493998604107
 30
0.0
 10
-197.6520662592156
 20
-326.286512015742
 30
0.0
 10
-200.0000000000001
 20
-308.8402994666664
 30
0.0
 10
-199.9999999999999
 20
-262.1250433777772
 30
0.0
 10
-200.0
 20
-162.1250433777782
 30
0.0
 10
-200.0
 20
-0.0000000000012837
 30
0.0
 10
-200.0
 20
162.1250433777768
 30
0.0
 10
-199.9999999999998
 20
262.1250433777774
 30
0.0
 10
-200.0000000000001
 20
308.8402994666661
 30
0.0
 10
-197.6520662592157
 20
326.2865120157419
 30
0.0
 10
-187.6607435241637
 20
350.4493998604106
 30
0.0
 10
-171.5384813318386
 20
371.5384813318387
 30
0.0
 10
-150.4493998604104
 20
387.660743524164
 30
0.0
 10
-126.2865120157416
 20
397.6520662592156
 30
0.0
 10
-108.840299466666
 20
400.0000000000002
 30
0.0
 10
-66.66666666666607
 20
400.0000000000003
 30
0.0
 10
-0.0000000000001023
 20
400.0000000000003
 30
0.0
 10
66.66666666666463
 20
400.0000000000006
 30
0.0
 10
108.8402994666666
 20
400.0000000000002
 30
0.0
 10
126.2865120157422
 20
397.6520662592158
 30
0.0
 10
150.4493998604107
 20
387.6607435241638
 30
0.0
 10
171.5384813318388
 20
371.5384813318383
 30
0.0
 10
187.6607435241638
 20
350.4493998604104
 30
0.0
 10
197.6520662592155
 20
326.2865120157418
 30
0.0
 10
200.0
 20
308.8402994666662
 30
0.0
 10
199.9999999999999
 20
262.1250433777778
 30
0.0
 10
200.0
 20
174.5500520533333
 30
0.0
 10
199.9999999999999
 20
83.86880856000006
 30
0.0
 10
199.9999999999999
 20
27.95626952000014
 30
0.0
 10
199.9999999999999
 20
15.53126084444458
 30
0.0
 10
199.9999999999999
 20
6.212504337777967
 30
0.0
 10
199.9999999999999
 20
0.0000000000002246
 30
0.0
  0
SPLINE
  5
75
330
1F
100
AcDbEntity
  8
0
  6
Continuous
 62
     7
370
    25
100
AcDbSpline
210
0.0
220
0.0
230
1.0
 70
    11
 71
     3
 72
    57
 73
    53
 74
     0
 42
0.000000001
 43
0.00000001
 40
0.0
 40
0.0
 40
0.0
 40
0.0
 40
0.0083333333333333
 40
0.0125
 40
0.0166666666666666
 40
0.0833333333333334
 40
0.1341380686474368
 40
0.1341380686474368
 40
0.1459962756146732
 40
0.1578544825819096
 40
0.1697126895491459
 40
0.1815708965163823
 40
0.1934291034836186
 40
0.2052873104508549
 40
0.2052873104508549
 40
0.25
 40
0.2947126895491455
 40
0.2947126895491455
 40
0.3065708965163818
 40
0.3184291034836182
 40
0.3302873104508544
 40
0.3421455174180907
 40
0.3540037243853271
 40
0.3658619313525633
 40
0.3658619313525633
 40
0.4166666666666666
 40
0.5
 40
0.5833333333333333
 40
0.6341380686474369
 40
0.6341380686474369
 40
0.6459962756146733
 40
0.6578544825819097
 40
0.6697126895491459
 40
0.6815708965163823
 40
0.6934291034836186
 40
0.7052873104508548
 40
0.7052873104508548
 40
0.75
 40
0.7947126895491452
 40
0.7947126895491452
 40
0.8065708965163816
 40
0.818429103483618
 40
0.8302873104508544
 40
0.8421455174180905
 40
0.8540037243853269
 40
0.8658619313525633
 40
0.8658619313525633
 40
0.9166666666666666
 40
0.9833333333333333
 40
0.9875
 40
0.9916666666666667
 40
1.0
 40
1.0
 40
1.0
 40
1.0
 10
22.99999999999989
 20
0.0000000000002168
 30
0.0
 10
22.99999999999989
 20
-0.4078265687840135
 30
0.0
 10
22.98267032599204
 20
-1.019566421960359
 30
0.0
 10
22.92587635830051
 20
-1.83332945086477
 30
0.0
 10
22.57069771514745
 20
-5.486757591946408
 30
0.0
 10
20.64161559989502
 20
-11.25569859840633
 30
0.0
 10
17.12643050879128
 20
-15.57506131876724
 30
0.0
 10
14.92644899378968
 20
-17.5340247190803
 30
0.0
 10
14.06511015989857
 20
-18.24495751980578
 30
0.0
 10
12.69048734860756
 20
-19.21641183075414
 30
0.0
 10
11.23643560284441
 20
-20.08952397173153
 30
0.0
 10
9.708225714389654
 20
-20.86030090125019
 30
0.0
 10
8.117160886982361
 20
-21.52302603154849
 30
0.0
 10
7.02180920914213
 20
-21.88907547073833
 30
0.0
 10
4.376405462386065
 20
-22.66739925725195
 30
0.0
 10
-0.0000000000001386
 20
-23.33260074274759
 30
0.0
 10
-4.376405462386344
 20
-22.66739925725195
 30
0.0
 10
-7.021809209142425
 20
-21.88907547073831
 30
0.0
 10
-8.117160886982656
 20
-21.52302603154846
 30
0.0
 10
-9.708225714389938
 20
-20.86030090125016
 30
0.0
 10
-11.23643560284469
 20
-20.0895239717315
 30
0.0
 10
-12.69048734860783
 20
-19.21641183075411
 30
0.0
 10
-14.06511015989883
 20
-18.24495751980575
 30
0.0
 10
-14.92644899378993
 20
-17.53402471908028
 30
0.0
 10
-17.12643050879151
 20
-15.57506131876722
 30
0.0
 10
-21.14034479863804
 20
-10.64287388142143
 30
0.0
 10
-24.15531160052341
 20
0.0000000000002238
 30
0.0
 10
-21.14034479863805
 20
10.6428738814219
 30
0.0
 10
-17.12643050879149
 20
15.57506131876768
 30
0.0
 10
-14.92644899378989
 20
17.53402471908077
 30
0.0
 10
-14.06511015989878
 20
18.24495751980624
 30
0.0
 10
-12.69048734860778
 20
19.21641183075459
 30
0.0
 10
-11.23643560284463
 20
20.08952397173199
 30
0.0
 10
-9.708225714389885
 20
20.86030090125065
 30
0.0
 10
-8.117160886982596
 20
21.52302603154894
 30
0.0
 10
-7.021809209142369
 20
21.88907547073878
 30
0.0
 10
-4.376405462386304
 20
22.66739925725241
 30
0.0
 10
-0.0000000000001108
 20
23.33260074274804
 30
0.0
 10
4.376405462386084
 20
22.6673992572524
 30
0.0
 10
7.021809209142161
 20
21.88907547073877
 30
0.0
 10
8.117160886982399
 20
21.52302603154893
 30
0.0
 10
9.708225714389696
 20
20.86030090125063
 30
0.0
 10
11.23643560284445
 20
20.08952397173196
 30
0.0
 10
12.69048734860759
 20
19.21641183075457
 30
0.0
 10
14.06511015989859
 20
18.24495751980622
 30
0.0
 10
14.9264489937897
 20
17.53402471908074
 30
0.0
 10
17.12643050879128
 20
15.57506131876767
 30
0.0
 10
20.64161559989502
 20
11.25569859840676
 30
0.0
 10
22.57069771514745
 20
5.486757591946847
 30
0.0
 10
22.92587635830052
 20
1.833329450865209
 30
0.0
 10
22.98267032599204
 20
1.019566421960793
 30
0.0
 10
22.99999999999989
 20
0.4078265687844472
 30
0.0
 10
22.99999999999989
 20
0.0000000000002168
 30
0.0
  0
SPLINE
  5
78
330
1B
100
AcDbEntity
 67
     1
  8
0
  6
Continuous
 62
     7
370
    25
100
AcDbSpline
210
0.0
220
0.0
230
1.0
 70
     8
 71
     3
 72
    49
 73
    45
 74
     0
 42
0.000000001
 43
0.00000001
 40
0.0
 40
0.0
 40
0.0
 40
0.0
 40
0.0692699858634934
 40
0.1350963206729304
 40
0.1974447537056591
 40
0.2563015025259349
 40
0.3116702330434039
 40
0.3626725795731731
 40
0.4103558539796243
 40
0.4547563182037929
 40
0.495916141619877
 40
0.5388141204090015
 40
0.5776593787789492
 40
0.6125238208294496
 40
0.6434786425527078
 40
0.6705958004247633
 40
0.6939532010480995
 40
0.7136471063615598
 40
0.7298201308515178
 40
0.7427261987623753
 40
0.7528846689454642
 40
0.7587950842901521
 40
0.7660983016813582
 40
0.7749038294970135
 40
0.7872125095097606
 40
0.801612716441127
 40
0.8214869279743402
 40
0.8443349367197251
 40
0.8686785498686272
 40
0.8860324447998209
 40
0.9023788779900627
 40
0.917758268150454
 40
0.928782394729208
 40
0.9393235168094161
 40
0.9492987311017924
 40
0.9576337571664044
 40
0.9638104584272723
 40
0.9679235210469925
 40
0.9707784662938982
 40
0.9723037956034752
 40
0.9740335171601446
 40
0.9783459985985457
 40
0.9874361299310795
 40
1.0
 40
1.0
 40
1.0
 40
1.0
 10
122.4260256737706
 20
28.93920531114858
 30
0.0
 10
122.4871574860543
 20
29.04474106294724
 30
0.0
 10
122.6063820363793
 20
29.25056601858596
 30
0.0
 10
122.8533290014428
 20
29.67150351227292
 30
0.0
 10
123.1468685689016
 20
30.16700000011095
 30
0.0
 10
123.4925649325855
 20
30.74443010279316
 30
0.0
 10
123.8883760119712
 20
31.3983855161856
 30
0.0
 10
124.3345542951222
 20
32.12744708943247
 30
0.0
 10
124.8305582968341
 20
32.92916727585936
 30
0.0
 10
125.3801799916449
 20
33.80828641072898
 30
0.0
 10
126.0082237423104
 20
34.80296081051042
 30
0.0
 10
126.7251632706335
 20
35.92781248508816
 30
0.0
 10
127.5463861662727
 20
37.20522787170363
 30
0.0
 10
128.4370899531242
 20
38.58102844581003
 30
0.0
 10
129.396119834848
 20
40.05452869510838
 30
0.0
 10
130.4214550268842
 20
41.62442103132934
 30
0.0
 10
131.511112057993
 20
43.29021333531256
 30
0.0
 10
132.660627823961
 20
45.04826054592001
 30
0.0
 10
133.8724532461752
 20
46.90640136831225
 30
0.0
 10
135.1395677693868
 20
48.85812206192696
 30
0.0
 10
136.4132980761751
 20
50.83403326087114
 30
0.0
 10
137.6586923114266
 20
52.78230444277522
 30
0.0
 10
138.8080863055293
 20
54.57866654461662
 30
0.0
 10
140.3053697248851
 20
56.91901233586602
 30
0.0
 10
142.1759068997975
 20
59.84184618318308
 30
0.0
 10
144.6340964000286
 20
63.6818013434895
 30
0.0
 10
147.6511251449614
 20
68.39251045960962
 30
0.0
 10
151.1954997035195
 20
73.92440917132231
 30
0.0
 10
154.6113295631922
 20
79.24968800005294
 30
0.0
 10
157.6955515313041
 20
84.06758472159451
 30
0.0
 10
160.3209918185385
 20
88.14293320095598
 30
0.0
 10
162.5940926237122
 20
91.75874591826874
 30
0.0
 10
164.9469653339149
 20
94.40077402658308
 30
0.0
 10
167.1560324381261
 20
96.32478880287694
 30
0.0
 10
169.3236273440225
 20
97.7503831612554
 30
0.0
 10
171.3047007991523
 20
98.71658810035632
 30
0.0
 10
172.9421867883792
 20
99.29923525674506
 30
0.0
 10
174.226990371441
 20
99.63247999500574
 30
0.0
 10
175.1521457805433
 20
99.8017954131426
 30
0.0
 10
175.6906420797684
 20
99.87597630350149
 30
0.0
 10
176.2409267188303
 20
99.9379556789267
 30
0.0
 10
177.0051062325131
 20
99.99179745686037
 30
0.0
 10
177.7428423569818
 20
100.0026398252033
 30
0.0
 10
178.0578986861505
 20
100.0009692718867
 30
0.0
 10
178.2406975467712
 20
99.9999999999991
 30
0.0
  0
SPLINE
  5
79
330
1B
100
AcDbEntity
 67
     1
  8
0
  6
Continuous
 62
     7
370
    25
100
AcDbSpline
210
0.0
220
0.0
230
1.0
 70
     8
 71
     3
 72
    42
 73
    38
 74
     0
 42
0.000000001
 43
0.00000001
 40
0.0
 40
0.0
 40
0.0
 40
0.0
 40
0.013582379840659
 40
0.0243554484373178
 40
0.0348175931165258
 40
0.0405691808440262
 40
0.0469020662475395
 40
0.0544142701731532
 40
0.0631655684027892
 40
0.0731215635247843
 40
0.0842320170597612
 40
0.0964258133174047
 40
0.1093121643861101
 40
0.1331440950279949
 40
0.1540373212705198
 40
0.1719943255699292
 40
0.1870180610561884
 40
0.1991457704680269
 40
0.2112218657464154
 40
0.2257011479372876
 40
0.2430736758818081
 40
0.263602054251594
 40
0.2874343318006404
 40
0.3146624135503205
 40
0.3453514088362689
 40
0.3795545807235919
 40
0.4173209209676685
 40
0.4586986772607772
 40
0.5037364650711541
 40
0.5524824099384911
 40
0.6049807753762677
 40
0.6612696508393774
 40
0.7213777308973705
 40
0.7853201565663301
 40
0.853093826783051
 40
0.9246722500918866
 40
1.0
 40
1.0
 40
1.0
 40
1.0
 10
-178.2941888211639
 20
99.99999999999928
 30
0.0
 10
-178.0736477657023
 20
100.0002335676695
 30
0.0
 10
-177.6781812592712
 20
100.000652393046
 30
0.0
 10
-176.9288279643838
 20
99.99042663478045
 30
0.0
 10
-175.4753154786467
 20
99.86503032435627
 30
0.0
 10
-173.8902530712326
 20
99.55038976090619
 30
0.0
 10
-172.3649114902165
 20
99.1069671655699
 30
0.0
 10
-170.6541934553689
 20
98.4174589060184
 30
0.0
 10
-168.7128368584681
 20
97.37434748615537
 30
0.0
 10
-166.601595669164
 20
95.87881410574116
 30
0.0
 10
-164.3978009771358
 20
93.843899898983
 30
0.0
 10
-162.2268616756307
 20
91.2146818789819
 30
0.0
 10
-159.7016465161797
 20
87.14793964955861
 30
0.0
 10
-156.6584488973864
 20
82.45722300659989
 30
0.0
 10
-153.3826240437936
 20
77.32973757584357
 30
0.0
 10
-150.5619096823605
 20
72.93041437441512
 30
0.0
 10
-148.2275967738332
 20
69.28847715872364
 30
0.0
 10
-146.1548947428374
 20
66.04924838137818
 30
0.0
 10
-144.3362665361614
 20
63.23355145836898
 30
0.0
 10
-142.6959685338612
 20
60.72213392304445
 30
0.0
 10
-141.0889010615735
 20
58.27791116484126
 30
0.0
 10
-139.5267108453002
 20
55.91425297560214
 30
0.0
 10
-138.0047548720408
 20
53.61742699314291
 30
0.0
 10
-136.5283025952018
 20
51.39027202736187
 30
0.0
 10
-135.1002356793026
 20
49.23216788725937
 30
0.0
 10
-133.7240421601604
 20
47.144104227642
 30
0.0
 10
-132.402475233293
 20
45.12654361430116
 30
0.0
 10
-131.1378709313709
 20
43.1799911359687
 30
0.0
 10
-129.9320184038748
 20
41.30481212727891
 30
0.0
 10
-128.7862142385375
 20
39.50132957990925
 30
0.0
 10
-127.7009398654718
 20
37.7697506166846
 30
0.0
 10
-126.675994224474
 20
36.11020544375499
 30
0.0
 10
-125.7106059828601
 20
34.5229765404485
 30
0.0
 10
-124.8028339110411
 20
33.00753934190384
 30
0.0
 10
-123.9519041403023
 20
31.56651430367208
 30
0.0
 10
-123.1486308247767
 20
30.18962421692995
 30
0.0
 10
-122.6709577675415
 20
29.36304358611442
 30
0.0
 10
-122.426025673775
 20
28.93920531115635
 30
0.0
  0
SPLINE
  5
7A
330
1B
100
AcDbEntity
 67
     1
  8
0
  6
Continuous
 62
     7
370
    25
100
AcDbSpline
210
0.0
220
0.0
230
1.0
 70
     8
 71
     3
 72
    15
 73
    11
 74
     0
 42
0.000000001
 43
0.00000001
 40
0.0
 40
0.0
 40
0.0
 40
0.0
 40
0.1168438014696241
 40
0.2458068768570986
 40
0.3898082008661305
 40
0.5385707652248292
 40
0.6783003937726582
 40
0.8014504018417128
 40
0.9078177136622042
 40
1.0
 40
1.0
 40
1.0
 40
1.0
 10
-122.4260256737783
 20
28.93920531116219
 30
0.0
 10
-121.4732081341867
 20
27.23985478697752
 30
0.0
 10
-119.4687449048508
 20
23.66489368693232
 30
0.0
 10
-115.7446992665078
 20
18.31836459513479
 30
0.0
 10
-110.9234932270532
 20
13.16559600181278
 30
0.0
 10
-105.2698593344763
 20
8.650748285734144
 30
0.0
 10
-99.32680976305517
 20
5.172522385222186
 30
0.0
 10
-93.63622135293045
 20
2.792463450752875
 30
0.0
 10
-88.48088937183282
 20
1.263674362090558
 30
0.0
 10
-85.21334398858755
 20
0.7222219477817025
 30
0.0
 10
-83.69629330234075
 20
0.4708372965052041
 30
0.0
  0
SPLINE
  5
7B
330
1B
100
AcDbEntity
 67
     1
  8
0
  6
Continuous
 62
     7
370
    25
100
AcDbSpline
210
0.0
220
0.0
230
1.0
 70
     8
 71
     3
 72
    15
 73
    11
 74
     0
 42
0.000000001
 43
0.00000001
 40
0.0
 40
0.0
 40
0.0
 40
0.0
 40
0.0921822863377955
 40
0.1985495981582869
 40
0.3216996062273421
 40
0.4614292347751713
 40
0.6101917991338693
 40
0.7541931231429022
 40
0.8831561985303759
 40
1.0
 40
1.0
 40
1.0
 40
1.0
 10
83.6962933023408
 20
0.470837296505093
 30
0.0
 10
85.2133439885876
 20
0.7222219477815914
 30
0.0
 10
88.48088937183289
 20
1.26367436209044
 30
0.0
 10
93.63622135293053
 20
2.792463450752764
 30
0.0
 10
99.32680976305527
 20
5.172522385222061
 30
0.0
 10
105.2698593344764
 20
8.650748285733991
 30
0.0
 10
110.9234932270532
 20
13.1655960018127
 30
0.0
 10
115.7446992665079
 20
18.3183645951346
 30
0.0
 10
119.4687449048508
 20
23.66489368693222
 30
0.0
 10
121.4732081341867
 20
27.23985478697738
 30
0.0
 10
122.4260256737784
 20
28.93920531116205
 30
0.0
  0
SPLINE
  5
7C
330
1B
100
AcDbEntity
 67
     1
  8
0
  6
Continuous
 62
     7
370
    25
100
AcDbSpline
210
0.0
220
0.0
230
1.0
 70
     8
 71
     3
 72
    84
 73
    80
 74
     0
 42
0.000000001
 43
0.00000001
 40
0.0
 40
0.0
 40
0.0
 40
0.0
 40
0.0318106666681986
 40
0.0619471759508696
 40
0.0903748329625715
 40
0.1170729775220907
 40
0.1420334263593364
 40
0.1652589443212344
 40
0.185578928073088
 40
0.2043834797180768
 40
0.221694092020151
 40
0.2375369656774659
 40
0.2519414516065318
 40
0.266603826294213
 40
0.2794955680242217
 40
0.2906634807564881
 40
0.3001526687087124
 40
0.3080043474988184
 40
0.3133309926849961
 40
0.317610654886926
 40
0.3208749017181548
 40
0.3231571026418638
 40
0.324578082700285
 40
0.3266721326938165
 40
0.3300521963942825
 40
0.3347008299947903
 40
0.340582503130363
 40
0.3476504896211648
 40
0.3558508204242738
 40
0.3647852321580162
 40
0.3778622442269307
 40
0.390396382751752
 40
0.3984233948731442
 40
0.4061700365201593
 40
0.4136488021980393
 40
0.419114551267676
 40
0.4244859858543112
 40
0.4337349525366067
 40
0.4429537421650019
 40
0.4522163633316953
 40
0.4615434752625151
 40
0.4709617555031974
 40
0.4804978770129162
 40
0.4901788523384378
 40
0.5000324762705209
 40
0.5154471375505495
 40
0.5311751617879477
 40
0.5461745476630863
 40
0.5533633421078106
 40
0.5603440147226229
 40
0.5671494432526472
 40
0.577167187906312
 40
0.5870709200331601
 40
0.596901701195391
 40
0.6064098573979966
 40
0.615407924098087
 40
0.6237743881794585
 40
0.6314050558907915
 40
0.6382157116612548
 40
0.6441943637861627
 40
0.6508025718611107
 40
0.6579009716482305
 40
0.6661780646301404
 40
0.6757031628768282
 40
0.6865467973471843
 40
0.6987198172208984
 40
0.7120150112432281
 40
0.7267072865276073
 40
0.7428984014015979
 40
0.7606513913089679
 40
0.7803850683464398
 40
0.8018421351599717
 40
0.8250649749154535
 40
0.8500861851022393
 40
0.8769276699506184
 40
0.9050715416693359
 40
0.934978393393783
 40
0.9666318183393947
 40
1.0
 40
1.0
 40
1.0
 40
1.0
 10
-83.69629330234694
 20
0.4708372965060645
 30
0.0
 10
-83.53679115844552
 20
0.450294671067511
 30
0.0
 10
-83.22618127793393
 20
0.4102905540268806
 30
0.0
 10
-82.82276590975171
 20
0.3719144149630649
 30
0.0
 10
-82.46897487001516
 20
0.342171504978353
 30
0.0
 10
-82.15938695546788
 20
0.3176122686732313
 30
0.0
 10
-81.88474863395336
 20
0.2941741914763013
 30
0.0
 10
-81.64197080035484
 20
0.2700892105221911
 30
0.0
 10
-81.423472641774
 20
0.2443118634045324
 30
0.0
 10
-81.2233923855387
 20
0.2168371299919314
 30
0.0
 10
-81.03254066655917
 20
0.187341042300497
 30
0.0
 10
-80.84689896681857
 20
0.1564745664306699
 30
0.0
 10
-80.65583281299578
 20
0.1239940715099599
 30
0.0
 10
-80.45551247981558
 20
0.090905310605377
 30
0.0
 10
-80.240247856079
 20
0.0589705603631988
 30
0.0
 10
-80.0176015318541
 20
0.0316806485315124
 30
0.0
 10
-79.78486056372967
 20
0.0113371564495132
 30
0.0
 10
-79.55303217474145
 20
-0.000186267122948
 30
0.0
 10
-79.31842842998687
 20
0.0000328336674585
 30
0.0
 10
-79.10420774324082
 20
-0.000005972148942
 30
0.0
 10
-78.86174041727949
 20
0.000000962905429
 30
0.0
 10
-78.62033446055365
 20
-0.0000001256313664
 30
0.0
 10
-78.10556455218534
 20
0.0000000410723608
 30
0.0
 10
-77.79202312685177
 20
-0.0000000213385282
 30
0.0
 10
-77.43064416921919
 20
0.0000000095850619
 30
0.0
 10
-76.94987560460532
 20
-0.0000000037395156
 30
0.0
 10
-76.27348008615546
 20
0.0000000013395673
 30
0.0
 10
-75.30929927695493
 20
-0.0000000004542894
 30
0.0
 10
-73.97038002726141
 20
0.0000000001399159
 30
0.0
 10
-71.91562907545502
 20
-0.0000000000599451
 30
0.0
 10
-68.79482196483485
 20
0.0000000000173958
 30
0.0
 10
-64.8531634956961
 20
-0.0000000000033307
 30
0.0
 10
-60.89640128166977
 20
0.000000000000118
 30
0.0
 10
-57.24623539547863
 20
-0.0000000000006384
 30
0.0
 10
-53.6581653941075
 20
-0.000000000000458
 30
0.0
 10
-50.24529332632792
 20
-0.0000000000004996
 30
0.0
 10
-46.30983641713721
 20
-0.0000000000004927
 30
0.0
 10
-41.36311441865515
 20
-0.0000000000005065
 30
0.0
 10
-35.43513081315226
 20
-0.0000000000005065
 30
0.0
 10
-29.52168130495497
 20
-0.0000000000005135
 30
0.0
 10
-23.56176820894717
 20
-0.0000000000005135
 30
0.0
 10
-17.54802445501219
 20
-0.0000000000005204
 30
0.0
 10
-11.45941786897981
 20
-0.0000000000005204
 30
0.0
 10
-5.27772137942405
 20
-0.0000000000005274
 30
0.0
 10
2.157294392213212
 20
-0.0000000000005343
 30
0.0
 10
10.88421013394297
 20
-0.0000000000005412
 30
0.0
 10
20.72134424383098
 20
-0.0000000000005482
 30
0.0
 10
28.82048558400007
 20
-0.0000000000005551
 30
0.0
 10
35.01365809460808
 20
-0.0000000000005551
 30
0.0
 10
39.46151831656284
 20
-0.0000000000005621
 30
0.0
 10
44.41962174832228
 20
-0.0000000000005482
 30
0.0
 10
49.67735996732528
 20
-0.0000000000006661
 30
0.0
 10
54.96533694956201
 20
-0.0000000000001943
 30
0.0
 10
59.50959012618836
 20
-0.0000000000018527
 30
0.0
 10
63.43363185971641
 20
0.0000000000040801
 30
0.0
 10
66.72287036353009
 20
-0.0000000000163064
 30
0.0
 10
69.4042510465008
 20
0.0000000000518058
 30
0.0
 10
71.5513195922786
 20
-0.0000000001692882
 30
0.0
 10
73.23941845188031
 20
0.0000000005277792
 30
0.0
 10
74.67185345979196
 20
-0.000000001787355
 30
0.0
 10
75.9230650861325
 20
0.0000000077286441
 30
0.0
 10
77.04683953001454
 20
-0.0000000333419611
 30
0.0
 10
77.97585496016268
 20
0.0000001567452695
 30
0.0
 10
78.6128932890947
 20
-0.0000007204040836
 30
0.0
 10
78.68242956327656
 20
0.0000032512898762
 30
0.0
 10
78.7927295862365
 20
-0.0000142734410888
 30
0.0
 10
78.91357715200688
 20
0.0000611273482942
 30
0.0
 10
79.05716348601291
 20
-0.00026516429108
 30
0.0
 10
79.2238919766428
 20
0.0108834529143689
 30
0.0
 10
79.42033658377059
 20
0.0302970950652043
 30
0.0
 10
79.6518686564839
 20
0.0566946997957243
 30
0.0
 10
79.92562330068957
 20
0.0882632437404773
 30
0.0
 10
80.2479261507679
 20
0.1231890237764627
 30
0.0
 10
80.62717072098361
 20
0.1605519465033775
 30
0.0
 10
81.07026660554125
 20
0.2003561446174973
 30
0.0
 10
81.58635884058539
 20
0.2443961989523069
 30
0.0
 10
82.18733990178305
 20
0.2978599770154869
 30
0.0
 10
82.882050262445
 20
0.3657917628647894
 30
0.0
 10
83.42014869272924
 20
0.4352118671710967
 30
0.0
 10
83.69629330234726
 20
0.4708372965059882
 30
0.0
  0
SPLINE
  5
7D
330
1B
100
AcDbEntity
 67
     1
  8
0
  6
Continuous
 62
     7
370
    25
100
AcDbSpline
210
0.0
220
0.0
230
1.0
 70
    24
 71
     3
 72
    27
 73
    23
 74
     0
 42
0.000000001
 43
0.00000001
 40
0.125
 40
0.125
 40
0.125
 40
0.125
 40
0.1341380686474368
 40
0.1341380686474368
 40
0.1459962756146732
 40
0.1578544825819096
 40
0.1697126895491459
 40
0.1815708965163823
 40
0.1934291034836186
 40
0.2052873104508549
 40
0.2052873104508549
 40
0.25
 40
0.2947126895491455
 40
0.2947126895491455
 40
0.3065708965163818
 40
0.3184291034836182
 40
0.3302873104508544
 40
0.3421455174180907
 40
0.3540037243853271
 40
0.3658619313525633
 40
0.3658619313525633
 40
0.3749999999999993
 40
0.3749999999999993
 40
0.3749999999999993
 40
0.3749999999999993
 10
200.0
 20
120.0000000000003
 30
0.0
 10
200.0
 20
120.0000000000003
 30
0.0
 10
200.0
 20
120.0000000000002
 30
0.0
 10
200.0000000000001
 20
120.0000000000002
 30
0.0
 10
197.6520662592156
 20
120.0000000000001
 30
0.0
 10
187.6607435241637
 20
120.0000000000001
 30
0.0
 10
171.5384813318387
 20
120.0
 30
0.0
 10
150.4493998604104
 20
120.0
 30
0.0
 10
126.2865120157417
 20
119.9999999999999
 30
0.0
 10
108.840299466666
 20
120.0
 30
0.0
 10
66.6666666666664
 20
120.0
 30
0.0
 10
-0.0000000000001318
 20
120.0
 30
0.0
 10
-66.66666666666424
 20
120.0000000000002
 30
0.0
 10
-108.8402994666666
 20
120.0000000000001
 30
0.0
 10
-126.2865120157422
 20
120.0000000000001
 30
0.0
 10
-150.4493998604106
 20
120.0000000000002
 30
0.0
 10
-171.5384813318387
 20
120.0000000000002
 30
0.0
 10
-187.6607435241638
 20
120.0000000000003
 30
0.0
 10
-197.6520662592154
 20
120.0000000000004
 30
0.0
 10
-199.9999999999999
 20
120.0000000000004
 30
0.0
 10
-199.9999999999999
 20
120.0000000000005
 30
0.0
 10
-199.9999999999999
 20
120.0000000000005
 30
0.0
 10
-199.9999999999999
 20
120.0000000000005
 30
0.0
  0
SPLINE
  5
7E
330
1B
100
AcDbEntity
 67
     1
  8
0
  6
Continuous
 62
     7
370
    25
100
AcDbSpline
210
0.0
220
0.0
230
1.0
 70
    24
 71
     3
 72
    27
 73
    23
 74
     0
 42
0.000000001
 43
0.00000001
 40
0.1250000000000001
 40
0.1250000000000001
 40
0.1250000000000001
 40
0.1250000000000001
 40
0.1341380686474368
 40
0.1341380686474368
 40
0.1459962756146732
 40
0.1578544825819096
 40
0.1697126895491459
 40
0.1815708965163823
 40
0.1934291034836186
 40
0.2052873104508549
 40
0.2052873104508549
 40
0.25
 40
0.2947126895491455
 40
0.2947126895491455
 40
0.3065708965163818
 40
0.3184291034836182
 40
0.3302873104508544
 40
0.3421455174180907
 40
0.3540037243853271
 40
0.3658619313525633
 40
0.3658619313525633
 40
0.3749999999999993
 40
0.3749999999999993
 40
0.3749999999999993
 40
0.3749999999999993
 10
200.0
 20
99.99999999999896
 30
0.0
 10
200.0
 20
99.99999999999895
 30
0.0
 10
200.0
 20
99.99999999999893
 30
0.0
 10
200.0
 20
99.9999999999989
 30
0.0
 10
197.6520662592156
 20
99.99999999999886
 30
0.0
 10
187.6607435241639
 20
99.99999999999885
 30
0.0
 10
171.5384813318389
 20
99.99999999999872
 30
0.0
 10
150.4493998604107
 20
99.99999999999876
 30
0.0
 10
126.2865120157423
 20
99.99999999999868
 30
0.0
 10
108.8402994666667
 20
99.99999999999872
 30
0.0
 10
66.6666666666648
 20
99.99999999999874
 30
0.0
 10
-0.0000000000001093
 20
99.99999999999875
 30
0.0
 10
-66.6666666666659
 20
99.99999999999878
 30
0.0
 10
-108.8402994666658
 20
99.99999999999882
 30
0.0
 10
-126.2865120157415
 20
99.99999999999885
 30
0.0
 10
-150.4493998604102
 20
99.99999999999889
 30
0.0
 10
-171.5384813318385
 20
99.99999999999892
 30
0.0
 10
-187.6607435241635
 20
99.99999999999903
 30
0.0
 10
-197.6520662592155
 20
99.99999999999906
 30
0.0
 10
-199.9999999999999
 20
99.99999999999915
 30
0.0
 10
-199.9999999999999
 20
99.99999999999918
 30
0.0
 10
-199.9999999999999
 20
99.9999999999992
 30
0.0
 10
-199.9999999999999
 20
99.99999999999922
 30
0.0
  0
LINE
  5
7F
330
1B
100
AcDbEntity
 67
     1
  8
0
  6
Continuous
 62
     7
370
    25
100
AcDbLine
 10
200.0
 20
100.0
 30
0.0
 11
200.0
 21
120.0
 31
0.0
  0
LINE
  5
80
330
1B
100
AcDbEntity
 67
     1
  8
0
  6
Continuous
 62
     7
370
    25
100
AcDbLine
 10
-200.0
 20
120.0
 30
0.0
 11
-200.0
 21
100.0
 31
0.0
  0
VIEWPORT
  5
EE
330
1B
100
AcDbEntity
 67
     1
  8
0
100
AcDbViewport
 10
0.0
 20
0.0
 30
0.0
 40
205.6
 41
156.0
 68
     1
 69
     1
 12
0.0
 22
0.0
 13
0.0
 23
0.0
 14
10.0
 24
10.0
 15
10.0
 25
10.0
 16
0.0
 26
0.0
 36
1.0
 17
0.0
 27
0.0
 37
0.0
 42
50.0
 43
0.0
 44
0.0
 45
816.0
 50
0.0
 51
0.0
 72
   100
 90
   557152
  1

281
     0
 71
     1
 74
     0
110
0.0
120
0.0
130
0.0
111
1.0
121
0.0
131
0.0
112
0.0
122
1.0
132
0.0
 79
     0
146
0.0
170
     0
 61
     5
348
2F
292
     1
282
     1
141
0.0
142
0.0
 63
   256
361
EF
  0
ENDSEC
  0
SECTION
  2
OBJECTS
  0
DICTIONARY
  5
C
330
0
100
AcDbDictionary
281
     1
  3
ACAD_DETAILVIEWSTYLE
350
107
  3
ACAD_GROUP
350
D
  3
ACAD_LAYOUT
350
1A
  3
ACAD_MATERIAL
350
43
  3
ACAD_MLEADERSTYLE
350
6B
  3
ACAD_MLINESTYLE
350
17
  3
ACAD_PLOTSETTINGS
350
19
  3
ACAD_PLOTSTYLENAME
350
E
  3
ACAD_SCALELIST
350
47
  3
ACAD_SECTIONVIEWSTYLE
350
108
  3
ACAD_TABLESTYLE
350
69
  3
ACAD_VISUALSTYLE
350
2A
  3
ACDB_RECOMPOSE_DATA
350
104
  3
AcDbVariableDictionary
350
100
  0
SUN
  5
6D
330
29
100
AcDbSun
 90
        1
290
     0
 63
     7
421
 16777215
 40
1.0
291
     1
 91
  2455826
 92
 54000000
292
     0
 70
     2
 71
   256
280
     1
  0
SUN
  5
F1
330
F0
100
AcDbSun
 90
        1
290
     0
 63
     7
421
 16777215
 40
1.0
291
     1
 91
  2455826
 92
 54000000
292
     0
 70
     2
 71
   256
280
     1
  0
SUN
  5
F3
330
F2
100
AcDbSun
 90
        1
290
     0
 63
     7
421
 16777215
 40
1.0
291
     1
 91
  2455826
 92
 54000000
292
     0
 70
     2
 71
   256
280
     1
  0
SUN
  5
F5
330
F4
100
AcDbSun
 90
        1
290
     0
 63
     7
421
 16777215
 40
1.0
291
     1
 91
  2455826
 92
 54000000
292
     0
 70
     2
 71
   256
280
     1
  0
SUN
  5
F7
330
F6
100
AcDbSun
 90
        1
290
     0
 63
     7
421
 16777215
 40
1.0
291
     1
 91
  2455826
 92
 54000000
292
     0
 70
     2
 71
   256
280
     1
  0
SUN
  5
F9
330
F8
100
AcDbSun
 90
        1
290
     0
 63
     7
421
 16777215
 40
1.0
291
     1
 91
  2455826
 92
 54000000
292
     0
 70
     2
 71
   256
280
     1
  0
SUN
  5
FB
330
FA
100
AcDbSun
 90
        1
290
     0
 63
     7
421
 16777215
 40
1.0
291
     1
 91
  2455826
 92
 54000000
292
     0
 70
     2
 71
   256
280
     1
  0
SUN
  5
FD
330
FC
100
AcDbSun
 90
        1
290
     0
 63
     7
421
 16777215
 40
1.0
291
     1
 91
  2455826
 92
 54000000
292
     0
 70
     2
 71
   256
280
     1
  0
SUN
  5
FF
330
FE
100
AcDbSun
 90
        1
290
     0
 63
     7
421
 16777215
 40
1.0
291
     1
 91
  2455826
 92
 54000000
292
     0
 70
     2
 71
   256
280
     1
  0
SUN
  5
EF
330
EE
100
AcDbSun
 90
        1
290
     0
 63
     7
421
 16777215
 40
1.0
291
     1
 91
  2455826
 92
 54000000
292
     0
 70
     2
 71
   256
280
     1
  0
DICTIONARY
  5
107
102
{ACAD_REACTORS
330
C
102
}
330
C
100
AcDbDictionary
281
     1
  0
DICTIONARY
  5
D
102
{ACAD_REACTORS
330
C
102
}
330
C
100
AcDbDictionary
281
     1
  0
DICTIONARY
  5
1A
102
{ACAD_REACTORS
330
C
102
}
330
C
100
AcDbDictionary
281
     1
  3
_Dimetrisch
350
E0
  3
_Isometrisch
350
BE
  3
_Links
350
26
  3
_Normal auf
350
8A
  3
_Rechts
350
A8
  3
_Rückseite
350
99
  3
_Trimetrisch
350
CF
  3
_Unten
350
B8
  3
_Vorderseite
350
1E
  3
Model
350
22
  0
DICTIONARY
  5
43
102
{ACAD_REACTORS
330
C
102
}
330
C
100
AcDbDictionary
281
     1
  3
ByBlock
350
45
  3
ByLayer
350
44
  3
Global
350
46
  0
DICTIONARY
  5
6B
102
{ACAD_REACTORS
330
C
102
}
330
C
100
AcDbDictionary
281
     1
  3
Standard
350
6C
  0
DICTIONARY
  5
17
102
{ACAD_REACTORS
330
C
102
}
330
C
100
AcDbDictionary
281
     1
  3
Standard
350
18
  0
DICTIONARY
  5
19
102
{ACAD_REACTORS
330
C
102
}
330
C
100
AcDbDictionary
281
     1
  0
ACDBDICTIONARYWDFLT
  5
E
102
{ACAD_REACTORS
330
C
102
}
330
C
100
AcDbDictionary
281
     1
  3
Normal
350
F
100
AcDbDictionaryWithDefault
340
F
  0
DICTIONARY
  5
47
102
{ACAD_REACTORS
330
C
102
}
330
C
100
AcDbDictionary
281
     1
  3
A0
350
48
  3
A1
350
49
  3
A2
350
4A
  3
A3
350
4B
  3
A4
350
4C
  3
A5
350
4D
  3
A6
350
4E
  3
A7
350
4F
  3
A8
350
50
  3
A9
350
51
  3
B0
350
52
  3
B1
350
53
  3
B2
350
54
  3
B3
350
55
  3
B4
350
56
  3
B5
350
57
  3
B6
350
58
  3
B7
350
59
  3
B8
350
5A
  3
B9
350
5B
  3
C0
350
5C
  3
C1
350
5D
  3
C2
350
5E
  3
C3
350
5F
  3
C4
350
60
  3
C5
350
61
  3
C6
350
62
  3
C7
350
63
  3
C8
350
64
  3
C9
350
65
  3
D0
350
66
  3
D1
350
67
  3
D2
350
68
  0
DICTIONARY
  5
108
102
{ACAD_REACTORS
330
C
102
}
330
C
100
AcDbDictionary
281
     1
  0
DICTIONARY
  5
69
102
{ACAD_REACTORS
330
C
102
}
330
C
100
AcDbDictionary
281
     1
  3
Standard
350
6A
  0
DICTIONARY
  5
2A
102
{ACAD_REACTORS
330
C
102
}
330
C
100
AcDbDictionary
281
     1
  3
2dWireframe
350
2F
  3
Basic
350
32
  3
Brighten
350
36
  3
ColorChange
350
3A
  3
Conceptual
350
34
  3
Dim
350
35
  3
EdgeColorOff
350
3D
  3
Facepattern
350
39
  3
Flat
350
2B
  3
FlatWithEdges
350
2C
  3
Gouraud
350
2D
  3
GouraudWithEdges
350
2E
  3
Hidden
350
31
  3
JitterOff
350
3B
  3
Linepattern
350
38
  3
OverhangOff
350
3C
  3
Realistic
350
33
  3
Shaded
350
42
  3
Shaded with edges
350
41
  3
Shades of Gray
350
3E
  3
Sketchy
350
3F
  3
Thicken
350
37
  3
Wireframe
350
30
  3
X-Ray
350
40
  0
XRECORD
  5
104
102
{ACAD_REACTORS
330
C
102
}
330
C
100
AcDbXrecord
280
     1
 90
        1
330
6A
  0
DICTIONARY
  5
100
102
{ACAD_REACTORS
330
C
102
}
330
C
100
AcDbDictionary
281
     1
  3
CANNOSCALE
350
101
  3
CMLEADERSTYLE
350
106
  3
CTABLESTYLE
350
105
  0
LAYOUT
  5
E0
102
{ACAD_REACTORS
330
1A
102
}
330
1A
100
AcDbPlotSettings
  1

  2
none_device
  4
ISO_A4_(210.00_x_297.00_MM)
  6

 40
7.5
 41
20.0
 42
7.5
 43
20.0
 44
210.0
 45
297.0
 46
0.0
 47
0.0
 48
0.0
 49
0.0
140
0.0
141
0.0
142
1.0
143
1.5564202335
 70
   688
 72
     1
 73
     1
 74
     1
  7

 75
     0
 76
     0
 77
     2
 78
   300
147
0.6425
148
200.0
149
0.0000086946
100
AcDbLayout
  1
_Dimetrisch
 70
     1
 71
     9
 10
0.0
 20
0.0
 11
0.0
 21
0.0
 12
0.0
 22
0.0
 32
0.0
 14
0.0
 24
0.0
 34
0.0
 15
0.0
 25
0.0
 35
0.0
146
0.0
 13
0.0
 23
0.0
 33
0.0
 16
1.0
 26
0.0
 36
0.0
 17
0.0
 27
1.0
 37
0.0
 76
     0
330
DF
331
FE
  0
LAYOUT
  5
BE
102
{ACAD_REACTORS
330
1A
102
}
330
1A
100
AcDbPlotSettings
  1

  2
none_device
  4
ISO_A4_(210.00_x_297.00_MM)
  6

 40
7.5
 41
20.0
 42
7.5
 43
20.0
 44
210.0
 45
297.0
 46
0.0
 47
0.0
 48
0.0
 49
0.0
140
0.0
141
0.0
142
1.0
143
1.5564202335
 70
   688
 72
     1
 73
     1
 74
     1
  7

 75
     0
 76
     0
 77
     2
 78
   300
147
0.6425
148
200.0
149
0.0000086946
100
AcDbLayout
  1
_Isometrisch
 70
     1
 71
     7
 10
0.0
 20
0.0
 11
0.0
 21
0.0
 12
0.0
 22
0.0
 32
0.0
 14
0.0
 24
0.0
 34
0.0
 15
0.0
 25
0.0
 35
0.0
146
0.0
 13
0.0
 23
0.0
 33
0.0
 16
1.0
 26
0.0
 36
0.0
 17
0.0
 27
1.0
 37
0.0
 76
     0
330
BD
331
FA
  0
LAYOUT
  5
26
102
{ACAD_REACTORS
330
1A
102
}
330
1A
100
AcDbPlotSettings
  1

  2
none_device
  4
ISO_A4_(210.00_x_297.00_MM)
  6

 40
7.5
 41
20.0
 42
7.5
 43
20.0
 44
210.0
 45
297.0
 46
0.0
 47
0.0
 48
0.0
 49
0.0
140
0.0
141
0.0
142
1.0
143
1.5564202335
 70
   688
 72
     1
 73
     1
 74
     1
  7

 75
     0
 76
     0
 77
     2
 78
   300
147
0.6425
148
200.0
149
0.0000086946
100
AcDbLayout
  1
_Links
 70
     1
 71
     2
 10
0.0
 20
0.0
 11
0.0
 21
0.0
 12
0.0
 22
0.0
 32
0.0
 14
0.0
 24
0.0
 34
0.0
 15
0.0
 25
0.0
 35
0.0
146
0.0
 13
0.0
 23
0.0
 33
0.0
 16
1.0
 26
0.0
 36
0.0
 17
0.0
 27
1.0
 37
0.0
 76
     0
330
23
331
F0
  0
LAYOUT
  5
8A
102
{ACAD_REACTORS
330
1A
102
}
330
1A
100
AcDbPlotSettings
  1

  2
none_device
  4
ISO_A4_(210.00_x_297.00_MM)
  6

 40
7.5
 41
20.0
 42
7.5
 43
20.0
 44
210.0
 45
297.0
 46
0.0
 47
0.0
 48
0.0
 49
0.0
140
0.0
141
0.0
142
1.0
143
1.5564202335
 70
   688
 72
     1
 73
     1
 74
     1
  7

 75
     0
 76
     0
 77
     2
 78
   300
147
0.6425
148
200.0
149
0.0000086946
100
AcDbLayout
  1
_Normal auf
 70
     1
 71
     3
 10
0.0
 20
0.0
 11
0.0
 21
0.0
 12
0.0
 22
0.0
 32
0.0
 14
0.0
 24
0.0
 34
0.0
 15
0.0
 25
0.0
 35
0.0
146
0.0
 13
0.0
 23
0.0
 33
0.0
 16
1.0
 26
0.0
 36
0.0
 17
0.0
 27
1.0
 37
0.0
 76
     0
330
89
331
F2
  0
LAYOUT
  5
A8
102
{ACAD_REACTORS
330
1A
102
}
330
1A
100
AcDbPlotSettings
  1

  2
none_device
  4
ISO_A4_(210.00_x_297.00_MM)
  6

 40
7.5
 41
20.0
 42
7.5
 43
20.0
 44
210.0
 45
297.0
 46
0.0
 47
0.0
 48
0.0
 49
0.0
140
0.0
141
0.0
142
1.0
143
1.5564202335
 70
   688
 72
     1
 73
     1
 74
     1
  7

 75
     0
 76
     0
 77
     2
 78
   300
147
0.6425
148
200.0
149
0.0000086946
100
AcDbLayout
  1
_Rechts
 70
     1
 71
     5
 10
0.0
 20
0.0
 11
0.0
 21
0.0
 12
0.0
 22
0.0
 32
0.0
 14
0.0
 24
0.0
 34
0.0
 15
0.0
 25
0.0
 35
0.0
146
0.0
 13
0.0
 23
0.0
 33
0.0
 16
1.0
 26
0.0
 36
0.0
 17
0.0
 27
1.0
 37
0.0
 76
     0
330
A7
331
F6
  0
LAYOUT
  5
99
102
{ACAD_REACTORS
330
1A
102
}
330
1A
100
AcDbPlotSettings
  1

  2
none_device
  4
ISO_A4_(210.00_x_297.00_MM)
  6

 40
7.5
 41
20.0
 42
7.5
 43
20.0
 44
210.0
 45
297.0
 46
0.0
 47
0.0
 48
0.0
 49
0.0
140
0.0
141
0.0
142
1.0
143
1.5564202335
 70
   688
 72
     1
 73
     1
 74
     1
  7

 75
     0
 76
     0
 77
     2
 78
   300
147
0.6425
148
200.0
149
0.0000086946
100
AcDbLayout
  1
_Rückseite
 70
     1
 71
     4
 10
0.0
 20
0.0
 11
0.0
 21
0.0
 12
0.0
 22
0.0
 32
0.0
 14
0.0
 24
0.0
 34
0.0
 15
0.0
 25
0.0
 35
0.0
146
0.0
 13
0.0
 23
0.0
 33
0.0
 16
1.0
 26
0.0
 36
0.0
 17
0.0
 27
1.0
 37
0.0
 76
     0
330
98
331
F4
  0
LAYOUT
  5
CF
102
{ACAD_REACTORS
330
1A
102
}
330
1A
100
AcDbPlotSettings
  1

  2
none_device
  4
ISO_A4_(210.00_x_297.00_MM)
  6

 40
7.5
 41
20.0
 42
7.5
 43
20.0
 44
210.0
 45
297.0
 46
0.0
 47
0.0
 48
0.0
 49
0.0
140
0.0
141
0.0
142
1.0
143
1.5564202335
 70
   688
 72
     1
 73
     1
 74
     1
  7

 75
     0
 76
     0
 77
     2
 78
   300
147
0.6425
148
200.0
149
0.0000086946
100
AcDbLayout
  1
_Trimetrisch
 70
     1
 71
     8
 10
0.0
 20
0.0
 11
0.0
 21
0.0
 12
0.0
 22
0.0
 32
0.0
 14
0.0
 24
0.0
 34
0.0
 15
0.0
 25
0.0
 35
0.0
146
0.0
 13
0.0
 23
0.0
 33
0.0
 16
1.0
 26
0.0
 36
0.0
 17
0.0
 27
1.0
 37
0.0
 76
     0
330
CE
331
FC
  0
LAYOUT
  5
B8
102
{ACAD_REACTORS
330
1A
102
}
330
1A
100
AcDbPlotSettings
  1

  2
none_device
  4
ISO_A4_(210.00_x_297.00_MM)
  6

 40
7.5
 41
20.0
 42
7.5
 43
20.0
 44
210.0
 45
297.0
 46
0.0
 47
0.0
 48
0.0
 49
0.0
140
0.0
141
0.0
142
1.0
143
1.5564202335
 70
   688
 72
     1
 73
     1
 74
     1
  7

 75
     0
 76
     0
 77
     2
 78
   300
147
0.6425
148
200.0
149
0.0000086946
100
AcDbLayout
  1
_Unten
 70
     1
 71
     6
 10
0.0
 20
0.0
 11
0.0
 21
0.0
 12
0.0
 22
0.0
 32
0.0
 14
0.0
 24
0.0
 34
0.0
 15
0.0
 25
0.0
 35
0.0
146
0.0
 13
0.0
 23
0.0
 33
0.0
 16
1.0
 26
0.0
 36
0.0
 17
0.0
 27
1.0
 37
0.0
 76
     0
330
B7
331
F8
  0
LAYOUT
  5
1E
102
{ACAD_REACTORS
330
1A
102
}
330
1A
100
AcDbPlotSettings
  1

  2
none_device
  4
ISO_A4_(210.00_x_297.00_MM)
  6

 40
7.5
 41
20.0
 42
7.5
 43
20.0
 44
210.0
 45
297.0
 46
0.0
 47
0.0
 48
0.0
 49
0.0
140
0.0
141
0.0
142
1.0
143
1.5564202335
 70
   688
 72
     1
 73
     1
 74
     1
  7

 75
     0
 76
     0
 77
     2
 78
   300
147
0.6425
148
200.0
149
0.0000086946
100
AcDbLayout
  1
_Vorderseite
 70
     1
 71
     1
 10
-231.1284046693
 20
-11.6731604455
 11
231.1284046693
 21
315.1750885817
 12
0.0
 22
0.0
 32
0.0
 14
-200.0
 24
-0.0000086946
 34
0.0
 15
200.0
 25
120.0
 35
0.0
146
0.0
 13
0.0
 23
0.0
 33
0.0
 16
1.0
 26
0.0
 36
0.0
 17
0.0
 27
1.0
 37
0.0
 76
     0
330
1B
331
EE
  0
LAYOUT
  5
22
102
{ACAD_REACTORS
330
1A
102
}
330
1A
100
AcDbPlotSettings
  1

  2
none_device
  4
ANSI_A_(11.00_x_8.50_Inches)
  6

 40
6.35
 41
19.05
 42
6.35000508
 43
19.05000254
 44
279.4
 45
215.9
 46
133.34999746
 47
88.89999873
 48
0.0
 49
0.0
140
0.0
141
0.0
142
0.01051875
143
1.0
 70
  1696
 72
     0
 73
     0
 74
     0
  7

 75
     0
 76
     0
 77
     2
 78
   300
147
0.0179189148
148
-1300.4909072572
149
0.0
100
AcDbLayout
  1
Model
 70
     1
 71
     0
 10
0.0
 20
0.0
 11
420.0
 21
297.0
 12
0.0
 22
0.0
 32
0.0
 14
-200.0
 24
-400.0
 34
0.0
 15
200.0
 25
400.0
 35
0.0
146
0.0
 13
0.0
 23
0.0
 33
0.0
 16
1.0
 26
0.0
 36
0.0
 17
0.0
 27
1.0
 37
0.0
 76
     0
330
1F
331
29
  0
MATERIAL
  5
45
102
{ACAD_REACTORS
330
43
102
}
330
43
100
AcDbMaterial
  1
ByBlock
 72
     1
 94
      127
  0
MATERIAL
  5
44
102
{ACAD_REACTORS
330
43
102
}
330
43
100
AcDbMaterial
  1
ByLayer
 72
     1
 94
      127
  0
MATERIAL
  5
46
102
{ACAD_REACTORS
330
43
102
}
330
43
100
AcDbMaterial
  1
Global
 72
     1
 94
      127
  0
MLEADERSTYLE
  5
6C
102
{ACAD_REACTORS
330
6B
102
}
330
6B
100
AcDbMLeaderStyle
179
     2
170
     2
171
     1
172
     0
 90
        2
 40
0.0
 41
0.0
173
     1
 91
-1056964608
340
14
 92
       -2
290
     1
 42
2.0
291
     1
 43
8.0
  3
Standard
341
0
 44
4.0
300

342
11
174
     1
178
     6
175
     1
176
     0
 93
-1056964608
 45
4.0
292
     0
297
     0
 46
4.0
343
0
 94
-1056964608
 47
1.0
 49
1.0
140
1.0
293
     1
141
0.0
294
     1
177
     0
142
1.0
295
     0
296
     0
143
3.75
271
     0
272
     9
273
     9
298
     0
  0
MLINESTYLE
  5
18
102
{ACAD_REACTORS
330
17
102
}
330
17
100
AcDbMlineStyle
  2
Standard
 70
     0
  3

 62
   256
 51
90.0
 52
90.0
 71
     2
 49
0.5
 62
   256
  6
BYLAYER
 49
-0.5
 62
   256
  6
BYLAYER
  0
ACDBPLACEHOLDER
  5
F
102
{ACAD_REACTORS
330
E
102
}
330
E
  0
SCALE
  5
48
102
{ACAD_REACTORS
330
47
102
}
330
47
100
AcDbScale
 70
     0
300
1:1
140
1.0
141
1.0
290
     1
  0
SCALE
  5
49
102
{ACAD_REACTORS
330
47
102
}
330
47
100
AcDbScale
 70
     0
300
1:2
140
1.0
141
2.0
290
     0
  0
SCALE
  5
4A
102
{ACAD_REACTORS
330
47
102
}
330
47
100
AcDbScale
 70
     0
300
1:4
140
1.0
141
4.0
290
     0
  0
SCALE
  5
4B
102
{ACAD_REACTORS
330
47
102
}
330
47
100
AcDbScale
 70
     0
300
1:5
140
1.0
141
5.0
290
     0
  0
SCALE
  5
4C
102
{ACAD_REACTORS
330
47
102
}
330
47
100
AcDbScale
 70
     0
300
1:8
140
1.0
141
8.0
290
     0
  0
SCALE
  5
4D
102
{ACAD_REACTORS
330
47
102
}
330
47
100
AcDbScale
 70
     0
300
1:10
140
1.0
141
10.0
290
     0
  0
SCALE
  5
4E
102
{ACAD_REACTORS
330
47
102
}
330
47
100
AcDbScale
 70
     0
300
1:16
140
1.0
141
16.0
290
     0
  0
SCALE
  5
4F
102
{ACAD_REACTORS
330
47
102
}
330
47
100
AcDbScale
 70
     0
300
1:20
140
1.0
141
20.0
290
     0
  0
SCALE
  5
50
102
{ACAD_REACTORS
330
47
102
}
330
47
100
AcDbScale
 70
     0
300
1:30
140
1.0
141
30.0
290
     0
  0
SCALE
  5
51
102
{ACAD_REACTORS
330
47
102
}
330
47
100
AcDbScale
 70
     0
300
1:40
140
1.0
141
40.0
290
     0
  0
SCALE
  5
52
102
{ACAD_REACTORS
330
47
102
}
330
47
100
AcDbScale
 70
     0
300
1:50
140
1.0
141
50.0
290
     0
  0
SCALE
  5
53
102
{ACAD_REACTORS
330
47
102
}
330
47
100
AcDbScale
 70
     0
300
1:100
140
1.0
141
100.0
290
     0
  0
SCALE
  5
54
102
{ACAD_REACTORS
330
47
102
}
330
47
100
AcDbScale
 70
     0
300
2:1
140
2.0
141
1.0
290
     0
  0
SCALE
  5
55
102
{ACAD_REACTORS
330
47
102
}
330
47
100
AcDbScale
 70
     0
300
4:1
140
4.0
141
1.0
290
     0
  0
SCALE
  5
56
102
{ACAD_REACTORS
330
47
102
}
330
47
100
AcDbScale
 70
     0
300
8:1
140
8.0
141
1.0
290
     0
  0
SCALE
  5
57
102
{ACAD_REACTORS
330
47
102
}
330
47
100
AcDbScale
 70
     0
300
10:1
140
10.0
141
1.0
290
     0
  0
SCALE
  5
58
102
{ACAD_REACTORS
330
47
102
}
330
47
100
AcDbScale
 70
     0
300
100:1
140
100.0
141
1.0
290
     0
  0
SCALE
  5
59
102
{ACAD_REACTORS
330
47
102
}
330
47
100
AcDbScale
 70
     0
300
1/128" = 1'-0"
140
0.0078125
141
12.0
290
     0
  0
SCALE
  5
5A
102
{ACAD_REACTORS
330
47
102
}
330
47
100
AcDbScale
 70
     0
300
1/64" = 1'-0"
140
0.015625
141
12.0
290
     0
  0
SCALE
  5
5B
102
{ACAD_REACTORS
330
47
102
}
330
47
100
AcDbScale
 70
     0
300
1/32" = 1'-0"
140
0.03125
141
12.0
290
     0
  0
SCALE
  5
5C
102
{ACAD_REACTORS
330
47
102
}
330
47
100
AcDbScale
 70
     0
300
1/16" = 1'-0"
140
0.0625
141
12.0
290
     0
  0
SCALE
  5
5D
102
{ACAD_REACTORS
330
47
102
}
330
47
100
AcDbScale
 70
     0
300
3/32" = 1'-0"
140
0.09375
141
12.0
290
     0
  0
SCALE
  5
5E
102
{ACAD_REACTORS
330
47
102
}
330
47
100
AcDbScale
 70
     0
300
1/8" = 1'-0"
140
0.125
141
12.0
290
     0
  0
SCALE
  5
5F
102
{ACAD_REACTORS
330
47
102
}
330
47
100
AcDbScale
 70
     0
300
3/16" = 1'-0"
140
0.1875
141
12.0
290
     0
  0
SCALE
  5
60
102
{ACAD_REACTORS
330
47
102
}
330
47
100
AcDbScale
 70
     0
300
1/4" = 1'-0"
140
0.25
141
12.0
290
     0
  0
SCALE
  5
61
102
{ACAD_REACTORS
330
47
102
}
330
47
100
AcDbScale
 70
     0
300
3/8" = 1'-0"
140
0.375
141
12.0
290
     0
  0
SCALE
  5
62
102
{ACAD_REACTORS
330
47
102
}
330
47
100
AcDbScale
 70
     0
300
1/2" = 1'-0"
140
0.5
141
12.0
290
     0
  0
SCALE
  5
63
102
{ACAD_REACTORS
330
47
102
}
330
47
100
AcDbScale
 70
     0
300
3/4" = 1'-0"
140
0.75
141
12.0
290
     0
  0
SCALE
  5
64
102
{ACAD_REACTORS
330
47
102
}
330
47
100
AcDbScale
 70
     0
300
1" = 1'-0"
140
1.0
141
12.0
290
     0
  0
SCALE
  5
65
102
{ACAD_REACTORS
330
47
102
}
330
47
100
AcDbScale
 70
     0
300
1-1/2" = 1'-0"
140
1.5
141
12.0
290
     0
  0
SCALE
  5
66
102
{ACAD_REACTORS
330
47
102
}
330
47
100
AcDbScale
 70
     0
300
3" = 1'-0"
140
3.0
141
12.0
290
     0
  0
SCALE
  5
67
102
{ACAD_REACTORS
330
47
102
}
330
47
100
AcDbScale
 70
     0
300
6" = 1'-0"
140
6.0
141
12.0
290
     0
  0
SCALE
  5
68
102
{ACAD_REACTORS
330
47
102
}
330
47
100
AcDbScale
 70
     0
300
1'-0" = 1'-0"
140
12.0
141
12.0
290
     0
  0
TABLESTYLE
  5
6A
102
{ACAD_REACTORS
330
69
102
}
102
{ACAD_XDICTIONARY
360
102
102
}
330
69
100
AcDbTableStyle
  3
Standard
 70
     0
 71
     0
 40
0.06
 41
0.06
280
     0
281
     0
  7
STANDARD
140
4.5
170
     2
 62
     0
 63
   257
283
     0
 90
        4
 91
        0
  1

274
    -2
284
     1
 64
     0
275
    -2
285
     1
 65
     0
276
    -2
286
     1
 66
     0
277
    -2
287
     1
 67
     0
278
    -2
288
     1
 68
     0
279
    -2
289
     1
 69
     0
  7
STANDARD
140
6.0
170
     5
 62
     0
 63
   257
283
     0
 90
        4
 91
        0
  1

274
    -2
284
     1
 64
     0
275
    -2
285
     1
 65
     0
276
    -2
286
     1
 66
     0
277
    -2
287
     1
 67
     0
278
    -2
288
     1
 68
     0
279
    -2
289
     1
 69
     0
  7
STANDARD
140
4.5
170
     5
 62
     0
 63
   257
283
     0
 90
        4
 91
        0
  1

274
    -2
284
     1
 64
     0
275
    -2
285
     1
 65
     0
276
    -2
286
     1
 66
     0
277
    -2
287
     1
 67
     0
278
    -2
288
     1
 68
     0
279
    -2
289
     1
 69
     0
  0
VISUALSTYLE
  5
2F
102
{ACAD_REACTORS
330
2A
102
}
330
2A
100
AcDbVisualStyle
  2
2dWireframe
 70
     4
177
     3
291
     0
 70
    58
 90
        0
176
     1
 90
        2
176
     1
 90
        0
176
     1
 90
        0
176
     1
 40
0.6
176
     1
 40
30.0
176
     1
 62
     7
420
 16777215
176
     1
 90
        1
176
     1
 90
        4
176
     1
 62
     7
176
     1
 62
   257
176
     1
 90
        1
176
     1
 90
        1
176
     1
 40
1.0
176
     1
 90
        0
176
     1
 62
   257
176
     1
 40
1.0
176
     1
 90
        1
176
     1
 90
        6
176
     1
 90
        2
176
     1
 62
     7
176
     1
 90
        5
176
     1
 90
        0
176
     1
 90
        0
176
     1
290
     0
176
     1
 90
        1
176
     1
 40
0.0
176
     1
 90
        0
176
     1
290
     1
176
     1
290
     1
176
     1
290
     0
176
     1
290
     0
176
     1
290
     0
176
     1
290
     0
176
     1
290
     0
176
     1
290
     0
176
     1
290
     0
176
     1
 90
       50
176
     1
 40
0.0
176
     1
 40
1.0
176
     1
 90
        0
176
     1
 62
    18
420
        0
176
     1
 90
       50
176
     1
 90
        3
176
     1
 62
     5
420
      255
176
     1
290
     0
176
     1
 90
       50
176
     1
 90
       50
176
     1
 90
       50
176
     1
290
     0
176
     1
 90
       50
176
     1
 62
   256
176
     0
 40
1.0
176
     0
 90
        2
176
     1
  1
strokes_ogs.tif
176
     1
290
     0
176
     1
 40
1.0
176
     1
 40
1.0
176
     1
  0
VISUALSTYLE
  5
32
102
{ACAD_REACTORS
330
2A
102
}
330
2A
100
AcDbVisualStyle
  2
Basic
 70
     7
177
     3
291
     1
 70
    58
 90
        1
176
     1
 90
        0
176
     1
 90
        1
176
     1
 90
        0
176
     1
 40
0.6
176
     1
 40
30.0
176
     1
 62
     7
420
 16777215
176
     1
 90
        0
176
     1
 90
        4
176
     1
 62
     7
176
     1
 62
   257
176
     1
 90
        1
176
     1
 90
        1
176
     1
 40
1.0
176
     1
 90
        8
176
     1
 62
     7
176
     1
 40
1.0
176
     1
 90
        1
176
     1
 90
        6
176
     1
 90
        2
176
     1
 62
     7
176
     1
 90
        5
176
     1
 90
        0
176
     1
 90
        0
176
     1
290
     0
176
     1
 90
        1
176
     1
 40
0.0
176
     1
 90
        0
176
     1
290
     0
176
     1
290
     1
176
     1
290
     1
176
     1
290
     0
176
     1
290
     0
176
     1
290
     0
176
     1
290
     0
176
     1
290
     0
176
     1
290
     0
176
     1
 90
       50
176
     1
 40
0.0
176
     1
 40
1.0
176
     1
 90
        0
176
     1
 62
    18
420
        0
176
     1
 90
       50
176
     1
 90
        3
176
     1
 62
     5
420
      255
176
     1
290
     0
176
     1
 90
       50
176
     1
 90
       50
176
     1
 90
       50
176
     1
290
     0
176
     1
 90
       50
176
     1
 62
   256
176
     0
 40
1.0
176
     0
 90
        2
176
     1
  1
strokes_ogs.tif
176
     1
290
     0
176
     1
 40
1.0
176
     1
 40
1.0
176
     1
  0
VISUALSTYLE
  5
36
102
{ACAD_REACTORS
330
2A
102
}
330
2A
100
AcDbVisualStyle
  2
Brighten
 70
    12
177
     3
291
     1
 70
    58
 90
        2
176
     1
 90
        2
176
     1
 90
        0
176
     1
 90
        0
176
     1
 40
0.6
176
     1
 40
30.0
176
     1
 62
     7
420
 16777215
176
     1
 90
        1
176
     1
 90
        4
176
     1
 62
     7
176
     1
 62
   257
176
     1
 90
        1
176
     1
 90
        1
176
     1
 40
1.0
176
     1
 90
        8
176
     1
 62
     7
176
     1
 40
1.0
176
     1
 90
        1
176
     1
 90
        6
176
     1
 90
        2
176
     1
 62
     7
176
     1
 90
        5
176
     1
 90
        0
176
     1
 90
        0
176
     1
290
     0
176
     1
 90
        1
176
     1
 40
50.0
176
     1
 90
        0
176
     1
290
     0
176
     1
290
     1
176
     1
290
     1
176
     1
290
     0
176
     1
290
     0
176
     1
290
     0
176
     1
290
     0
176
     1
290
     0
176
     1
290
     0
176
     1
 90
       50
176
     1
 40
0.0
176
     1
 40
1.0
176
     1
 90
        0
176
     1
 62
    18
420
        0
176
     1
 90
       50
176
     1
 90
        3
176
     1
 62
     5
420
      255
176
     1
290
     0
176
     1
 90
       50
176
     1
 90
       50
176
     1
 90
       50
176
     1
290
     0
176
     1
 90
       50
176
     1
 62
   256
176
     0
 40
1.0
176
     0
 90
        2
176
     1
  1
strokes_ogs.tif
176
     1
290
     0
176
     1
 40
1.0
176
     1
 40
1.0
176
     1
  0
VISUALSTYLE
  5
3A
102
{ACAD_REACTORS
330
2A
102
}
330
2A
100
AcDbVisualStyle
  2
ColorChange
 70
    16
177
     3
291
     1
 70
    58
 90
        2
176
     1
 90
        2
176
     1
 90
        3
176
     1
 90
        0
176
     1
 40
0.6
176
     1
 40
30.0
176
     1
 62
     8
420
  8421504
176
     1
 90
        1
176
     1
 90
        4
176
     1
 62
     7
176
     1
 62
   257
176
     1
 90
        1
176
     1
 90
        1
176
     1
 40
1.0
176
     1
 90
        8
176
     1
 62
     8
420
  8421504
176
     1
 40
1.0
176
     1
 90
        1
176
     1
 90
        6
176
     1
 90
        2
176
     1
 62
     7
176
     1
 90
        5
176
     1
 90
        0
176
     1
 90
        0
176
     1
290
     0
176
     1
 90
        1
176
     1
 40
0.0
176
     1
 90
        0
176
     1
290
     0
176
     1
290
     1
176
     1
290
     1
176
     1
290
     0
176
     1
290
     0
176
     1
290
     0
176
     1
290
     0
176
     1
290
     0
176
     1
290
     0
176
     1
 90
       50
176
     1
 40
0.0
176
     1
 40
1.0
176
     1
 90
        0
176
     1
 62
    18
420
        0
176
     1
 90
       50
176
     1
 90
        3
176
     1
 62
     5
420
      255
176
     1
290
     0
176
     1
 90
       50
176
     1
 90
       50
176
     1
 90
       50
176
     1
290
     0
176
     1
 90
       50
176
     1
 62
   256
176
     0
 40
1.0
176
     0
 90
        2
176
     1
  1
strokes_ogs.tif
176
     1
290
     0
176
     1
 40
1.0
176
     1
 40
1.0
176
     1
  0
VISUALSTYLE
  5
34
102
{ACAD_REACTORS
330
2A
102
}
330
2A
100
AcDbVisualStyle
  2
Conceptual
 70
     9
177
     3
291
     0
 70
    58
 90
        3
176
     1
 90
        2
176
     1
 90
        0
176
     1
 90
        0
176
     1
 40
0.6
176
     1
 40
30.0
176
     1
 62
     7
420
 16777215
176
     1
 90
        2
176
     1
 90
        2
176
     1
 62
     7
176
     1
 62
   257
176
     1
 90
        1
176
     1
 90
        1
176
     1
 40
179.0
176
     1
 90
        8
176
     1
 62
     7
176
     1
 40
1.0
176
     1
 90
        1
176
     1
 90
        6
176
     1
 90
        2
176
     1
 62
     7
176
     1
 90
        3
176
     1
 90
        0
176
     1
 90
        0
176
     1
290
     0
176
     1
 90
        1
176
     1
 40
0.0
176
     1
 90
        0
176
     1
290
     0
176
     1
290
     1
176
     1
290
     1
176
     1
290
     0
176
     1
290
     0
176
     1
290
     0
176
     1
290
     0
176
     1
290
     0
176
     1
290
     0
176
     1
 90
       50
176
     1
 40
0.0
176
     1
 40
1.0
176
     1
 90
        0
176
     1
 62
    18
420
        0
176
     1
 90
       50
176
     1
 90
        3
176
     1
 62
     5
420
      255
176
     1
290
     0
176
     1
 90
       50
176
     1
 90
       50
176
     1
 90
       50
176
     1
290
     0
176
     1
 90
       50
176
     1
 62
   256
176
     0
 40
1.0
176
     0
 90
        2
176
     1
  1
strokes_ogs.tif
176
     1
290
     0
176
     1
 40
1.0
176
     1
 40
1.0
176
     1
  0
VISUALSTYLE
  5
35
102
{ACAD_REACTORS
330
2A
102
}
330
2A
100
AcDbVisualStyle
  2
Dim
 70
    11
177
     3
291
     1
 70
    58
 90
        2
176
     1
 90
        2
176
     1
 90
        0
176
     1
 90
        0
176
     1
 40
0.6
176
     1
 40
30.0
176
     1
 62
     7
420
 16777215
176
     1
 90
        1
176
     1
 90
        4
176
     1
 62
     7
176
     1
 62
   257
176
     1
 90
        1
176
     1
 90
        1
176
     1
 40
1.0
176
     1
 90
        8
176
     1
 62
     7
176
     1
 40
1.0
176
     1
 90
        1
176
     1
 90
        6
176
     1
 90
        2
176
     1
 62
     7
176
     1
 90
        5
176
     1
 90
        0
176
     1
 90
        0
176
     1
290
     0
176
     1
 90
        1
176
     1
 40
-50.0
176
     1
 90
        0
176
     1
290
     0
176
     1
290
     1
176
     1
290
     1
176
     1
290
     0
176
     1
290
     0
176
     1
290
     0
176
     1
290
     0
176
     1
290
     0
176
     1
290
     0
176
     1
 90
       50
176
     1
 40
0.0
176
     1
 40
1.0
176
     1
 90
        0
176
     1
 62
    18
420
        0
176
     1
 90
       50
176
     1
 90
        3
176
     1
 62
     5
420
      255
176
     1
290
     0
176
     1
 90
       50
176
     1
 90
       50
176
     1
 90
       50
176
     1
290
     0
176
     1
 90
       50
176
     1
 62
   256
176
     0
 40
1.0
176
     0
 90
        2
176
     1
  1
strokes_ogs.tif
176
     1
290
     0
176
     1
 40
1.0
176
     1
 40
1.0
176
     1
  0
VISUALSTYLE
  5
3D
102
{ACAD_REACTORS
330
2A
102
}
330
2A
100
AcDbVisualStyle
  2
EdgeColorOff
 70
    22
177
     3
291
     1
 70
    58
 90
        2
176
     0
 90
        2
176
     0
 90
        0
176
     0
 90
        0
176
     0
 40
0.6
176
     0
 40
30.0
176
     0
 62
     7
420
 16777215
176
     0
 90
        1
176
     0
 90
        4
176
     0
 62
     7
176
     0
 62
   257
176
     0
 90
        1
176
     0
 90
        1
176
     0
 40
1.0
176
     0
 90
        8
176
     2
 62
     7
176
     0
 40
1.0
176
     0
 90
        1
176
     0
 90
        6
176
     0
 90
        2
176
     0
 62
     7
176
     0
 90
        5
176
     0
 90
        0
176
     0
 90
        0
176
     0
290
     0
176
     0
 90
        1
176
     0
 40
0.0
176
     0
 90
        0
176
     0
290
     0
176
     0
290
     1
176
     0
290
     1
176
     0
290
     0
176
     0
290
     0
176
     0
290
     0
176
     0
290
     0
176
     0
290
     0
176
     0
290
     0
176
     0
 90
       50
176
     0
 40
0.0
176
     0
 40
1.0
176
     0
 90
        0
176
     0
 62
    18
420
        0
176
     0
 90
       50
176
     0
 90
        3
176
     0
 62
     5
420
      255
176
     0
290
     0
176
     0
 90
       50
176
     0
 90
       50
176
     0
 90
       50
176
     0
290
     0
176
     0
 90
       50
176
     0
 62
   256
176
     0
 40
1.0
176
     0
 90
        2
176
     0
  1
strokes_ogs.tif
176
     0
290
     0
176
     0
 40
1.0
176
     0
 40
1.0
176
     0
  0
VISUALSTYLE
  5
39
102
{ACAD_REACTORS
330
2A
102
}
330
2A
100
AcDbVisualStyle
  2
Facepattern
 70
    15
177
     3
291
     1
 70
    58
 90
        2
176
     1
 90
        2
176
     1
 90
        0
176
     1
 90
        0
176
     1
 40
0.6
176
     1
 40
30.0
176
     1
 62
     7
420
 16777215
176
     1
 90
        1
176
     1
 90
        4
176
     1
 62
     7
176
     1
 62
   257
176
     1
 90
        1
176
     1
 90
        1
176
     1
 40
1.0
176
     1
 90
        8
176
     1
 62
     7
176
     1
 40
1.0
176
     1
 90
        1
176
     1
 90
        6
176
     1
 90
        2
176
     1
 62
     7
176
     1
 90
        5
176
     1
 90
        0
176
     1
 90
        0
176
     1
290
     0
176
     1
 90
        1
176
     1
 40
0.0
176
     1
 90
        0
176
     1
290
     0
176
     1
290
     1
176
     1
290
     1
176
     1
290
     0
176
     1
290
     0
176
     1
290
     0
176
     1
290
     0
176
     1
290
     0
176
     1
290
     0
176
     1
 90
       50
176
     1
 40
0.0
176
     1
 40
1.0
176
     1
 90
        0
176
     1
 62
    18
420
        0
176
     1
 90
       50
176
     1
 90
        3
176
     1
 62
     5
420
      255
176
     1
290
     0
176
     1
 90
       50
176
     1
 90
       50
176
     1
 90
       50
176
     1
290
     0
176
     1
 90
       50
176
     1
 62
   256
176
     0
 40
1.0
176
     0
 90
        2
176
     1
  1
strokes_ogs.tif
176
     1
290
     0
176
     1
 40
1.0
176
     1
 40
1.0
176
     1
  0
VISUALSTYLE
  5
2B
102
{ACAD_REACTORS
330
2A
102
}
330
2A
100
AcDbVisualStyle
  2
Flat
 70
     0
177
     3
291
     1
 70
    58
 90
        2
176
     1
 90
        1
176
     1
 90
        1
176
     1
 90
        2
176
     1
 40
0.6
176
     1
 40
30.0
176
     1
 62
     7
420
 16777215
176
     1
 90
        0
176
     1
 90
        0
176
     1
 62
     7
176
     1
 62
   257
176
     1
 90
        1
176
     1
 90
        1
176
     1
 40
1.0
176
     1
 90
        8
176
     1
 62
     7
176
     1
 40
1.0
176
     1
 90
        1
176
     1
 90
        6
176
     1
 90
        2
176
     1
 62
     7
176
     1
 90
        5
176
     1
 90
        0
176
     1
 90
        0
176
     1
290
     0
176
     1
 90
       13
176
     1
 40
0.0
176
     1
 90
        0
176
     1
290
     0
176
     1
290
     1
176
     1
290
     1
176
     1
290
     0
176
     1
290
     0
176
     1
290
     0
176
     1
290
     0
176
     1
290
     0
176
     1
290
     0
176
     1
 90
       50
176
     1
 40
0.0
176
     1
 40
1.0
176
     1
 90
        0
176
     1
 62
    18
420
        0
176
     1
 90
       50
176
     1
 90
        3
176
     1
 62
     5
420
      255
176
     1
290
     0
176
     1
 90
       50
176
     1
 90
       50
176
     1
 90
       50
176
     1
290
     0
176
     1
 90
       50
176
     1
 62
   256
176
     0
 40
1.0
176
     0
 90
        2
176
     1
  1
strokes_ogs.tif
176
     1
290
     0
176
     1
 40
1.0
176
     1
 40
1.0
176
     1
  0
VISUALSTYLE
  5
2C
102
{ACAD_REACTORS
330
2A
102
}
330
2A
100
AcDbVisualStyle
  2
FlatWithEdges
 70
     1
177
     3
291
     1
 70
    58
 90
        2
176
     1
 90
        1
176
     1
 90
        1
176
     1
 90
        2
176
     1
 40
0.6
176
     1
 40
30.0
176
     1
 62
     7
420
 16777215
176
     1
 90
        1
176
     1
 90
        0
176
     1
 62
     7
176
     1
 62
   257
176
     1
 90
        1
176
     1
 90
        1
176
     1
 40
1.0
176
     1
 90
        0
176
     1
 62
   257
176
     1
 40
1.0
176
     1
 90
        1
176
     1
 90
        6
176
     1
 90
        2
176
     1
 62
     7
176
     1
 90
        5
176
     1
 90
        0
176
     1
 90
        0
176
     1
290
     0
176
     1
 90
       13
176
     1
 40
0.0
176
     1
 90
        0
176
     1
290
     0
176
     1
290
     1
176
     1
290
     1
176
     1
290
     0
176
     1
290
     0
176
     1
290
     0
176
     1
290
     0
176
     1
290
     0
176
     1
290
     0
176
     1
 90
       50
176
     1
 40
0.0
176
     1
 40
1.0
176
     1
 90
        0
176
     1
 62
    18
420
        0
176
     1
 90
       50
176
     1
 90
        3
176
     1
 62
     5
420
      255
176
     1
290
     0
176
     1
 90
       50
176
     1
 90
       50
176
     1
 90
       50
176
     1
290
     0
176
     1
 90
       50
176
     1
 62
   256
176
     0
 40
1.0
176
     0
 90
        2
176
     1
  1
strokes_ogs.tif
176
     1
290
     0
176
     1
 40
1.0
176
     1
 40
1.0
176
     1
  0
VISUALSTYLE
  5
2D
102
{ACAD_REACTORS
330
2A
102
}
330
2A
100
AcDbVisualStyle
  2
Gouraud
 70
     2
177
     3
291
     1
 70
    58
 90
        2
176
     1
 90
        2
176
     1
 90
        1
176
     1
 90
        2
176
     1
 40
0.6
176
     1
 40
30.0
176
     1
 62
     7
420
 16777215
176
     1
 90
        0
176
     1
 90
        0
176
     1
 62
     7
176
     1
 62
   257
176
     1
 90
        1
176
     1
 90
        1
176
     1
 40
1.0
176
     1
 90
        0
176
     1
 62
     7
176
     1
 40
1.0
176
     1
 90
        1
176
     1
 90
        6
176
     1
 90
        2
176
     1
 62
     7
176
     1
 90
        5
176
     1
 90
        0
176
     1
 90
        0
176
     1
290
     0
176
     1
 90
       13
176
     1
 40
0.0
176
     1
 90
        0
176
     1
290
     0
176
     1
290
     1
176
     1
290
     1
176
     1
290
     0
176
     1
290
     0
176
     1
290
     0
176
     1
290
     0
176
     1
290
     0
176
     1
290
     0
176
     1
 90
       50
176
     1
 40
0.0
176
     1
 40
1.0
176
     1
 90
        0
176
     1
 62
    18
420
        0
176
     1
 90
       50
176
     1
 90
        3
176
     1
 62
     5
420
      255
176
     1
290
     0
176
     1
 90
       50
176
     1
 90
       50
176
     1
 90
       50
176
     1
290
     0
176
     1
 90
       50
176
     1
 62
   256
176
     0
 40
1.0
176
     0
 90
        2
176
     1
  1
strokes_ogs.tif
176
     1
290
     0
176
     1
 40
1.0
176
     1
 40
1.0
176
     1
  0
VISUALSTYLE
  5
2E
102
{ACAD_REACTORS
330
2A
102
}
330
2A
100
AcDbVisualStyle
  2
GouraudWithEdges
 70
     3
177
     3
291
     1
 70
    58
 90
        2
176
     1
 90
        2
176
     1
 90
        1
176
     1
 90
        2
176
     1
 40
0.6
176
     1
 40
30.0
176
     1
 62
     7
420
 16777215
176
     1
 90
        1
176
     1
 90
        0
176
     1
 62
     7
176
     1
 62
   257
176
     1
 90
        1
176
     1
 90
        1
176
     1
 40
1.0
176
     1
 90
        0
176
     1
 62
   257
176
     1
 40
1.0
176
     1
 90
        1
176
     1
 90
        6
176
     1
 90
        2
176
     1
 62
     7
176
     1
 90
        5
176
     1
 90
        0
176
     1
 90
        0
176
     1
290
     0
176
     1
 90
       13
176
     1
 40
0.0
176
     1
 90
        0
176
     1
290
     0
176
     1
290
     1
176
     1
290
     1
176
     1
290
     0
176
     1
290
     0
176
     1
290
     0
176
     1
290
     0
176
     1
290
     0
176
     1
290
     0
176
     1
 90
       50
176
     1
 40
0.0
176
     1
 40
1.0
176
     1
 90
        0
176
     1
 62
    18
420
        0
176
     1
 90
       50
176
     1
 90
        3
176
     1
 62
     5
420
      255
176
     1
290
     0
176
     1
 90
       50
176
     1
 90
       50
176
     1
 90
       50
176
     1
290
     0
176
     1
 90
       50
176
     1
 62
   256
176
     0
 40
1.0
176
     0
 90
        2
176
     1
  1
strokes_ogs.tif
176
     1
290
     0
176
     1
 40
1.0
176
     1
 40
1.0
176
     1
  0
VISUALSTYLE
  5
31
102
{ACAD_REACTORS
330
2A
102
}
330
2A
100
AcDbVisualStyle
  2
Hidden
 70
     6
177
     3
291
     0
 70
    58
 90
        1
176
     1
 90
        2
176
     1
 90
        2
176
     1
 90
        0
176
     1
 40
0.6
176
     1
 40
30.0
176
     1
 62
     7
420
 16777215
176
     1
 90
        2
176
     1
 90
        2
176
     1
 62
     7
176
     1
 62
   257
176
     1
 90
        2
176
     1
 90
        1
176
     1
 40
40.0
176
     1
 90
        0
176
     1
 62
   257
176
     1
 40
1.0
176
     1
 90
        1
176
     1
 90
        6
176
     1
 90
        2
176
     1
 62
     7
176
     1
 90
        3
176
     1
 90
        0
176
     1
 90
        0
176
     1
290
     0
176
     1
 90
        1
176
     1
 40
0.0
176
     1
 90
        0
176
     1
290
     0
176
     1
290
     1
176
     1
290
     1
176
     1
290
     0
176
     1
290
     0
176
     1
290
     0
176
     1
290
     0
176
     1
290
     0
176
     1
290
     0
176
     1
 90
       50
176
     1
 40
0.0
176
     1
 40
1.0
176
     1
 90
        0
176
     1
 62
    18
420
        0
176
     1
 90
       50
176
     1
 90
        3
176
     1
 62
     5
420
      255
176
     1
290
     0
176
     1
 90
       50
176
     1
 90
       50
176
     1
 90
       50
176
     1
290
     0
176
     1
 90
       50
176
     1
 62
   256
176
     0
 40
1.0
176
     0
 90
        2
176
     1
  1
strokes_ogs.tif
176
     1
290
     0
176
     1
 40
1.0
176
     1
 40
1.0
176
     1
  0
VISUALSTYLE
  5
3B
102
{ACAD_REACTORS
330
2A
102
}
330
2A
100
AcDbVisualStyle
  2
JitterOff
 70
    20
177
     3
291
     1
 70
    58
 90
        2
176
     0
 90
        2
176
     0
 90
        0
176
     0
 90
        0
176
     0
 40
0.6
176
     0
 40
30.0
176
     0
 62
     7
420
 16777215
176
     0
 90
        1
176
     0
 90
        4
176
     0
 62
     7
176
     0
 62
   257
176
     0
 90
        1
176
     0
 90
        1
176
     0
 40
1.0
176
     0
 90
       10
176
     2
 62
     7
176
     0
 40
1.0
176
     0
 90
        1
176
     0
 90
        6
176
     0
 90
        2
176
     0
 62
     7
176
     0
 90
        5
176
     0
 90
        0
176
     0
 90
        0
176
     0
290
     0
176
     0
 90
        1
176
     0
 40
0.0
176
     0
 90
        0
176
     0
290
     0
176
     0
290
     1
176
     0
290
     1
176
     0
290
     0
176
     0
290
     0
176
     0
290
     0
176
     0
290
     0
176
     0
290
     0
176
     0
290
     0
176
     0
 90
       50
176
     0
 40
0.0
176
     0
 40
1.0
176
     0
 90
        0
176
     0
 62
    18
420
        0
176
     0
 90
       50
176
     0
 90
        3
176
     0
 62
     5
420
      255
176
     0
290
     0
176
     0
 90
       50
176
     0
 90
       50
176
     0
 90
       50
176
     0
290
     0
176
     0
 90
       50
176
     0
 62
   256
176
     0
 40
1.0
176
     0
 90
        2
176
     0
  1
strokes_ogs.tif
176
     0
290
     0
176
     0
 40
1.0
176
     0
 40
1.0
176
     0
  0
VISUALSTYLE
  5
38
102
{ACAD_REACTORS
330
2A
102
}
330
2A
100
AcDbVisualStyle
  2
Linepattern
 70
    14
177
     3
291
     1
 70
    58
 90
        2
176
     1
 90
        2
176
     1
 90
        0
176
     1
 90
        0
176
     1
 40
0.6
176
     1
 40
30.0
176
     1
 62
     7
420
 16777215
176
     1
 90
        1
176
     1
 90
        4
176
     1
 62
     7
176
     1
 62
   257
176
     1
 90
        7
176
     1
 90
        7
176
     1
 40
1.0
176
     1
 90
        8
176
     1
 62
     7
176
     1
 40
1.0
176
     1
 90
        1
176
     1
 90
        6
176
     1
 90
        2
176
     1
 62
     7
176
     1
 90
        5
176
     1
 90
        0
176
     1
 90
        0
176
     1
290
     0
176
     1
 90
        1
176
     1
 40
0.0
176
     1
 90
        0
176
     1
290
     0
176
     1
290
     1
176
     1
290
     1
176
     1
290
     0
176
     1
290
     0
176
     1
290
     0
176
     1
290
     0
176
     1
290
     0
176
     1
290
     0
176
     1
 90
       50
176
     1
 40
0.0
176
     1
 40
1.0
176
     1
 90
        0
176
     1
 62
    18
420
        0
176
     1
 90
       50
176
     1
 90
        3
176
     1
 62
     5
420
      255
176
     1
290
     0
176
     1
 90
       50
176
     1
 90
       50
176
     1
 90
       50
176
     1
290
     0
176
     1
 90
       50
176
     1
 62
   256
176
     0
 40
1.0
176
     0
 90
        2
176
     1
  1
strokes_ogs.tif
176
     1
290
     0
176
     1
 40
1.0
176
     1
 40
1.0
176
     1
  0
VISUALSTYLE
  5
3C
102
{ACAD_REACTORS
330
2A
102
}
330
2A
100
AcDbVisualStyle
  2
OverhangOff
 70
    21
177
     3
291
     1
 70
    58
 90
        2
176
     0
 90
        2
176
     0
 90
        0
176
     0
 90
        0
176
     0
 40
0.6
176
     0
 40
30.0
176
     0
 62
     7
420
 16777215
176
     0
 90
        1
176
     0
 90
        4
176
     0
 62
     7
176
     0
 62
   257
176
     0
 90
        1
176
     0
 90
        1
176
     0
 40
1.0
176
     0
 90
        9
176
     2
 62
     7
176
     0
 40
1.0
176
     0
 90
        1
176
     0
 90
        6
176
     0
 90
        2
176
     0
 62
     7
176
     0
 90
        5
176
     0
 90
        0
176
     0
 90
        0
176
     0
290
     0
176
     0
 90
        1
176
     0
 40
0.0
176
     0
 90
        0
176
     0
290
     0
176
     0
290
     1
176
     0
290
     1
176
     0
290
     0
176
     0
290
     0
176
     0
290
     0
176
     0
290
     0
176
     0
290
     0
176
     0
290
     0
176
     0
 90
       50
176
     0
 40
0.0
176
     0
 40
1.0
176
     0
 90
        0
176
     0
 62
    18
420
        0
176
     0
 90
       50
176
     0
 90
        3
176
     0
 62
     5
420
      255
176
     0
290
     0
176
     0
 90
       50
176
     0
 90
       50
176
     0
 90
       50
176
     0
290
     0
176
     0
 90
       50
176
     0
 62
   256
176
     0
 40
1.0
176
     0
 90
        2
176
     0
  1
strokes_ogs.tif
176
     0
290
     0
176
     0
 40
1.0
176
     0
 40
1.0
176
     0
  0
VISUALSTYLE
  5
33
102
{ACAD_REACTORS
330
2A
102
}
330
2A
100
AcDbVisualStyle
  2
Realistic
 70
     8
177
     3
291
     0
 70
    58
 90
        2
176
     1
 90
        3
176
     1
 90
        0
176
     1
 90
        2
176
     1
 40
0.6
176
     1
 40
30.0
176
     1
 62
     7
420
 16777215
176
     1
 90
        0
176
     1
 90
        0
176
     1
 62
     7
176
     1
 62
   257
176
     1
 90
        1
176
     1
 90
        1
176
     1
 40
1.0
176
     1
 90
        8
176
     1
 62
   257
176
     1
 40
1.0
176
     1
 90
        1
176
     1
 90
        6
176
     1
 90
        2
176
     1
 62
     7
176
     1
 90
        3
176
     1
 90
        0
176
     1
 90
        0
176
     1
290
     0
176
     1
 90
       13
176
     1
 40
0.0
176
     1
 90
        0
176
     1
290
     0
176
     1
290
     1
176
     1
290
     1
176
     1
290
     0
176
     1
290
     0
176
     1
290
     0
176
     1
290
     0
176
     1
290
     0
176
     1
290
     0
176
     1
 90
       50
176
     1
 40
0.0
176
     1
 40
1.0
176
     1
 90
        0
176
     1
 62
    18
420
        0
176
     1
 90
       50
176
     1
 90
        3
176
     1
 62
     5
420
      255
176
     1
290
     0
176
     1
 90
       50
176
     1
 90
       50
176
     1
 90
       50
176
     1
290
     0
176
     1
 90
       50
176
     1
 62
   256
176
     0
 40
1.0
176
     0
 90
        2
176
     1
  1
strokes_ogs.tif
176
     1
290
     0
176
     1
 40
1.0
176
     1
 40
1.0
176
     1
  0
VISUALSTYLE
  5
42
102
{ACAD_REACTORS
330
2A
102
}
330
2A
100
AcDbVisualStyle
  2
Shaded
 70
    27
177
     3
291
     0
 70
    58
 90
        2
176
     1
 90
        2
176
     1
 90
        1
176
     1
 90
        2
176
     1
 40
0.6
176
     1
 40
30.0
176
     1
 62
     7
420
 16777215
176
     1
 90
        0
176
     1
 90
        4
176
     1
 62
     7
176
     1
 62
   257
176
     1
 90
        1
176
     1
 90
        1
176
     1
 40
1.0
176
     1
 90
        8
176
     1
 62
   257
176
     1
 40
1.0
176
     1
 90
        1
176
     1
 90
        6
176
     1
 90
        2
176
     1
 62
     8
420
  7895160
176
     1
 90
        3
176
     1
 90
        0
176
     1
 90
        0
176
     1
290
     0
176
     1
 90
        5
176
     1
 40
0.0
176
     1
 90
        0
176
     1
290
     0
176
     1
290
     1
176
     1
290
     1
176
     1
290
     0
176
     1
290
     0
176
     1
290
     0
176
     1
290
     0
176
     1
290
     0
176
     1
290
     0
176
     1
 90
       50
176
     1
 40
0.0
176
     1
 40
1.0
176
     1
 90
        0
176
     1
 62
    18
420
        0
176
     1
 90
       50
176
     1
 90
        3
176
     1
 62
     5
420
      255
176
     1
290
     0
176
     1
 90
       50
176
     1
 90
       50
176
     1
 90
       50
176
     1
290
     0
176
     1
 90
       50
176
     1
 62
   256
176
     0
 40
1.0
176
     0
 90
        2
176
     1
  1
strokes_ogs.tif
176
     1
290
     0
176
     1
 40
1.0
176
     1
 40
1.0
176
     1
  0
VISUALSTYLE
  5
41
102
{ACAD_REACTORS
330
2A
102
}
330
2A
100
AcDbVisualStyle
  2
Shaded with edges
 70
    26
177
     3
291
     0
 70
    58
 90
        2
176
     1
 90
        2
176
     1
 90
        1
176
     1
 90
        2
176
     1
 40
0.6
176
     1
 40
30.0
176
     1
 62
     7
420
 16777215
176
     1
 90
        1
176
     1
 90
       10
176
     1
 62
     7
176
     1
 62
   257
176
     1
 90
        2
176
     1
 90
        1
176
     1
 40
1.0
176
     1
 90
        8
176
     1
 62
   257
176
     1
 40
1.0
176
     1
 90
        1
176
     1
 90
        6
176
     1
 90
        2
176
     1
 62
     7
176
     1
 90
        3
176
     1
 90
        0
176
     1
 90
        0
176
     1
290
     0
176
     1
 90
        5
176
     1
 40
0.0
176
     1
 90
        0
176
     1
290
     0
176
     1
290
     1
176
     1
290
     1
176
     1
290
     0
176
     1
290
     0
176
     1
290
     0
176
     1
290
     0
176
     1
290
     0
176
     1
290
     0
176
     1
 90
       50
176
     1
 40
0.0
176
     1
 40
1.0
176
     1
 90
        0
176
     1
 62
    18
420
        0
176
     1
 90
       50
176
     1
 90
        3
176
     1
 62
     5
420
      255
176
     1
290
     0
176
     1
 90
       50
176
     1
 90
       50
176
     1
 90
       50
176
     1
290
     0
176
     1
 90
       50
176
     1
 62
   256
176
     0
 40
1.0
176
     0
 90
        2
176
     1
  1
strokes_ogs.tif
176
     1
290
     0
176
     1
 40
1.0
176
     1
 40
1.0
176
     1
  0
VISUALSTYLE
  5
3E
102
{ACAD_REACTORS
330
2A
102
}
330
2A
100
AcDbVisualStyle
  2
Shades of Gray
 70
    23
177
     3
291
     0
 70
    58
 90
        2
176
     1
 90
        2
176
     1
 90
        3
176
     1
 90
        0
176
     1
 40
0.6
176
     1
 40
30.0
176
     1
 62
     7
420
 16777215
176
     1
 90
        2
176
     1
 90
        2
176
     1
 62
     7
176
     1
 62
     7
176
     1
 90
        1
176
     1
 90
        1
176
     1
 40
40.0
176
     1
 90
        8
176
     1
 62
     7
176
     1
 40
1.0
176
     1
 90
        1
176
     1
 90
        6
176
     1
 90
        2
176
     1
 62
     7
176
     1
 90
        3
176
     1
 90
        0
176
     1
 90
        0
176
     1
290
     0
176
     1
 90
        1
176
     1
 40
0.0
176
     1
 90
        0
176
     1
290
     0
176
     1
290
     1
176
     1
290
     1
176
     1
290
     0
176
     1
290
     0
176
     1
290
     0
176
     1
290
     0
176
     1
290
     0
176
     1
290
     0
176
     1
 90
       50
176
     1
 40
0.0
176
     1
 40
1.0
176
     1
 90
        0
176
     1
 62
    18
420
        0
176
     1
 90
       50
176
     1
 90
        3
176
     1
 62
     5
420
      255
176
     1
290
     0
176
     1
 90
       50
176
     1
 90
       50
176
     1
 90
       50
176
     1
290
     0
176
     1
 90
       50
176
     1
 62
   256
176
     0
 40
1.0
176
     0
 90
        2
176
     1
  1
strokes_ogs.tif
176
     1
290
     0
176
     1
 40
1.0
176
     1
 40
1.0
176
     1
  0
VISUALSTYLE
  5
3F
102
{ACAD_REACTORS
330
2A
102
}
330
2A
100
AcDbVisualStyle
  2
Sketchy
 70
    24
177
     3
291
     0
 70
    58
 90
        1
176
     1
 90
        2
176
     1
 90
        2
176
     1
 90
        0
176
     1
 40
0.6
176
     1
 40
30.0
176
     1
 62
     7
420
 16777215
176
     1
 90
        2
176
     1
 90
        2
176
     1
 62
     7
176
     1
 62
     7
176
     1
 90
        1
176
     1
 90
        1
176
     1
 40
40.0
176
     1
 90
       11
176
     1
 62
     7
176
     1
 40
1.0
176
     1
 90
        1
176
     1
 90
        6
176
     1
 90
        2
176
     1
 62
     7
176
     1
 90
        6
176
     1
 90
        0
176
     1
 90
        0
176
     1
290
     0
176
     1
 90
        1
176
     1
 40
0.0
176
     1
 90
        0
176
     1
290
     0
176
     1
290
     1
176
     1
290
     1
176
     1
290
     0
176
     1
290
     0
176
     1
290
     0
176
     1
290
     0
176
     1
290
     0
176
     1
290
     0
176
     1
 90
       50
176
     1
 40
0.0
176
     1
 40
1.0
176
     1
 90
        0
176
     1
 62
    18
420
        0
176
     1
 90
       50
176
     1
 90
        3
176
     1
 62
     5
420
      255
176
     1
290
     0
176
     1
 90
       50
176
     1
 90
       50
176
     1
 90
       50
176
     1
290
     0
176
     1
 90
       50
176
     1
 62
   256
176
     0
 40
1.0
176
     0
 90
        2
176
     1
  1
strokes_ogs.tif
176
     1
290
     0
176
     1
 40
1.0
176
     1
 40
1.0
176
     1
  0
VISUALSTYLE
  5
37
102
{ACAD_REACTORS
330
2A
102
}
330
2A
100
AcDbVisualStyle
  2
Thicken
 70
    13
177
     3
291
     1
 70
    58
 90
        2
176
     1
 90
        2
176
     1
 90
        0
176
     1
 90
        0
176
     1
 40
0.6
176
     1
 40
30.0
176
     1
 62
     7
420
 16777215
176
     1
 90
        1
176
     1
 90
        4
176
     1
 62
     7
176
     1
 62
   257
176
     1
 90
        1
176
     1
 90
        1
176
     1
 40
1.0
176
     1
 90
       12
176
     1
 62
     7
176
     1
 40
1.0
176
     1
 90
        1
176
     1
 90
        6
176
     1
 90
        2
176
     1
 62
     7
176
     1
 90
        5
176
     1
 90
        0
176
     1
 90
        0
176
     1
290
     0
176
     1
 90
        1
176
     1
 40
0.0
176
     1
 90
        0
176
     1
290
     0
176
     1
290
     1
176
     1
290
     1
176
     1
290
     0
176
     1
290
     0
176
     1
290
     0
176
     1
290
     0
176
     1
290
     0
176
     1
290
     0
176
     1
 90
       50
176
     1
 40
0.0
176
     1
 40
1.0
176
     1
 90
        0
176
     1
 62
    18
420
        0
176
     1
 90
       50
176
     1
 90
        3
176
     1
 62
     5
420
      255
176
     1
290
     0
176
     1
 90
       50
176
     1
 90
       50
176
     1
 90
       50
176
     1
290
     0
176
     1
 90
       50
176
     1
 62
   256
176
     0
 40
1.0
176
     0
 90
        2
176
     1
  1
strokes_ogs.tif
176
     1
290
     0
176
     1
 40
1.0
176
     1
 40
1.0
176
     1
  0
VISUALSTYLE
  5
30
102
{ACAD_REACTORS
330
2A
102
}
330
2A
100
AcDbVisualStyle
  2
Wireframe
 70
     5
177
     3
291
     0
 70
    58
 90
        0
176
     1
 90
        2
176
     1
 90
        0
176
     1
 90
        0
176
     1
 40
0.6
176
     1
 40
30.0
176
     1
 62
     7
420
 16777215
176
     1
 90
        1
176
     1
 90
        4
176
     1
 62
     7
176
     1
 62
   257
176
     1
 90
        1
176
     1
 90
        1
176
     1
 40
1.0
176
     1
 90
        0
176
     1
 62
   257
176
     1
 40
1.0
176
     1
 90
        1
176
     1
 90
        6
176
     1
 90
        2
176
     1
 62
     7
176
     1
 90
        3
176
     1
 90
        0
176
     1
 90
        0
176
     1
290
     0
176
     1
 90
        1
176
     1
 40
0.0
176
     1
 90
        0
176
     1
290
     0
176
     1
290
     1
176
     1
290
     1
176
     1
290
     0
176
     1
290
     0
176
     1
290
     0
176
     1
290
     0
176
     1
290
     0
176
     1
290
     0
176
     1
 90
       50
176
     1
 40
0.0
176
     1
 40
1.0
176
     1
 90
        0
176
     1
 62
    18
420
        0
176
     1
 90
       50
176
     1
 90
        3
176
     1
 62
     5
420
      255
176
     1
290
     0
176
     1
 90
       50
176
     1
 90
       50
176
     1
 90
       50
176
     1
290
     0
176
     1
 90
       50
176
     1
 62
   256
176
     0
 40
1.0
176
     0
 90
        2
176
     1
  1
strokes_ogs.tif
176
     1
290
     0
176
     1
 40
1.0
176
     1
 40
1.0
176
     1
  0
VISUALSTYLE
  5
40
102
{ACAD_REACTORS
330
2A
102
}
330
2A
100
AcDbVisualStyle
  2
X-Ray
 70
    25
177
     3
291
     0
 70
    58
 90
        2
176
     1
 90
        2
176
     1
 90
        1
176
     1
 90
        1
176
     1
 40
0.5
176
     1
 40
30.0
176
     1
 62
     7
420
 16777215
176
     1
 90
        1
176
     1
 90
        0
176
     1
 62
     7
176
     1
 62
   257
176
     1
 90
        1
176
     1
 90
        1
176
     1
 40
1.0
176
     1
 90
        8
176
     1
 62
     7
176
     1
 40
1.0
176
     1
 90
        1
176
     1
 90
        6
176
     1
 90
        2
176
     1
 62
     7
176
     1
 90
        3
176
     1
 90
        0
176
     1
 90
        0
176
     1
290
     0
176
     1
 90
       13
176
     1
 40
0.0
176
     1
 90
        0
176
     1
290
     0
176
     1
290
     1
176
     1
290
     1
176
     1
290
     0
176
     1
290
     0
176
     1
290
     0
176
     1
290
     0
176
     1
290
     0
176
     1
290
     0
176
     1
 90
       50
176
     1
 40
0.0
176
     1
 40
1.0
176
     1
 90
        0
176
     1
 62
    18
420
        0
176
     1
 90
       50
176
     1
 90
        3
176
     1
 62
     5
420
      255
176
     1
290
     0
176
     1
 90
       50
176
     1
 90
       50
176
     1
 90
       50
176
     1
290
     0
176
     1
 90
       50
176
     1
 62
   256
176
     0
 40
1.0
176
     0
 90
        2
176
     1
  1
strokes_ogs.tif
176
     1
290
     0
176
     1
 40
1.0
176
     1
 40
1.0
176
     1
  0
DICTIONARYVAR
  5
101
102
{ACAD_REACTORS
330
100
102
}
330
100
100
DictionaryVariables
280
     0
  1
1:1
  0
DICTIONARYVAR
  5
106
102
{ACAD_REACTORS
330
100
102
}
330
100
100
DictionaryVariables
280
     0
  1
Standard
  0
DICTIONARYVAR
  5
105
102
{ACAD_REACTORS
330
100
102
}
330
100
100
DictionaryVariables
280
     0
  1
Standard
  0
DICTIONARY
  5
102
330
6A
100
AcDbDictionary
280
     1
281
     1
  3
ACAD_ROUNDTRIP_2008_TABLESTYLE_CELLSTYLEMAP
360
103
  0
CELLSTYLEMAP
  5
103
102
{ACAD_REACTORS
330
102
102
}
330
102
100
AcDbCellStyleMap
 90
        3
300
CELLSTYLE
  1
TABLEFORMAT_BEGIN
 90
        5
170
     1
 91
        0
 92
    32768
 62
   257
 93
        1
300
CONTENTFORMAT
  1
CONTENTFORMAT_BEGIN
 90
        0
 91
        0
 92
        4
 93
        0
300

 40
0.0
140
1.0
 94
        5
 62
     0
340
11
144
6.0
309
CONTENTFORMAT_END
171
     1
301
MARGIN
  1
CELLMARGIN_BEGIN
 40
1.5
 40
1.5
 40
1.5
 40
1.5
 40
1.5
 40
1.5
309
CELLMARGIN_END
 94
        6
 95
        1
302
GRIDFORMAT
  1
GRIDFORMAT_BEGIN
 90
        0
 91
        1
 62
     0
 92
       -2
340
14
 93
        0
 40
0.045
309
GRIDFORMAT_END
 95
        2
302
GRIDFORMAT
  1
GRIDFORMAT_BEGIN
 90
        0
 91
        1
 62
     0
 92
       -2
340
14
 93
        0
 40
0.045
309
GRIDFORMAT_END
 95
        4
302
GRIDFORMAT
  1
GRIDFORMAT_BEGIN
 90
        0
 91
        1
 62
     0
 92
       -2
340
14
 93
        0
 40
0.045
309
GRIDFORMAT_END
 95
        8
302
GRIDFORMAT
  1
GRIDFORMAT_BEGIN
 90
        0
 91
        1
 62
     0
 92
       -2
340
14
 93
        0
 40
0.045
309
GRIDFORMAT_END
 95
       16
302
GRIDFORMAT
  1
GRIDFORMAT_BEGIN
 90
        0
 91
        1
 62
     0
 92
       -2
340
14
 93
        0
 40
0.045
309
GRIDFORMAT_END
 95
       32
302
GRIDFORMAT
  1
GRIDFORMAT_BEGIN
 90
        0
 91
        1
 62
     0
 92
       -2
340
14
 93
        0
 40
0.045
309
GRIDFORMAT_END
309
TABLEFORMAT_END
  1
CELLSTYLE_BEGIN
 90
        1
 91
        1
300
_TITLE
309
CELLSTYLE_END
300
CELLSTYLE
  1
TABLEFORMAT_BEGIN
 90
        5
170
     1
 91
        0
 92
        0
 62
   257
 93
        1
300
CONTENTFORMAT
  1
CONTENTFORMAT_BEGIN
 90
        0
 91
        0
 92
        4
 93
        0
300

 40
0.0
140
1.0
 94
        5
 62
     0
340
11
144
4.5
309
CONTENTFORMAT_END
171
     1
301
MARGIN
  1
CELLMARGIN_BEGIN
 40
1.5
 40
1.5
 40
1.5
 40
1.5
 40
1.5
 40
1.5
309
CELLMARGIN_END
 94
        6
 95
        1
302
GRIDFORMAT
  1
GRIDFORMAT_BEGIN
 90
        0
 91
        1
 62
     0
 92
       -2
340
14
 93
        0
 40
0.045
309
GRIDFORMAT_END
 95
        2
302
GRIDFORMAT
  1
GRIDFORMAT_BEGIN
 90
        0
 91
        1
 62
     0
 92
       -2
340
14
 93
        0
 40
0.045
309
GRIDFORMAT_END
 95
        4
302
GRIDFORMAT
  1
GRIDFORMAT_BEGIN
 90
        0
 91
        1
 62
     0
 92
       -2
340
14
 93
        0
 40
0.045
309
GRIDFORMAT_END
 95
        8
302
GRIDFORMAT
  1
GRIDFORMAT_BEGIN
 90
        0
 91
        1
 62
     0
 92
       -2
340
14
 93
        0
 40
0.045
309
GRIDFORMAT_END
 95
       16
302
GRIDFORMAT
  1
GRIDFORMAT_BEGIN
 90
        0
 91
        1
 62
     0
 92
       -2
340
14
 93
        0
 40
0.045
309
GRIDFORMAT_END
 95
       32
302
GRIDFORMAT
  1
GRIDFORMAT_BEGIN
 90
        0
 91
        1
 62
     0
 92
       -2
340
14
 93
        0
 40
0.045
309
GRIDFORMAT_END
309
TABLEFORMAT_END
  1
CELLSTYLE_BEGIN
 90
        2
 91
        1
300
_HEADER
309
CELLSTYLE_END
300
CELLSTYLE
  1
TABLEFORMAT_BEGIN
 90
        5
170
     1
 91
        0
 92
        0
 62
   257
 93
        1
300
CONTENTFORMAT
  1
CONTENTFORMAT_BEGIN
 90
        0
 91
        0
 92
        4
 93
        0
300

 40
0.0
140
1.0
 94
        2
 62
     0
340
11
144
4.5
309
CONTENTFORMAT_END
171
     1
301
MARGIN
  1
CELLMARGIN_BEGIN
 40
1.5
 40
1.5
 40
1.5
 40
1.5
 40
1.5
 40
1.5
309
CELLMARGIN_END
 94
        6
 95
        1
302
GRIDFORMAT
  1
GRIDFORMAT_BEGIN
 90
        0
 91
        1
 62
     0
 92
       -2
340
14
 93
        0
 40
0.045
309
GRIDFORMAT_END
 95
        2
302
GRIDFORMAT
  1
GRIDFORMAT_BEGIN
 90
        0
 91
        1
 62
     0
 92
       -2
340
14
 93
        0
 40
0.045
309
GRIDFORMAT_END
 95
        4
302
GRIDFORMAT
  1
GRIDFORMAT_BEGIN
 90
        0
 91
        1
 62
     0
 92
       -2
340
14
 93
        0
 40
0.045
309
GRIDFORMAT_END
 95
        8
302
GRIDFORMAT
  1
GRIDFORMAT_BEGIN
 90
        0
 91
        1
 62
     0
 92
       -2
340
14
 93
        0
 40
0.045
309
GRIDFORMAT_END
 95
       16
302
GRIDFORMAT
  1
GRIDFORMAT_BEGIN
 90
        0
 91
        1
 62
     0
 92
       -2
340
14
 93
        0
 40
0.045
309
GRIDFORMAT_END
 95
       32
302
GRIDFORMAT
  1
GRIDFORMAT_BEGIN
 90
        0
 91
        1
 62
     0
 92
       -2
340
14
 93
        0
 40
0.045
309
GRIDFORMAT_END
309
TABLEFORMAT_END
  1
CELLSTYLE_BEGIN
 90
        3
 91
        2
300
_DATA
309
CELLSTYLE_END
  0
ENDSEC
  0
EOF
