  0
SECTION
  2
HEADER
  9
$ACADVER
  1
AC1027
  9
$ACADMAINTVER
 70
   105
  9
$DWGCODEPAGE
  3
ANSI_1252
  9
$REQUIREDVERSIONS
160
                 0
  9
$INSBASE
 10
0.0
 20
0.0
 30
0.0
  9
$EXTMIN
 10
-400.0
 20
-200.0
 30
0.0
  9
$EXTMAX
 10
400.0
 20
200.0
 30
0.0
  9
$LIMMIN
 10
0.0
 20
0.0
  9
$LIMMAX
 10
420.0
 20
297.0
  9
$ORTHOMODE
 70
     0
  9
$REGENMODE
 70
     1
  9
$FILLMODE
 70
     1
  9
$QTEXTMODE
 70
     0
  9
$MIRRTEXT
 70
     1
  9
$LTSCALE
 40
1.0
  9
$ATTMODE
 70
     1
  9
$TEXTSIZE
 40
3.5
  9
$TRACEWID
 40
1.0
  9
$TEXTSTYLE
  7
STANDARD
  9
$CLAYER
  8
0
  9
$CELTYPE
  6
ByLayer
  9
$CECOLOR
 62
   256
  9
$CELTSCALE
 40
1.0
  9
$DISPSILH
 70
     0
  9
$DIMSCALE
 40
1.0
  9
$DIMASZ
 40
6.0
  9
$DIMEXO
 40
1.0
  9
$DIMDLI
 40
3.75
  9
$DIMRND
 40
0.0
  9
$DIMDLE
 40
0.0
  9
$DIMEXE
 40
1.0
  9
$DIMTP
 40
0.0
  9
$DIMTM
 40
0.0
  9
$DIMTXT
 40
3.5
  9
$DIMCEN
 40
2.5
  9
$DIMTSZ
 40
0.0
  9
$DIMTOL
 70
     0
  9
$DIMLIM
 70
     0
  9
$DIMTIH
 70
     1
  9
$DIMTOH
 70
     1
  9
$DIMSE1
 70
     0
  9
$DIMSE2
 70
     0
  9
$DIMTAD
 70
     1
  9
$DIMZIN
 70
     0
  9
$DIMBLK
  1

  9
$DIMASO
 70
     1
  9
$DIMSHO
 70
     1
  9
$DIMPOST
  1

  9
$DIMAPOST
  1

  9
$DIMALT
 70
     0
  9
$DIMALTD
 70
     3
  9
$DIMALTF
 40
0.0393700787
  9
$DIMLFAC
 40
1.0
  9
$DIMTOFL
 70
     1
  9
$DIMTVP
 40
0.0
  9
$DIMTIX
 70
     0
  9
$DIMSOXD
 70
     0
  9
$DIMSAH
 70
     0
  9
$DIMBLK1
  1

  9
$DIMBLK2
  1

  9
$DIMSTYLE
  2
ISO-25
  9
$DIMCLRD
 70
     0
  9
$DIMCLRE
 70
     0
  9
$DIMCLRT
 70
     0
  9
$DIMTFAC
 40
1.0
  9
$DIMGAP
 40
1.524
  9
$DIMJUST
 70
     0
  9
$DIMSD1
 70
     0
  9
$DIMSD2
 70
     0
  9
$DIMTOLJ
 70
     0
  9
$DIMTZIN
 70
     0
  9
$DIMALTZ
 70
     0
  9
$DIMALTTZ
 70
     0
  9
$DIMUPT
 70
     0
  9
$DIMDEC
 70
     2
  9
$DIMTDEC
 70
     2
  9
$DIMALTU
 70
     2
  9
$DIMALTTD
 70
     3
  9
$DIMTXSTY
  7
STANDARD
  9
$DIMAUNIT
 70
     0
  9
$DIMADEC
 70
     2
  9
$DIMALTRND
 40
0.0
  9
$DIMAZIN
 70
     0
  9
$DIMDSEP
 70
    44
  9
$DIMATFIT
 70
     3
  9
$DIMFRAC
 70
     0
  9
$DIMLDRBLK
  1

  9
$DIMLUNIT
 70
     2
  9
$DIMLWD
 70
    -2
  9
$DIMLWE
 70
    -2
  9
$DIMTMOVE
 70
     0
  9
$DIMFXL
 40
1.0
  9
$DIMFXLON
 70
     0
  9
$DIMJOGANG
 40
0.7853981634
  9
$DIMTFILL
 70
     0
  9
$DIMTFILLCLR
 70
     0
  9
$DIMARCSYM
 70
     0
  9
$DIMLTYPE
  6

  9
$DIMLTEX1
  6

  9
$DIMLTEX2
  6

  9
$DIMTXTDIRECTION
 70
     0
  9
$LUNITS
 70
     2
  9
$LUPREC
 70
     2
  9
$SKETCHINC
 40
1.0
  9
$FILLETRAD
 40
10.0
  9
$AUNITS
 70
     0
  9
$AUPREC
 70
     2
  9
$MENU
  1
.
  9
$ELEVATION
 40
0.0
  9
$PELEVATION
 40
0.0
  9
$THICKNESS
 40
0.0
  9
$LIMCHECK
 70
     0
  9
$CHAMFERA
 40
0.0
  9
$CHAMFERB
 40
0.0
  9
$CHAMFERC
 40
0.0
  9
$CHAMFERD
 40
0.0
  9
$SKPOLY
 70
     0
  9
$TDCREATE
 40
2458299.436697349
  9
$TDUCREATE
 40
2458299.353364016
  9
$TDUPDATE
 40
2458299.436725
  9
$TDUUPDATE
 40
2458299.353391667
  9
$TDINDWG
 40
0.0000000116
  9
$TDUSRTIMER
 40
0.0000000116
  9
$USRTIMER
 70
     1
  9
$ANGBASE
 50
0.0
  9
$ANGDIR
 70
     0
  9
$PDMODE
 70
     0
  9
$PDSIZE
 40
-1.0
  9
$PLINEWID
 40
0.0
  9
$SPLFRAME
 70
     0
  9
$SPLINETYPE
 70
     6
  9
$SPLINESEGS
 70
     8
  9
$HANDSEED
  5
151
  9
$SURFTAB1
 70
     6
  9
$SURFTAB2
 70
     6
  9
$SURFTYPE
 70
     6
  9
$SURFU
 70
     6
  9
$SURFV
 70
     6
  9
$UCSBASE
  2

  9
$UCSNAME
  2

  9
$UCSORG
 10
0.0
 20
0.0
 30
0.0
  9
$UCSXDIR
 10
1.0
 20
0.0
 30
0.0
  9
$UCSYDIR
 10
0.0
 20
1.0
 30
0.0
  9
$UCSORTHOREF
  2

  9
$UCSORTHOVIEW
 70
     0
  9
$UCSORGTOP
 10
0.0
 20
0.0
 30
0.0
  9
$UCSORGBOTTOM
 10
0.0
 20
0.0
 30
0.0
  9
$UCSORGLEFT
 10
0.0
 20
0.0
 30
0.0
  9
$UCSORGRIGHT
 10
0.0
 20
0.0
 30
0.0
  9
$UCSORGFRONT
 10
0.0
 20
0.0
 30
0.0
  9
$UCSORGBACK
 10
0.0
 20
0.0
 30
0.0
  9
$PUCSBASE
  2

  9
$PUCSNAME
  2

  9
$PUCSORG
 10
0.0
 20
0.0
 30
0.0
  9
$PUCSXDIR
 10
1.0
 20
0.0
 30
0.0
  9
$PUCSYDIR
 10
0.0
 20
1.0
 30
0.0
  9
$PUCSORTHOREF
  2

  9
$PUCSORTHOVIEW
 70
     0
  9
$PUCSORGTOP
 10
0.0
 20
0.0
 30
0.0
  9
$PUCSORGBOTTOM
 10
0.0
 20
0.0
 30
0.0
  9
$PUCSORGLEFT
 10
0.0
 20
0.0
 30
0.0
  9
$PUCSORGRIGHT
 10
0.0
 20
0.0
 30
0.0
  9
$PUCSORGFRONT
 10
0.0
 20
0.0
 30
0.0
  9
$PUCSORGBACK
 10
0.0
 20
0.0
 30
0.0
  9
$USERI1
 70
     0
  9
$USERI2
 70
     0
  9
$USERI3
 70
     0
  9
$USERI4
 70
     0
  9
$USERI5
 70
     0
  9
$USERR1
 40
0.0
  9
$USERR2
 40
0.0
  9
$USERR3
 40
0.0
  9
$USERR4
 40
0.0
  9
$USERR5
 40
0.0
  9
$WORLDVIEW
 70
     1
  9
$SHADEDGE
 70
     3
  9
$SHADEDIF
 70
    70
  9
$TILEMODE
 70
     1
  9
$MAXACTVP
 70
    64
  9
$PINSBASE
 10
0.0
 20
0.0
 30
0.0
  9
$PLIMCHECK
 70
     0
  9
$PEXTMIN
 10
-400.0
 20
-26.0
 30
0.0
  9
$PEXTMAX
 10
400.0
 20
120.0
 30
0.0
  9
$PLIMMIN
 10
-462.2568093385
 20
-49.3463035019
  9
$PLIMMAX
 10
462.2568093385
 20
604.3501945525
  9
$UNITMODE
 70
     0
  9
$VISRETAIN
 70
     1
  9
$PLINEGEN
 70
     0
  9
$PSLTSCALE
 70
     1
  9
$TREEDEPTH
 70
  3020
  9
$CMLSTYLE
  2
Standard
  9
$CMLJUST
 70
     0
  9
$CMLSCALE
 40
20.0
  9
$PROXYGRAPHICS
 70
     1
  9
$MEASUREMENT
 70
     1
  9
$CELWEIGHT
370
    -1
  9
$ENDCAPS
280
     0
  9
$JOINSTYLE
280
     0
  9
$LWDISPLAY
290
     1
  9
$INSUNITS
 70
     4
  9
$HYPERLINKBASE
  1

  9
$STYLESHEET
  1

  9
$XEDIT
290
     1
  9
$CEPSNTYPE
380
     0
  9
$PSTYLEMODE
290
     1
  9
$FINGERPRINTGUID
  2
{683FC0E6-B72F-4132-8EEF-8519D13E0C22}
  9
$VERSIONGUID
  2
{FAEB1C32-E019-11D5-929B-00C0DF256EC4}
  9
$EXTNAMES
290
     1
  9
$PSVPSCALE
 40
0.0
  9
$OLESTARTUP
290
     0
  9
$SORTENTS
280
   127
  9
$INDEXCTL
280
     0
  9
$HIDETEXT
280
     1
  9
$XCLIPFRAME
280
     2
  9
$HALOGAP
280
     0
  9
$OBSCOLOR
 70
   257
  9
$OBSLTYPE
280
     0
  9
$INTERSECTIONDISPLAY
280
     0
  9
$INTERSECTIONCOLOR
 70
   257
  9
$DIMASSOC
280
     2
  9
$PROJECTNAME
  1

  9
$CAMERADISPLAY
290
     0
  9
$LENSLENGTH
 40
50.0
  9
$CAMERAHEIGHT
 40
0.0
  9
$STEPSPERSEC
 40
2.0
  9
$STEPSIZE
 40
6.0
  9
$3DDWFPREC
 40
2.0
  9
$PSOLWIDTH
 40
5.0
  9
$PSOLHEIGHT
 40
80.0
  9
$LOFTANG1
 40
1.5707963268
  9
$LOFTANG2
 40
1.5707963268
  9
$LOFTMAG1
 40
0.0
  9
$LOFTMAG2
 40
0.0
  9
$LOFTPARAM
 70
     7
  9
$LOFTNORMALS
280
     1
  9
$LATITUDE
 40
37.795
  9
$LONGITUDE
 40
-122.394
  9
$NORTHDIRECTION
 40
0.0
  9
$TIMEZONE
 70
 -8000
  9
$LIGHTGLYPHDISPLAY
280
     1
  9
$TILEMODELIGHTSYNCH
280
     1
  9
$CMATERIAL
347
44
  9
$SOLIDHIST
280
     0
  9
$SHOWHIST
280
     1
  9
$DWFFRAME
280
     2
  9
$DGNFRAME
280
     2
  9
$REALWORLDSCALE
290
     1
  9
$INTERFERECOLOR
 62
   256
  9
$CSHADOW
280
     0
  9
$SHADOWPLANELOCATION
 40
0.0
  0
ENDSEC
  0
SECTION
  2
CLASSES
  0
CLASS
  1
ACDBDICTIONARYWDFLT
  2
AcDbDictionaryWithDefault
  3
ObjectDBX Classes
 90
        0
 91
        4
280
     0
281
     0
  0
CLASS
  1
VISUALSTYLE
  2
AcDbVisualStyle
  3
ObjectDBX Classes
 90
     4095
 91
        4
280
     0
281
     0
  0
CLASS
  1
MATERIAL
  2
AcDbMaterial
  3
ObjectDBX Classes
 90
     1153
 91
        4
280
     0
281
     0
  0
CLASS
  1
SCALE
  2
AcDbScale
  3
ObjectDBX Classes
 90
     1153
 91
        4
280
     0
281
     0
  0
CLASS
  1
TABLESTYLE
  2
AcDbTableStyle
  3
ObjectDBX Classes
 90
     4095
 91
        4
280
     0
281
     0
  0
CLASS
  1
MLEADERSTYLE
  2
AcDbMLeaderStyle
  3
ACDB_MLEADERSTYLE_CLASS
 90
     4095
 91
        4
280
     0
281
     0
  0
CLASS
  1
SUN
  2
AcDbSun
  3
SCENEOE
 90
     1153
 91
        4
280
     0
281
     0
  0
CLASS
  1
DICTIONARYVAR
  2
AcDbDictionaryVar
  3
ObjectDBX Classes
 90
        0
 91
        4
280
     0
281
     0
  0
CLASS
  1
CELLSTYLEMAP
  2
AcDbCellStyleMap
  3
ObjectDBX Classes
 90
     1152
 91
        4
280
     0
281
     0
  0
ENDSEC
  0
SECTION
  2
TABLES
  0
TABLE
  2
VPORT
  5
8
330
0
100
AcDbSymbolTable
 70
     1
  0
VPORT
  5
29
330
8
100
AcDbSymbolTableRecord
100
AcDbViewportTableRecord
  2
*Active
 70
     0
 10
0.0
 20
0.0
 11
1.0
 21
1.0
 12
0.0
 22
0.0
 13
0.0
 23
0.0
 14
10.0
 24
10.0
 15
10.0
 25
10.0
 16
0.0
 26
0.0
 36
1.0
 17
0.0
 27
0.0
 37
0.0
 40
408.0
 41
2.0
 42
50.0
 43
0.0
 44
0.0
 50
0.0
 51
0.0
 71
     0
 72
   100
 73
     1
 74
     3
 75
     0
 76
     0
 77
     0
 78
     0
281
     0
 65
     1
110
0.0
120
0.0
130
0.0
111
1.0
121
0.0
131
0.0
112
0.0
122
1.0
132
0.0
 79
     0
146
0.0
348
2F
 60
     3
 61
     5
292
     1
282
     1
141
0.0
142
0.0
 63
   250
361
6D
  0
ENDTAB
  0
TABLE
  2
LTYPE
  5
5
330
0
100
AcDbSymbolTable
 70
     6
  0
LTYPE
  5
14
330
5
100
AcDbSymbolTableRecord
100
AcDbLinetypeTableRecord
  2
ByBlock
 70
     0
  3

 72
    65
 73
     0
 40
0.0
  0
LTYPE
  5
15
330
5
100
AcDbSymbolTableRecord
100
AcDbLinetypeTableRecord
  2
ByLayer
 70
     0
  3

 72
    65
 73
     0
 40
0.0
  0
LTYPE
  5
16
330
5
100
AcDbSymbolTableRecord
100
AcDbLinetypeTableRecord
  2
Continuous
 70
     0
  3
Solid line
 72
    65
 73
     0
 40
0.0
  0
LTYPE
  5
6E
330
5
100
AcDbSymbolTableRecord
100
AcDbLinetypeTableRecord
  2
HIDDEN
 70
     0
  3
Hidden __ __ __ __ __ __ __ __ __ __ __ __ __ __
 72
    65
 73
     2
 40
1.905
 49
1.27
 74
     0
 49
-0.635
 74
     0
  0
LTYPE
  5
6F
330
5
100
AcDbSymbolTableRecord
100
AcDbLinetypeTableRecord
  2
PHANTOM
 70
     0
  3
Phantom ______  __  __  ______  __  __  ______
 72
    65
 73
     6
 40
12.7
 49
6.35
 74
     0
 49
-1.27
 74
     0
 49
1.27
 74
     0
 49
-1.27
 74
     0
 49
1.27
 74
     0
 49
-1.27
 74
     0
  0
LTYPE
  5
70
330
5
100
AcDbSymbolTableRecord
100
AcDbLinetypeTableRecord
  2
CENTER
 70
     0
  3
Center ____ _ ____ _ ____ _ ____ _ ____ _ ____
 72
    65
 73
     4
 40
10.16
 49
6.35
 74
     0
 49
-1.27
 74
     0
 49
1.27
 74
     0
 49
-1.27
 74
     0
  0
LTYPE
  5
71
330
5
100
AcDbSymbolTableRecord
100
AcDbLinetypeTableRecord
  2
CENTERX2
 70
     0
  3
Center (2x) ________  __  ________  __  _____
 72
    65
 73
     4
 40
20.32
 49
12.7
 74
     0
 49
-2.54
 74
     0
 49
2.54
 74
     0
 49
-2.54
 74
     0
  0
LTYPE
  5
72
330
5
100
AcDbSymbolTableRecord
100
AcDbLinetypeTableRecord
  2
DOT2
 70
     0
  3
Dot (.5x) ........................................
 72
    65
 73
     2
 40
0.635
 49
0.0
 74
     0
 49
-0.635
 74
     0
  0
ENDTAB
  0
TABLE
  2
LAYER
  5
2
330
0
100
AcDbSymbolTable
 70
     1
  0
LAYER
  5
10
330
2
100
AcDbSymbolTableRecord
100
AcDbLayerTableRecord
  2
0
 70
     0
 62
     7
  6
Continuous
370
    -3
390
F
347
46
348
0
  0
ENDTAB
  0
TABLE
  2
STYLE
  5
3
330
0
100
AcDbSymbolTable
 70
     1
  0
STYLE
  5
11
330
3
100
AcDbSymbolTableRecord
100
AcDbTextStyleTableRecord
  2
STANDARD
 70
     0
 40
0.0
 41
1.0
 50
0.0
 71
     0
 42
3.5
  3
GOTHIC.TTF
  4

1001
ACAD
1000
CENTURY GOTHIC
1071
       34
  0
ENDTAB
  0
TABLE
  2
VIEW
  5
6
330
0
100
AcDbSymbolTable
 70
     0
  0
ENDTAB
  0
TABLE
  2
UCS
  5
7
330
0
100
AcDbSymbolTable
 70
     0
  0
ENDTAB
  0
TABLE
  2
APPID
  5
9
330
0
100
AcDbSymbolTable
 70
     1
  0
APPID
  5
12
330
9
100
AcDbSymbolTableRecord
100
AcDbRegAppTableRecord
  2
ACAD
 70
     0
  0
ENDTAB
  0
TABLE
  2
DIMSTYLE
  5
A
330
0
100
AcDbSymbolTable
 70
     1
100
AcDbDimStyleTable
  0
DIMSTYLE
105
27
330
A
100
AcDbSymbolTableRecord
100
AcDbDimStyleTableRecord
  2
ISO-25
 70
     0
 41
2.5
 42
0.625
 43
3.75
 44
1.25
 73
     0
 74
     0
 77
     1
 78
     8
140
2.5
141
2.5
143
0.0393700787
147
0.625
171
     3
172
     1
178
     0
271
     2
272
     2
274
     3
278
    44
283
     0
284
     8
340
11
  0
ENDTAB
  0
TABLE
  2
BLOCK_RECORD
  5
1
330
0
100
AcDbSymbolTable
 70
     8
  0
BLOCK_RECORD
  5
1F
330
1
100
AcDbSymbolTableRecord
100
AcDbBlockTableRecord
  2
*Model_Space
340
22
 70
     0
280
     1
281
     0
  0
BLOCK_RECORD
  5
1B
330
1
100
AcDbSymbolTableRecord
100
AcDbBlockTableRecord
  2
*Paper_Space
340
1E
 70
     0
280
     1
281
     0
  0
BLOCK_RECORD
  5
23
330
1
100
AcDbSymbolTableRecord
100
AcDbBlockTableRecord
  2
*Paper_Space0
340
26
 70
     0
280
     1
281
     0
  0
BLOCK_RECORD
  5
9C
330
1
100
AcDbSymbolTableRecord
100
AcDbBlockTableRecord
  2
*Paper_Space1
340
9D
 70
     0
280
     1
281
     0
  0
BLOCK_RECORD
  5
AD
330
1
100
AcDbSymbolTableRecord
100
AcDbBlockTableRecord
  2
*Paper_Space2
340
AE
 70
     0
280
     1
281
     0
  0
BLOCK_RECORD
  5
C2
330
1
100
AcDbSymbolTableRecord
100
AcDbBlockTableRecord
  2
*Paper_Space3
340
C3
 70
     0
280
     1
281
     0
  0
BLOCK_RECORD
  5
D4
330
1
100
AcDbSymbolTableRecord
100
AcDbBlockTableRecord
  2
*Paper_Space4
340
D5
 70
     0
280
     1
281
     0
  0
BLOCK_RECORD
  5
EE
330
1
100
AcDbSymbolTableRecord
100
AcDbBlockTableRecord
  2
*Paper_Space5
340
EF
 70
     0
280
     1
281
     0
  0
BLOCK_RECORD
  5
104
330
1
100
AcDbSymbolTableRecord
100
AcDbBlockTableRecord
  2
*Paper_Space6
340
105
 70
     0
280
     1
281
     0
  0
BLOCK_RECORD
  5
122
330
1
100
AcDbSymbolTableRecord
100
AcDbBlockTableRecord
  2
*Paper_Space7
340
123
 70
     0
280
     1
281
     0
  0
ENDTAB
  0
ENDSEC
  0
SECTION
  2
BLOCKS
  0
BLOCK
  5
20
330
1F
100
AcDbEntity
  8
0
100
AcDbBlockBegin
  2
*Model_Space
 70
     0
 10
0.0
 20
0.0
 30
0.0
  3
*Model_Space
  1

  0
ENDBLK
  5
21
330
1F
100
AcDbEntity
  8
0
100
AcDbBlockEnd
  0
BLOCK
  5
1C
330
1B
100
AcDbEntity
 67
     1
  8
0
100
AcDbBlockBegin
  2
*Paper_Space
 70
     0
 10
0.0
 20
0.0
 30
0.0
  3
*Paper_Space
  1

  0
ENDBLK
  5
1D
330
1B
100
AcDbEntity
 67
     1
  8
0
100
AcDbBlockEnd
  0
BLOCK
  5
24
330
23
100
AcDbEntity
  8
0
100
AcDbBlockBegin
  2
*Paper_Space0
 70
     0
 10
0.0
 20
0.0
 30
0.0
  3
*Paper_Space0
  1

  0
SPLINE
  5
8E
330
23
100
AcDbEntity
  8
0
  6
Continuous
 62
     7
370
    25
100
AcDbSpline
210
0.0
220
0.0
230
1.0
 70
     8
 71
     3
 72
    95
 73
    91
 74
     0
 42
0.000000001
 43
0.00000001
 40
0.0
 40
0.0
 40
0.0
 40
0.0
 40
0.0098882778359472
 40
0.0181636666683709
 40
0.0249932840363264
 40
0.0328934068289635
 40
0.0359780126593941
 40
0.038644550911567
 40
0.041129211884281
 40
0.0436744525065498
 40
0.0497675092188559
 40
0.0551876556160229
 40
0.0620840278788729
 40
0.0701475501454652
 40
0.0847992232625971
 40
0.0971507841992276
 40
0.1073435145721206
 40
0.1154796381543389
 40
0.1216511774998626
 40
0.1259554021129285
 40
0.1284662350033575
 40
0.1325345201139539
 40
0.1384189728010783
 40
0.1460458150310989
 40
0.1553008398653407
 40
0.1660319189274116
 40
0.1780846556903602
 40
0.1913525651012571
 40
0.2055911464943329
 40
0.2196661948007009
 40
0.2335439955316466
 40
0.2472586829538658
 40
0.2742514314007274
 40
0.3007559908068903
 40
0.3268858612026934
 40
0.3527531140765628
 40
0.3775639258514136
 40
0.3995941076956481
 40
0.4127405904603351
 40
0.4246430554243135
 40
0.4352603005368418
 40
0.4445544683491835
 40
0.4530856069377284
 40
0.4628061299784805
 40
0.4711451776633183
 40
0.4805161301581638
 40
0.4910171589022882
 40
0.5027347902654854
 40
0.5157443245041875
 40
0.5300966077854726
 40
0.544728604864671
 40
0.5579350139005905
 40
0.5731979345541139
 40
0.5856714593287742
 40
0.5953077832948249
 40
0.6008607054656128
 40
0.6050857453814755
 40
0.6067378775358357
 40
0.608336344562482
 40
0.6101390302094452
 40
0.6123226485368501
 40
0.6181793535085484
 40
0.6254884906922695
 40
0.6334167141297509
 40
0.6420734345270735
 40
0.6549022003557037
 40
0.6687653797620838
 40
0.6828572551751548
 40
0.7035422927255126
 40
0.7229391134610167
 40
0.7423927630057875
 40
0.7630722284263735
 40
0.7877533710603549
 40
0.8140211476884175
 40
0.8407295240358372
 40
0.8672334563452413
 40
0.8810334940641438
 40
0.8947757295654909
 40
0.9084596044696917
 40
0.9220845759229762
 40
0.9349420542861706
 40
0.9464183900009522
 40
0.9550892839562035
 40
0.9626641773081507
 40
0.969103065362664
 40
0.9746945962120478
 40
0.9803779225229857
 40
0.986384294632507
 40
0.9928604244671299
 40
1.0
 40
1.0
 40
1.0
 40
1.0
 10
-99.5510366874772
 20
5.34648553119943
 30
0.0
 10
-98.45244974909308
 20
4.814159378411599
 30
0.0
 10
-96.4344677216773
 20
3.836335437932874
 30
0.0
 10
-93.53873412302801
 20
2.660713621956558
 30
0.0
 10
-90.78245724372114
 20
1.676496206448733
 30
0.0
 10
-88.52934454206923
 20
0.998040764336322
 30
0.0
 10
-86.72325771538674
 20
0.5556930804889587
 30
0.0
 10
-85.62957181703172
 20
0.3256051328901707
 30
0.0
 10
-84.66659558148007
 20
0.1662652166569759
 30
0.0
 10
-83.48463998650402
 20
0.0254479149731437
 30
0.0
 10
-82.50359924596383
 20
-0.004652223424037
 30
0.0
 10
-81.69304711924373
 20
0.0015417119801631
 30
0.0
 10
-81.05635407840947
 20
-0.0005303488987557
 30
0.0
 10
-80.32877254291515
 20
0.0002935395633438
 30
0.0
 10
-79.0651302710122
 20
-0.0000812661073227
 30
0.0
 10
-77.29293486648747
 20
0.0000164269089303
 30
0.0
 10
-75.47174613038182
 20
-0.000003174037394
 30
0.0
 10
-73.75245047713531
 20
0.000000572105488
 30
0.0
 10
-72.24463607420847
 20
-0.0000000919403581
 30
0.0
 10
-71.03489919012318
 20
0.0000000110834258
 30
0.0
 10
-69.83875515733622
 20
-0.0000000039082348
 30
0.0
 10
-68.70626815285418
 20
0.000000001856626
 30
0.0
 10
-67.08456068108573
 20
-0.0000000007556109
 30
0.0
 10
-64.95561845199032
 20
0.000000000276501
 30
0.0
 10
-62.23616198308632
 20
-0.0000000000934669
 30
0.0
 10
-58.87810598003381
 20
0.0000000000305866
 30
0.0
 10
-54.82314844507732
 20
-0.0000000000090969
 30
0.0
 10
-50.04866623630761
 20
0.000000000003178
 30
0.0
 10
-44.7114864575196
 20
-0.0000000000004441
 30
0.0
 10
-39.03460818714426
 20
0.0000000000005343
 30
0.0
 10
-33.41049661965351
 20
0.0000000000002845
 30
0.0
 10
-26.03003431741315
 20
0.0000000000003678
 30
0.0
 10
-16.91798333656019
 20
0.0000000000003331
 30
0.0
 10
-6.10231119559002
 20
0.0000000000004094
 30
0.0
 10
4.562592552435856
 20
0.0000000000002359
 30
0.0
 10
14.97792403692339
 20
0.0000000000009298
 30
0.0
 10
24.80757348394852
 20
-0.0000000000014155
 30
0.0
 10
32.91998772476329
 20
0.0000000000053499
 30
0.0
 10
39.30035734809782
 20
-0.0000000000096589
 30
0.0
 10
44.1335584726945
 20
0.0000000000329667
 30
0.0
 10
48.39268241859663
 20
-0.0000000001015507
 30
0.0
 10
52.17108949901393
 20
0.0000000003184467
 30
0.0
 10
55.83927680549652
 20
-0.0000000011467147
 30
0.0
 10
59.11743636391791
 20
0.0000000046664478
 30
0.0
 10
62.21405344386089
 20
-0.0000000153832433
 30
0.0
 10
65.1096491356958
 20
0.0000000691034591
 30
0.0
 10
68.00478537639023
 20
-0.0000003060850323
 30
0.0
 10
70.820910972796
 20
0.0000013455835196
 30
0.0
 10
73.47041348402215
 20
-0.0000058659719443
 30
0.0
 10
75.78086504141068
 20
0.0000245266249255
 30
0.0
 10
77.6557392044295
 20
-0.0000893410332242
 30
0.0
 10
79.34124405488588
 20
0.0003165977834063
 30
0.0
 10
80.70485040212542
 20
-0.0012842400991045
 30
0.0
 10
81.82698766609344
 20
0.0034542937588783
 30
0.0
 10
82.66616001095083
 20
-0.0080312485918471
 30
0.0
 10
83.42300035503189
 20
0.0372372055796044
 30
0.0
 10
83.96542361687172
 20
0.0992837594155291
 30
0.0
 10
84.72659508243292
 20
0.2122692119089775
 30
0.0
 10
85.39232281530455
 20
0.3270771560133778
 30
0.0
 10
86.14569564125222
 20
0.4754713265862978
 30
0.0
 10
87.398742619741
 20
0.7527447348625732
 30
0.0
 10
89.12896173008767
 20
1.206290498058565
 30
0.0
 10
91.41738443389032
 20
1.917380162293127
 30
0.0
 10
94.07663348596209
 20
2.884963151791979
 30
0.0
 10
97.33785598035902
 20
4.252476484079281
 30
0.0
 10
101.2261981379813
 20
6.161343534335388
 30
0.0
 10
105.6077519682544
 20
8.743913193062273
 30
0.0
 10
110.6038820011512
 20
12.30981449803407
 30
0.0
 10
115.6856080923303
 20
16.95268730658191
 30
0.0
 10
120.3728414463742
 20
22.76778673862129
 30
0.0
 10
124.220176331068
 20
29.20070541468387
 30
0.0
 10
128.5635257851025
 20
36.09035118414567
 30
0.0
 10
133.3172661254617
 20
43.73659158959097
 30
0.0
 10
138.4846871642437
 20
52.00847723323484
 30
0.0
 10
143.7765014594048
 20
60.48655744674478
 30
0.0
 10
148.2487932767939
 20
67.64716093311023
 30
0.0
 10
151.8601624170828
 20
73.43172193274147
 30
0.0
 10
154.6200490473505
 20
77.84616863434988
 30
0.0
 10
157.362952639742
 20
82.25696765998083
 30
0.0
 10
160.079684811839
 20
86.54047832647252
 30
0.0
 10
162.5470260734314
 20
90.72099468516657
 30
0.0
 10
165.0849138591406
 20
93.94672864598905
 30
0.0
 10
167.5327313746782
 20
96.1692609073484
 30
0.0
 10
169.7075846857592
 20
97.66154230919433
 30
0.0
 10
171.7187105964183
 20
98.68682043599664
 30
0.0
 10
173.6268372637903
 20
99.3760965273033
 30
0.0
 10
175.2133609942135
 20
99.74844900476333
 30
0.0
 10
176.5888748330707
 20
99.9392896254316
 30
0.0
 10
177.7445724793708
 20
100.0049895980621
 30
0.0
 10
178.3272878109695
 20
100.0017163637739
 30
0.0
 10
178.6328423167274
 20
100.0000000000008
 30
0.0
  0
SPLINE
  5
8F
330
23
100
AcDbEntity
  8
0
  6
Continuous
 62
     7
370
    25
100
AcDbSpline
210
0.0
220
0.0
230
1.0
 70
     8
 71
     3
 72
    31
 73
    27
 74
     0
 42
0.000000001
 43
0.00000001
 40
0.0
 40
0.0
 40
0.0
 40
0.0
 40
0.0235852441001023
 40
0.0430537522534278
 40
0.0589871502157446
 40
0.0726087836442865
 40
0.0882516113228954
 40
0.1073038098496065
 40
0.1297053298157817
 40
0.1548149135647832
 40
0.1930097694278041
 40
0.2340228612856589
 40
0.2781741435261091
 40
0.3254609164121363
 40
0.3757188755342022
 40
0.4257249444469515
 40
0.4742109699984712
 40
0.5606541790020247
 40
0.641809483249456
 40
0.7191621556749976
 40
0.7595855361772259
 40
0.801996998149232
 40
0.8478803040939064
 40
0.8974132616021638
 40
0.9489395397713396
 40
1.0
 40
1.0
 40
1.0
 40
1.0
 10
-178.7629299070827
 20
100.0000000000005
 30
0.0
 10
-178.4665842656985
 20
100.002935591654
 30
0.0
 10
-177.9256192550594
 20
100.0082943759527
 30
0.0
 10
-176.7758013396833
 20
99.95660503383085
 30
0.0
 10
-175.4521932996437
 20
99.79875185093441
 30
0.0
 10
-173.6845719000763
 20
99.39684065561076
 30
0.0
 10
-171.8461022108387
 20
98.74196290402557
 30
0.0
 10
-169.8072813331215
 20
97.72802705882677
 30
0.0
 10
-167.5800625504325
 20
96.21213478133492
 30
0.0
 10
-164.9366208946107
 20
93.83133150387637
 30
0.0
 10
-162.198942307676
 20
90.17613806411582
 30
0.0
 10
-159.3957002227145
 20
85.44352190593165
 30
0.0
 10
-156.2731761369702
 20
80.51197707288347
 30
0.0
 10
-152.9802111934383
 20
75.2175156844878
 30
0.0
 10
-149.5517680098323
 20
69.73519537502806
 30
0.0
 10
-146.1003777013643
 20
64.20729015468584
 30
0.0
 10
-141.8096133871812
 20
57.33591914809335
 30
0.0
 10
-136.7999717897284
 20
49.30987729631043
 30
0.0
 10
-131.1228857707218
 20
40.21079581661743
 30
0.0
 10
-126.5252649642085
 20
32.83829782877254
 30
0.0
 10
-122.7520687722316
 20
26.7782751610572
 30
0.0
 10
-119.6952811250272
 20
21.86010743210407
 30
0.0
 10
-115.7355189372847
 20
17.07502487122067
 30
0.0
 10
-110.92058884231
 20
12.55128674474398
 30
0.0
 10
-105.4205260536539
 20
8.519022214156486
 30
0.0
 10
-101.5016015596214
 20
6.400791659603902
 30
0.0
 10
-99.55103668747721
 20
5.34648553119943
 30
0.0
  0
SPLINE
  5
92
330
23
100
AcDbEntity
  8
0
  6
Continuous
 62
     7
370
    25
100
AcDbSpline
210
0.0
220
0.0
230
1.0
 70
    24
 71
     3
 72
    27
 73
    23
 74
     0
 42
0.000000001
 43
0.00000001
 40
0.0937500000000005
 40
0.0937500000000005
 40
0.0937500000000005
 40
0.0937500000000005
 40
0.1341380686474368
 40
0.1341380686474368
 40
0.1459962756146732
 40
0.1578544825819095
 40
0.1697126895491459
 40
0.1815708965163823
 40
0.1934291034836185
 40
0.2052873104508549
 40
0.2052873104508549
 40
0.249999999999761
 40
0.2947126895491456
 40
0.2947126895491456
 40
0.3065708965163819
 40
0.3184291034836182
 40
0.3302873104508546
 40
0.3421455174180908
 40
0.3540037243853271
 40
0.3658619313525634
 40
0.3658619313525634
 40
0.3750000000000008
 40
0.3750000000000008
 40
0.3750000000000008
 40
0.3750000000000008
 10
-199.9999999999994
 20
100.0000000000003
 30
0.0
 10
-199.9999999999992
 20
100.0000000000004
 30
0.0
 10
-199.999999999999
 20
100.0000000000005
 30
0.0
 10
-199.9999999999989
 20
100.0000000000006
 30
0.0
 10
-197.6520662592143
 20
100.0000000000006
 30
0.0
 10
-187.6607435241624
 20
100.0000000000008
 30
0.0
 10
-171.5384813318372
 20
100.0000000000008
 30
0.0
 10
-150.4493998604091
 20
100.0000000000009
 30
0.0
 10
-126.2865120157408
 20
100.0000000000009
 30
0.0
 10
-108.8402994666653
 20
100.0000000000009
 30
0.0
 10
-66.6666666668438
 20
100.000000000001
 30
0.0
 10
-0.0000000001772069
 20
100.0000000000011
 30
0.0
 10
66.66666666648958
 20
100.0000000000011
 30
0.0
 10
108.8402994666679
 20
100.0000000000011
 30
0.0
 10
126.2865120157434
 20
100.0000000000011
 30
0.0
 10
150.4493998604117
 20
100.0000000000011
 30
0.0
 10
171.5384813318397
 20
100.000000000001
 30
0.0
 10
187.6607435241647
 20
100.000000000001
 30
0.0
 10
197.6520662592164
 20
100.0000000000009
 30
0.0
 10
200.0000000000009
 20
100.0000000000009
 30
0.0
 10
200.0000000000009
 20
100.0000000000008
 30
0.0
 10
200.0000000000009
 20
100.0000000000008
 30
0.0
 10
200.0000000000008
 20
100.0000000000008
 30
0.0
  0
SPLINE
  5
93
330
23
100
AcDbEntity
  8
0
  6
Continuous
 62
     7
370
    25
100
AcDbSpline
210
0.0
220
0.0
230
1.0
 70
    24
 71
     3
 72
    27
 73
    23
 74
     0
 42
0.000000001
 43
0.00000001
 40
0.0937500000000004
 40
0.0937500000000004
 40
0.0937500000000004
 40
0.0937500000000004
 40
0.1341380686474368
 40
0.1341380686474368
 40
0.1459962756146732
 40
0.1578544825819095
 40
0.1697126895491459
 40
0.1815708965163823
 40
0.1934291034836185
 40
0.2052873104508549
 40
0.2052873104508549
 40
0.249999999999761
 40
0.2947126895491456
 40
0.2947126895491456
 40
0.3065708965163819
 40
0.3184291034836182
 40
0.3302873104508546
 40
0.3421455174180908
 40
0.3540037243853271
 40
0.3658619313525634
 40
0.3658619313525634
 40
0.3749999999999993
 40
0.3749999999999993
 40
0.3749999999999993
 40
0.3749999999999993
 10
-199.9999999999995
 20
120.0000000000005
 30
0.0
 10
-199.9999999999994
 20
120.0000000000004
 30
0.0
 10
-199.9999999999992
 20
120.0000000000003
 30
0.0
 10
-199.9999999999989
 20
120.0000000000002
 30
0.0
 10
-197.6520662592143
 20
120.0000000000001
 30
0.0
 10
-187.6607435241624
 20
120.0000000000001
 30
0.0
 10
-171.5384813318373
 20
120.0
 30
0.0
 10
-150.4493998604091
 20
120.0
 30
0.0
 10
-126.2865120157408
 20
119.9999999999999
 30
0.0
 10
-108.8402994666653
 20
120.0
 30
0.0
 10
-66.66666666684395
 20
120.0
 30
0.0
 10
-0.0000000001773942
 20
120.0
 30
0.0
 10
66.66666666648949
 20
120.0000000000001
 30
0.0
 10
108.8402994666679
 20
120.0000000000001
 30
0.0
 10
126.2865120157434
 20
120.0000000000001
 30
0.0
 10
150.4493998604117
 20
120.0000000000002
 30
0.0
 10
171.5384813318397
 20
120.0000000000002
 30
0.0
 10
187.6607435241648
 20
120.0000000000003
 30
0.0
 10
197.6520662592165
 20
120.0000000000004
 30
0.0
 10
200.000000000001
 20
120.0000000000004
 30
0.0
 10
200.0000000000009
 20
120.0000000000005
 30
0.0
 10
200.0000000000009
 20
120.0000000000005
 30
0.0
 10
200.0000000000009
 20
120.0000000000005
 30
0.0
  0
LINE
  5
97
330
23
100
AcDbEntity
  8
0
  6
Continuous
 62
     7
370
    25
100
AcDbLine
 10
-200.0
 20
120.0
 30
0.0
 11
-200.0
 21
100.0
 31
0.0
  0
LINE
  5
98
330
23
100
AcDbEntity
  8
0
  6
Continuous
 62
     7
370
    25
100
AcDbLine
 10
200.0
 20
100.0
 30
0.0
 11
200.0
 21
120.0
 31
0.0
  0
LINE
  5
99
330
23
100
AcDbEntity
  8
0
  6
Continuous
 62
     7
370
    25
100
AcDbLine
 10
62.5
 20
0.0
 30
0.0
 11
62.5
 21
-26.0
 31
0.0
  0
LINE
  5
9A
330
23
100
AcDbEntity
  8
0
  6
Continuous
 62
     7
370
    25
100
AcDbLine
 10
-62.5
 20
0.0
 30
0.0
 11
-62.5
 21
-26.0
 31
0.0
  0
LINE
  5
9B
330
23
100
AcDbEntity
  8
0
  6
Continuous
 62
     7
370
    25
100
AcDbLine
 10
-62.5
 20
-26.0
 30
0.0
 11
62.5
 21
-26.0
 31
0.0
  0
VIEWPORT
  5
138
330
23
100
AcDbEntity
  8
0
100
AcDbViewport
 10
0.0
 20
0.0
 30
0.0
 40
205.6
 41
156.0
 68
     1
 69
     1
 12
0.0
 22
0.0
 13
0.0
 23
0.0
 14
10.0
 24
10.0
 15
10.0
 25
10.0
 16
0.0
 26
0.0
 36
1.0
 17
0.0
 27
0.0
 37
0.0
 42
50.0
 43
0.0
 44
0.0
 45
619.1439688716
 50
0.0
 51
0.0
 72
   100
 90
   557152
  1

281
     0
 71
     1
 74
     0
110
0.0
120
0.0
130
0.0
111
1.0
121
0.0
131
0.0
112
0.0
122
1.0
132
0.0
 79
     0
146
0.0
170
     0
 61
     5
348
2F
292
     1
282
     1
141
0.0
142
0.0
 63
   256
361
139
  0
ENDBLK
  5
25
330
23
100
AcDbEntity
  8
0
100
AcDbBlockEnd
  0
BLOCK
  5
9E
330
9C
100
AcDbEntity
  8
0
100
AcDbBlockBegin
  2
*Paper_Space1
 70
     0
 10
0.0
 20
0.0
 30
0.0
  3
*Paper_Space1
  1

  0
SPLINE
  5
A2
330
9C
100
AcDbEntity
  8
0
  6
Continuous
 62
     7
370
    25
100
AcDbSpline
210
0.0
220
0.0
230
1.0
 70
     8
 71
     3
 72
   130
 73
   126
 74
     0
 42
0.000000001
 43
0.00000001
 40
0.0
 40
0.0
 40
0.0
 40
0.0
 40
0.0063664906033995
 40
0.0087993143495338
 40
0.0110334763699775
 40
0.0131289264161074
 40
0.0151606456279236
 40
0.0172120122128947
 40
0.0193641269607124
 40
0.0216861753745826
 40
0.0242308815057763
 40
0.0286560397157798
 40
0.0334384537023715
 40
0.0385832316397138
 40
0.044083538241555
 40
0.0499393735069299
 40
0.0624428115037382
 40
0.0748626387849491
 40
0.0870504834033495
 40
0.0990063453577476
 40
0.1104692105319611
 40
0.1169142106571544
 40
0.1227726914261565
 40
0.1283281134655893
 40
0.1342676052776439
 40
0.140872320515226
 40
0.1478163153223391
 40
0.1519942844310895
 40
0.1557565244442808
 40
0.1590083459986345
 40
0.1611144324984796
 40
0.163010965231341
 40
0.1648529543999418
 40
0.1667319029819349
 40
0.1742770516890862
 40
0.1819621325336606
 40
0.1899277443806188
 40
0.1954404114824425
 40
0.2011006752035246
 40
0.2069176898286115
 40
0.211437331103228
 40
0.216137302907469
 40
0.2210481915722943
 40
0.2262045491191664
 40
0.2316415928525538
 40
0.237377594747486
 40
0.2434093348242543
 40
0.249730821855375
 40
0.2585821542026883
 40
0.2678906385529386
 40
0.2776795151591619
 40
0.2879697809947662
 40
0.2987249267997796
 40
0.3098061844301665
 40
0.321203451901249
 40
0.3329148675850938
 40
0.3449378474800819
 40
0.3658282418721455
 40
0.3875673021693998
 40
0.4101059204984712
 40
0.4328339281198076
 40
0.4554415648507157
 40
0.4778740848766983
 40
0.5000805098084985
 40
0.522013511370293
 40
0.5558226085697008
 40
0.5886943498002573
 40
0.620492696940466
 40
0.651099477836806
 40
0.6645898082631749
 40
0.6778044609840493
 40
0.6907357411551281
 40
0.7033766145027884
 40
0.7156953373421184
 40
0.7255675025092233
 40
0.7350518448093929
 40
0.7441634922763577
 40
0.7529113665529108
 40
0.7612505078455968
 40
0.7691428407829433
 40
0.7747557633486246
 40
0.7801119049037373
 40
0.7852420169819829
 40
0.7901782513267355
 40
0.7965052924330005
 40
0.802660743731031
 40
0.8087219944657986
 40
0.82639098644631
 40
0.8307004903709361
 40
0.8346212742950909
 40
0.8379239909451058
 40
0.8410552740130152
 40
0.8442655173812449
 40
0.8470290171785825
 40
0.8508234249148157
 40
0.8555452051207656
 40
0.8609967802903978
 40
0.8656199582584335
 40
0.8698483147473737
 40
0.8737616476154392
 40
0.8788294537605665
 40
0.884031049852757
 40
0.8897079998789476
 40
0.8960325013979296
 40
0.9027482582779701
 40
0.9096964940210052
 40
0.9265461559536572
 40
0.9440546855338389
 40
0.9505604163708128
 40
0.9568067390406381
 40
0.9626934669176388
 40
0.9682206000004593
 40
0.9733841782018139
 40
0.9764284952240618
 40
0.9793299719022968
 40
0.9818932069210128
 40
0.9839983068873512
 40
0.9856450161951926
 40
0.98683943484556
 40
0.9878582449060639
 40
0.9889299002229025
 40
0.9901453048627932
 40
0.9915699799410611
 40
0.9951959212325098
 40
0.9999999999999999
 40
0.9999999999999999
 40
0.9999999999999999
 40
0.9999999999999999
 10
-375.3366728866205
 20
100.000000000001
 30
0.0
 10
-375.0328661499448
 20
100.0024734914216
 30
0.0
 10
-374.6129659028468
 20
100.0058921768336
 30
0.0
 10
-373.5958223393977
 20
99.95618153614689
 30
0.0
 10
-372.6369982230091
 20
99.869696204147
 30
0.0
 10
-371.4285925546502
 20
99.6937864532826
 30
0.0
 10
-369.9734390436182
 20
99.38057641191575
 30
0.0
 10
-368.3004785897243
 20
98.87510748498129
 30
0.0
 10
-366.4511946392436
 20
98.12159656536666
 30
0.0
 10
-364.4762859574539
 20
97.06258624205681
 30
0.0
 10
-362.0193962508905
 20
95.3381146927068
 30
0.0
 10
-359.2751855453392
 20
92.67141634924698
 30
0.0
 10
-356.8993512895693
 20
88.6769438686387
 30
0.0
 10
-354.4336268239581
 20
84.37023884927893
 30
0.0
 10
-351.7702458090802
 20
79.767719054679
 30
0.0
 10
-347.929159859632
 20
73.11127998417844
 30
0.0
 10
-342.9717441328402
 20
64.52416787329582
 30
0.0
 10
-336.9898331366837
 20
54.17386798638276
 30
0.0
 10
-331.1180869986724
 20
43.96343375899453
 30
0.0
 10
-325.3199077602115
 20
34.06661391836011
 30
0.0
 10
-320.7027623146183
 20
25.62380492515338
 30
0.0
 10
-316.4405713416524
 20
19.2447060619429
 30
0.0
 10
-312.6194104988491
 20
14.92353760281712
 30
0.0
 10
-308.4854360148507
 20
11.14675234875152
 30
0.0
 10
-303.7574420329751
 20
7.71227428986826
 30
0.0
 10
-298.2549545884029
 20
4.655011226832123
 30
0.0
 10
-292.9275496901109
 20
2.551266452686288
 30
0.0
 10
-288.2972688483059
 20
1.278004987280257
 30
0.0
 10
-284.7630825346216
 20
0.5901387897079974
 30
0.0
 10
-281.8222736370998
 20
0.2273610723650607
 30
0.0
 10
-279.6261566099126
 20
0.0656781426620692
 30
0.0
 10
-278.0766656623005
 20
0.010547478118024
 30
0.0
 10
-277.2449989458943
 20
0.0004061033730476
 30
0.0
 10
-275.8941237917168
 20
-0.0005027175253025
 30
0.0
 10
-274.0007858710119
 20
0.0002011751890144
 30
0.0
 10
-272.11861865357
 20
-0.0000571986485051
 30
0.0
 10
-270.9884048641471
 20
0.0000103224662637
 30
0.0
 10
-270.1835584106832
 20
-0.0000023978243488
 30
0.0
 10
-269.2423753053956
 20
0.0000006751320197
 30
0.0
 10
-268.3672748886666
 20
-0.0000001379738337
 30
0.0
 10
-266.863482764569
 20
0.0000000344003853
 30
0.0
 10
-264.9471346966353
 20
-0.0000000098206374
 30
0.0
 10
-262.4632446622534
 20
0.0000000028246572
 30
0.0
 10
-259.4009831992032
 20
-0.0000000008172213
 30
0.0
 10
-255.7526837461954
 20
0.000000000237671
 30
0.0
 10
-251.5220149695998
 20
-0.0000000000681885
 30
0.0
 10
-246.7203349528568
 20
0.0000000000199424
 30
0.0
 10
-240.7359006744393
 20
-0.0000000000073622
 30
0.0
 10
-233.4365071957557
 20
0.0000000000028796
 30
0.0
 10
-224.7422916836329
 20
-0.0000000000003608
 30
0.0
 10
-215.3667171011021
 20
0.0000000000005482
 30
0.0
 10
-205.4170001201662
 20
0.0000000000002706
 30
0.0
 10
-195.0861503024078
 20
0.00000000000034
 30
0.0
 10
-184.3917842884156
 20
0.0000000000003053
 30
0.0
 10
-173.3901260139775
 20
0.0000000000003053
 30
0.0
 10
-162.0836359131471
 20
0.0000000000002845
 30
0.0
 10
-147.7204983892399
 20
0.0000000000002706
 30
0.0
 10
-130.1271458741406
 20
0.0000000000002429
 30
0.0
 10
-109.1451104502492
 20
0.0000000000002151
 30
0.0
 10
-87.5680630727187
 20
0.0000000000001735
 30
0.0
 10
-65.70839649167884
 20
0.0000000000001388
 30
0.0
 10
-43.88057186087693
 20
0.0000000000000971
 30
0.0
 10
-22.21910900742105
 20
0.0000000000000486
 30
0.0
 10
-0.7740693632593938
 20
0.0000000000000069
 30
0.0
 10
24.33576016525445
 20
-0.0000000000000486
 30
0.0
 10
52.87996319190398
 20
-0.000000000000111
 30
0.0
 10
84.59772345060682
 20
-0.0000000000001874
 30
0.0
 10
115.2783623922049
 20
-0.0000000000002498
 30
0.0
 10
139.712302799548
 20
-0.0000000000003123
 30
0.0
 10
158.1598077332881
 20
-0.0000000000003261
 30
0.0
 10
170.916252052896
 20
-0.0000000000004163
 30
0.0
 10
183.3980056799485
 20
-0.0000000000001943
 30
0.0
 10
195.5886284295775
 20
-0.0000000000011033
 30
0.0
 10
206.7974254368513
 20
0.0000000000018874
 30
0.0
 10
217.0079112055485
 20
-0.0000000000071054
 30
0.0
 10
226.0622418448288
 20
0.0000000000230024
 30
0.0
 10
234.5276370421091
 20
-0.0000000000830655
 30
0.0
 10
242.2866115687136
 20
0.0000000002885886
 30
0.0
 10
249.2282118525294
 20
-0.0000000010019
 30
0.0
 10
254.7787036521894
 20
0.0000000030928454
 30
0.0
 10
259.0891978693776
 20
-0.0000000077692575
 30
0.0
 10
262.3652521703003
 20
0.0000000273337117
 30
0.0
 10
265.0552377717723
 20
-0.0000000959085242
 30
0.0
 10
267.4023454595839
 20
0.0000003841746712
 30
0.0
 10
269.0878710534873
 20
-0.0000018710457905
 30
0.0
 10
270.1996552991512
 20
0.0000066753991154
 30
0.0
 10
272.0153061854807
 20
-0.0000442934852615
 30
0.0
 10
273.3549062825971
 20
0.0003515593501799
 30
0.0
 10
274.107866664895
 20
-0.0002676937267063
 30
0.0
 10
274.5984011574654
 20
0.0008722277990217
 30
0.0
 10
276.2875721310201
 20
-0.0026455239343776
 30
0.0
 10
278.8641643950241
 20
0.0094587823576686
 30
0.0
 10
281.7487679802594
 20
0.213854178737663
 30
0.0
 10
284.8806647491131
 20
0.6144273788204133
 30
0.0
 10
288.4478515286173
 20
1.305597592361395
 30
0.0
 10
292.7872894861136
 20
2.522658803356371
 30
0.0
 10
297.2361104387636
 20
4.258078835437621
 30
0.0
 10
301.3508726352902
 20
6.344536513269349
 30
0.0
 10
304.850088525002
 20
8.513078443094631
 30
0.0
 10
308.2821717695153
 20
11.03480318684351
 30
0.0
 10
311.7228396170558
 20
14.05283335637283
 30
0.0
 10
315.2304091804045
 20
17.81557409335284
 30
0.0
 10
318.5891510656793
 20
22.24222931212248
 30
0.0
 10
321.578021722813
 20
27.48709578550754
 30
0.0
 10
324.8051158442187
 20
33.05655629299625
 30
0.0
 10
329.7170517478142
 20
41.57163240636222
 30
0.0
 10
336.3716988756236
 20
53.09371863818535
 30
0.0
 10
342.953517765143
 20
64.4937407305815
 30
0.0
 10
347.8268148471321
 20
72.93632664360432
 30
0.0
 10
350.8308205119881
 20
78.1343230039978
 30
0.0
 10
353.668720545392
 20
83.06713326076577
 30
0.0
 10
356.3611806416907
 20
87.67120790596715
 30
0.0
 10
358.5065928559674
 20
91.56452986730048
 30
0.0
 10
360.883877311174
 20
94.26368717449257
 30
0.0
 10
362.9715690669723
 20
96.05180310703233
 30
0.0
 10
365.0224850553269
 20
97.38299907641803
 30
0.0
 10
366.8461614092894
 20
98.2924634885197
 30
0.0
 10
368.3316477430993
 20
98.87233813739957
 30
0.0
 10
369.519611260929
 20
99.24488280614162
 30
0.0
 10
370.5428625684701
 20
99.50508486674786
 30
0.0
 10
371.4532939412774
 20
99.68941253031005
 30
0.0
 10
372.2848485204845
 20
99.820080521061
 30
0.0
 10
373.3841101120224
 20
99.94770705907759
 30
0.0
 10
374.5320928813137
 20
100.0046421070174
 30
0.0
 10
375.0836673477415
 20
100.001685120237
 30
0.0
 10
375.3979972264758
 20
99.999999999999
 30
0.0
  0
SPLINE
  5
A3
330
9C
100
AcDbEntity
  8
0
  6
Continuous
 62
     7
370
    25
100
AcDbSpline
210
0.0
220
0.0
230
1.0
 70
    24
 71
     3
 72
    27
 73
    23
 74
     0
 42
0.000000001
 43
0.00000001
 40
0.265625
 40
0.265625
 40
0.265625
 40
0.265625
 40
0.2947126895491456
 40
0.2947126895491456
 40
0.3065708965163819
 40
0.3184291034836182
 40
0.3302873104508546
 40
0.3421455174180908
 40
0.3540037243853271
 40
0.3658619313525634
 40
0.3658619313525634
 40
0.5
 40
0.634138068647437
 40
0.634138068647437
 40
0.6459962756146733
 40
0.6578544825819096
 40
0.6697126895491459
 40
0.6815708965163821
 40
0.6934291034836184
 40
0.7052873104508547
 40
0.7052873104508547
 40
0.7187500000000061
 40
0.7187500000000061
 40
0.7187500000000061
 40
0.7187500000000061
 10
-400.0000000000006
 20
100.0000000000011
 30
0.0
 10
-400.0000000000006
 20
100.0000000000011
 30
0.0
 10
-400.0000000000005
 20
100.0000000000011
 30
0.0
 10
-400.0000000000003
 20
100.0000000000011
 30
0.0
 10
-397.6520662592158
 20
100.0000000000011
 30
0.0
 10
-387.660743524164
 20
100.0000000000011
 30
0.0
 10
-371.5384813318386
 20
100.000000000001
 30
0.0
 10
-350.4493998604106
 20
100.000000000001
 30
0.0
 10
-326.2865120157423
 20
100.0000000000009
 30
0.0
 10
-308.8402994666668
 20
100.0000000000009
 30
0.0
 10
-200.0000000000005
 20
100.0000000000007
 30
0.0
 10
0.0000000000002248
 20
100.0
 30
0.0
 10
200.0000000000003
 20
99.99999999999935
 30
0.0
 10
308.8402994666673
 20
99.99999999999915
 30
0.0
 10
326.2865120157429
 20
99.99999999999906
 30
0.0
 10
350.4493998604112
 20
99.99999999999903
 30
0.0
 10
371.538481331839
 20
99.99999999999895
 30
0.0
 10
387.6607435241642
 20
99.99999999999889
 30
0.0
 10
397.6520662592158
 20
99.99999999999885
 30
0.0
 10
400.0000000000003
 20
99.99999999999882
 30
0.0
 10
400.0000000000002
 20
99.99999999999882
 30
0.0
 10
400.0000000000001
 20
99.99999999999882
 30
0.0
 10
400.0000000000001
 20
99.99999999999882
 30
0.0
  0
SPLINE
  5
A4
330
9C
100
AcDbEntity
  8
0
  6
Continuous
 62
     7
370
    25
100
AcDbSpline
210
0.0
220
0.0
230
1.0
 70
    24
 71
     3
 72
    27
 73
    23
 74
     0
 42
0.000000001
 43
0.00000001
 40
0.2656250000000016
 40
0.2656250000000016
 40
0.2656250000000016
 40
0.2656250000000016
 40
0.2947126895491456
 40
0.2947126895491456
 40
0.3065708965163819
 40
0.3184291034836182
 40
0.3302873104508546
 40
0.3421455174180908
 40
0.3540037243853271
 40
0.3658619313525634
 40
0.3658619313525634
 40
0.5
 40
0.634138068647437
 40
0.634138068647437
 40
0.6459962756146733
 40
0.6578544825819096
 40
0.6697126895491459
 40
0.6815708965163821
 40
0.6934291034836184
 40
0.7052873104508547
 40
0.7052873104508547
 40
0.7187500000000068
 40
0.7187500000000068
 40
0.7187500000000068
 40
0.7187500000000068
 10
-400.0000000000003
 20
120.0000000000001
 30
0.0
 10
-400.0000000000002
 20
120.0000000000001
 30
0.0
 10
-400.0000000000002
 20
120.0000000000001
 30
0.0
 10
-400.0000000000003
 20
120.0000000000001
 30
0.0
 10
-397.6520662592156
 20
120.0000000000001
 30
0.0
 10
-387.660743524164
 20
120.0000000000002
 30
0.0
 10
-371.5384813318385
 20
120.0000000000002
 30
0.0
 10
-350.4493998604106
 20
120.0000000000003
 30
0.0
 10
-326.2865120157423
 20
120.0000000000004
 30
0.0
 10
-308.8402994666668
 20
120.0000000000004
 30
0.0
 10
-200.0000000000005
 20
120.000000000001
 30
0.0
 10
-0.0000000000004344
 20
120.0000000000012
 30
0.0
 10
199.9999999999999
 20
120.0000000000019
 30
0.0
 10
308.8402994666674
 20
120.0000000000021
 30
0.0
 10
326.2865120157429
 20
120.0000000000021
 30
0.0
 10
350.4493998604112
 20
120.0000000000023
 30
0.0
 10
371.5384813318391
 20
120.0000000000023
 30
0.0
 10
387.6607435241642
 20
120.0000000000023
 30
0.0
 10
397.6520662592158
 20
120.0000000000023
 30
0.0
 10
400.0000000000004
 20
120.0000000000023
 30
0.0
 10
400.0000000000005
 20
120.0000000000024
 30
0.0
 10
400.0000000000005
 20
120.0000000000024
 30
0.0
 10
400.0000000000005
 20
120.0000000000024
 30
0.0
  0
LINE
  5
A8
330
9C
100
AcDbEntity
  8
0
  6
Continuous
 62
     7
370
    25
100
AcDbLine
 10
-400.0
 20
120.0
 30
0.0
 11
-400.0
 21
100.0
 31
0.0
  0
LINE
  5
A9
330
9C
100
AcDbEntity
  8
0
  6
Continuous
 62
     7
370
    25
100
AcDbLine
 10
400.0
 20
100.0
 30
0.0
 11
400.0
 21
120.0
 31
0.0
  0
LINE
  5
AA
330
9C
100
AcDbEntity
  8
0
  6
Continuous
 62
     7
370
    25
100
AcDbLine
 10
62.5
 20
0.0
 30
0.0
 11
62.5
 21
-26.0
 31
0.0
  0
LINE
  5
AB
330
9C
100
AcDbEntity
  8
0
  6
Continuous
 62
     7
370
    25
100
AcDbLine
 10
-62.5
 20
0.0
 30
0.0
 11
-62.5
 21
-26.0
 31
0.0
  0
LINE
  5
AC
330
9C
100
AcDbEntity
  8
0
  6
Continuous
 62
     7
370
    25
100
AcDbLine
 10
-62.5
 20
-26.0
 30
0.0
 11
62.5
 21
-26.0
 31
0.0
  0
VIEWPORT
  5
13A
330
9C
100
AcDbEntity
  8
0
100
AcDbViewport
 10
0.0
 20
0.0
 30
0.0
 40
205.6
 41
156.0
 68
     1
 69
     1
 12
0.0
 22
0.0
 13
0.0
 23
0.0
 14
10.0
 24
10.0
 15
10.0
 25
10.0
 16
0.0
 26
0.0
 36
1.0
 17
0.0
 27
0.0
 37
0.0
 42
50.0
 43
0.0
 44
0.0
 45
619.1439688716
 50
0.0
 51
0.0
 72
   100
 90
   557152
  1

281
     0
 71
     1
 74
     0
110
0.0
120
0.0
130
0.0
111
1.0
121
0.0
131
0.0
112
0.0
122
1.0
132
0.0
 79
     0
146
0.0
170
     0
 61
     5
348
2F
292
     1
282
     1
141
0.0
142
0.0
 63
   256
361
13B
  0
ENDBLK
  5
9F
330
9C
100
AcDbEntity
  8
0
100
AcDbBlockEnd
  0
BLOCK
  5
AF
330
AD
100
AcDbEntity
  8
0
100
AcDbBlockBegin
  2
*Paper_Space2
 70
     0
 10
0.0
 20
0.0
 30
0.0
  3
*Paper_Space2
  1

  0
SPLINE
  5
B3
330
AD
100
AcDbEntity
  8
0
  6
Continuous
 62
     7
370
    25
100
AcDbSpline
210
0.0
220
0.0
230
1.0
 70
     8
 71
     3
 72
   140
 73
   136
 74
     0
 42
0.000000001
 43
0.00000001
 40
0.0
 40
0.0
 40
0.0
 40
0.0
 40
0.0007705931075259
 40
0.0090781424677924
 40
0.0169680987820405
 40
0.0244391487031784
 40
0.0335907153044981
 40
0.0420278464093567
 40
0.0497533328549915
 40
0.059147150783093
 40
0.0672336492556494
 40
0.0740250054660143
 40
0.079536666242925
 40
0.0837896729127055
 40
0.0858231896253897
 40
0.0873919590810456
 40
0.0885233260638361
 40
0.0889450868444501
 40
0.0892919871739922
 40
0.0895955169198704
 40
0.0909797410597561
 40
0.0923768026342695
 40
0.0945969843139763
 40
0.0972755635576108
 40
0.1008491094722039
 40
0.1050115999787002
 40
0.1094319208329938
 40
0.1138689701857251
 40
0.1183227480360069
 40
0.1359816830717084
 40
0.1466070780504
 40
0.1568702096729165
 40
0.1665189257121285
 40
0.173418720803954
 40
0.1797048848494477
 40
0.185726760882548
 40
0.1917853973302722
 40
0.1980299578448022
 40
0.2043683751192782
 40
0.2087335537810455
 40
0.2132893439180943
 40
0.2174227302921105
 40
0.2200662419118064
 40
0.2222928133610436
 40
0.2232679616399079
 40
0.2251249672803672
 40
0.2269845078561697
 40
0.2288563386244729
 40
0.2333323375469657
 40
0.2410093864041183
 40
0.2491754810196701
 40
0.2534320850319584
 40
0.2577825680893625
 40
0.2622312199446934
 40
0.266826411457367
 40
0.2716218657312679
 40
0.2766557170448403
 40
0.2819708795308707
 40
0.2876088749874149
 40
0.2935825503119169
 40
0.2998862032665046
 40
0.3065081879434411
 40
0.3134261865423669
 40
0.3225134392589653
 40
0.3320884121624916
 40
0.342163873056389
 40
0.3526357503209138
 40
0.363422754576249
 40
0.3855223667231051
 40
0.4088110645829948
 40
0.4305831687274467
 40
0.4532075401822744
 40
0.4759900476161334
 40
0.4986321197368521
 40
0.5311864496117057
 40
0.5631334395168817
 40
0.5943149449013766
 40
0.6245917868848182
 40
0.65384194436735
 40
0.6773561500961917
 40
0.7000309859750841
 40
0.7218209172549489
 40
0.7297559158125826
 40
0.7375043223178008
 40
0.7450083154428032
 40
0.752266900062363
 40
0.7592886819955977
 40
0.7660842159802496
 40
0.7726382782984341
 40
0.778925009319087
 40
0.7849280076613318
 40
0.7906350493936761
 40
0.7960614723829477
 40
0.8012464952124464
 40
0.8062282504933954
 40
0.8110450507680421
 40
0.815776864968418
 40
0.8204521206300353
 40
0.8296433605574622
 40
0.83864090384449
 40
0.8416010031359823
 40
0.8443989471126521
 40
0.8467708878525696
 40
0.848344057612688
 40
0.8498229961586853
 40
0.8512576669299309
 40
0.8526965888652773
 40
0.8541941353274023
 40
0.8561203311856304
 40
0.8587166969500398
 40
0.8618653243868868
 40
0.8686260839118901
 40
0.8752826722414639
 40
0.8818917054652954
 40
0.8881749594840472
 40
0.8950430378799566
 40
0.902326157818749
 40
0.9101876515899847
 40
0.9184574721997242
 40
0.9271356196430337
 40
0.9623059150843645
 40
0.9676629307644912
 40
0.9728574720325811
 40
0.9772879152892557
 40
0.980087170562325
 40
0.9824344127627133
 40
0.9843293422237258
 40
0.9857716752302892
 40
0.9869011623877653
 40
0.9880484496979832
 40
0.9893344481053683
 40
0.9908462776790286
 40
0.9933061071327708
 40
0.9963436650295208
 40
1.0
 40
1.0
 40
1.0
 40
1.0
 10
-374.5947149145085
 20
99.99989083033057
 30
0.0
 10
-374.6070867093966
 20
99.99989049056038
 30
0.0
 10
-374.7528353742628
 20
99.9998864878222
 30
0.0
 10
-374.3223962167502
 20
99.9973764923808
 30
0.0
 10
-374.1395177234659
 20
99.9892694545554
 30
0.0
 10
-373.7950114100868
 20
99.97406734827248
 30
0.0
 10
-373.4303084670617
 20
99.94910577930399
 30
0.0
 10
-372.9930759135789
 20
99.90977711078486
 30
0.0
 10
-372.4847783554734
 20
99.851578788233
 30
0.0
 10
-371.8903350019318
 20
99.76706109980822
 30
0.0
 10
-371.1848723394695
 20
99.64165650888584
 30
0.0
 10
-370.4442742081098
 20
99.48219517428244
 30
0.0
 10
-369.6730914804821
 20
99.2846173421306
 30
0.0
 10
-368.946700014609
 20
99.0677954989274
 30
0.0
 10
-368.2854670810013
 20
98.84217102101748
 30
0.0
 10
-367.7648659852006
 20
98.64817135020151
 30
0.0
 10
-367.2921513580928
 20
98.45745637586613
 30
0.0
 10
-366.8850305309787
 20
98.28050517245438
 30
0.0
 10
-366.6001424835584
 20
98.15149003285859
 30
0.0
 10
-365.9604685148053
 20
97.84906890358619
 30
0.0
 10
-365.0130529961998
 20
97.3484318812171
 30
0.0
 10
-363.5385255480174
 20
96.42717174028928
 30
0.0
 10
-361.7995374808755
 20
95.09509738427805
 30
0.0
 10
-359.6916543222978
 20
93.02524279263127
 30
0.0
 10
-357.6126114738424
 20
90.04376660036544
 30
0.0
 10
-355.5925803898118
 20
86.33732562605257
 30
0.0
 10
-353.3048395152676
 20
82.43670199922092
 30
0.0
 10
-351.0008880942671
 20
78.42935834446953
 30
0.0
 10
-346.387408894532
 20
70.4465937997176
 30
0.0
 10
-340.7066734178424
 20
60.59866343861955
 30
0.0
 10
-334.0085571750215
 20
49.00846657189949
 30
0.0
 10
-328.7195802407026
 20
39.81699988410629
 30
0.0
 10
-324.0217964918215
 20
31.77739967484852
 30
0.0
 10
-320.1679229958796
 20
24.84736807817316
 30
0.0
 10
-316.483952210566
 20
19.26747176581789
 30
0.0
 10
-312.2298456530346
 20
14.48807034697037
 30
0.0
 10
-307.4399947597053
 20
10.27490021153245
 30
0.0
 10
-302.0532167468376
 20
6.65093309098698
 30
0.0
 10
-296.7664058358725
 20
4.023518424447064
 30
0.0
 10
-291.7817322822495
 20
2.206522580629498
 30
0.0
 10
-287.3894939556606
 20
1.052209048028232
 30
0.0
 10
-283.5056691664172
 20
0.4049961232196128
 30
0.0
 10
-280.5039768111048
 20
0.1145318382406169
 30
0.0
 10
-278.6999120582229
 20
0.0277256253492231
 30
0.0
 10
-277.4087194892567
 20
0.000428497488332
 30
0.0
 10
-276.7638745897407
 20
-0.0001435185079321
 30
0.0
 10
-276.0201611372347
 20
0.0000376636215826
 30
0.0
 10
-275.0090586298687
 20
-0.0000262813909316
 30
0.0
 10
-273.4873060242996
 20
0.0000166972290022
 30
0.0
 10
-271.7956279246076
 20
-0.0000059318561035
 30
0.0
 10
-270.8279311529168
 20
0.0000007910712571
 30
0.0
 10
-269.9823149179866
 20
-0.0000001564215701
 30
0.0
 10
-269.1994103637699
 20
0.0000000433100361
 30
0.0
 10
-268.4082931225457
 20
-0.0000000121265428
 30
0.0
 10
-266.9908079911198
 20
0.0000000034469094
 30
0.0
 10
-264.8862918441076
 20
-0.0000000009912418
 30
0.0
 10
-262.0967212253067
 20
0.0000000002864792
 30
0.0
 10
-258.6031019629917
 20
-0.000000000084488
 30
0.0
 10
-254.4004681410898
 20
0.0000000000238837
 30
0.0
 10
-249.4973071152863
 20
-0.0000000000077577
 30
0.0
 10
-243.9118752264255
 20
0.0000000000014364
 30
0.0
 10
-237.6941731885523
 20
-0.0000000000011866
 30
0.0
 10
-230.2924379794379
 20
-0.0000000000003678
 30
0.0
 10
-221.6266049948824
 20
-0.0000000000006384
 30
0.0
 10
-211.6844865698129
 20
-0.0000000000005343
 30
0.0
 10
-201.2087477892178
 20
-0.0000000000005343
 30
0.0
 10
-190.3491941899797
 20
-0.0000000000004927
 30
0.0
 10
-175.3061027451356
 20
-0.000000000000451
 30
0.0
 10
-155.8178529380102
 20
-0.0000000000004025
 30
0.0
 10
-132.5111579379588
 20
-0.0000000000003539
 30
0.0
 10
-109.0183638092113
 20
-0.0000000000003053
 30
0.0
 10
-85.69718841585916
 20
-0.0000000000002637
 30
0.0
 10
-62.07067938223567
 20
-0.000000000000222
 30
0.0
 10
-34.99353537909149
 20
-0.0000000000001735
 30
0.0
 10
-4.731302450207623
 20
-0.0000000000001249
 30
0.0
 10
28.49685313747509
 20
-0.0000000000000694
 30
0.0
 10
60.93144609067598
 20
-0.0000000000000139
 30
0.0
 10
92.42496956623387
 20
0.0000000000000347
 30
0.0
 10
121.2505288294137
 20
0.0000000000000763
 30
0.0
 10
147.432092451033
 20
0.0000000000001249
 30
0.0
 10
171.0174084442044
 20
0.0000000000001596
 30
0.0
 10
189.1987115386152
 20
0.0000000000002012
 30
0.0
 10
202.1885382481706
 20
0.0000000000002151
 30
0.0
 10
210.2477348377493
 20
0.0000000000002567
 30
0.0
 10
218.0507725302139
 20
0.0000000000001388
 30
0.0
 10
225.5114108924988
 20
0.0000000000006106
 30
0.0
 10
232.575925768637
 20
-0.0000000000009576
 30
0.0
 10
239.1802526214635
 20
0.0000000000047046
 30
0.0
 10
245.2650005436762
 20
-0.0000000000152725
 30
0.0
 10
250.7561811636662
 20
0.0000000000547756
 30
0.0
 10
255.5998332728119
 20
-0.0000000001890293
 30
0.0
 10
259.7646357664342
 20
0.0000000006555798
 30
0.0
 10
263.2317490956336
 20
-0.0000000022723073
 30
0.0
 10
265.9819177715088
 20
0.0000000079440135
 30
0.0
 10
268.0534384358924
 20
-0.0000000280047305
 30
0.0
 10
269.2926255350624
 20
0.0000001000653449
 30
0.0
 10
270.258082933955
 20
-0.0000003647155009
 30
0.0
 10
271.4696377911038
 20
0.0000018918885764
 30
0.0
 10
272.7329047149287
 20
-0.0000148274805975
 30
0.0
 10
273.6543177331954
 20
0.000037868869672
 30
0.0
 10
274.1468844318231
 20
-0.0000406864452338
 30
0.0
 10
274.4220539329509
 20
0.0001380146498822
 30
0.0
 10
275.1327297907058
 20
-0.0003700560089817
 30
0.0
 10
276.1003248090701
 20
0.000857647911516
 30
0.0
 10
277.2088335016137
 20
-0.002990426895208
 30
0.0
 10
278.505152043976
 20
0.0203043110104315
 30
0.0
 10
279.9568889435201
 20
0.0879395217467105
 30
0.0
 10
281.6456463465336
 20
0.2205234565536285
 30
0.0
 10
283.7215904632648
 20
0.4559829972916735
 30
0.0
 10
286.3537059034438
 20
0.8805781803918056
 30
0.0
 10
290.5937197998149
 20
1.830218196895501
 30
0.0
 10
296.0688396076977
 20
3.664076609207749
 30
0.0
 10
302.3089600388816
 20
6.782327410659095
 30
0.0
 10
307.9260553144899
 20
10.63591052016943
 30
0.0
 10
313.0179680004421
 20
15.25964908828129
 30
0.0
 10
317.626806023451
 20
20.69968096897938
 30
0.0
 10
321.4976668482668
 20
27.31094808190731
 30
0.0
 10
325.5490681948991
 20
34.35522046083688
 30
0.0
 10
329.8600567065168
 20
41.81636387239745
 30
0.0
 10
338.9157424415392
 20
57.48619075175603
 30
0.0
 10
347.3773843141132
 20
72.33394544459267
 30
0.0
 10
355.428582680891
 20
86.0176734530386
 30
0.0
 10
357.8656030427829
 20
90.62135840138154
 30
0.0
 10
360.5692525745238
 20
94.03366175119328
 30
0.0
 10
363.1336624026926
 20
96.17206193678177
 30
0.0
 10
365.2030879589322
 20
97.48400210571545
 30
0.0
 10
366.9829660326099
 20
98.35006361917486
 30
0.0
 10
368.427237185911
 20
98.905480301408
 30
0.0
 10
369.6760693459059
 20
99.29042863741041
 30
0.0
 10
370.7791444005817
 20
99.55923024517811
 30
0.0
 10
371.7774172516374
 20
99.74629775727792
 30
0.0
 10
372.8133214792134
 20
99.88934581706411
 30
0.0
 10
373.812572314528
 20
99.97302335682225
 30
0.0
 10
374.7444043301534
 20
100.0039174763299
 30
0.0
 10
375.1882298600193
 20
100.0013838927927
 30
0.0
 10
375.4306560293391
 20
100.000000000001
 30
0.0
  0
SPLINE
  5
B4
330
AD
100
AcDbEntity
  8
0
  6
Continuous
 62
     7
370
    25
100
AcDbSpline
210
0.0
220
0.0
230
1.0
 70
    24
 71
     3
 72
    21
 73
    17
 74
     0
 42
0.000000001
 43
0.00000001
 40
0.0
 40
0.0
 40
0.0
 40
0.0
 40
0.0067069034323719
 40
0.0134138068647436
 40
0.0201207102971155
 40
0.0268276137294874
 40
0.1341380686474368
 40
0.1341380686474368
 40
0.1459962756146732
 40
0.1578544825819095
 40
0.1697126895491459
 40
0.1815708965163823
 40
0.1934291034836185
 40
0.2052873104508549
 40
0.2052873104508549
 40
0.218749999999999
 40
0.218749999999999
 40
0.218749999999999
 40
0.218749999999999
 10
0.0000000000006802
 20
99.99999999999979
 30
0.0
 10
5.000000000000726
 20
99.9999999999998
 30
0.0
 10
15.00000000000066
 20
99.99999999999982
 30
0.0
 10
30.00000000000068
 20
99.99999999999986
 30
0.0
 10
45.0000000000007
 20
99.99999999999989
 30
0.0
 10
135.0000000000013
 20
100.0000000000001
 30
0.0
 10
220.0000000000024
 20
100.0000000000004
 30
0.0
 10
308.8402994666681
 20
100.0000000000006
 30
0.0
 10
326.2865120157435
 20
100.0000000000006
 30
0.0
 10
350.449399860412
 20
100.0000000000008
 30
0.0
 10
371.5384813318398
 20
100.0000000000008
 30
0.0
 10
387.6607435241649
 20
100.0000000000009
 30
0.0
 10
397.6520662592165
 20
100.0000000000009
 30
0.0
 10
400.0000000000011
 20
100.0000000000009
 30
0.0
 10
400.000000000001
 20
100.0000000000009
 30
0.0
 10
400.000000000001
 20
100.000000000001
 30
0.0
 10
400.000000000001
 20
100.000000000001
 30
0.0
  0
SPLINE
  5
B6
330
AD
100
AcDbEntity
  8
0
  6
Continuous
 62
     7
370
    25
100
AcDbSpline
210
0.0
220
0.0
230
1.0
 70
    24
 71
     3
 72
    21
 73
    17
 74
     0
 42
0.000000001
 43
0.00000001
 40
0.0
 40
0.0
 40
0.0
 40
0.0
 40
0.0067069034323719
 40
0.0134138068647436
 40
0.0201207102971155
 40
0.0268276137294874
 40
0.1341380686474368
 40
0.1341380686474368
 40
0.1459962756146732
 40
0.1578544825819095
 40
0.1697126895491459
 40
0.1815708965163823
 40
0.1934291034836185
 40
0.2052873104508549
 40
0.2052873104508549
 40
0.2187499999999978
 40
0.2187499999999978
 40
0.2187499999999978
 40
0.2187499999999978
 10
0.0000000000006776
 20
120.0000000000011
 30
0.0
 10
5.000000000000733
 20
120.000000000001
 30
0.0
 10
15.00000000000068
 20
120.000000000001
 30
0.0
 10
30.00000000000069
 20
120.000000000001
 30
0.0
 10
45.0000000000007
 20
120.0000000000009
 30
0.0
 10
135.0000000000011
 20
120.0000000000007
 30
0.0
 10
220.0000000000015
 20
120.0000000000005
 30
0.0
 10
308.840299466668
 20
120.0000000000002
 30
0.0
 10
326.2865120157435
 20
120.0000000000001
 30
0.0
 10
350.449399860412
 20
120.0000000000001
 30
0.0
 10
371.5384813318397
 20
120.0
 30
0.0
 10
387.6607435241649
 20
120.0
 30
0.0
 10
397.6520662592166
 20
119.9999999999999
 30
0.0
 10
400.000000000001
 20
120.0
 30
0.0
 10
400.0000000000009
 20
120.0
 30
0.0
 10
400.0000000000009
 20
120.0
 30
0.0
 10
400.0000000000009
 20
120.0
 30
0.0
  0
LINE
  5
BB
330
AD
100
AcDbEntity
  8
0
  6
Continuous
 62
     7
370
    25
100
AcDbLine
 10
-400.0
 20
120.0
 30
0.0
 11
-400.0
 21
100.0
 31
0.0
  0
LINE
  5
BC
330
AD
100
AcDbEntity
  8
0
  6
Continuous
 62
     7
370
    25
100
AcDbLine
 10
400.0
 20
100.0
 30
0.0
 11
400.0
 21
120.0
 31
0.0
  0
LINE
  5
BD
330
AD
100
AcDbEntity
  8
0
  6
Continuous
 62
     7
370
    25
100
AcDbLine
 10
0.0
 20
100.0
 30
0.0
 11
-400.0
 21
100.0
 31
0.0
  0
LINE
  5
BE
330
AD
100
AcDbEntity
  8
0
  6
Continuous
 62
     7
370
    25
100
AcDbLine
 10
-400.0
 20
120.0
 30
0.0
 11
0.0
 21
120.0
 31
0.0
  0
LINE
  5
BF
330
AD
100
AcDbEntity
  8
0
  6
Continuous
 62
     7
370
    25
100
AcDbLine
 10
62.5
 20
0.0
 30
0.0
 11
62.5
 21
-26.0
 31
0.0
  0
LINE
  5
C0
330
AD
100
AcDbEntity
  8
0
  6
Continuous
 62
     7
370
    25
100
AcDbLine
 10
-62.5
 20
-26.0
 30
0.0
 11
62.5
 21
-26.0
 31
0.0
  0
LINE
  5
C1
330
AD
100
AcDbEntity
  8
0
  6
Continuous
 62
     7
370
    25
100
AcDbLine
 10
-62.5
 20
0.0
 30
0.0
 11
-62.5
 21
-26.0
 31
0.0
  0
VIEWPORT
  5
13C
330
AD
100
AcDbEntity
  8
0
100
AcDbViewport
 10
0.0
 20
0.0
 30
0.0
 40
205.6
 41
156.0
 68
     1
 69
     1
 12
0.0
 22
0.0
 13
0.0
 23
0.0
 14
10.0
 24
10.0
 15
10.0
 25
10.0
 16
0.0
 26
0.0
 36
1.0
 17
0.0
 27
0.0
 37
0.0
 42
50.0
 43
0.0
 44
0.0
 45
619.1439688716
 50
0.0
 51
0.0
 72
   100
 90
   557152
  1

281
     0
 71
     1
 74
     0
110
0.0
120
0.0
130
0.0
111
1.0
121
0.0
131
0.0
112
0.0
122
1.0
132
0.0
 79
     0
146
0.0
170
     0
 61
     5
348
2F
292
     1
282
     1
141
0.0
142
0.0
 63
   256
361
13D
  0
ENDBLK
  5
B0
330
AD
100
AcDbEntity
  8
0
100
AcDbBlockEnd
  0
BLOCK
  5
C4
330
C2
100
AcDbEntity
  8
0
100
AcDbBlockBegin
  2
*Paper_Space3
 70
     0
 10
0.0
 20
0.0
 30
0.0
  3
*Paper_Space3
  1

  0
LWPOLYLINE
  5
C8
330
C2
100
AcDbEntity
  8
0
  6
Continuous
 62
     7
370
    25
100
AcDbPolyline
 90
      111
 70
   128
 43
0.0
 10
-178.3978323844
 20
100.0
 10
-177.7829368712
 20
99.9944276129
 10
-177.1546589554
 20
99.9684322155
 10
-176.5140656949
 20
99.9178674848
 10
-176.0267691854
 20
99.8615247369
 10
-175.7812854876
 20
99.8268415034
 10
-175.1037845086
 20
99.709018555
 10
-174.2290211648
 20
99.5108030663
 10
-172.4307736982
 20
98.9348681799
 10
-170.3323681614
 20
97.960256921
 10
-168.0725355909
 20
96.5053568729
 10
-165.7352335952
 20
94.4761218202
 10
-162.8688683075
 20
91.0116434059
 10
-160.1172380142
 20
86.653386726
 10
-157.2511500734
 20
82.0634769713
 10
-154.3795552705
 20
77.465041607
 10
-151.5025557355
 20
72.8580806343
 10
-140.1496967844
 20
54.676767935
 10
-133.4618811359
 20
43.9617850136
 10
-127.252350146
 20
34.0070945636
 10
-121.5583499827
 20
24.8736636746
 10
-117.4699879096
 20
19.2499705064
 10
-112.4196661575
 20
14.036869235
 10
-108.5723788211
 20
10.8991730121
 10
-104.5277484552
 20
8.1484491665
 10
-100.4849235532
 20
5.8384240389
 10
-96.7953691328
 20
4.0502992841
 10
-93.545899859
 20
2.7048975894
 10
-90.7099605102
 20
1.7052356296
 10
-88.8335951476
 20
1.1387890279
 10
-87.2137205739
 20
0.7152946423
 10
-86.5029342792
 20
0.5506622264
 10
-85.8553478755
 20
0.4132151112
 10
-85.2689990108
 20
0.3002735036
 10
-84.7421050147
 20
0.2093166123
 10
-83.8599393668
 20
0.0834918349
 10
-82.9126178892
 20
0.0094958739
 10
-82.0080534104
 20
0.0
 10
-80.9810035163
 20
0.0
 10
-79.9632838231
 20
0.0
 10
-78.6942025514
 20
0.0
 10
-77.2044872399
 20
0.0
 10
-74.9947852286
 20
0.0
 10
-72.5471269327
 20
0.0
 10
-69.9357620226
 20
0.0
 10
-65.8558910542
 20
0.0
 10
-61.4125807952
 20
0.0
 10
-57.9076592307
 20
0.0
 10
-53.9394639153
 20
0.0
 10
-49.496429317
 20
0.0
 10
-43.0959849676
 20
0.0
 10
-36.0367524937
 20
0.0
 10
-28.7241232756
 20
0.0
 10
-21.221721415
 20
0.0
 10
-13.5200789018
 20
0.0
 10
-5.6088072616
 20
0.0
 10
2.5234409306
 20
0.0
 10
12.3068842912
 20
0.0
 10
22.2336895938
 20
0.0
 10
31.241645767
 20
0.0
 10
39.2001811078
 20
0.0
 10
46.0703644988
 20
0.0
 10
51.7591604788
 20
0.0
 10
54.2022791142
 20
0.0
 10
56.7112367598
 20
0.0
 10
59.3520305204
 20
0.0
 10
62.0942290266
 20
0.0
 10
64.8972965107
 20
0.0
 10
67.704832216
 20
0.0
 10
70.4462755371
 20
0.0
 10
73.039332699
 20
0.0
 10
75.3972398287
 20
0.0
 10
77.403953374
 20
0.0
 10
79.006121446
 20
0.0
 10
80.2917810026
 20
0.0
 10
81.6606034354
 20
0.0
 10
82.7995822668
 20
0.0062086505
 10
83.8777371865
 20
0.0812112574
 10
84.755349243
 20
0.2061132153
 10
85.2907820136
 20
0.2993895771
 10
85.9289654484
 20
0.4237409473
 10
86.6737015436
 20
0.5850873531
 10
87.5294413609
 20
0.7898850618
 10
89.5951684428
 20
1.3597873488
 10
92.1761594285
 20
2.2040647708
 10
95.2352092257
 20
3.3803119147
 10
98.3672978576
 20
4.7789049871
 10
101.4822621581
 20
6.3739234933
 10
107.4434091122
 20
10.0821795244
 10
112.7442126859
 20
14.3298076169
 10
117.6338151594
 20
19.4444130553
 10
121.8630406406
 20
25.3612675235
 10
125.9020296681
 20
31.8416751765
 10
130.1645438826
 20
38.6764788306
 10
140.1414255265
 20
54.6640483336
 10
150.6864598222
 20
71.5503150189
 10
153.4494885279
 20
75.974094297
 10
156.0901408921
 20
80.2030140078
 10
158.6081759917
 20
84.2370741503
 10
161.0033726581
 20
88.0762747242
 10
163.3318596262
 20
91.668394983
 10
165.9090303507
 20
94.6515173244
 10
168.2472785497
 20
96.6356393184
 10
170.4980693665
 20
98.0496338695
 10
172.5362900255
 20
98.9744090811
 10
174.3018015125
 20
99.5287688091
 10
175.7777450025
 20
99.8248336244
 10
176.9557469315
 20
99.9565368061
 10
177.824965005
 20
99.9967724921
 10
178.4635914029
 20
100.0
 10
178.4635914028
 20
100.0
  0
SPLINE
  5
C9
330
C2
100
AcDbEntity
  8
0
  6
Continuous
 62
     7
370
    25
100
AcDbSpline
210
0.0
220
0.0
230
1.0
 70
    24
 71
     3
 72
    27
 73
    23
 74
     0
 42
0.000000001
 43
0.00000001
 40
0.5937500000000009
 40
0.5937500000000009
 40
0.5937500000000009
 40
0.5937500000000009
 40
0.634138068647437
 40
0.634138068647437
 40
0.6459962756146733
 40
0.6578544825819096
 40
0.6697126895491459
 40
0.6815708965163821
 40
0.6934291034836184
 40
0.7052873104508547
 40
0.7052873104508547
 40
0.749999999999983
 40
0.7947126895491455
 40
0.7947126895491455
 40
0.8065708965163818
 40
0.8184291034836181
 40
0.8302873104508544
 40
0.8421455174180906
 40
0.854003724385327
 40
0.8658619313525633
 40
0.8658619313525633
 40
0.8750000000000036
 40
0.8750000000000036
 40
0.8750000000000036
 40
0.8750000000000036
 10
-199.9999999999995
 20
99.99999999999935
 30
0.0
 10
-199.9999999999993
 20
99.99999999999928
 30
0.0
 10
-199.9999999999991
 20
99.9999999999992
 30
0.0
 10
-199.9999999999988
 20
99.99999999999915
 30
0.0
 10
-197.6520662592143
 20
99.99999999999906
 30
0.0
 10
-187.6607435241623
 20
99.99999999999903
 30
0.0
 10
-171.5384813318372
 20
99.99999999999895
 30
0.0
 10
-150.449399860409
 20
99.99999999999889
 30
0.0
 10
-126.2865120157406
 20
99.99999999999885
 30
0.0
 10
-108.8402994666651
 20
99.99999999999882
 30
0.0
 10
-66.66666666667795
 20
99.9999999999988
 30
0.0
 10
-0.0000000000114853
 20
99.9999999999988
 30
0.0
 10
66.66666666665513
 20
99.99999999999875
 30
0.0
 10
108.840299466668
 20
99.99999999999872
 30
0.0
 10
126.2865120157435
 20
99.99999999999868
 30
0.0
 10
150.4493998604117
 20
99.99999999999876
 30
0.0
 10
171.5384813318398
 20
99.99999999999874
 30
0.0
 10
187.6607435241648
 20
99.99999999999883
 30
0.0
 10
197.6520662592165
 20
99.99999999999886
 30
0.0
 10
200.000000000001
 20
99.9999999999989
 30
0.0
 10
200.000000000001
 20
99.99999999999898
 30
0.0
 10
200.0000000000009
 20
99.99999999999899
 30
0.0
 10
200.0000000000009
 20
99.999999999999
 30
0.0
  0
LWPOLYLINE
  5
CA
330
C2
100
AcDbEntity
  8
0
  6
Continuous
 62
     7
370
    25
100
AcDbPolyline
 90
        2
 70
   128
 43
0.0
 10
200.0
 20
120.0
 10
200.0
 20
120.0
  0
SPLINE
  5
CB
330
C2
100
AcDbEntity
  8
0
  6
Continuous
 62
     7
370
    25
100
AcDbSpline
210
0.0
220
0.0
230
1.0
 70
    24
 71
     3
 72
    28
 73
    24
 74
     0
 42
0.000000001
 43
0.00000001
 40
0.3697916666664152
 40
0.3697916666664152
 40
0.3697916666664152
 40
0.3697916666664152
 40
0.5
 40
0.634138068647437
 40
0.634138068647437
 40
0.6459962756146733
 40
0.6578544825819096
 40
0.6697126895491459
 40
0.6815708965163821
 40
0.6934291034836184
 40
0.7052873104508547
 40
0.7052873104508547
 40
0.749999999999983
 40
0.7947126895491455
 40
0.7947126895491455
 40
0.8065708965163818
 40
0.8184291034836181
 40
0.8302873104508544
 40
0.8421455174180906
 40
0.854003724385327
 40
0.8658619313525633
 40
0.8658619313525633
 40
0.8750000000000036
 40
0.8750000000000036
 40
0.8750000000000036
 40
0.8750000000000036
 10
-200.000000000001
 20
120.0000000000005
 30
0.0
 10
-200.0000000000007
 20
120.000000000001
 30
0.0
 10
-199.9999999999999
 20
120.0000000000012
 30
0.0
 10
-199.9999999999997
 20
120.0000000000019
 30
0.0
 10
-199.9999999999988
 20
120.0000000000021
 30
0.0
 10
-197.6520662592142
 20
120.0000000000021
 30
0.0
 10
-187.6607435241624
 20
120.0000000000023
 30
0.0
 10
-171.5384813318371
 20
120.0000000000023
 30
0.0
 10
-150.4493998604089
 20
120.0000000000023
 30
0.0
 10
-126.2865120157406
 20
120.0000000000023
 30
0.0
 10
-108.8402994666651
 20
120.0000000000023
 30
0.0
 10
-66.66666666667795
 20
120.0000000000024
 30
0.0
 10
-0.0000000000113257
 20
120.0000000000023
 30
0.0
 10
66.6666666666553
 20
120.0000000000022
 30
0.0
 10
108.840299466668
 20
120.0000000000022
 30
0.0
 10
126.2865120157435
 20
120.0000000000022
 30
0.0
 10
150.4493998604118
 20
120.0000000000022
 30
0.0
 10
171.5384813318397
 20
120.000000000002
 30
0.0
 10
187.6607435241648
 20
120.000000000002
 30
0.0
 10
197.6520662592165
 20
120.0000000000019
 30
0.0
 10
200.000000000001
 20
120.0000000000019
 30
0.0
 10
200.0000000000009
 20
120.0000000000019
 30
0.0
 10
200.0000000000009
 20
120.0000000000019
 30
0.0
 10
200.0000000000008
 20
120.0000000000018
 30
0.0
  0
LINE
  5
CF
330
C2
100
AcDbEntity
  8
0
  6
Continuous
 62
     7
370
    25
100
AcDbLine
 10
-200.0
 20
120.0
 30
0.0
 11
-200.0
 21
100.0
 31
0.0
  0
LINE
  5
D0
330
C2
100
AcDbEntity
  8
0
  6
Continuous
 62
     7
370
    25
100
AcDbLine
 10
200.0
 20
100.0
 30
0.0
 11
200.0
 21
120.0
 31
0.0
  0
LINE
  5
D1
330
C2
100
AcDbEntity
  8
0
  6
Continuous
 62
     7
370
    25
100
AcDbLine
 10
-62.5
 20
0.0
 30
0.0
 11
-62.5
 21
-26.0
 31
0.0
  0
LINE
  5
D2
330
C2
100
AcDbEntity
  8
0
  6
Continuous
 62
     7
370
    25
100
AcDbLine
 10
62.5
 20
0.0
 30
0.0
 11
62.5
 21
-26.0
 31
0.0
  0
LINE
  5
D3
330
C2
100
AcDbEntity
  8
0
  6
Continuous
 62
     7
370
    25
100
AcDbLine
 10
-62.5
 20
-26.0
 30
0.0
 11
62.5
 21
-26.0
 31
0.0
  0
VIEWPORT
  5
13E
330
C2
100
AcDbEntity
  8
0
100
AcDbViewport
 10
0.0
 20
0.0
 30
0.0
 40
205.6
 41
156.0
 68
     1
 69
     1
 12
0.0
 22
0.0
 13
0.0
 23
0.0
 14
10.0
 24
10.0
 15
10.0
 25
10.0
 16
0.0
 26
0.0
 36
1.0
 17
0.0
 27
0.0
 37
0.0
 42
50.0
 43
0.0
 44
0.0
 45
619.1439688716
 50
0.0
 51
0.0
 72
   100
 90
   557152
  1

281
     0
 71
     1
 74
     0
110
0.0
120
0.0
130
0.0
111
1.0
121
0.0
131
0.0
112
0.0
122
1.0
132
0.0
 79
     0
146
0.0
170
     0
 61
     5
348
2F
292
     1
282
     1
141
0.0
142
0.0
 63
   256
361
13F
  0
ENDBLK
  5
C5
330
C2
100
AcDbEntity
  8
0
100
AcDbBlockEnd
  0
BLOCK
  5
D6
330
D4
100
AcDbEntity
  8
0
100
AcDbBlockBegin
  2
*Paper_Space4
 70
     0
 10
0.0
 20
0.0
 30
0.0
  3
*Paper_Space4
  1

  0
SPLINE
  5
DA
330
D4
100
AcDbEntity
  8
0
  6
Continuous
 62
     7
370
    25
100
AcDbSpline
210
0.0
220
0.0
230
1.0
 70
    11
 71
     3
 72
    55
 73
    51
 74
     0
 42
0.000000001
 43
0.00000001
 40
0.0
 40
0.0
 40
0.0
 40
0.0
 40
0.0067069034323719
 40
0.0134138068647436
 40
0.0201207102971155
 40
0.0268276137294874
 40
0.1341380686474368
 40
0.1341380686474368
 40
0.1459962756146732
 40
0.1578544825819095
 40
0.1697126895491459
 40
0.1815708965163823
 40
0.1934291034836185
 40
0.2052873104508549
 40
0.2052873104508549
 40
0.249999999999761
 40
0.2947126895491456
 40
0.2947126895491456
 40
0.3065708965163819
 40
0.3184291034836182
 40
0.3302873104508546
 40
0.3421455174180908
 40
0.3540037243853271
 40
0.3658619313525634
 40
0.3658619313525634
 40
0.5
 40
0.634138068647437
 40
0.634138068647437
 40
0.6459962756146733
 40
0.6578544825819096
 40
0.6697126895491459
 40
0.6815708965163821
 40
0.6934291034836184
 40
0.7052873104508547
 40
0.7052873104508547
 40
0.749999999999983
 40
0.7947126895491455
 40
0.7947126895491455
 40
0.8065708965163818
 40
0.8184291034836181
 40
0.8302873104508544
 40
0.8421455174180906
 40
0.854003724385327
 40
0.8658619313525633
 40
0.8658619313525633
 40
0.9731723862705126
 40
0.9798792897028845
 40
0.9865861931352563
 40
0.9932930965676282
 40
1.0
 40
1.0
 40
1.0
 40
1.0
 10
-0.0000000000006802
 20
-200.0
 30
0.0
 10
-5.000000000000726
 20
-200.0
 30
0.0
 10
-15.00000000000066
 20
-200.0000000000001
 30
0.0
 10
-30.00000000000068
 20
-200.0000000000001
 30
0.0
 10
-45.0000000000007
 20
-200.0000000000001
 30
0.0
 10
-135.0000000000013
 20
-200.0000000000001
 30
0.0
 10
-220.0000000000024
 20
-199.9999999999992
 30
0.0
 10
-308.8402994666681
 20
-199.9999999999989
 30
0.0
 10
-326.2865120157435
 20
-197.6520662592143
 30
0.0
 10
-350.449399860412
 20
-187.6607435241624
 30
0.0
 10
-371.5384813318398
 20
-171.5384813318372
 30
0.0
 10
-387.6607435241649
 20
-150.4493998604091
 30
0.0
 10
-397.6520662592165
 20
-126.2865120157408
 30
0.0
 10
-400.0000000000011
 20
-108.8402994666653
 30
0.0
 10
-400.0000000000009
 20
-66.6666666668438
 30
0.0
 10
-400.0000000000007
 20
-0.0000000001772069
 30
0.0
 10
-400.0000000000006
 20
66.66666666648958
 30
0.0
 10
-400.0000000000003
 20
108.8402994666679
 30
0.0
 10
-397.6520662592158
 20
126.2865120157434
 30
0.0
 10
-387.660743524164
 20
150.4493998604117
 30
0.0
 10
-371.5384813318386
 20
171.5384813318397
 30
0.0
 10
-350.4493998604106
 20
187.6607435241647
 30
0.0
 10
-326.2865120157423
 20
197.6520662592164
 30
0.0
 10
-308.8402994666668
 20
200.0000000000009
 30
0.0
 10
-200.0000000000005
 20
200.0000000000007
 30
0.0
 10
0.0000000000002248
 20
199.9999999999999
 30
0.0
 10
200.0000000000003
 20
199.9999999999997
 30
0.0
 10
308.8402994666673
 20
199.9999999999988
 30
0.0
 10
326.2865120157429
 20
197.6520662592143
 30
0.0
 10
350.4493998604112
 20
187.6607435241623
 30
0.0
 10
371.538481331839
 20
171.5384813318372
 30
0.0
 10
387.6607435241642
 20
150.449399860409
 30
0.0
 10
397.6520662592158
 20
126.2865120157406
 30
0.0
 10
400.0000000000003
 20
108.8402994666651
 30
0.0
 10
400.0
 20
66.66666666667795
 30
0.0
 10
399.9999999999999
 20
0.0000000000114853
 30
0.0
 10
399.9999999999999
 20
-66.66666666665513
 30
0.0
 10
399.9999999999996
 20
-108.840299466668
 30
0.0
 10
397.6520662592151
 20
-126.2865120157435
 30
0.0
 10
387.6607435241633
 20
-150.4493998604117
 30
0.0
 10
371.5384813318378
 20
-171.5384813318398
 30
0.0
 10
350.4493998604098
 20
-187.6607435241648
 30
0.0
 10
326.2865120157414
 20
-197.6520662592165
 30
0.0
 10
308.8402994666659
 20
-200.000000000001
 30
0.0
 10
219.9999999999989
 20
-200.0000000000009
 30
0.0
 10
134.9999999999991
 20
-200.0000000000001
 30
0.0
 10
44.99999999999928
 20
-199.9999999999999
 30
0.0
 10
29.99999999999924
 20
-199.9999999999999
 30
0.0
 10
14.99999999999928
 20
-199.9999999999999
 30
0.0
 10
4.999999999999281
 20
-200.0
 30
0.0
 10
-0.0000000000006802
 20
-200.0
 30
0.0
  0
CIRCLE
  5
DB
330
D4
100
AcDbEntity
  8
0
  6
Continuous
 62
     7
370
    25
100
AcDbCircle
 10
-50.0
 20
-50.0
 30
0.0
 40
5.499999999999979
  0
CIRCLE
  5
DC
330
D4
100
AcDbEntity
  8
0
  6
Continuous
 62
     7
370
    25
100
AcDbCircle
 10
50.0
 20
-50.0
 30
0.0
 40
5.500000000000007
  0
CIRCLE
  5
DD
330
D4
100
AcDbEntity
  8
0
  6
Continuous
 62
     7
370
    25
100
AcDbCircle
 10
50.0
 20
50.0
 30
0.0
 40
5.499999999999986
  0
CIRCLE
  5
DE
330
D4
100
AcDbEntity
  8
0
  6
Continuous
 62
     7
370
    25
100
AcDbCircle
 10
-50.0
 20
50.0
 30
0.0
 40
5.500000000000028
  0
CIRCLE
  5
DF
330
D4
100
AcDbEntity
  8
0
  6
Continuous
 62
     7
370
    25
100
AcDbCircle
 10
0.0
 20
0.0
 30
0.0
 40
22.5
  0
CIRCLE
  5
E4
330
D4
100
AcDbEntity
  8
0
  6
Continuous
 62
     7
370
    25
100
AcDbCircle
 10
-50.0
 20
-50.0
 30
0.0
 40
3.500000000000021
  0
CIRCLE
  5
E5
330
D4
100
AcDbEntity
  8
0
  6
Continuous
 62
     7
370
    25
100
AcDbCircle
 10
-50.0
 20
50.0
 30
0.0
 40
3.5
  0
CIRCLE
  5
E6
330
D4
100
AcDbEntity
  8
0
  6
Continuous
 62
     7
370
    25
100
AcDbCircle
 10
50.0
 20
50.0
 30
0.0
 40
3.5
  0
CIRCLE
  5
E7
330
D4
100
AcDbEntity
  8
0
  6
Continuous
 62
     7
370
    25
100
AcDbCircle
 10
50.0
 20
-50.0
 30
0.0
 40
3.5
  0
LINE
  5
E8
330
D4
100
AcDbEntity
  8
0
  6
Continuous
 62
     7
370
    25
100
AcDbLine
 10
22.3382541359
 20
-2.5
 30
0.0
 11
-22.2196037614
 21
-2.5
 31
0.0
  0
LINE
  5
E9
330
D4
100
AcDbEntity
  8
0
  6
Continuous
 62
     7
370
    25
100
AcDbLine
 10
-22.1863626942
 20
2.5
 30
0.0
 11
22.2763614952
 21
2.5
 31
0.0
  0
LINE
  5
EA
330
D4
100
AcDbEntity
  8
0
  6
Continuous
 62
     7
370
    25
100
AcDbLine
 10
62.5
 20
62.5
 30
0.0
 11
62.5
 21
-62.5
 31
0.0
  0
LINE
  5
EB
330
D4
100
AcDbEntity
  8
0
  6
Continuous
 62
     7
370
    25
100
AcDbLine
 10
-62.5
 20
62.5
 30
0.0
 11
62.5
 21
62.5
 31
0.0
  0
LINE
  5
EC
330
D4
100
AcDbEntity
  8
0
  6
Continuous
 62
     7
370
    25
100
AcDbLine
 10
-62.5
 20
-62.5
 30
0.0
 11
-62.5
 21
62.5
 31
0.0
  0
LINE
  5
ED
330
D4
100
AcDbEntity
  8
0
  6
Continuous
 62
     7
370
    25
100
AcDbLine
 10
62.5
 20
-62.5
 30
0.0
 11
-62.5
 21
-62.5
 31
0.0
  0
VIEWPORT
  5
140
330
D4
100
AcDbEntity
  8
0
100
AcDbViewport
 10
0.0
 20
0.0
 30
0.0
 40
205.6
 41
156.0
 68
     1
 69
     1
 12
0.0
 22
0.0
 13
0.0
 23
0.0
 14
10.0
 24
10.0
 15
10.0
 25
10.0
 16
0.0
 26
0.0
 36
1.0
 17
0.0
 27
0.0
 37
0.0
 42
50.0
 43
0.0
 44
0.0
 45
619.1439688716
 50
0.0
 51
0.0
 72
   100
 90
   557152
  1

281
     0
 71
     1
 74
     0
110
0.0
120
0.0
130
0.0
111
1.0
121
0.0
131
0.0
112
0.0
122
1.0
132
0.0
 79
     0
146
0.0
170
     0
 61
     5
348
2F
292
     1
282
     1
141
0.0
142
0.0
 63
   256
361
141
  0
ENDBLK
  5
D7
330
D4
100
AcDbEntity
  8
0
100
AcDbBlockEnd
  0
BLOCK
  5
F0
330
EE
100
AcDbEntity
  8
0
100
AcDbBlockBegin
  2
*Paper_Space5
 70
     0
 10
0.0
 20
0.0
 30
0.0
  3
*Paper_Space5
  1

  0
SPLINE
  5
F2
330
EE
100
AcDbEntity
  8
0
  6
Continuous
 62
     7
370
    25
100
AcDbSpline
210
0.0
220
0.0
230
1.0
 70
     8
 71
     3
 72
   103
 73
    99
 74
     0
 42
0.000000001
 43
0.00000001
 40
0.0
 40
0.0
 40
0.0
 40
0.0
 40
0.0018051717863721
 40
0.0041420851330194
 40
0.0060471417925837
 40
0.0080487815119327
 40
0.0103828960664696
 40
0.0164710690495185
 40
0.0228092889531989
 40
0.0292767389378982
 40
0.0358944313994069
 40
0.0469868559762335
 40
0.0590109030472188
 40
0.0745366241240213
 40
0.0913744445936738
 40
0.1089067785320811
 40
0.1611267726672247
 40
0.1713209260347381
 40
0.1814954291367694
 40
0.1911987928721419
 40
0.1994687243944842
 40
0.2041182391212601
 40
0.2081124076040997
 40
0.2114579958878741
 40
0.2141593109057199
 40
0.2166858171304358
 40
0.2194703293766157
 40
0.2231766821611917
 40
0.227779325730348
 40
0.2325471778850095
 40
0.2371451577156556
 40
0.2415800786944214
 40
0.2458582756638724
 40
0.2552541141513178
 40
0.2638641439588383
 40
0.2720792185305859
 40
0.2840727767933254
 40
0.2956261272195538
 40
0.3066861435512914
 40
0.3174627087941992
 40
0.3282777874480674
 40
0.3391702712039209
 40
0.3501648540814602
 40
0.3612495148718271
 40
0.3723126136713535
 40
0.3838092426935384
 40
0.4014747727316449
 40
0.4205419390875501
 40
0.4410183610040277
 40
0.4629116130718983
 40
0.4862289940356913
 40
0.5109772975947164
 40
0.5371625930035222
 40
0.5587482457207162
 40
0.5812262443577029
 40
0.6044218362722299
 40
0.6269606962660884
 40
0.6485483691071537
 40
0.6691820622491744
 40
0.6888596851089296
 40
0.710606550321228
 40
0.7310484974543091
 40
0.7501847486505209
 40
0.7680151812797504
 40
0.784540201031672
 40
0.7997606191402798
 40
0.8081193240438576
 40
0.8160321713953058
 40
0.823512297980232
 40
0.8305602185106132
 40
0.8371761098182483
 40
0.8433601551487092
 40
0.8491125390499853
 40
0.8553625117768249
 40
0.8609174093714105
 40
0.8673434434453587
 40
0.8746405822568115
 40
0.8828087559433242
 40
0.8918478408433513
 40
0.901757642396744
 40
0.9123885196962827
 40
0.9226755626498399
 40
0.9314417458730206
 40
0.9397619490995602
 40
0.9476360753070108
 40
0.9550640688309301
 40
0.9620459112478769
 40
0.9685816176003258
 40
0.9744204809454433
 40
0.9767463414316099
 40
0.9786827063281555
 40
0.9798593397422478
 40
0.9814673182346526
 40
0.9835052845790274
 40
0.988199371927563
 40
0.9933903659006988
 40
0.9986865683356188
 40
1.0
 40
1.0
 40
1.0
 40
1.0
 10
301.4626243122871
 20
-19.64983194925926
 30
0.0
 10
301.4552104450204
 20
-19.65455507493633
 30
0.0
 10
301.4381988400222
 20
-19.66539259677003
 30
0.0
 10
301.0545109094152
 20
-19.97692775158304
 30
0.0
 10
300.7146302973745
 20
-20.23509066361542
 30
0.0
 10
300.1163503402296
 20
-20.66884072335455
 30
0.0
 10
298.817423665233
 20
-21.55469942592617
 30
0.0
 10
296.3980931376068
 20
-22.98431056225764
 30
0.0
 10
293.1806544027544
 20
-24.89378221100987
 30
0.0
 10
289.6675614373564
 20
-26.99066475590788
 30
0.0
 10
285.0651694936924
 20
-29.73302315909043
 30
0.0
 10
279.3763049919809
 20
-33.1103418230268
 30
0.0
 10
271.9333223649009
 20
-37.50748801042428
 30
0.0
 10
263.3281674513122
 20
-42.56144004553812
 30
0.0
 10
253.586308038335
 20
-48.24318770540589
 30
0.0
 10
236.589331265777
 20
-58.08051507894896
 30
0.0
 10
220.7805657149503
 20
-67.08905122740754
 30
0.0
 10
206.3355609516683
 20
-75.21700152770136
 30
0.0
 10
200.3447822974591
 20
-78.58118612456268
 30
0.0
 10
194.7108772255328
 20
-81.71149003780737
 30
0.0
 10
190.2550598358985
 20
-84.24146048319489
 30
0.0
 10
186.8214829672946
 20
-86.05086424948291
 30
0.0
 10
184.2770701560926
 20
-87.245718522656
 30
0.0
 10
182.0938727750281
 20
-88.1895092840869
 30
0.0
 10
180.1993855492146
 20
-88.95055876258023
 30
0.0
 10
178.430544012448
 20
-89.61800832002386
 30
0.0
 10
176.4008754343158
 20
-90.33630923173328
 30
0.0
 10
173.8459459011098
 20
-91.17023041899539
 30
0.0
 10
170.7528900428347
 20
-92.0770392468945
 30
0.0
 10
167.3346601045486
 20
-92.95708169892417
 30
0.0
 10
163.8494013678455
 20
-93.73442063669937
 30
0.0
 10
160.397244996546
 20
-94.39365049862822
 30
0.0
 10
155.5963645220453
 20
-95.16635039881155
 30
0.0
 10
149.5062488602955
 20
-95.86934811984524
 30
0.0
 10
142.187266832482
 20
-96.29129953698667
 30
0.0
 10
134.134312150996
 20
-96.34482914914177
 30
0.0
 10
125.3030620258729
 20
-95.86158181005572
 30
0.0
 10
115.872020597797
 20
-94.67742846364119
 30
0.0
 10
107.0393071886231
 20
-92.94623654359127
 30
0.0
 10
98.75813058829759
 20
-90.71808894250003
 30
0.0
 10
90.99428322903476
 20
-88.02340169696424
 30
0.0
 10
83.7211956875068
 20
-84.87262382081529
 30
0.0
 10
77.02177527259191
 20
-81.28758620029167
 30
0.0
 10
70.95033312186565
 20
-77.3486437540177
 30
0.0
 10
64.69232254410991
 20
-73.43437916662782
 30
0.0
 10
57.22883250660512
 20
-68.7337798271624
 30
0.0
 10
48.22502027103901
 20
-63.0957280143688
 30
0.0
 10
37.49817208056282
 20
-56.40083527466885
 30
0.0
 10
25.9210608850933
 20
-49.21030133497499
 30
0.0
 10
13.4835768990987
 20
-41.52497364845303
 30
0.0
 10
0.1716916717430378
 20
-33.34744316008392
 30
0.0
 10
-14.02881448429434
 20
-24.68107471451528
 30
0.0
 10
-27.97177521336984
 20
-16.23425539003506
 30
0.0
 10
-41.54519650892351
 20
-8.071100165743035
 30
0.0
 10
-54.60017588515358
 20
-0.27475922788716
 30
0.0
 10
-67.9042357701768
 20
7.610011889122317
 30
0.0
 10
-81.09018960288854
 20
15.36300257665343
 30
0.0
 10
-93.82868063276723
 20
22.7934375802147
 30
0.0
 10
-106.0559972804323
 20
29.86928933096963
 30
0.0
 10
-118.3655952048313
 20
36.93764298824176
 30
0.0
 10
-130.6875795336496
 20
43.95914511370434
 30
0.0
 10
-142.9514088605976
 20
50.89528766251185
 30
0.0
 10
-154.4747994921535
 20
57.36873868016227
 30
0.0
 10
-165.2487824985317
 20
63.38452108047083
 30
0.0
 10
-175.2657896594742
 20
68.94727884556491
 30
0.0
 10
-183.3930063362411
 20
73.43873236012419
 30
0.0
 10
-189.7895218861205
 20
76.96143656080982
 30
0.0
 10
-194.6214651081048
 20
79.61623306462766
 30
0.0
 10
-199.1927306445845
 20
82.12232061710365
 30
0.0
 10
-203.5054888523131
 20
84.48190019787053
 30
0.0
 10
-207.5590511297462
 20
86.69551846197709
 30
0.0
 10
-211.3528273966274
 20
88.7636964873866
 30
0.0
 10
-215.0764150494851
 20
90.79039712905676
 30
0.0
 10
-218.6763623798125
 20
92.74672720385159
 30
0.0
 10
-222.4184320818017
 20
94.77720255597636
 30
0.0
 10
-226.379093195178
 20
96.92302381907015
 30
0.0
 10
-230.8809396021637
 20
99.35788302767496
 30
0.0
 10
-235.9251446062304
 20
102.0809361649062
 30
0.0
 10
-241.5129567408285
 20
105.0912691322239
 30
0.0
 10
-247.6147553621892
 20
108.3712864945971
 30
0.0
 10
-253.9812501685951
 20
111.7856929036734
 30
0.0
 10
-260.1162780253326
 20
115.0684909962914
 30
0.0
 10
-265.7774775266591
 20
118.0916951753439
 30
0.0
 10
-270.9422822202901
 20
120.8450019320367
 30
0.0
 10
-275.832610019359
 20
123.4478378143743
 30
0.0
 10
-280.4465322511593
 20
125.8998190646426
 30
0.0
 10
-284.7876765575624
 20
128.2040999078872
 30
0.0
 10
-288.7893520291527
 20
130.3242354229604
 30
0.0
 10
-291.8575206607971
 20
131.9515226526415
 30
0.0
 10
-293.7891370758394
 20
132.9675405152259
 30
0.0
 10
-294.7386957563967
 20
133.471235865814
 30
0.0
 10
-295.4063549493581
 20
133.8415532070284
 30
0.0
 10
-295.9122078819609
 20
134.1311325892941
 30
0.0
 10
-296.6712395284374
 20
134.5815753797966
 30
0.0
 10
-297.6621413765203
 20
135.2191301538425
 30
0.0
 10
-298.5523524379834
 20
135.8313651784741
 30
0.0
 10
-299.4156825796245
 20
136.5408529983024
 30
0.0
 10
-299.3256599869922
 20
136.4495558858886
 30
0.0
 10
-299.3077711716817
 20
136.431413804722
 30
0.0
  0
SPLINE
  5
F5
330
EE
100
AcDbEntity
  8
0
  6
Continuous
 62
     7
370
    25
100
AcDbSpline
210
0.0
220
0.0
230
1.0
 70
     8
 71
     3
 72
    28
 73
    24
 74
     0
 42
0.000000001
 43
0.00000001
 40
0.0
 40
0.0
 40
0.0
 40
0.0
 40
0.0535965505588752
 40
0.1334012305373947
 40
0.205598942474527
 40
0.2701250606180202
 40
0.3245329104424164
 40
0.372704040849922
 40
0.4147722070270281
 40
0.4508581306753848
 40
0.4811109613296147
 40
0.5057204565012705
 40
0.5282952515678794
 40
0.5614042340935099
 40
0.6045946606848229
 40
0.6571702625750503
 40
0.69708043675276
 40
0.7406904495497377
 40
0.7879107687960599
 40
0.8387087308921235
 40
0.8931456978018081
 40
0.9477509530778968
 40
1.0
 40
1.0
 40
1.0
 40
1.0
 10
83.64371771538036
 20
-128.680308845191
 30
0.0
 10
85.11586396118746
 20
-129.547361696739
 30
0.0
 10
88.78001993155996
 20
-131.7054467998165
 30
0.0
 10
95.0354683776308
 20
-134.657204014074
 30
0.0
 10
102.0789943899438
 20
-137.403555259332
 30
0.0
 10
108.665768059617
 20
-139.4790722065968
 30
0.0
 10
114.6611628000528
 20
-141.0090308173392
 30
0.0
 10
120.0039719704708
 20
-142.1035623176736
 30
0.0
 10
124.765237025048
 20
-142.8747746906673
 30
0.0
 10
128.9053091802448
 20
-143.3923781389068
 30
0.0
 10
132.4064880971553
 20
-143.7195199196817
 30
0.0
 10
135.3914719222476
 20
-143.916432938344
 30
0.0
 10
138.4920132415431
 20
-144.0531081697687
 30
0.0
 10
142.3136043317356
 20
-144.1226612209964
 30
0.0
 10
147.2953874813345
 20
-144.0271932331685
 30
0.0
 10
152.5191480816249
 20
-143.6691963277648
 30
0.0
 10
157.6955632923315
 20
-143.0452342283385
 30
0.0
 10
162.5837780672043
 20
-142.2090930359165
 30
0.0
 10
167.726913357251
 20
-141.0133917285984
 30
0.0
 10
173.0405297636045
 20
-139.4020072149569
 30
0.0
 10
178.1867871044448
 20
-137.2787861478312
 30
0.0
 10
183.145265234753
 20
-134.9589758124971
 30
0.0
 10
186.4100032864583
 20
-133.4134728976853
 30
0.0
 10
188.0063774907983
 20
-132.6577611233061
 30
0.0
  0
SPLINE
  5
F6
330
EE
100
AcDbEntity
  8
0
  6
Continuous
 62
     7
370
    25
100
AcDbSpline
210
0.0
220
0.0
230
1.0
 70
    11
 71
     3
 72
    55
 73
    51
 74
     0
 42
0.000000001
 43
0.00000001
 40
0.0
 40
0.0
 40
0.0
 40
0.0
 40
0.0067069034323719
 40
0.0134138068647436
 40
0.0201207102971155
 40
0.0268276137294874
 40
0.1341380686474368
 40
0.1341380686474368
 40
0.1459962756146732
 40
0.1578544825819095
 40
0.1697126895491459
 40
0.1815708965163823
 40
0.1934291034836185
 40
0.2052873104508549
 40
0.2052873104508549
 40
0.249999999999761
 40
0.2947126895491456
 40
0.2947126895491456
 40
0.3065708965163819
 40
0.3184291034836182
 40
0.3302873104508546
 40
0.3421455174180908
 40
0.3540037243853271
 40
0.3658619313525634
 40
0.3658619313525634
 40
0.5
 40
0.634138068647437
 40
0.634138068647437
 40
0.6459962756146733
 40
0.6578544825819096
 40
0.6697126895491459
 40
0.6815708965163821
 40
0.6934291034836184
 40
0.7052873104508547
 40
0.7052873104508547
 40
0.749999999999983
 40
0.7947126895491455
 40
0.7947126895491455
 40
0.8065708965163818
 40
0.8184291034836181
 40
0.8302873104508544
 40
0.8421455174180906
 40
0.854003724385327
 40
0.8658619313525633
 40
0.8658619313525633
 40
0.9731723862705126
 40
0.9798792897028845
 40
0.9865861931352563
 40
0.9932930965676282
 40
1.0
 40
1.0
 40
1.0
 40
1.0
 10
141.4213562373093
 20
179.6257086085619
 30
0.0
 10
137.8858223313765
 20
181.6667288881186
 30
0.0
 10
130.814754519511
 20
185.7487694472321
 30
0.0
 10
120.2081528017128
 20
191.8718302859024
 30
0.0
 10
109.6015510839146
 20
197.9948911245727
 30
0.0
 10
45.96194077712501
 20
234.7332561565945
 30
0.0
 10
-14.14213562373176
 20
269.4306009090597
 30
0.0
 10
-76.96171381925565
 20
305.6955714797318
 30
0.0
 10
-90.95828888861426
 20
311.8587501265566
 30
0.0
 10
-115.1089627956078
 20
317.643640482914
 30
0.0
 10
-141.4213562373105
 20
319.6711162576224
 30
0.0
 10
-167.7337496790136
 20
317.6436404829138
 30
0.0
 10
-191.8844235860069
 20
311.8587501265564
 30
0.0
 10
-205.8809986553655
 20
305.6955714797316
 30
0.0
 10
-235.7022603953905
 20
288.4801235183283
 30
0.0
 10
-282.8427124744933
 20
261.2665197909046
 30
0.0
 10
-329.9831645535966
 20
234.0529160634809
 30
0.0
 10
-359.8044262938743
 20
216.8374681019321
 30
0.0
 10
-370.4805216234619
 20
208.7574173031085
 30
0.0
 10
-380.5013314124986
 20
194.8155300180164
 30
0.0
 10
-384.0134030056801
 20
179.6257086085609
 30
0.0
 10
-380.5013314124984
 20
164.4358871991058
 30
0.0
 10
-370.4805216234619
 20
150.4939999140136
 30
0.0
 10
-359.8044262938742
 20
142.4139491151901
 30
0.0
 10
-282.8427124746199
 20
97.98489742629097
 30
0.0
 10
-141.42135623731
 20
16.34408624402046
 30
0.0
 10
-0.0000000000003053
 20
-65.29672493825011
 30
0.0
 10
76.96171381925527
 20
-109.7257766271497
 30
0.0
 10
90.95828888861394
 20
-115.8889552739745
 30
0.0
 10
115.1089627956073
 20
-121.6738456303317
 30
0.0
 10
141.4213562373102
 20
-123.7013214050402
 30
0.0
 10
167.7337496790133
 20
-121.6738456303315
 30
0.0
 10
191.8844235860065
 20
-115.8889552739742
 30
0.0
 10
205.8809986553651
 20
-109.7257766271494
 30
0.0
 10
235.7022603955076
 20
-92.51032866567851
 30
0.0
 10
282.8427124746108
 20
-65.29672493825497
 30
0.0
 10
329.9831645537137
 20
-38.08312121083135
 30
0.0
 10
359.8044262938739
 20
-20.86767324934989
 30
0.0
 10
370.4805216234616
 20
-12.78762245052636
 30
0.0
 10
380.5013314124981
 20
1.154264834565856
 30
0.0
 10
384.0134030056797
 20
16.34408624402117
 30
0.0
 10
380.501331412498
 20
31.5339076534764
 30
0.0
 10
370.4805216234614
 20
45.47579493856853
 30
0.0
 10
359.8044262938737
 20
53.55584573739208
 30
0.0
 10
296.9848480983496
 20
89.82081630806456
 30
0.0
 10
236.8807716974933
 20
124.5181610605293
 30
0.0
 10
173.241161390704
 20
161.256526092551
 30
0.0
 10
162.6345596729057
 20
167.3795869312213
 30
0.0
 10
152.0279579551075
 20
173.5026477698916
 30
0.0
 10
144.956890143242
 20
177.5846883290051
 30
0.0
 10
141.4213562373093
 20
179.6257086085619
 30
0.0
  0
LWPOLYLINE
  5
F8
330
EE
100
AcDbEntity
  8
0
  6
Continuous
 62
     7
370
    25
100
AcDbPolyline
 90
        9
 70
   128
 43
0.0
 10
-15.9099025767
 20
27.5564277753
 10
-16.7209609488
 20
27.8692783894
 10
-17.6776695297
 20
27.9791369157
 10
-18.6343781106
 20
27.8692783894
 10
-19.4454364826
 20
27.5564277753
 10
-19.9873683609
 20
27.0882137433
 10
-20.1776695297
 20
26.5359176355
 10
-19.9873683609
 20
25.9836215277
 10
-19.4454364826
 20
25.5154074957
  0
LWPOLYLINE
  5
FA
330
EE
100
AcDbEntity
  8
0
  6
Continuous
 62
     7
370
    25
100
AcDbPolyline
 90
        9
 70
   128
 43
0.0
 10
15.9099025767
 20
5.1052047002
 10
16.7209609488
 20
4.792354086
 10
17.6776695297
 20
4.6824955597
 10
18.6343781106
 20
4.792354086
 10
19.4454364826
 20
5.1052047002
 10
19.9873683609
 20
5.5734187321
 10
20.1776695297
 20
6.1257148399
 10
19.9873683609
 20
6.6780109477
 10
19.4454364826
 20
7.1462249797
  0
SPLINE
  5
FB
330
EE
100
AcDbEntity
  8
0
  6
Continuous
 62
     7
370
    25
100
AcDbSpline
210
0.0
220
0.0
230
1.0
 70
     8
 71
     3
 72
    50
 73
    46
 74
     0
 42
0.000000001
 43
0.00000001
 40
0.0
 40
0.0
 40
0.0
 40
0.0
 40
0.0060614520215707
 40
0.0164133533666839
 40
0.0267190469775924
 40
0.0369759333964154
 40
0.047230246073314
 40
0.0575272885278468
 40
0.0678999605067701
 40
0.0783525173888705
 40
0.0888089236214926
 40
0.3397626732044188
 40
0.5907164227873449
 40
0.599679056701021
 40
0.6086416906146968
 40
0.6175637949337172
 40
0.6264197594753769
 40
0.6352300702573032
 40
0.64401717713719
 40
0.652811398537362
 40
0.6631170921482704
 40
0.6734689934933836
 40
0.6838362551631071
 40
0.6941928145888684
 40
0.70450838999354
 40
0.7147707030002298
 40
0.7246119162084678
 40
0.7344849371108236
 40
0.7444203307259866
 40
0.7544400147999881
 40
0.7644781647833052
 40
0.7745163147666223
 40
0.7845544647499393
 40
0.8397642896581831
 40
0.9100313395414028
 40
0.9192329770261101
 40
0.9284346145108172
 40
0.9375991683863404
 40
0.9466931629059544
 40
0.955738589508634
 40
0.9647597425147243
 40
0.9750220555214145
 40
0.9853376309260861
 40
0.9956941903518474
 40
1.0
 40
1.0
 40
1.0
 40
1.0
 10
-382.679098805332
 20
163.2945252329361
 30
0.0
 10
-382.6983251567729
 20
161.9941729988302
 30
0.0
 10
-382.7503867583544
 20
158.4730462715072
 30
0.0
 10
-381.3509406586001
 20
152.7784523857117
 30
0.0
 10
-378.6675890935935
 20
146.3266725423423
 30
0.0
 10
-374.6698647676175
 20
140.1183490324025
 30
0.0
 10
-369.4817430249246
 20
134.217516881999
 30
0.0
 10
-363.1454495618186
 20
128.6706421784683
 30
0.0
 10
-355.6610674121973
 20
123.5667840929562
 30
0.0
 10
-347.3100335613253
 20
118.9016911652638
 30
0.0
 10
-276.1722778093065
 20
77.55565512394101
 30
0.0
 10
-141.2599952140125
 20
0.102955161785212
 30
0.0
 10
-7.398012769244039
 20
-77.4890818839473
 30
0.0
 10
63.33200549594694
 20
-118.1740263275524
 30
0.0
 10
70.31850034565451
 20
-122.2782945148963
 30
0.0
 10
77.57683872290735
 20
-126.2007204178088
 30
0.0
 10
85.52413313245796
 20
-129.6024665439741
 30
0.0
 10
93.94140037845273
 20
-132.5410105986605
 30
0.0
 10
102.8024263845571
 20
-134.9799528914874
 30
0.0
 10
112.5565132948575
 20
-137.0149083950953
 30
0.0
 10
123.2043982540551
 20
-138.5167831070204
 30
0.0
 10
134.6589846748426
 20
-139.3519401795861
 30
0.0
 10
146.2241161957376
 20
-139.4184905050331
 30
0.0
 10
157.7102723650811
 20
-138.7110295011436
 30
0.0
 10
168.9444873131397
 20
-137.2596570743333
 30
0.0
 10
179.6341014683584
 20
-135.1083957671565
 30
0.0
 10
189.6888140409737
 20
-132.3203143270487
 30
0.0
 10
199.0430232061996
 20
-128.9470575729845
 30
0.0
 10
207.7830076778002
 20
-124.9914453514829
 30
0.0
 10
215.630128421207
 20
-120.419685968357
 30
0.0
 10
223.540120059482
 20
-115.8645734213685
 30
0.0
 10
231.4452999233003
 20
-111.2979994460936
 30
0.0
 10
251.2147954360705
 20
-99.88733209840098
 30
0.0
 10
286.788066277092
 20
-79.33991770281001
 30
0.0
 10
322.1818429414911
 20
-58.94471681913124
 30
0.0
 10
345.4322717292714
 20
-45.48417087017894
 30
0.0
 10
352.716745663447
 20
-41.33403852565418
 30
0.0
 10
359.7544141121417
 20
-37.06412835535508
 30
0.0
 10
365.8308160139811
 20
-32.36234912865243
 30
0.0
 10
371.0669505267149
 20
-27.37593073615371
 30
0.0
 10
375.5813616382297
 20
-21.88021004611495
 30
0.0
 10
379.2243528772491
 20
-15.87543083265534
 30
0.0
 10
381.6744945461086
 20
-9.390279626045592
 30
0.0
 10
382.8533211284754
 20
-4.053757905474257
 30
0.0
 10
382.7186475765082
 20
-0.9096686251172104
 30
0.0
 10
382.6790988053315
 20
0.0136371442144567
 30
0.0
  0
LINE
  5
FE
330
EE
100
AcDbEntity
  8
0
  6
Continuous
 62
     7
370
    25
100
AcDbLine
 10
-382.8427124489
 20
179.6244089224
 30
0.0
 11
-382.8427124489
 21
163.2935926847
 31
0.0
  0
LINE
  5
FF
330
EE
100
AcDbEntity
  8
0
  6
Continuous
 62
     7
370
    25
100
AcDbLine
 10
382.8427124489
 20
0.0145696924
 30
0.0
 11
382.8427124489
 21
16.3453859302
 31
0.0
  0
LINE
  5
100
330
EE
100
AcDbEntity
  8
0
  6
Continuous
 62
     7
370
    25
100
AcDbLine
 10
19.4454364826
 20
7.1462249797
 30
0.0
 11
-15.9099025767
 21
27.5564277753
 31
0.0
  0
LINE
  5
101
330
EE
100
AcDbEntity
  8
0
  6
Continuous
 62
     7
370
    25
100
AcDbLine
 10
-19.4454364826
 20
25.5154074957
 30
0.0
 11
15.9099025767
 21
5.1052047002
 31
0.0
  0
LINE
  5
102
330
EE
100
AcDbEntity
  8
0
  6
Continuous
 62
    60
370
    25
100
AcDbLine
 10
19.4454364826
 20
5.1052047002
 30
0.0
 11
19.4454364826
 21
7.1462249797
 31
0.0
  0
LINE
  5
103
330
EE
100
AcDbEntity
  8
0
  6
Continuous
 62
    60
370
    25
100
AcDbLine
 10
-15.9099025767
 20
23.4743872162
 30
0.0
 11
-15.9099025767
 21
27.5564277753
 31
0.0
  0
VIEWPORT
  5
142
330
EE
100
AcDbEntity
  8
0
100
AcDbViewport
 10
0.0
 20
0.0
 30
0.0
 40
205.6
 41
156.0
 68
     1
 69
     1
 12
0.0
 22
0.0
 13
0.0
 23
0.0
 14
10.0
 24
10.0
 15
10.0
 25
10.0
 16
0.0
 26
0.0
 36
1.0
 17
0.0
 27
0.0
 37
0.0
 42
50.0
 43
0.0
 44
0.0
 45
619.1439688716
 50
0.0
 51
0.0
 72
   100
 90
   557152
  1

281
     0
 71
     1
 74
     0
110
0.0
120
0.0
130
0.0
111
1.0
121
0.0
131
0.0
112
0.0
122
1.0
132
0.0
 79
     0
146
0.0
170
     0
 61
     5
348
2F
292
     1
282
     1
141
0.0
142
0.0
 63
   256
361
143
  0
ENDBLK
  5
F1
330
EE
100
AcDbEntity
  8
0
100
AcDbBlockEnd
  0
BLOCK
  5
106
330
104
100
AcDbEntity
  8
0
100
AcDbBlockBegin
  2
*Paper_Space6
 70
     0
 10
0.0
 20
0.0
 30
0.0
  3
*Paper_Space6
  1

  0
SPLINE
  5
108
330
104
100
AcDbEntity
  8
0
  6
Continuous
 62
     7
370
    25
100
AcDbSpline
210
0.0
220
0.0
230
1.0
 70
     8
 71
     3
 72
   114
 73
   110
 74
     0
 42
0.000000001
 43
0.00000001
 40
0.0
 40
0.0
 40
0.0
 40
0.0
 40
0.000532132260206
 40
0.0023085514508784
 40
0.0043261417082978
 40
0.0101466855487703
 40
0.0162465567178196
 40
0.0223984688462101
 40
0.02860464523348
 40
0.0348927223609871
 40
0.0604167462804737
 40
0.0830231181578434
 40
0.1064030262818299
 40
0.130333024619683
 40
0.1416638668939839
 40
0.1530257774323784
 40
0.1642294646244843
 40
0.174184478900823
 40
0.1827485323777575
 40
0.185789742849942
 40
0.1885145927925687
 40
0.1909253539666855
 40
0.19365331336984
 40
0.197246415608655
 40
0.20167772140669
 40
0.2062199097594005
 40
0.2136478631166348
 40
0.2206312773161543
 40
0.2276022459388312
 40
0.2346407734491825
 40
0.2404588701319335
 40
0.2464561637314271
 40
0.2523756812842844
 40
0.2573233526397138
 40
0.2612186765858942
 40
0.2665308220770231
 40
0.2720578012554563
 40
0.2778307368581768
 40
0.2838503523039821
 40
0.290222867039555
 40
0.2970534712572077
 40
0.305101668409562
 40
0.3137552476946567
 40
0.3230451066433138
 40
0.3329985652535518
 40
0.343544688535646
 40
0.3546643025453315
 40
0.3732940569964117
 40
0.3933318755246328
 40
0.414770599018983
 40
0.4391884460381655
 40
0.4634032927581018
 40
0.4867930446425759
 40
0.5093562764124298
 40
0.5310919610325787
 40
0.5527972477251023
 40
0.5736081822790086
 40
0.5935247591820343
 40
0.6125472805795651
 40
0.6306763127854804
 40
0.6479126422736493
 40
0.6649828774717886
 40
0.6894928778747579
 40
0.7152089979904095
 40
0.7421341569730455
 40
0.7702708761579852
 40
0.7812333175723601
 40
0.7915916182339475
 40
0.8008904827043395
 40
0.8091298989871157
 40
0.8163099152904161
 40
0.8224306110139825
 40
0.8263260058276544
 40
0.8296256133295647
 40
0.8325527816323365
 40
0.8363387768861759
 40
0.8411719264440127
 40
0.8470525585816265
 40
0.8539810586407978
 40
0.8619578543748039
 40
0.8723584014122449
 40
0.8838337525255492
 40
0.8948644853288031
 40
0.9052338098831262
 40
0.9149400377042237
 40
0.9239817411988633
 40
0.9323577532721291
 40
0.9390689451317698
 40
0.944691996477261
 40
0.94662121622519
 40
0.9484095241859299
 40
0.950129460366564
 40
0.9517878739633029
 40
0.953978063636298
 40
0.9566933913116343
 40
0.9597979340574285
 40
0.9622360599967061
 40
0.9641625509071151
 40
0.9662160859788662
 40
0.9684627683059353
 40
0.9723442956027377
 40
0.976385274624737
 40
0.9795650850681069
 40
0.9825561472741634
 40
0.9860172841771647
 40
0.9900919236765919
 40
0.9942394073260657
 40
0.9979662077577447
 40
1.0
 40
1.0
 40
1.0
 40
1.0
 10
336.163703291375
 20
39.60033457593844
 30
0.0
 10
336.1664323891458
 20
39.60663323993815
 30
0.0
 10
336.1782720446024
 20
39.63395875842757
 30
0.0
 10
335.9351463467525
 20
39.40327073387281
 30
0.0
 10
335.1951086645462
 20
38.6561405006432
 30
0.0
 10
333.5129125803442
 20
36.91656216643798
 30
0.0
 10
331.4248873154011
 20
34.77363396347386
 30
0.0
 10
329.1776831170019
 20
32.47299452612233
 30
0.0
 10
326.8487707227538
 20
30.09975827720887
 30
0.0
 10
322.0739365367411
 20
25.25479027337744
 30
0.0
 10
315.1201368539707
 20
18.27559373626333
 30
0.0
 10
305.7747491072722
 20
9.048467744105954
 30
0.0
 10
296.4449898567123
 20
-0.0180879927826408
 30
0.0
 10
288.4834773279014
 20
-7.635832793789008
 30
0.0
 10
282.1198558224814
 20
-13.65911685392063
 30
0.0
 10
277.4815462756113
 20
-18.02173159358096
 30
0.0
 10
272.9856377487042
 20
-22.22004821300166
 30
0.0
 10
269.1053334877189
 20
-25.83938224329709
 30
0.0
 10
266.5072332961583
 20
-28.26092958787691
 30
0.0
 10
264.6666039533723
 20
-29.67425122504402
 30
0.0
 10
263.5844454288923
 20
-30.4521528975242
 30
0.0
 10
262.5524575373482
 20
-31.14920583341404
 30
0.0
 10
261.3519786764089
 20
-31.91572877646668
 30
0.0
 10
259.7450730290449
 20
-32.87211547990761
 30
0.0
 10
257.7356132358414
 20
-33.96671577305106
 30
0.0
 10
254.9052666837557
 20
-35.36569627528485
 30
0.0
 10
251.2987142101654
 20
-36.93079536799947
 30
0.0
 10
246.7870656441793
 20
-38.59071875523417
 30
0.0
 10
242.0362841540164
 20
-40.06823110234946
 30
0.0
 10
237.2578644914746
 20
-41.30953651968792
 30
0.0
 10
232.5014657655209
 20
-42.33990363937825
 30
0.0
 10
227.8642754454797
 20
-43.17178561086202
 30
0.0
 10
223.322118046332
 20
-43.82264182866027
 30
0.0
 10
219.2612223553527
 20
-44.27451189145095
 30
0.0
 10
215.3083336612885
 20
-44.61575935394642
 30
0.0
 10
211.1354708271355
 20
-44.87025423640922
 30
0.0
 10
206.3867044508293
 20
-45.02098652261526
 30
0.0
 10
201.4057107631707
 20
-45.02890233404754
 30
0.0
 10
196.1732361322517
 20
-44.87225882508172
 30
0.0
 10
190.6529658732799
 20
-44.5246320371451
 30
0.0
 10
184.6029869259299
 20
-43.92967812043768
 30
0.0
 10
178.0065218546944
 20
-43.01587341271495
 30
0.0
 10
170.9040751115036
 20
-41.69988411168706
 30
0.0
 10
163.5342848968814
 20
-39.96011173806406
 30
0.0
 10
156.0869676263752
 20
-37.70007949191061
 30
0.0
 10
148.1647715195227
 20
-35.34178785342458
 30
0.0
 10
138.0849904719745
 20
-32.33647102294639
 30
0.0
 10
125.6378453477626
 20
-28.64379073727965
 30
0.0
 10
110.621787234756
 20
-24.20781511313271
 30
0.0
 10
94.1635972456517
 20
-19.37066197898838
 30
0.0
 10
76.66744142499778
 20
-14.25745374715635
 30
0.0
 10
58.65392184745599
 20
-9.027480093067307
 30
0.0
 10
41.07052270600188
 20
-3.957605955454441
 30
0.0
 10
24.07559234874967
 20
0.9077497191915807
 30
0.0
 10
7.470697348780517
 20
5.626827219867556
 30
0.0
 10
-8.726513879724035
 20
10.19530007845004
 30
0.0
 10
-24.49844389462084
 20
14.60918337590474
 30
0.0
 10
-39.62479574588035
 20
18.80926099139099
 30
0.0
 10
-54.10305162981697
 20
22.79792045105675
 30
0.0
 10
-67.93082296750892
 20
26.57779264841542
 30
0.0
 10
-81.29056359064501
 20
30.20155550531797
 30
0.0
 10
-96.3082580668781
 20
34.2449379896293
 30
0.0
 10
-113.5343687399183
 20
38.8426959099874
 30
0.0
 10
-133.3375838091283
 20
44.07537043337269
 30
0.0
 10
-154.1266104772831
 20
49.51372225161134
 30
0.0
 10
-171.1613006137752
 20
53.92602849628117
 30
0.0
 10
-183.9424399152225
 20
57.21485854191144
 30
0.0
 10
-191.8616479649861
 20
59.2455116468323
 30
0.0
 10
-199.081733091897
 20
61.09109232060754
 30
0.0
 10
-205.4834863769828
 20
62.72302520073529
 30
0.0
 10
-211.0656354949559
 20
64.14268374459725
 30
0.0
 10
-215.5247529875327
 20
65.27448055155412
 30
0.0
 10
-218.9796589363317
 20
66.1501045552427
 30
0.0
 10
-221.6073130169668
 20
66.81537274853055
 30
0.0
 10
-224.2085173940757
 20
67.47335634369063
 30
0.0
 10
-227.209649718764
 20
68.23177873172207
 30
0.0
 10
-230.9798382832145
 20
69.18339727759842
 30
0.0
 10
-235.5688716683476
 20
70.33998052677907
 30
0.0
 10
-240.977692393384
 20
71.70080688014914
 30
0.0
 10
-247.5653600529523
 20
73.35494918871906
 30
0.0
 10
-255.3401743438616
 20
75.30255262542867
 30
0.0
 10
-263.9151416952353
 20
77.44476510429926
 30
0.0
 10
-272.479834148962
 20
79.57866277045684
 30
0.0
 10
-280.5815282414507
 20
81.59234452321
 30
0.0
 10
-288.1614803520486
 20
83.47181372797434
 30
0.0
 10
-295.2200121929162
 20
85.21939329434647
 30
0.0
 10
-301.4896853932323
 20
86.76534357028771
 30
0.0
 10
-306.8801305277593
 20
88.10167005273433
 30
0.0
 10
-310.4974780417654
 20
88.97289971258942
 30
0.0
 10
-312.6774421885899
 20
89.55488668192588
 30
0.0
 10
-313.8723725440495
 20
89.88968794341524
 30
0.0
 10
-314.9638488024384
 20
90.20993348153148
 30
0.0
 10
-316.0756383243888
 20
90.55044284044025
 30
0.0
 10
-317.3182186801896
 20
90.94912669694654
 30
0.0
 10
-318.7855980377495
 20
91.44774323077682
 30
0.0
 10
-320.2310309959032
 20
91.9730396338462
 30
0.0
 10
-321.4755293090755
 20
92.45447850851008
 30
0.0
 10
-322.4876226563738
 20
92.86531760142617
 30
0.0
 10
-323.4220714926313
 20
93.26128273198592
 30
0.0
 10
-324.5877580262489
 20
93.77848817152366
 30
0.0
 10
-325.9194551575826
 20
94.40915781181167
 30
0.0
 10
-327.2399668301654
 20
95.08892724853378
 30
0.0
 10
-328.3180355154125
 20
95.68764301039586
 30
0.0
 10
-329.2144831498354
 20
96.2188088220503
 30
0.0
 10
-330.0557155806548
 20
96.7513999634941
 30
0.0
 10
-330.8578835623809
 20
97.30160437203173
 30
0.0
 10
-331.5218866063545
 20
97.79522331343944
 30
0.0
 10
-331.9742596050673
 20
98.1697230952348
 30
0.0
 10
-332.0001897271857
 20
98.18355318985478
 30
0.0
 10
-332.009344424313
 20
98.1884359407695
 30
0.0
  0
SPLINE
  5
10B
330
104
100
AcDbEntity
  8
0
  6
Continuous
 62
     7
370
    25
100
AcDbSpline
210
0.0
220
0.0
230
1.0
 70
     8
 71
     3
 72
    91
 73
    87
 74
     0
 42
0.000000001
 43
0.00000001
 40
0.0
 40
0.0
 40
0.0
 40
0.0
 40
0.0092962131573973
 40
0.01825311126896
 40
0.0267608416774196
 40
0.0344177505331861
 40
0.0397061431052946
 40
0.0446855120874767
 40
0.049253532131521
 40
0.0534992492426
 40
0.0601787316704832
 40
0.0668313470270421
 40
0.0743768634292365
 40
0.0836723269689561
 40
0.0911031779088372
 40
0.1029008866378944
 40
0.1114264083139399
 40
0.1213196135638255
 40
0.1315881603770123
 40
0.1387287406747119
 40
0.1449917175489851
 40
0.1524004225498579
 40
0.1609687914817223
 40
0.170712278617977
 40
0.181195129505879
 40
0.1985647099614593
 40
0.2139823035261108
 40
0.2273975530039594
 40
0.2391397608108065
 40
0.2510420276907299
 40
0.2737477223825715
 40
0.297832734925481
 40
0.3233397436629636
 40
0.3502862084345635
 40
0.3786636056700949
 40
0.4084562413044444
 40
0.4395304569130388
 40
0.4825363577685594
 40
0.5253648712482694
 40
0.5679114176558735
 40
0.6100459885379785
 40
0.6279329918224575
 40
0.6440794625333085
 40
0.6584970542354831
 40
0.6711987753313163
 40
0.6821981653654162
 40
0.6882142754808529
 40
0.6944563669499331
 40
0.7018289842223232
 40
0.7103231867993803
 40
0.7199280098640951
 40
0.7306302653407899
 40
0.7424142612093703
 40
0.7552614864673425
 40
0.7712179727512681
 40
0.7878745723399274
 40
0.8037880703929059
 40
0.8189138164583468
 40
0.8332108679737366
 40
0.8465888930254734
 40
0.8590811834847024
 40
0.8693217409134255
 40
0.8789526059597401
 40
0.8874876820230838
 40
0.8943087491597528
 40
0.8970897913575915
 40
0.8994584645987893
 40
0.9016601941338026
 40
0.904972333093534
 40
0.9095540520289616
 40
0.915359407309896
 40
0.9223254486682412
 40
0.9294976238482742
 40
0.9369743766167594
 40
0.9437320617164199
 40
0.9498180297645998
 40
0.9552543956229941
 40
0.9597381088103218
 40
0.9631755373991538
 40
0.9663389735282855
 40
0.9698905989330158
 40
0.9744515626899344
 40
0.9800446045273272
 40
0.9866769003785743
 40
0.993236854958622
 40
1.0
 40
1.0
 40
1.0
 40
1.0
 10
-320.0937361369654
 20
56.24198608455065
 30
0.0
 10
-318.9147767071296
 20
55.12256988744747
 30
0.0
 10
-316.5998902807939
 20
52.92459657766578
 30
0.0
 10
-313.2536802531029
 20
49.74470669535553
 30
0.0
 10
-309.8956062930415
 20
46.55160852486433
 30
0.0
 10
-306.7929736922651
 20
43.6060796318373
 30
0.0
 10
-304.0409614377809
 20
41.02666582358522
 30
0.0
 10
-301.6764247965501
 20
38.83033281482982
 30
0.0
 10
-299.3288378682677
 20
36.86460077059218
 30
0.0
 10
-296.654582092516
 20
34.78503462148664
 30
0.0
 10
-293.6528987031072
 20
32.63284500230366
 30
0.0
 10
-289.9316361834843
 20
30.20236525840737
 30
0.0
 10
-285.6401839722196
 20
27.6624588052377
 30
0.0
 10
-281.0703088093753
 20
25.24565162022754
 30
0.0
 10
-275.5634298184651
 20
22.63572726314852
 30
0.0
 10
-270.0603454698963
 20
20.33464128761212
 30
0.0
 10
-263.9175242670266
 20
18.08398478211826
 30
0.0
 10
-258.0055784141067
 20
16.1559320997584
 30
0.0
 10
-252.2395107546677
 20
14.55477122176282
 30
0.0
 10
-247.5235608853172
 20
13.30747361844063
 30
0.0
 10
-243.4389290802692
 20
12.21472203148
 30
0.0
 10
-239.0649709403934
 20
11.04647421594244
 30
0.0
 10
-234.0165522846169
 20
9.695504056236384
 30
0.0
 10
-228.3684844563394
 20
8.18251013057434
 30
0.0
 10
-221.00027143239
 20
6.206052015738608
 30
0.0
 10
-212.5204161548542
 20
3.927721746616312
 30
0.0
 10
-203.4665682795622
 20
1.49101886857847
 30
0.0
 10
-195.5138322559829
 20
-0.6522017177837056
 30
0.0
 10
-188.2450340913828
 20
-2.613190032321987
 30
0.0
 10
-179.1532525178788
 20
-5.068256709904892
 30
0.0
 10
-167.6393599748079
 20
-8.181237373852735
 30
0.0
 10
-153.4558315277714
 20
-12.02145619619608
 30
0.0
 10
-138.4462858200691
 20
-16.09038973486451
 30
0.0
 10
-122.6040021273268
 20
-20.38958161807113
 30
0.0
 10
-105.9326135293364
 20
-24.91752637334799
 30
0.0
 10
-88.46613964826136
 20
-29.66416914549489
 30
0.0
 10
-68.15439261618621
 20
-35.18574830217271
 30
0.0
 10
-45.32163467599942
 20
-41.39243238176362
 30
0.0
 10
-20.28616713192327
 20
-48.1945055930324
 30
0.0
 10
4.544746743118839
 20
-54.9422292998613
 30
0.0
 10
24.49251053453125
 20
-60.36709341033424
 30
0.0
 10
39.29283030289137
 20
-64.39609224019802
 30
0.0
 10
48.70317927729659
 20
-66.95955108426594
 30
0.0
 10
57.10352616866989
 20
-69.24949300354974
 30
0.0
 10
64.50286865005178
 20
-71.26798651686644
 30
0.0
 10
70.27083453372664
 20
-72.84252532106902
 30
0.0
 10
74.78541156772378
 20
-74.07557037773063
 30
0.0
 10
78.59643953366927
 20
-75.11687568094672
 30
0.0
 10
82.888251303229
 20
-76.2900943902839
 30
0.0
 10
87.83213469033166
 20
-77.64233852520391
 30
0.0
 10
93.42105008825632
 20
-79.17206840102777
 30
0.0
 10
99.64659618120858
 20
-80.87746603715551
 30
0.0
 10
106.4988812499615
 20
-82.75637789489862
 30
0.0
 10
114.366934714062
 20
-84.91641173489522
 30
0.0
 10
123.1761158425895
 20
-87.33795935789732
 30
0.0
 10
132.5715428828122
 20
-89.92708990528354
 30
0.0
 10
141.7974964431097
 20
-92.4684978063157
 30
0.0
 10
150.5341956649576
 20
-94.90077083358214
 30
0.0
 10
158.8395397149165
 20
-97.14599145500164
 30
0.0
 10
167.0806654302549
 20
-98.76432608356728
 30
0.0
 10
174.7167296459588
 20
-99.86455714962547
 30
0.0
 10
181.7125660558675
 20
-100.5326229427048
 30
0.0
 10
187.9338682400918
 20
-100.8643133786916
 30
0.0
 10
193.4428804187674
 20
-100.9400831158186
 30
0.0
 10
197.4467526806143
 20
-100.8588704447889
 30
0.0
 10
200.0862514145728
 20
-100.7471256170695
 30
0.0
 10
201.7057812121416
 20
-100.6590248836605
 30
0.0
 10
203.4410674659085
 20
-100.5456999067684
 30
0.0
 10
205.6619221197849
 20
-100.3707875082029
 30
0.0
 10
208.6679910255898
 20
-100.0742772312507
 30
0.0
 10
212.4565495787441
 20
-99.59866769424167
 30
0.0
 10
216.7665603695432
 20
-98.90819129704175
 30
0.0
 10
221.3665896425511
 20
-97.98122197148682
 30
0.0
 10
225.8369814121612
 20
-96.86784338745098
 30
0.0
 10
229.9824691346706
 20
-95.61813732179483
 30
0.0
 10
233.6190616736946
 20
-94.32631840202168
 30
0.0
 10
236.7303627293055
 20
-93.04928420342054
 30
0.0
 10
239.2552247635758
 20
-91.8765575050823
 30
0.0
 10
241.32383153042
 20
-90.81496766936417
 30
0.0
 10
243.1807105761353
 20
-89.77605528611893
 30
0.0
 10
245.0367883166925
 20
-88.64591186326393
 30
0.0
 10
247.1198999210091
 20
-87.2311614096628
 30
0.0
 10
249.4412532023387
 20
-85.46235265701172
 30
0.0
 10
251.9971856017484
 20
-83.52046529971311
 30
0.0
 10
254.6548166503877
 20
-81.44900730199616
 30
0.0
 10
256.3846412253687
 20
-80.06493358665209
 30
0.0
 10
257.2627442816516
 20
-79.36234248166798
 30
0.0
  0
SPLINE
  5
10C
330
104
100
AcDbEntity
  8
0
  6
Continuous
 62
     7
370
    25
100
AcDbSpline
210
0.0
220
0.0
230
1.0
 70
    11
 71
     3
 72
    55
 73
    51
 74
     0
 42
0.000000001
 43
0.00000001
 40
0.0
 40
0.0
 40
0.0
 40
0.0
 40
0.0067069034323719
 40
0.0134138068647436
 40
0.0201207102971155
 40
0.0268276137294874
 40
0.1341380686474368
 40
0.1341380686474368
 40
0.1459962756146732
 40
0.1578544825819095
 40
0.1697126895491459
 40
0.1815708965163823
 40
0.1934291034836185
 40
0.2052873104508549
 40
0.2052873104508549
 40
0.249999999999761
 40
0.2947126895491456
 40
0.2947126895491456
 40
0.3065708965163819
 40
0.3184291034836182
 40
0.3302873104508546
 40
0.3421455174180908
 40
0.3540037243853271
 40
0.3658619313525634
 40
0.3658619313525634
 40
0.5
 40
0.634138068647437
 40
0.634138068647437
 40
0.6459962756146733
 40
0.6578544825819096
 40
0.6697126895491459
 40
0.6815708965163821
 40
0.6934291034836184
 40
0.7052873104508547
 40
0.7052873104508547
 40
0.749999999999983
 40
0.7947126895491455
 40
0.7947126895491455
 40
0.8065708965163818
 40
0.8184291034836181
 40
0.8302873104508544
 40
0.8421455174180906
 40
0.854003724385327
 40
0.8658619313525633
 40
0.8658619313525633
 40
0.9731723862705126
 40
0.9798792897028845
 40
0.9865861931352563
 40
0.9932930965676282
 40
1.0
 40
1.0
 40
1.0
 40
1.0
 10
93.33907778601183
 20
193.9618774451118
 30
0.0
 10
88.91698717762465
 20
195.1637069185314
 30
0.0
 10
80.07280596085047
 20
197.5673658653706
 30
0.0
 10
66.80653413568913
 20
201.1728542856293
 30
0.0
 10
53.54026231052777
 20
204.7783427058881
 30
0.0
 10
-26.05736864044059
 20
226.4112732274407
 30
0.0
 10
-101.2329089830218
 20
246.842374275574
 30
0.0
 10
-179.8048797665909
 20
268.1965523408663
 30
0.0
 10
-196.3303961499669
 20
271.3205218627635
 30
0.0
 10
-222.3633962816115
 20
272.5773185219901
 30
0.0
 10
-248.5391475287533
 20
270.3025788192678
 30
0.0
 10
-272.6401454535664
 20
264.5715542399901
 30
0.0
 10
-292.7533606803147
 20
255.9667144246286
 30
0.0
 10
-302.9719827801097
 20
248.5841706681652
 30
0.0
 10
-322.6542227422157
 20
229.3737010781904
 30
0.0
 10
-353.767248670886
 20
199.0064339579055
 30
0.0
 10
-384.8802745995568
 20
168.6391668376206
 30
0.0
 10
-404.5625145618299
 20
149.4286972474832
 30
0.0
 10
-410.6280263639293
 20
140.9174271024953
 30
0.0
 10
-413.0682278178631
 20
127.509440830561
 30
0.0
 10
-408.6515840520215
 20
114.0279322989093
 30
0.0
 10
-397.5242036534386
 20
101.6150007243035
 30
0.0
 10
-380.8170120213156
 20
91.25592907366821
 30
0.0
 10
-366.4830353386146
 20
85.99294961915689
 30
0.0
 10
-270.2227021214975
 20
59.83145366018633
 30
0.0
 10
-93.33907778601277
 20
11.75827472340263
 30
0.0
 10
83.54454654947195
 20
-36.31490421338109
 30
0.0
 10
179.8048797665904
 20
-62.47640017235192
 30
0.0
 10
196.3303961499664
 20
-65.60036969424927
 30
0.0
 10
222.3633962816109
 20
-66.85716635347569
 30
0.0
 10
248.5391475287529
 20
-64.58242665075342
 30
0.0
 10
272.6401454535659
 20
-58.85140207147568
 30
0.0
 10
292.7533606803141
 20
-50.24656225611423
 30
0.0
 10
302.9719827801092
 20
-42.8640184996509
 30
0.0
 10
322.6542227422929
 20
-23.65354890960055
 30
0.0
 10
353.7672486709636
 20
6.713718210684262
 30
0.0
 10
384.8802745996341
 20
37.08098533096913
 30
0.0
 10
404.5625145618293
 20
56.29145492103114
 30
0.0
 10
410.6280263639289
 20
64.80272506601898
 30
0.0
 10
413.0682278178624
 20
78.21071133795341
 30
0.0
 10
408.6515840520208
 20
91.69221986960491
 30
0.0
 10
397.524203653438
 20
104.1051514442108
 30
0.0
 10
380.8170120213149
 20
114.464223094846
 30
0.0
 10
366.483035338614
 20
119.7272025493574
 30
0.0
 10
287.9110645550446
 20
141.08138061465
 30
0.0
 10
212.7355242124639
 20
161.5124816627828
 30
0.0
 10
133.1378932614959
 20
183.1454121843354
 30
0.0
 10
119.8716214363345
 20
186.7509006045942
 30
0.0
 10
106.6053496111732
 20
190.356389024853
 30
0.0
 10
97.76116839439892
 20
192.7600479716922
 30
0.0
 10
93.33907778601183
 20
193.9618774451118
 30
0.0
  0
LWPOLYLINE
  5
10E
330
104
100
AcDbEntity
  8
0
  6
Continuous
 62
     7
370
    25
100
AcDbPolyline
 90
        9
 70
   128
 43
0.0
 10
-20.9437145696
 20
24.2912658982
 10
-21.8786576537
 20
24.4345421158
 10
-22.8488894844
 20
24.3826380354
 10
-23.7067010607
 20
24.1434555827
 10
-24.3214983461
 20
23.7534081179
 10
-24.5996840272
 20
23.2718768317
 10
-24.4989068557
 20
22.7721704974
 10
-24.0345092424
 20
22.3303648745
 10
-23.2771915143
 20
22.0137208641
  0
LWPOLYLINE
  5
110
330
104
100
AcDbEntity
  8
0
  6
Continuous
 62
     7
370
    25
100
AcDbPolyline
 90
        9
 70
   128
 43
0.0
 10
20.9437145696
 20
9.9954261299
 10
21.8786576537
 20
9.8521499123
 10
22.8488894844
 20
9.9040539927
 10
23.7067010607
 20
10.1432364454
 10
24.3214983461
 20
10.5332839102
 10
24.5996840272
 20
11.0148151964
 10
24.4989068557
 20
11.5145215307
 10
24.0345092424
 20
11.9563271536
 10
23.2771915143
 20
12.272971164
  0
SPLINE
  5
111
330
104
100
AcDbEntity
  8
0
  6
Continuous
 62
     7
370
    25
100
AcDbSpline
210
0.0
220
0.0
230
1.0
 70
     8
 71
     3
 72
    50
 73
    46
 74
     0
 42
0.000000001
 43
0.00000001
 40
0.0
 40
0.0
 40
0.0
 40
0.0
 40
0.0019563473383682
 40
0.0122719227430397
 40
0.0226284821688009
 40
0.0329957438385241
 40
0.0433476451836373
 40
0.0536533387945458
 40
0.0639102252133687
 40
0.0741645378902674
 40
0.0844615803448002
 40
0.0948342523237234
 40
0.1052868092058239
 40
0.1157432154384459
 40
0.3666969650213721
 40
0.6176507146042981
 40
0.6266133485179739
 40
0.6355759824316498
 40
0.6444980867506702
 40
0.6533540512923299
 40
0.6621643620742562
 40
0.6709514689541429
 40
0.679745690354315
 40
0.6900513839652234
 40
0.7004032853103367
 40
0.71077054698006
 40
0.7211271064058214
 40
0.731442681810493
 40
0.7417049948171828
 40
0.7515462080254207
 40
0.7614192289277767
 40
0.7713546225429395
 40
0.7813743066169411
 40
0.7914124566002582
 40
0.8014506065835753
 40
0.8114887565668922
 40
0.866698581475136
 40
0.9369656313583558
 40
0.9461672688430629
 40
0.9553689063277702
 40
0.9645334602032932
 40
0.9736274547229072
 40
0.9826728813255868
 40
0.9916940343316771
 40
1.0
 40
1.0
 40
1.0
 40
1.0
 10
-411.8953805581171
 20
112.29263883628
 30
0.0
 10
-411.9271239981965
 20
111.9187278962004
 30
0.0
 10
-412.1262466369088
 20
109.5732312252148
 30
0.0
 10
-411.2031405760624
 20
105.2470026164282
 30
0.0
 10
-409.0743662969924
 20
99.4097460585723
 30
0.0
 10
-405.5231919444508
 20
93.73632256239408
 30
0.0
 10
-400.7642838794745
 20
88.32004426947552
 30
0.0
 10
-394.8524496494874
 20
83.2363171318368
 30
0.0
 10
-387.8690935757133
 20
78.55080557993318
 30
0.0
 10
-379.8898856723685
 20
74.31094836094144
 30
0.0
 10
-370.9991027378729
 20
70.54680019371685
 30
0.0
 10
-361.2369818094595
 20
67.33509833936661
 30
0.0
 10
-350.8716856409478
 20
64.62917801474804
 30
0.0
 10
-261.7527914397868
 20
40.2095503481914
 30
0.0
 10
-93.23085446029187
 20
-5.28408711671903
 30
0.0
 10
74.35914137824467
 20
-51.05623992103874
 30
0.0
 10
162.7501204299584
 20
-74.97442537324581
 30
0.0
 10
171.5248751823709
 20
-77.40989630774342
 30
0.0
 10
180.4663029252778
 20
-79.64901654317119
 30
0.0
 10
189.7995359315655
 20
-81.3395190471021
 30
0.0
 10
199.3447706945579
 20
-82.56370933565572
 30
0.0
 10
209.0583385342336
 20
-83.29454963658215
 30
0.0
 10
219.4184166998473
 20
-83.54518652345716
 30
0.0
 10
230.3596573100902
 20
-83.20547308820788
 30
0.0
 10
241.7304733700526
 20
-82.17475234739204
 30
0.0
 10
252.8136374523409
 20
-80.47208361894114
 30
0.0
 10
263.4253199144249
 20
-78.12169183054407
 30
0.0
 10
273.4156732543402
 20
-75.17554613709449
 30
0.0
 10
282.5276204634484
 20
-71.7156917150485
 30
0.0
 10
290.7071595420413
 20
-67.8096233238133
 30
0.0
 10
297.9180402631039
 20
-63.51134097254632
 30
0.0
 10
304.244134527703
 20
-58.81012268235477
 30
0.0
 10
309.4019458751459
 20
-53.71955483217817
 30
0.0
 10
314.6283405488687
 20
-48.63361160925352
 30
0.0
 10
319.8442733195936
 20
-43.53863111702839
 30
0.0
 10
332.893314526908
 20
-30.80510013867915
 30
0.0
 10
356.3659955053926
 20
-7.879542231581847
 30
0.0
 10
379.745503143699
 20
14.8889689307406
 30
0.0
 10
395.0709649932556
 20
29.89928867049536
 30
0.0
 10
399.9074749037857
 20
34.54488344723656
 30
0.0
 10
404.4444713893032
 20
39.25502309981953
 30
0.0
 10
407.8511566564403
 20
44.18704517789718
 30
0.0
 10
410.2759749273802
 20
49.23381468438998
 30
0.0
 10
411.7687259279483
 20
54.2341197578777
 30
0.0
 10
411.8543402761182
 20
57.55088799596283
 30
0.0
 10
411.8953805581164
 20
59.14082130414754
 30
0.0
  0
LINE
  5
118
330
104
100
AcDbEntity
  8
0
  6
Continuous
 62
     7
370
    25
100
AcDbLine
 10
-411.9967318959
 20
129.4378410215
 30
0.0
 11
-411.9967318959
 21
112.2944950074
 31
0.0
  0
LINE
  5
119
330
104
100
AcDbEntity
  8
0
  6
Continuous
 62
     7
370
    25
100
AcDbLine
 10
411.9967318959
 20
59.138965133
 30
0.0
 11
411.9967318959
 21
76.282311147
 31
0.0
  0
LINE
  5
11A
330
104
100
AcDbEntity
  8
0
  6
Continuous
 62
     7
370
    25
100
AcDbLine
 10
23.2771915143
 20
12.272971164
 30
0.0
 11
-20.9437145696
 21
24.2912658982
 31
0.0
  0
LINE
  5
11B
330
104
100
AcDbEntity
  8
0
  6
Continuous
 62
     7
370
    25
100
AcDbLine
 10
-23.2771915143
 20
22.0137208641
 30
0.0
 11
20.9437145696
 21
9.9954261299
 31
0.0
  0
LINE
  5
11C
330
104
100
AcDbEntity
  8
0
  6
Continuous
 62
     7
370
    25
100
AcDbLine
 10
-84.444594413
 20
-30.7575875715
 30
0.0
 11
-84.444594413
 21
-35.7327943258
 31
0.0
  0
LINE
  5
11D
330
104
100
AcDbEntity
  8
0
  6
Continuous
 62
     7
370
    25
100
AcDbLine
 10
26.1076707967
 20
-60.8078058586
 30
0.0
 11
26.1076707967
 21
-65.7785311613
 31
0.0
  0
LINE
  5
11E
330
104
100
AcDbEntity
  8
0
  6
Continuous
 62
     7
370
    25
100
AcDbLine
 10
-84.444594413
 20
-35.7327943258
 30
0.0
 11
26.1076707967
 21
-65.7785311613
 31
0.0
  0
LINE
  5
11F
330
104
100
AcDbEntity
  8
0
  6
Continuous
 62
     7
370
    25
100
AcDbLine
 10
26.1076707967
 20
-65.7785311613
 30
0.0
 11
30.0904066801
 21
-61.8912588427
 31
0.0
  0
LINE
  5
120
330
104
100
AcDbEntity
  8
0
  6
Continuous
 62
    60
370
    25
100
AcDbLine
 10
23.2771915143
 20
9.9954261299
 30
0.0
 11
23.2771915143
 21
12.272971164
 31
0.0
  0
LINE
  5
121
330
104
100
AcDbEntity
  8
0
  6
Continuous
 62
    60
370
    25
100
AcDbLine
 10
-20.9437145696
 20
21.3795318309
 30
0.0
 11
-20.9437145696
 21
24.2912658982
 31
0.0
  0
VIEWPORT
  5
144
330
104
100
AcDbEntity
  8
0
100
AcDbViewport
 10
0.0
 20
0.0
 30
0.0
 40
205.6
 41
156.0
 68
     1
 69
     1
 12
0.0
 22
0.0
 13
0.0
 23
0.0
 14
10.0
 24
10.0
 15
10.0
 25
10.0
 16
0.0
 26
0.0
 36
1.0
 17
0.0
 27
0.0
 37
0.0
 42
50.0
 43
0.0
 44
0.0
 45
619.1439688716
 50
0.0
 51
0.0
 72
   100
 90
   557152
  1

281
     0
 71
     1
 74
     0
110
0.0
120
0.0
130
0.0
111
1.0
121
0.0
131
0.0
112
0.0
122
1.0
132
0.0
 79
     0
146
0.0
170
     0
 61
     5
348
2F
292
     1
282
     1
141
0.0
142
0.0
 63
   256
361
145
  0
ENDBLK
  5
107
330
104
100
AcDbEntity
  8
0
100
AcDbBlockEnd
  0
BLOCK
  5
124
330
122
100
AcDbEntity
  8
0
100
AcDbBlockBegin
  2
*Paper_Space7
 70
     0
 10
0.0
 20
0.0
 30
0.0
  3
*Paper_Space7
  1

  0
SPLINE
  5
128
330
122
100
AcDbEntity
  8
0
  6
Continuous
 62
     7
370
    25
100
AcDbSpline
210
0.0
220
0.0
230
1.0
 70
     8
 71
     3
 72
   114
 73
   110
 74
     0
 42
0.000000001
 43
0.00000001
 40
0.0
 40
0.0
 40
0.0
 40
0.0
 40
0.0022378304604476
 40
0.0073217493051587
 40
0.012092278373206
 40
0.0176327340024575
 40
0.024094686858377
 40
0.0314809385148471
 40
0.0397948388509656
 40
0.048630304365709
 40
0.0576331801717856
 40
0.0658046400411726
 40
0.0731405536045777
 40
0.0796372080093101
 40
0.085331872816958
 40
0.0932445072810053
 40
0.1024804392584155
 40
0.1130402931481133
 40
0.1249248310143094
 40
0.1347710481771534
 40
0.14375331428277
 40
0.1517910963389438
 40
0.1588878122970339
 40
0.1625215802600589
 40
0.1658492746176457
 40
0.1689585850418328
 40
0.1719659814265892
 40
0.174879285921629
 40
0.1777483219107136
 40
0.1815633556565577
 40
0.1855173659982438
 40
0.1903066035960585
 40
0.1951454440506828
 40
0.1993965891345953
 40
0.2030661598343464
 40
0.2061607945798606
 40
0.2087992603815343
 40
0.2144318684448717
 40
0.2197957365025334
 40
0.2256653135106466
 40
0.2322951069784369
 40
0.2366821045824691
 40
0.2415623328080681
 40
0.2469369197603571
 40
0.2528051369931283
 40
0.2582777749505653
 40
0.2625666713612844
 40
0.2656722850079923
 40
0.2685118334983959
 40
0.2713549503437465
 40
0.274384691856439
 40
0.2776017324000796
 40
0.2810078395511765
 40
0.2870931898124149
 40
0.2936448949271048
 40
0.3006757792029603
 40
0.3102021217401266
 40
0.3205574602829273
 40
0.331758362521148
 40
0.3437197175300807
 40
0.3564352941555698
 40
0.3699028915601607
 40
0.3867371973583942
 40
0.4046071264697368
 40
0.4233852180356341
 40
0.4421700932394761
 40
0.4861897554913702
 40
0.529213975679388
 40
0.5712426491639009
 40
0.606277502627042
 40
0.6405913005627812
 40
0.6741859860349171
 40
0.7068310988174462
 40
0.738257612396899
 40
0.7684705887712832
 40
0.7974759759284588
 40
0.8252801175651175
 40
0.8453455677938966
 40
0.8649212432258985
 40
0.8840208714668423
 40
0.8904835415518724
 40
0.8970526459644521
 40
0.9037282809178379
 40
0.9105166266931701
 40
0.9174927910400063
 40
0.9246753301790269
 40
0.9315388712531273
 40
0.9345362002104867
 40
0.9373433184585025
 40
0.9406076663078281
 40
0.9444139083180879
 40
0.9472922905507625
 40
0.9498530010788526
 40
0.9524916030123791
 40
0.9559010440654337
 40
0.9600266066646295
 40
0.9628901598213725
 40
0.9648647454701789
 40
0.9670657283693237
 40
0.9698246328274169
 40
0.9727075639102181
 40
0.9750453009800304
 40
0.9778861685487402
 40
0.9814768786434458
 40
0.9858020037269133
 40
0.9902555615425791
 40
0.9939018336748062
 40
0.9971120930765301
 40
1.0
 40
1.0
 40
1.0
 40
1.0
 10
347.9339892681082
 20
82.61539722791439
 30
0.0
 10
347.9141214629195
 20
82.61036938729919
 30
0.0
 10
347.8491178393623
 20
82.59391926331472
 30
0.0
 10
347.1763439319475
 20
81.95387944995122
 30
0.0
 10
345.6758901554463
 20
80.55888813444943
 30
0.0
 10
344.0767033613488
 20
79.07395804781203
 30
0.0
 10
342.204935581162
 20
77.34504312600248
 30
0.0
 10
340.0587862505498
 20
75.37251236718008
 30
0.0
 10
337.6675820772125
 20
73.18762702249087
 30
0.0
 10
335.1031694968956
 20
70.85915357260663
 30
0.0
 10
332.5291919930074
 20
68.53711546327047
 30
0.0
 10
330.0815185231635
 20
66.34270336210548
 30
0.0
 10
327.8633948694646
 20
64.3651952051954
 30
0.0
 10
325.8761992249151
 20
62.60239690606927
 30
0.0
 10
323.8069872613617
 20
60.77494471721029
 30
0.0
 10
321.4277233166812
 20
58.68403939142019
 30
0.0
 10
318.5126507583746
 20
56.13779867202116
 30
0.0
 10
315.1470578530598
 20
53.21801828609625
 30
0.0
 10
311.6837048620832
 20
50.23581621807016
 30
0.0
 10
308.3644031178862
 20
47.39769341928969
 30
0.0
 10
305.4851691015012
 20
44.95036559007536
 30
0.0
 10
302.9269281326785
 20
42.78646952255259
 30
0.0
 10
300.9648364050157
 20
41.13271802847305
 30
0.0
 10
299.5265709363284
 20
39.92270701919713
 30
0.0
 10
298.5026392639642
 20
39.06089875585209
 30
0.0
 10
297.6002195266393
 20
38.30353777248543
 30
0.0
 10
296.9010744719141
 20
37.69450749727297
 30
0.0
 10
296.295068932355
 20
37.20114221868982
 30
0.0
 10
295.7763601278619
 20
36.81987362076542
 30
0.0
 10
295.0984232073256
 20
36.36804284749558
 30
0.0
 10
294.1419153547768
 20
35.79932314825609
 30
0.0
 10
292.9528753859962
 20
35.16638074643789
 30
0.0
 10
291.55284922491
 20
34.49779692959056
 30
0.0
 10
290.0830718021731
 20
33.85936747874584
 30
0.0
 10
288.6604772581687
 20
33.28906221715161
 30
0.0
 10
287.3124278432339
 20
32.78435760030447
 30
0.0
 10
285.5023161745474
 20
32.1467034089158
 30
0.0
 10
283.1501812125207
 20
31.38779333016439
 30
0.0
 10
279.8989980037449
 20
30.45685935785741
 30
0.0
 10
276.1407889174954
 20
29.50820123824235
 30
0.0
 10
272.3049999631622
 20
28.66962857834704
 30
0.0
 10
268.4827459544657
 20
27.93832799213918
 30
0.0
 10
264.8189218999308
 20
27.31593523283356
 30
0.0
 10
260.6292842944716
 20
26.69866702627226
 30
0.0
 10
256.1288871985769
 20
26.14243859603481
 30
0.0
 10
251.8002187740117
 20
25.70468130972129
 30
0.0
 10
248.1636173801756
 20
25.40383252554489
 30
0.0
 10
245.2317088311006
 20
25.20098309697185
 30
0.0
 10
242.6823260694828
 20
25.05196990302232
 30
0.0
 10
240.1333801893969
 20
24.92894579549094
 30
0.0
 10
237.4549775860194
 20
24.82768911541409
 30
0.0
 10
234.5937647188098
 20
24.75111484377496
 30
0.0
 10
230.8097200948006
 20
24.69370125558688
 30
0.0
 10
226.0115585202529
 20
24.6999519249669
 30
0.0
 10
220.1271188871538
 20
24.83540282431203
 30
0.0
 10
213.2499196509488
 20
25.15409638577556
 30
0.0
 10
205.3410761873699
 20
25.74341725762649
 30
0.0
 10
196.4576987467059
 20
26.73444435364713
 30
0.0
 10
187.2174604644709
 20
28.07881880794053
 30
0.0
 10
177.2575811844749
 20
29.44356476630718
 30
0.0
 10
166.6992010053262
 20
30.90781944818495
 30
0.0
 10
154.7921897870915
 20
32.54609215937589
 30
0.0
 10
141.4679997726204
 20
34.37443739175023
 30
0.0
 10
126.6801247791758
 20
36.39414219426949
 30
0.0
 10
111.3592569900993
 20
38.47724184974035
 30
0.0
 10
88.79011216348964
 20
41.53040396453598
 30
0.0
 10
59.47000253156308
 20
45.46140272364602
 30
0.0
 10
23.6266702911541
 20
50.19895404112948
 30
0.0
 10
-9.804649736382911
 20
54.54879211503381
 30
0.0
 10
-40.88627427379035
 20
58.52961845852314
 30
0.0
 10
-69.68109117912707
 20
62.16058363533384
 30
0.0
 10
-97.871057466353
 20
65.66043174041009
 30
0.0
 10
-125.3089935947323
 20
69.01896220247376
 30
0.0
 10
-151.8497765780376
 20
72.22585897965905
 30
0.0
 10
-177.4122586086882
 20
75.27885842165084
 30
0.0
 10
-201.9938206899746
 20
78.18444705243041
 30
0.0
 10
-223.7428096834161
 20
80.7317905245124
 30
0.0
 10
-242.8455606069138
 20
82.95345636593183
 30
0.0
 10
-259.494931935895
 20
84.8792592240877
 30
0.0
 10
-272.2979001165556
 20
86.35285466353493
 30
0.0
 10
-281.4156066070571
 20
87.39910757449219
 30
0.0
 10
-287.0093398790996
 20
88.04004498261969
 30
0.0
 10
-292.6956703272066
 20
88.69054678985778
 30
0.0
 10
-298.5027742282976
 20
89.35421186501827
 30
0.0
 10
-304.4299129429442
 20
90.02938980269192
 30
0.0
 10
-310.3508169354276
 20
90.70697129478388
 30
0.0
 10
-315.1409006231761
 20
91.23902699580496
 30
0.0
 10
-318.5138550693932
 20
91.6869477351467
 30
0.0
 10
-320.8117401089817
 20
92.01907563347503
 30
0.0
 10
-323.2419255749135
 20
92.40200458880315
 30
0.0
 10
-325.611173615293
 20
92.81239573014064
 30
0.0
 10
-327.735364053493
 20
93.21304265519603
 30
0.0
 10
-329.5324651017428
 20
93.57543884665529
 30
0.0
 10
-331.3718451668573
 20
93.97011705958039
 30
0.0
 10
-333.4410866199124
 20
94.44628801946187
 30
0.0
 10
-335.4413127298326
 20
94.94757378077138
 30
0.0
 10
-337.07156934502
 20
95.38953565310878
 30
0.0
 10
-338.2738803398944
 20
95.73351191661037
 30
0.0
 10
-339.3825774231306
 20
96.0654571004473
 30
0.0
 10
-340.5686913272228
 20
96.44013126224176
 30
0.0
 10
-341.6965118700373
 20
96.81902523448046
 30
0.0
 10
-342.7492045670489
 20
97.19388254482223
 30
0.0
 10
-343.7370395032165
 20
97.56606929110701
 30
0.0
 10
-344.8165821585334
 20
98.00191233871874
 30
0.0
 10
-345.7916908270548
 20
98.43090820404863
 30
0.0
 10
-346.5409180426754
 20
98.79346247658053
 30
0.0
 10
-346.9789883003573
 20
99.02523671496535
 30
0.0
 10
-347.1950323495308
 20
99.14885738877818
 30
0.0
 10
-347.2203700495332
 20
99.16382698143126
 30
0.0
 10
-347.2323692170467
 20
99.1709161272431
 30
0.0
  0
SPLINE
  5
129
330
122
100
AcDbEntity
  8
0
  6
Continuous
 62
     7
370
    25
100
AcDbSpline
210
0.0
220
0.0
230
1.0
 70
     8
 71
     3
 72
   127
 73
   123
 74
     0
 42
0.000000001
 43
0.00000001
 40
0.0
 40
0.0
 40
0.0
 40
0.0
 40
0.0049203948360688
 40
0.0107213307332467
 40
0.0155413867842829
 40
0.0205344045840911
 40
0.0258729565003288
 40
0.0318811225408531
 40
0.0399726742397179
 40
0.0491473174629821
 40
0.0579968992088995
 40
0.0655363674325403
 40
0.0692739332967002
 40
0.0727492623364495
 40
0.0763435908698804
 40
0.0801887156515453
 40
0.0853772010000667
 40
0.0899107948364627
 40
0.0945270814517667
 40
0.100309027879021
 40
0.1064667592656101
 40
0.1105051147710587
 40
0.1144746859765065
 40
0.1182927150628911
 40
0.1218775575662689
 40
0.1249362167050146
 40
0.1269436485192857
 40
0.1285248986969868
 40
0.1313028745224079
 40
0.1350898847510325
 40
0.1382929610406288
 40
0.1405619166211652
 40
0.1445636800074618
 40
0.1495037891702451
 40
0.1535924422447996
 40
0.1574009322495268
 40
0.1611391508822354
 40
0.1656794980627976
 40
0.1717581283601359
 40
0.1761931829229093
 40
0.1798974941886946
 40
0.1848793272355035
 40
0.1908636320126632
 40
0.1963751212182665
 40
0.2047789195038644
 40
0.2124578237361307
 40
0.2201464106714188
 40
0.2280857315980955
 40
0.235680168636268
 40
0.2424707933816745
 40
0.2495325264199309
 40
0.2555681664988992
 40
0.2619540341312762
 40
0.2689806465312359
 40
0.2766535689612453
 40
0.2876878527130269
 40
0.2998514309056368
 40
0.3131548860365276
 40
0.3296674831595601
 40
0.3476736732699074
 40
0.3671790033007855
 40
0.3880895266688882
 40
0.4089915048078651
 40
0.4293891210539433
 40
0.4603628518803568
 40
0.4899452493246172
 40
0.518070791300909
 40
0.5397477941382576
 40
0.5604167042956582
 40
0.5800633128283756
 40
0.5986782178046084
 40
0.612576959946076
 40
0.6265362597608011
 40
0.6415837552115399
 40
0.6576833895237826
 40
0.6747796449941863
 40
0.692806719688113
 40
0.7116871967974244
 40
0.7313305991557822
 40
0.7418213045208303
 40
0.7516182056538261
 40
0.7604010033504446
 40
0.7682218922760156
 40
0.7753545766571962
 40
0.7829406582219526
 40
0.7907006108246114
 40
0.798137516269689
 40
0.8053664112028026
 40
0.8132699818288599
 40
0.8188433380855636
 40
0.8242573343227368
 40
0.8294630563974463
 40
0.8346971369829691
 40
0.8405567415554716
 40
0.8466008655898184
 40
0.8499469685467341
 40
0.8525590017238033
 40
0.8570609891205329
 40
0.8624514153173877
 40
0.8683840329961733
 40
0.8748357412799541
 40
0.884194605711692
 40
0.8935550224239093
 40
0.9026298828218139
 40
0.9116546581001336
 40
0.9190572522930625
 40
0.9267998542361513
 40
0.9338656252737888
 40
0.9401612374754701
 40
0.9457253063552294
 40
0.950846816774485
 40
0.955297567823503
 40
0.9594546751192361
 40
0.9644470510122242
 40
0.9702607383023518
 40
0.975183583363393
 40
0.979090583273267
 40
0.9843585589413288
 40
0.9900603031675351
 40
0.9946638357423762
 40
0.9982098837187032
 40
1.0
 40
1.0
 40
1.0
 40
1.0
 10
-348.6229904415649
 20
66.94097619232173
 30
0.0
 10
-347.8827992920025
 20
66.09080452498506
 30
0.0
 10
-346.2699543101103
 20
64.23831668016105
 30
0.0
 10
-343.9344639365736
 20
61.55351112409404
 30
0.0
 10
-341.5937731284218
 20
58.86142102986606
 30
0.0
 10
-339.323598720116
 20
56.24895356510963
 30
0.0
 10
-336.875389861175
 20
53.42991005711836
 30
0.0
 10
-333.9675545588838
 20
50.07941672978537
 30
0.0
 10
-330.4828320088156
 20
46.06008068212654
 30
0.0
 10
-326.5968173972626
 20
41.57502271938242
 30
0.0
 10
-322.7022828271942
 20
37.06566304285011
 30
0.0
 10
-319.4703266175356
 20
33.3448814569441
 30
0.0
 10
-317.0396211379097
 20
30.51796999471247
 30
0.0
 10
-315.1306060575143
 20
28.42764181630773
 30
0.0
 10
-313.0327919953769
 20
26.3797134194229
 30
0.0
 10
-310.5703424231275
 20
24.18722033915003
 30
0.0
 10
-307.8145800122972
 20
21.98739280766783
 30
0.0
 10
-304.7984246570841
 20
19.83564336572056
 30
0.0
 10
-301.601398481521
 20
17.77577166678191
 30
0.0
 10
-297.9490743961982
 20
15.67077025489018
 30
0.0
 10
-294.3471301979143
 20
13.83414817974121
 30
0.0
 10
-291.0950633162593
 20
12.33104534472274
 30
0.0
 10
-288.3530714531283
 20
11.15582536054142
 30
0.0
 10
-285.678725961147
 20
10.08842329369873
 30
0.0
 10
-283.1752138873597
 20
9.153966688292172
 30
0.0
 10
-281.0799777084884
 20
8.417414786744072
 30
0.0
 10
-279.4748170876471
 20
7.877819126014887
 30
0.0
 10
-277.9641145909839
 20
7.385154337519878
 30
0.0
 10
-276.010474635357
 20
6.771589446020798
 30
0.0
 10
-273.6455212887259
 20
6.06978116732583
 30
0.0
 10
-271.3788622520261
 20
5.436259841451872
 30
0.0
 10
-269.0426070561851
 20
4.813262697077381
 30
0.0
 10
-266.261741950552
 20
4.110902439298347
 30
0.0
 10
-262.9984812424816
 20
3.348294086171086
 30
0.0
 10
-259.7625090720852
 20
2.64938234542228
 30
0.0
 10
-256.8091439866051
 20
2.054578940500068
 30
0.0
 10
-253.7221564781835
 20
1.473835757726583
 30
0.0
 10
-250.0365615101039
 20
0.8318300527404634
 30
0.0
 10
-246.1465099361268
 20
0.2204491759030536
 30
0.0
 10
-242.4484102402662
 20
-0.3021525750069171
 30
0.0
 10
-239.0708186461325
 20
-0.7381930054527891
 30
0.0
 10
-235.3508132517154
 20
-1.172279702598034
 30
0.0
 10
-231.2305151790942
 20
-1.664317429001624
 30
0.0
 10
-226.2658840931789
 20
-2.256133646205388
 30
0.0
 10
-220.9344530678288
 20
-2.896337089983304
 30
0.0
 10
-215.0647959110881
 20
-3.605445606910951
 30
0.0
 10
-209.3055817042787
 20
-4.305247720682096
 30
0.0
 10
-203.5597739390777
 20
-5.007086943154299
 30
0.0
 10
-198.0336192285985
 20
-5.685322602620807
 30
0.0
 10
-192.7221802185274
 20
-6.339825095909926
 30
0.0
 10
-187.7924267017225
 20
-6.949444355758949
 30
0.0
 10
-182.9525730135675
 20
-7.549730695064122
 30
0.0
 10
-178.1139949510814
 20
-8.151391090011353
 30
0.0
 10
-172.8629308204252
 20
-8.805970161065144
 30
0.0
 10
-166.449242237011
 20
-9.607424447403034
 30
0.0
 10
-158.7502336714399
 20
-10.57212352872949
 30
0.0
 10
-149.6428338710887
 20
-11.71652858125738
 30
0.0
 10
-139.1660494808416
 20
-13.03634374051786
 30
0.0
 10
-127.2304490974852
 20
-14.54344220148219
 30
0.0
 10
-113.7489081072128
 20
-16.24900188631045
 30
0.0
 10
-99.17470955123365
 20
-18.09513504574979
 30
0.0
 10
-83.88555053491493
 20
-20.03283791173263
 30
0.0
 10
-68.38512638275964
 20
-21.99682123245289
 30
0.0
 10
-50.38996913322122
 20
-24.27447662868559
 30
0.0
 10
-30.25109040598269
 20
-26.81749529836579
 30
0.0
 10
-8.211711443200445
 20
-29.58923261442009
 30
0.0
 10
11.50284659911554
 20
-32.06204496623007
 30
0.0
 10
28.99592234056915
 20
-34.25354494289895
 30
0.0
 10
44.38044991330904
 20
-36.18058580363315
 30
0.0
 10
59.00343403909342
 20
-38.01362758553722
 30
0.0
 10
71.94734863117104
 20
-39.63891423647448
 30
0.0
 10
83.48095947597051
 20
-41.09047022471439
 30
0.0
 10
94.13523125360688
 20
-42.43491455518844
 30
0.0
 10
105.3461703632576
 20
-43.85468093570847
 30
0.0
 10
117.340932960358
 20
-45.38133190167574
 30
0.0
 10
130.0794341942193
 20
-47.01199333642892
 30
0.0
 10
143.5034778395238
 20
-48.74796951429101
 30
0.0
 10
157.5736785147654
 20
-50.57081059245833
 30
0.0
 10
169.7038458686712
 20
-52.21081544151386
 30
0.0
 10
179.7167546493941
 20
-53.46384295348835
 30
0.0
 10
187.2345424961195
 20
-54.09675650898034
 30
0.0
 10
194.1427144390522
 20
-54.48347155324068
 30
0.0
 10
200.4059143348632
 20
-54.66413829394785
 30
0.0
 10
206.3733401364806
 20
-54.69072641426441
 30
0.0
 10
212.3539191666378
 20
-54.56742998489168
 30
0.0
 10
218.4153168611871
 20
-54.27705029346341
 30
0.0
 10
224.3540042243167
 20
-53.81929867721122
 30
0.0
 10
230.2745769427582
 20
-53.17835480929807
 30
0.0
 10
235.6399298750672
 20
-52.40824749109895
 30
0.0
 10
240.4385292386
 20
-51.54657029743745
 30
0.0
 10
244.4955917373845
 20
-50.68159426090497
 30
0.0
 10
248.3976184190623
 20
-49.70280746828298
 30
0.0
 10
252.3438301813101
 20
-48.54285881081227
 30
0.0
 10
256.4612010748296
 20
-47.1043268651195
 30
0.0
 10
260.0070114213858
 20
-45.59769539495954
 30
0.0
 10
262.6692968617072
 20
-44.26738581806062
 30
0.0
 10
264.9054208437917
 20
-43.02199971489337
 30
0.0
 10
266.997802038833
 20
-41.68461265536463
 30
0.0
 10
269.2548223359536
 20
-40.2334439992558
 30
0.0
 10
271.7601152160593
 20
-38.56827818903758
 30
0.0
 10
274.6900852507964
 20
-36.56591856747876
 30
0.0
 10
277.9175186391602
 20
-34.27766483530004
 30
0.0
 10
281.4131129943069
 20
-31.68826088494936
 30
0.0
 10
284.8135433568328
 20
-29.05154924620827
 30
0.0
 10
287.9239199168657
 20
-26.52621751487674
 30
0.0
 10
290.907180812603
 20
-23.99519536859013
 30
0.0
 10
293.6200000377187
 20
-21.5928934189471
 30
0.0
 10
296.0851384102963
 20
-19.31937779680629
 30
0.0
 10
298.2216241017575
 20
-17.27866134374413
 30
0.0
 10
300.0692760492128
 20
-15.45995535874522
 30
0.0
 10
301.701859399664
 20
-13.80962858439622
 30
0.0
 10
303.1707817545815
 20
-12.28924938535546
 30
0.0
 10
304.6252969482753
 20
-10.75179109882323
 30
0.0
 10
306.2100341250814
 20
-9.039221088348198
 30
0.0
 10
307.8526043075313
 20
-7.218007558172604
 30
0.0
 10
309.3420591720492
 20
-5.525814987934003
 30
0.0
 10
310.7967383348162
 20
-3.840572546849455
 30
0.0
 10
312.3411239522418
 20
-2.012837977790116
 30
0.0
 10
313.958066476567
 20
-0.0554887366285076
 30
0.0
 10
315.512307582532
 20
1.884007263211321
 30
0.0
 10
316.7039373240329
 20
3.390023231535998
 30
0.0
 10
317.4850255497186
 20
4.440492986920466
 30
0.0
 10
317.7470562298896
 20
4.792892748497687
 30
0.0
  0
SPLINE
  5
12A
330
122
100
AcDbEntity
  8
0
  6
Continuous
 62
     7
370
    25
100
AcDbSpline
210
0.0
220
0.0
230
1.0
 70
     8
 71
     3
 72
    50
 73
    46
 74
     0
 42
0.000000001
 43
0.00000001
 40
0.0
 40
0.0
 40
0.0
 40
0.0
 40
0.0027902487678618
 40
0.0130525617745519
 40
0.0233681371792233
 40
0.0337246966049845
 40
0.0440919582747078
 40
0.054443859619821
 40
0.0647495532307295
 40
0.0750064396495524
 40
0.0852607523264511
 40
0.0955577947809839
 40
0.1059304667599072
 40
0.1163830236420076
 40
0.1268394298746297
 40
0.3777931794575561
 40
0.6287469290404823
 40
0.6377095629541583
 40
0.6466721968678341
 40
0.6555943011868546
 40
0.6644502657285143
 40
0.6732605765104406
 40
0.6820476833903273
 40
0.6908419047904993
 40
0.7011475984014077
 40
0.711499499746521
 40
0.7218667614162445
 40
0.7322233208420058
 40
0.7425388962466775
 40
0.7528012092533672
 40
0.7626424224616052
 40
0.772515443363961
 40
0.782450836979124
 40
0.7924705210531255
 40
0.8025086710364426
 40
0.8125468210197597
 40
0.8225849710030768
 40
0.8777947959113206
 40
0.9480618457945403
 40
0.9572634832792476
 40
0.9664651207639549
 40
0.9756296746394779
 40
0.9847236691590919
 40
0.9937690957617715
 40
1.0
 40
1.0
 40
1.0
 40
1.0
 10
-415.8741230612096
 20
98.4501003780398
 30
0.0
 10
-415.9044083145968
 20
98.10476104241953
 30
0.0
 10
-416.0460803207797
 20
96.48929110178757
 30
0.0
 10
-415.0829818628447
 20
93.6008820273386
 30
0.0
 10
-412.8211432067972
 20
89.84332066441915
 30
0.0
 10
-409.1936950451654
 20
86.18551486407728
 30
0.0
 10
-404.3352983031489
 20
82.68773626672031
 30
0.0
 10
-398.3024587003708
 20
79.4060168626367
 30
0.0
 10
-391.2156628489698
 20
76.38518897609892
 30
0.0
 10
-383.1586718331728
 20
73.66441803007514
 30
0.0
 10
-374.2213941685395
 20
71.27095098804675
 30
0.0
 10
-364.4937749472264
 20
69.22063516245152
 30
0.0
 10
-354.0344407479768
 20
67.5610844525395
 30
0.0
 10
-343.0982006707727
 20
66.25125980315869
 30
0.0
 10
-248.7927842246933
 20
54.24810835716431
 30
0.0
 10
-70.62757221913505
 20
31.98926992088241
 30
0.0
 10
106.6798480137353
 20
9.513085698823213
 30
0.0
 10
200.1423653681711
 20
-2.198085010269954
 30
0.0
 10
209.4352676663709
 20
-3.399893013859755
 30
0.0
 10
218.8463378949047
 20
-4.468719570916664
 30
0.0
 10
228.5142558418723
 20
-5.169037385875833
 30
0.0
 10
238.2803967808472
 20
-5.561128247128982
 30
0.0
 10
248.0949258453713
 20
-5.629431028970816
 30
0.0
 10
258.435499603868
 20
-5.362645620993839
 30
0.0
 10
269.2107835321702
 20
-4.692731864688257
 30
0.0
 10
280.2461503959619
 20
-3.561304851582042
 30
0.0
 10
290.8344797257644
 20
-2.010217820356187
 30
0.0
 10
300.7991835214848
 20
-0.0626184306317598
 30
0.0
 10
310.0040666037875
 20
2.241930895069868
 30
0.0
 10
318.2137632073492
 20
4.840125080825978
 30
0.0
 10
325.3909194019328
 20
7.686388178021961
 30
0.0
 10
331.5125509143962
 20
10.74454373901469
 30
0.0
 10
336.6593051083617
 20
14.02494052228138
 30
0.0
 10
340.5531363834247
 20
17.50714806819317
 30
0.0
 10
344.5161343721316
 20
20.98921727597698
 30
0.0
 10
348.4665800840343
 20
24.47665843301489
 30
0.0
 10
358.3527523282817
 20
33.19312380169691
 30
0.0
 10
376.131644694978
 20
48.88546083866501
 30
0.0
 10
393.8536063517062
 20
64.47308267786546
 30
0.0
 10
405.4529834349676
 20
74.74573894397014
 30
0.0
 10
409.1323360329269
 20
77.92889912156667
 30
0.0
 10
412.5116453105651
 20
81.14120186619948
 30
0.0
 10
414.668906401733
 20
84.44912098488689
 30
0.0
 10
415.8619839063963
 20
87.44766363333456
 30
0.0
 10
415.8706062023059
 20
89.339902320201
 30
0.0
 10
415.874123061209
 20
90.11170794398097
 30
0.0
  0
SPLINE
  5
12B
330
122
100
AcDbEntity
  8
0
  6
Continuous
 62
     7
370
    25
100
AcDbSpline
210
0.0
220
0.0
230
1.0
 70
    11
 71
     3
 72
    55
 73
    51
 74
     0
 42
0.000000001
 43
0.00000001
 40
0.0
 40
0.0
 40
0.0
 40
0.0
 40
0.0067069034323719
 40
0.0134138068647436
 40
0.0201207102971155
 40
0.0268276137294874
 40
0.1341380686474368
 40
0.1341380686474368
 40
0.1459962756146732
 40
0.1578544825819095
 40
0.1697126895491459
 40
0.1815708965163823
 40
0.1934291034836185
 40
0.2052873104508549
 40
0.2052873104508549
 40
0.249999999999761
 40
0.2947126895491456
 40
0.2947126895491456
 40
0.3065708965163819
 40
0.3184291034836182
 40
0.3302873104508546
 40
0.3421455174180908
 40
0.3540037243853271
 40
0.3658619313525634
 40
0.3658619313525634
 40
0.5
 40
0.634138068647437
 40
0.634138068647437
 40
0.6459962756146733
 40
0.6578544825819096
 40
0.6697126895491459
 40
0.6815708965163821
 40
0.6934291034836184
 40
0.7052873104508547
 40
0.7052873104508547
 40
0.749999999999983
 40
0.7947126895491455
 40
0.7947126895491455
 40
0.8065708965163818
 40
0.8184291034836181
 40
0.8302873104508544
 40
0.8421455174180906
 40
0.854003724385327
 40
0.8658619313525633
 40
0.8658619313525633
 40
0.9731723862705126
 40
0.9798792897028845
 40
0.9865861931352563
 40
0.9932930965676282
 40
1.0
 40
1.0
 40
1.0
 40
1.0
 10
70.71067810243258
 20
175.4980414266519
 30
0.0
 10
66.0336063688118
 20
176.0872970773653
 30
0.0
 10
56.67946290157045
 20
177.2658083787921
 30
0.0
 10
42.6482477007083
 20
179.0335753309322
 30
0.0
 10
28.61703249984615
 20
180.8013422830724
 30
0.0
 10
-55.57025870532696
 20
191.4079439959135
 30
0.0
 10
-135.0804781768794
 20
201.4252900580413
 30
0.0
 10
-218.1829688652685
 20
211.8952197524017
 30
0.0
 10
-235.3325263144249
 20
213.2191786494312
 30
0.0
 10
-261.4673042912929
 20
212.9514600804713
 30
0.0
 10
-286.8944141197234
 20
210.4098337146298
 30
0.0
 10
-309.4315257330833
 20
205.7341840801471
 30
0.0
 10
-327.3204232842494
 20
199.377568775156
 30
0.0
 10
-335.6848817888584
 20
194.2144629165006
 30
0.0
 10
-350.5955126554501
 20
181.0645225281531
 30
0.0
 10
-374.165738689594
 20
160.2775370503404
 30
0.0
 10
-397.7359647237383
 20
139.4905515725276
 30
0.0
 10
-412.6465955904567
 20
126.3406111840688
 30
0.0
 10
-416.6184722824905
 20
120.6240920357102
 30
0.0
 10
-415.8153165754199
 20
111.9124993788271
 30
0.0
 10
-408.190437476081
 20
103.4367961047002
 30
0.0
 10
-394.1634885692958
 20
95.92442556870118
 30
0.0
 10
-375.0936426497855
 20
89.96145971973127
 30
0.0
 10
-359.6043250701338
 20
87.17330688552502
 30
0.0
 10
-257.7935474472623
 20
74.34635458831117
 30
0.0
 10
-70.71067810243358
 20
50.77612855977535
 30
0.0
 10
116.3721912423951
 20
27.20590253123971
 30
0.0
 10
218.182968865268
 20
14.37895023402556
 30
0.0
 10
235.3325263144244
 20
13.05499133699598
 30
0.0
 10
261.4673042912923
 20
13.32270990595599
 30
0.0
 10
286.894414119723
 20
15.86433627179747
 30
0.0
 10
309.4315257330828
 20
20.53998590628023
 30
0.0
 10
327.3204232842487
 20
26.89660121127123
 30
0.0
 10
335.6848817888579
 20
32.0597070699266
 30
0.0
 10
350.5955126555085
 20
45.20964745832581
 30
0.0
 10
374.1657386896529
 20
65.99663293613855
 30
0.0
 10
397.7359647237968
 20
86.78361841395127
 30
0.0
 10
412.6465955904561
 20
99.9335588023584
 30
0.0
 10
416.6184722824901
 20
105.650077950717
 30
0.0
 10
415.8153165754192
 20
114.3616706076002
 30
0.0
 10
408.1904374760804
 20
122.837373881727
 30
0.0
 10
394.1634885692951
 20
130.3497444177261
 30
0.0
 10
375.0936426497847
 20
136.3127102666959
 30
0.0
 10
359.6043250701331
 20
139.1008631009022
 30
0.0
 10
276.5018343817436
 20
149.5707927952628
 30
0.0
 10
196.9916149101918
 20
159.5881388573903
 30
0.0
 10
112.804323705019
 20
170.1947405702313
 30
0.0
 10
98.77310850415684
 20
171.9625075223715
 30
0.0
 10
84.7418933032947
 20
173.7302744745117
 30
0.0
 10
75.38774983605327
 20
174.9087857759386
 30
0.0
 10
70.71067810243258
 20
175.4980414266519
 30
0.0
  0
LINE
  5
130
330
122
100
AcDbEntity
  8
0
  6
Continuous
 62
     7
370
    25
100
AcDbLine
 10
-415.9823323698
 20
117.3069752528
 30
0.0
 11
-415.9823323698
 21
98.4507944206
 31
0.0
  0
LINE
  5
131
330
122
100
AcDbEntity
  8
0
  6
Continuous
 62
     7
370
    25
100
AcDbLine
 10
415.9823323698
 20
90.1110139014
 30
0.0
 11
415.9823323698
 21
108.9671947336
 31
0.0
  0
LINE
  5
132
330
122
100
AcDbEntity
  8
0
  6
Continuous
 62
     7
370
    25
100
AcDbLine
 10
-80.5604835773
 20
-20.4540000314
 30
0.0
 11
-80.5604835773
 21
-36.6351383334
 31
0.0
  0
LINE
  5
133
330
122
100
AcDbEntity
  8
0
  6
Continuous
 62
     7
370
    25
100
AcDbLine
 10
36.3663097632
 20
-35.1768367767
 30
0.0
 11
36.3663097632
 21
-51.3665296012
 31
0.0
  0
LINE
  5
134
330
122
100
AcDbEntity
  8
0
  6
Continuous
 62
     7
370
    25
100
AcDbLine
 10
-80.5604835773
 20
-36.6351383334
 30
0.0
 11
36.3663097632
 21
-51.3665296012
 31
0.0
  0
LINE
  5
135
330
122
100
AcDbEntity
  8
0
  6
Continuous
 62
     7
370
    25
100
AcDbLine
 10
36.3663097632
 20
-51.3665296012
 30
0.0
 11
52.4396054311
 21
-37.1912152388
 31
0.0
  0
VIEWPORT
  5
146
330
122
100
AcDbEntity
  8
0
100
AcDbViewport
 10
0.0
 20
0.0
 30
0.0
 40
205.6
 41
156.0
 68
     1
 69
     1
 12
0.0
 22
0.0
 13
0.0
 23
0.0
 14
10.0
 24
10.0
 15
10.0
 25
10.0
 16
0.0
 26
0.0
 36
1.0
 17
0.0
 27
0.0
 37
0.0
 42
50.0
 43
0.0
 44
0.0
 45
619.1439688716
 50
0.0
 51
0.0
 72
   100
 90
   557152
  1

281
     0
 71
     1
 74
     0
110
0.0
120
0.0
130
0.0
111
1.0
121
0.0
131
0.0
112
0.0
122
1.0
132
0.0
 79
     0
146
0.0
170
     0
 61
     5
348
2F
292
     1
282
     1
141
0.0
142
0.0
 63
   256
361
147
  0
ENDBLK
  5
125
330
122
100
AcDbEntity
  8
0
100
AcDbBlockEnd
  0
ENDSEC
  0
SECTION
  2
ENTITIES
  0
SPLINE
  5
73
330
1F
100
AcDbEntity
  8
0
  6
Continuous
 62
     7
370
    25
100
AcDbSpline
210
0.0
220
0.0
230
1.0
 70
    11
 71
     3
 72
    55
 73
    51
 74
     0
 42
0.000000001
 43
0.00000001
 40
0.0
 40
0.0
 40
0.0
 40
0.0
 40
0.0067069034323719
 40
0.0134138068647436
 40
0.0201207102971155
 40
0.0268276137294874
 40
0.1341380686474368
 40
0.1341380686474368
 40
0.1459962756146732
 40
0.1578544825819095
 40
0.1697126895491459
 40
0.1815708965163823
 40
0.1934291034836185
 40
0.2052873104508549
 40
0.2052873104508549
 40
0.249999999999761
 40
0.2947126895491456
 40
0.2947126895491456
 40
0.3065708965163819
 40
0.3184291034836182
 40
0.3302873104508546
 40
0.3421455174180908
 40
0.3540037243853271
 40
0.3658619313525634
 40
0.3658619313525634
 40
0.5
 40
0.634138068647437
 40
0.634138068647437
 40
0.6459962756146733
 40
0.6578544825819096
 40
0.6697126895491459
 40
0.6815708965163821
 40
0.6934291034836184
 40
0.7052873104508547
 40
0.7052873104508547
 40
0.749999999999983
 40
0.7947126895491455
 40
0.7947126895491455
 40
0.8065708965163818
 40
0.8184291034836181
 40
0.8302873104508544
 40
0.8421455174180906
 40
0.854003724385327
 40
0.8658619313525633
 40
0.8658619313525633
 40
0.9731723862705126
 40
0.9798792897028845
 40
0.9865861931352563
 40
0.9932930965676282
 40
1.0
 40
1.0
 40
1.0
 40
1.0
 10
-0.0000000000006776
 20
200.0
 30
0.0
 10
-5.000000000000733
 20
200.0
 30
0.0
 10
-15.00000000000068
 20
199.9999999999999
 30
0.0
 10
-30.00000000000069
 20
199.9999999999999
 30
0.0
 10
-45.0000000000007
 20
199.9999999999999
 30
0.0
 10
-135.0000000000011
 20
199.9999999999996
 30
0.0
 10
-220.0000000000015
 20
199.9999999999996
 30
0.0
 10
-308.840299466668
 20
199.9999999999989
 30
0.0
 10
-326.2865120157435
 20
197.6520662592143
 30
0.0
 10
-350.449399860412
 20
187.6607435241624
 30
0.0
 10
-371.5384813318397
 20
171.5384813318373
 30
0.0
 10
-387.6607435241649
 20
150.4493998604091
 30
0.0
 10
-397.6520662592166
 20
126.2865120157408
 30
0.0
 10
-400.000000000001
 20
108.8402994666653
 30
0.0
 10
-400.0000000000008
 20
66.66666666684395
 30
0.0
 10
-400.0000000000003
 20
0.0000000001773942
 30
0.0
 10
-400.0000000000001
 20
-66.66666666648949
 30
0.0
 10
-400.0000000000003
 20
-108.8402994666679
 30
0.0
 10
-397.6520662592156
 20
-126.2865120157434
 30
0.0
 10
-387.660743524164
 20
-150.4493998604117
 30
0.0
 10
-371.5384813318385
 20
-171.5384813318397
 30
0.0
 10
-350.4493998604106
 20
-187.6607435241648
 30
0.0
 10
-326.2865120157423
 20
-197.6520662592165
 30
0.0
 10
-308.8402994666668
 20
-200.000000000001
 30
0.0
 10
-200.0000000000005
 20
-200.0000000000008
 30
0.0
 10
-0.0000000000004344
 20
-199.9999999999999
 30
0.0
 10
199.9999999999999
 20
-199.9999999999997
 30
0.0
 10
308.8402994666674
 20
-199.9999999999988
 30
0.0
 10
326.2865120157429
 20
-197.6520662592142
 30
0.0
 10
350.4493998604112
 20
-187.6607435241624
 30
0.0
 10
371.5384813318391
 20
-171.5384813318371
 30
0.0
 10
387.6607435241642
 20
-150.4493998604089
 30
0.0
 10
397.6520662592158
 20
-126.2865120157406
 30
0.0
 10
400.0000000000004
 20
-108.8402994666651
 30
0.0
 10
400.0000000000005
 20
-66.66666666667795
 30
0.0
 10
400.0000000000004
 20
-0.0000000000113257
 30
0.0
 10
400.0
 20
66.6666666666553
 30
0.0
 10
399.9999999999997
 20
108.840299466668
 30
0.0
 10
397.6520662592151
 20
126.2865120157435
 30
0.0
 10
387.6607435241633
 20
150.4493998604118
 30
0.0
 10
371.5384813318378
 20
171.5384813318397
 30
0.0
 10
350.4493998604099
 20
187.6607435241648
 30
0.0
 10
326.2865120157415
 20
197.6520662592165
 30
0.0
 10
308.840299466666
 20
200.000000000001
 30
0.0
 10
219.9999999999991
 20
200.0000000000004
 30
0.0
 10
134.9999999999993
 20
200.0000000000003
 30
0.0
 10
44.99999999999938
 20
200.0000000000001
 30
0.0
 10
29.9999999999993
 20
200.0000000000001
 30
0.0
 10
14.99999999999932
 20
200.0000000000001
 30
0.0
 10
4.999999999999294
 20
200.0
 30
0.0
 10
-0.0000000000006776
 20
200.0
 30
0.0
  0
LWPOLYLINE
  5
79
330
1F
100
AcDbEntity
  8
0
  6
Continuous
 62
     7
370
    25
100
AcDbPolyline
 90
        3
 70
   128
 43
0.0
 10
22.360679775
 20
-2.5
 10
22.5
 20
0.0
 10
22.360679775
 20
2.5
  0
LINE
  5
7B
330
1F
100
AcDbEntity
  8
0
  6
Continuous
 62
     7
370
    25
100
AcDbLine
 10
25.0
 20
2.5
 30
0.0
 11
-25.0
 21
2.5
 31
0.0
  0
LINE
  5
7C
330
1F
100
AcDbEntity
  8
0
  6
Continuous
 62
     7
370
    25
100
AcDbLine
 10
-25.0
 20
-2.5
 30
0.0
 11
25.0
 21
-2.5
 31
0.0
  0
LINE
  5
7D
330
1F
100
AcDbEntity
  8
0
  6
Continuous
 62
     7
370
    25
100
AcDbLine
 10
-22.5
 20
0.0
 30
0.0
 11
-22.360679775
 21
-2.5
 31
0.0
  0
LINE
  5
7E
330
1F
100
AcDbEntity
  8
0
  6
Continuous
 62
     7
370
    25
100
AcDbLine
 10
-22.360679775
 20
2.5
 30
0.0
 11
-22.5
 21
0.0
 31
0.0
  0
ARC
  5
7F
330
1F
100
AcDbEntity
  8
0
  6
Continuous
 62
     7
370
    25
100
AcDbCircle
 10
-25.0
 20
0.0
 30
0.0
 40
2.5
100
AcDbArc
 50
90.0
 51
270.0
  0
ARC
  5
80
330
1F
100
AcDbEntity
  8
0
  6
Continuous
 62
     7
370
    25
100
AcDbCircle
 10
25.0
 20
0.0
 30
0.0
 40
2.5
100
AcDbArc
 50
270.0
 51
90.0
  0
SPLINE
  5
83
330
1B
100
AcDbEntity
 67
     1
  8
0
  6
Continuous
 62
     7
370
    25
100
AcDbSpline
210
0.0
220
0.0
230
1.0
 70
     8
 71
     3
 72
   130
 73
   126
 74
     0
 42
0.000000001
 43
0.00000001
 40
0.0
 40
0.0
 40
0.0
 40
0.0
 40
0.0063664906033995
 40
0.0087993143495338
 40
0.0110334763699775
 40
0.0131289264161074
 40
0.0151606456279236
 40
0.0172120122128947
 40
0.0193641269607124
 40
0.0216861753745826
 40
0.0242308815057763
 40
0.0286560397157798
 40
0.0334384537023715
 40
0.0385832316397138
 40
0.044083538241555
 40
0.0499393735069299
 40
0.0624428115037382
 40
0.0748626387849491
 40
0.0870504834033495
 40
0.0990063453577476
 40
0.1104692105319611
 40
0.1169142106571544
 40
0.1227726914261565
 40
0.1283281134655893
 40
0.1342676052776439
 40
0.140872320515226
 40
0.1478163153223391
 40
0.1519942844310895
 40
0.1557565244442808
 40
0.1590083459986345
 40
0.1611144324984796
 40
0.163010965231341
 40
0.1648529543999418
 40
0.1667319029819349
 40
0.1742770516890862
 40
0.1819621325336606
 40
0.1899277443806188
 40
0.1954404114824425
 40
0.2011006752035246
 40
0.2069176898286115
 40
0.211437331103228
 40
0.216137302907469
 40
0.2210481915722943
 40
0.2262045491191664
 40
0.2316415928525538
 40
0.237377594747486
 40
0.2434093348242543
 40
0.249730821855375
 40
0.2585821542026883
 40
0.2678906385529386
 40
0.2776795151591619
 40
0.2879697809947662
 40
0.2987249267997796
 40
0.3098061844301665
 40
0.321203451901249
 40
0.3329148675850938
 40
0.3449378474800819
 40
0.3658282418721455
 40
0.3875673021693998
 40
0.4101059204984712
 40
0.4328339281198076
 40
0.4554415648507157
 40
0.4778740848766983
 40
0.5000805098084985
 40
0.522013511370293
 40
0.5558226085697008
 40
0.5886943498002573
 40
0.620492696940466
 40
0.651099477836806
 40
0.6645898082631749
 40
0.6778044609840493
 40
0.6907357411551281
 40
0.7033766145027884
 40
0.7156953373421184
 40
0.7255675025092233
 40
0.7350518448093929
 40
0.7441634922763577
 40
0.7529113665529108
 40
0.7612505078455968
 40
0.7691428407829433
 40
0.7747557633486246
 40
0.7801119049037373
 40
0.7852420169819829
 40
0.7901782513267355
 40
0.7965052924330005
 40
0.802660743731031
 40
0.8087219944657986
 40
0.82639098644631
 40
0.8307004903709361
 40
0.8346212742950909
 40
0.8379239909451058
 40
0.8410552740130152
 40
0.8442655173812449
 40
0.8470290171785825
 40
0.8508234249148157
 40
0.8555452051207656
 40
0.8609967802903978
 40
0.8656199582584335
 40
0.8698483147473737
 40
0.8737616476154392
 40
0.8788294537605665
 40
0.884031049852757
 40
0.8897079998789476
 40
0.8960325013979296
 40
0.9027482582779701
 40
0.9096964940210052
 40
0.9265461559536572
 40
0.9440546855338389
 40
0.9505604163708128
 40
0.9568067390406381
 40
0.9626934669176388
 40
0.9682206000004593
 40
0.9733841782018139
 40
0.9764284952240618
 40
0.9793299719022968
 40
0.9818932069210128
 40
0.9839983068873512
 40
0.9856450161951926
 40
0.98683943484556
 40
0.9878582449060639
 40
0.9889299002229025
 40
0.9901453048627932
 40
0.9915699799410611
 40
0.9951959212325098
 40
0.9999999999999999
 40
0.9999999999999999
 40
0.9999999999999999
 40
0.9999999999999999
 10
-375.3366728866205
 20
100.000000000001
 30
0.0
 10
-375.0328661499448
 20
100.0024734914216
 30
0.0
 10
-374.6129659028468
 20
100.0058921768336
 30
0.0
 10
-373.5958223393977
 20
99.95618153614689
 30
0.0
 10
-372.6369982230091
 20
99.869696204147
 30
0.0
 10
-371.4285925546502
 20
99.6937864532826
 30
0.0
 10
-369.9734390436182
 20
99.38057641191575
 30
0.0
 10
-368.3004785897243
 20
98.87510748498129
 30
0.0
 10
-366.4511946392436
 20
98.12159656536666
 30
0.0
 10
-364.4762859574539
 20
97.06258624205681
 30
0.0
 10
-362.0193962508905
 20
95.3381146927068
 30
0.0
 10
-359.2751855453392
 20
92.67141634924698
 30
0.0
 10
-356.8993512895693
 20
88.6769438686387
 30
0.0
 10
-354.4336268239581
 20
84.37023884927893
 30
0.0
 10
-351.7702458090802
 20
79.767719054679
 30
0.0
 10
-347.929159859632
 20
73.11127998417844
 30
0.0
 10
-342.9717441328402
 20
64.52416787329582
 30
0.0
 10
-336.9898331366837
 20
54.17386798638276
 30
0.0
 10
-331.1180869986724
 20
43.96343375899453
 30
0.0
 10
-325.3199077602115
 20
34.06661391836011
 30
0.0
 10
-320.7027623146183
 20
25.62380492515338
 30
0.0
 10
-316.4405713416524
 20
19.2447060619429
 30
0.0
 10
-312.6194104988491
 20
14.92353760281712
 30
0.0
 10
-308.4854360148507
 20
11.14675234875152
 30
0.0
 10
-303.7574420329751
 20
7.71227428986826
 30
0.0
 10
-298.2549545884029
 20
4.655011226832123
 30
0.0
 10
-292.9275496901109
 20
2.551266452686288
 30
0.0
 10
-288.2972688483059
 20
1.278004987280257
 30
0.0
 10
-284.7630825346216
 20
0.5901387897079974
 30
0.0
 10
-281.8222736370998
 20
0.2273610723650607
 30
0.0
 10
-279.6261566099126
 20
0.0656781426620692
 30
0.0
 10
-278.0766656623005
 20
0.010547478118024
 30
0.0
 10
-277.2449989458943
 20
0.0004061033730476
 30
0.0
 10
-275.8941237917168
 20
-0.0005027175253025
 30
0.0
 10
-274.0007858710119
 20
0.0002011751890144
 30
0.0
 10
-272.11861865357
 20
-0.0000571986485051
 30
0.0
 10
-270.9884048641471
 20
0.0000103224662637
 30
0.0
 10
-270.1835584106832
 20
-0.0000023978243488
 30
0.0
 10
-269.2423753053956
 20
0.0000006751320197
 30
0.0
 10
-268.3672748886666
 20
-0.0000001379738337
 30
0.0
 10
-266.863482764569
 20
0.0000000344003853
 30
0.0
 10
-264.9471346966353
 20
-0.0000000098206374
 30
0.0
 10
-262.4632446622534
 20
0.0000000028246572
 30
0.0
 10
-259.4009831992032
 20
-0.0000000008172213
 30
0.0
 10
-255.7526837461954
 20
0.000000000237671
 30
0.0
 10
-251.5220149695998
 20
-0.0000000000681885
 30
0.0
 10
-246.7203349528568
 20
0.0000000000199424
 30
0.0
 10
-240.7359006744393
 20
-0.0000000000073622
 30
0.0
 10
-233.4365071957557
 20
0.0000000000028796
 30
0.0
 10
-224.7422916836329
 20
-0.0000000000003608
 30
0.0
 10
-215.3667171011021
 20
0.0000000000005482
 30
0.0
 10
-205.4170001201662
 20
0.0000000000002706
 30
0.0
 10
-195.0861503024078
 20
0.00000000000034
 30
0.0
 10
-184.3917842884156
 20
0.0000000000003053
 30
0.0
 10
-173.3901260139775
 20
0.0000000000003053
 30
0.0
 10
-162.0836359131471
 20
0.0000000000002845
 30
0.0
 10
-147.7204983892399
 20
0.0000000000002706
 30
0.0
 10
-130.1271458741406
 20
0.0000000000002429
 30
0.0
 10
-109.1451104502492
 20
0.0000000000002151
 30
0.0
 10
-87.5680630727187
 20
0.0000000000001735
 30
0.0
 10
-65.70839649167884
 20
0.0000000000001388
 30
0.0
 10
-43.88057186087693
 20
0.0000000000000971
 30
0.0
 10
-22.21910900742105
 20
0.0000000000000486
 30
0.0
 10
-0.7740693632593938
 20
0.0000000000000069
 30
0.0
 10
24.33576016525445
 20
-0.0000000000000486
 30
0.0
 10
52.87996319190398
 20
-0.000000000000111
 30
0.0
 10
84.59772345060682
 20
-0.0000000000001874
 30
0.0
 10
115.2783623922049
 20
-0.0000000000002498
 30
0.0
 10
139.712302799548
 20
-0.0000000000003123
 30
0.0
 10
158.1598077332881
 20
-0.0000000000003261
 30
0.0
 10
170.916252052896
 20
-0.0000000000004163
 30
0.0
 10
183.3980056799485
 20
-0.0000000000001943
 30
0.0
 10
195.5886284295775
 20
-0.0000000000011033
 30
0.0
 10
206.7974254368513
 20
0.0000000000018874
 30
0.0
 10
217.0079112055485
 20
-0.0000000000071054
 30
0.0
 10
226.0622418448288
 20
0.0000000000230024
 30
0.0
 10
234.5276370421091
 20
-0.0000000000830655
 30
0.0
 10
242.2866115687136
 20
0.0000000002885886
 30
0.0
 10
249.2282118525294
 20
-0.0000000010019
 30
0.0
 10
254.7787036521894
 20
0.0000000030928454
 30
0.0
 10
259.0891978693776
 20
-0.0000000077692575
 30
0.0
 10
262.3652521703003
 20
0.0000000273337117
 30
0.0
 10
265.0552377717723
 20
-0.0000000959085242
 30
0.0
 10
267.4023454595839
 20
0.0000003841746712
 30
0.0
 10
269.0878710534873
 20
-0.0000018710457905
 30
0.0
 10
270.1996552991512
 20
0.0000066753991154
 30
0.0
 10
272.0153061854807
 20
-0.0000442934852615
 30
0.0
 10
273.3549062825971
 20
0.0003515593501799
 30
0.0
 10
274.107866664895
 20
-0.0002676937267063
 30
0.0
 10
274.5984011574654
 20
0.0008722277990217
 30
0.0
 10
276.2875721310201
 20
-0.0026455239343776
 30
0.0
 10
278.8641643950241
 20
0.0094587823576686
 30
0.0
 10
281.7487679802594
 20
0.213854178737663
 30
0.0
 10
284.8806647491131
 20
0.6144273788204133
 30
0.0
 10
288.4478515286173
 20
1.305597592361395
 30
0.0
 10
292.7872894861136
 20
2.522658803356371
 30
0.0
 10
297.2361104387636
 20
4.258078835437621
 30
0.0
 10
301.3508726352902
 20
6.344536513269349
 30
0.0
 10
304.850088525002
 20
8.513078443094631
 30
0.0
 10
308.2821717695153
 20
11.03480318684351
 30
0.0
 10
311.7228396170558
 20
14.05283335637283
 30
0.0
 10
315.2304091804045
 20
17.81557409335284
 30
0.0
 10
318.5891510656793
 20
22.24222931212248
 30
0.0
 10
321.578021722813
 20
27.48709578550754
 30
0.0
 10
324.8051158442187
 20
33.05655629299625
 30
0.0
 10
329.7170517478142
 20
41.57163240636222
 30
0.0
 10
336.3716988756236
 20
53.09371863818535
 30
0.0
 10
342.953517765143
 20
64.4937407305815
 30
0.0
 10
347.8268148471321
 20
72.93632664360432
 30
0.0
 10
350.8308205119881
 20
78.1343230039978
 30
0.0
 10
353.668720545392
 20
83.06713326076577
 30
0.0
 10
356.3611806416907
 20
87.67120790596715
 30
0.0
 10
358.5065928559674
 20
91.56452986730048
 30
0.0
 10
360.883877311174
 20
94.26368717449257
 30
0.0
 10
362.9715690669723
 20
96.05180310703233
 30
0.0
 10
365.0224850553269
 20
97.38299907641803
 30
0.0
 10
366.8461614092894
 20
98.2924634885197
 30
0.0
 10
368.3316477430993
 20
98.87233813739957
 30
0.0
 10
369.519611260929
 20
99.24488280614162
 30
0.0
 10
370.5428625684701
 20
99.50508486674786
 30
0.0
 10
371.4532939412774
 20
99.68941253031005
 30
0.0
 10
372.2848485204845
 20
99.820080521061
 30
0.0
 10
373.3841101120224
 20
99.94770705907759
 30
0.0
 10
374.5320928813137
 20
100.0046421070174
 30
0.0
 10
375.0836673477415
 20
100.001685120237
 30
0.0
 10
375.3979972264758
 20
99.999999999999
 30
0.0
  0
SPLINE
  5
84
330
1B
100
AcDbEntity
 67
     1
  8
0
  6
Continuous
 62
     7
370
    25
100
AcDbSpline
210
0.0
220
0.0
230
1.0
 70
    24
 71
     3
 72
    27
 73
    23
 74
     0
 42
0.000000001
 43
0.00000001
 40
0.265625
 40
0.265625
 40
0.265625
 40
0.265625
 40
0.2947126895491456
 40
0.2947126895491456
 40
0.3065708965163819
 40
0.3184291034836182
 40
0.3302873104508546
 40
0.3421455174180908
 40
0.3540037243853271
 40
0.3658619313525634
 40
0.3658619313525634
 40
0.5
 40
0.634138068647437
 40
0.634138068647437
 40
0.6459962756146733
 40
0.6578544825819096
 40
0.6697126895491459
 40
0.6815708965163821
 40
0.6934291034836184
 40
0.7052873104508547
 40
0.7052873104508547
 40
0.7187500000000061
 40
0.7187500000000061
 40
0.7187500000000061
 40
0.7187500000000061
 10
-400.0000000000006
 20
100.0000000000011
 30
0.0
 10
-400.0000000000006
 20
100.0000000000011
 30
0.0
 10
-400.0000000000005
 20
100.0000000000011
 30
0.0
 10
-400.0000000000003
 20
100.0000000000011
 30
0.0
 10
-397.6520662592158
 20
100.0000000000011
 30
0.0
 10
-387.660743524164
 20
100.0000000000011
 30
0.0
 10
-371.5384813318386
 20
100.000000000001
 30
0.0
 10
-350.4493998604106
 20
100.000000000001
 30
0.0
 10
-326.2865120157423
 20
100.0000000000009
 30
0.0
 10
-308.8402994666668
 20
100.0000000000009
 30
0.0
 10
-200.0000000000005
 20
100.0000000000007
 30
0.0
 10
0.0000000000002248
 20
100.0
 30
0.0
 10
200.0000000000003
 20
99.99999999999935
 30
0.0
 10
308.8402994666673
 20
99.99999999999915
 30
0.0
 10
326.2865120157429
 20
99.99999999999906
 30
0.0
 10
350.4493998604112
 20
99.99999999999903
 30
0.0
 10
371.538481331839
 20
99.99999999999895
 30
0.0
 10
387.6607435241642
 20
99.99999999999889
 30
0.0
 10
397.6520662592158
 20
99.99999999999885
 30
0.0
 10
400.0000000000003
 20
99.99999999999882
 30
0.0
 10
400.0000000000002
 20
99.99999999999882
 30
0.0
 10
400.0000000000001
 20
99.99999999999882
 30
0.0
 10
400.0000000000001
 20
99.99999999999882
 30
0.0
  0
SPLINE
  5
85
330
1B
100
AcDbEntity
 67
     1
  8
0
  6
Continuous
 62
     7
370
    25
100
AcDbSpline
210
0.0
220
0.0
230
1.0
 70
    24
 71
     3
 72
    27
 73
    23
 74
     0
 42
0.000000001
 43
0.00000001
 40
0.2656250000000016
 40
0.2656250000000016
 40
0.2656250000000016
 40
0.2656250000000016
 40
0.2947126895491456
 40
0.2947126895491456
 40
0.3065708965163819
 40
0.3184291034836182
 40
0.3302873104508546
 40
0.3421455174180908
 40
0.3540037243853271
 40
0.3658619313525634
 40
0.3658619313525634
 40
0.5
 40
0.634138068647437
 40
0.634138068647437
 40
0.6459962756146733
 40
0.6578544825819096
 40
0.6697126895491459
 40
0.6815708965163821
 40
0.6934291034836184
 40
0.7052873104508547
 40
0.7052873104508547
 40
0.7187500000000068
 40
0.7187500000000068
 40
0.7187500000000068
 40
0.7187500000000068
 10
-400.0000000000003
 20
120.0000000000001
 30
0.0
 10
-400.0000000000002
 20
120.0000000000001
 30
0.0
 10
-400.0000000000002
 20
120.0000000000001
 30
0.0
 10
-400.0000000000003
 20
120.0000000000001
 30
0.0
 10
-397.6520662592156
 20
120.0000000000001
 30
0.0
 10
-387.660743524164
 20
120.0000000000002
 30
0.0
 10
-371.5384813318385
 20
120.0000000000002
 30
0.0
 10
-350.4493998604106
 20
120.0000000000003
 30
0.0
 10
-326.2865120157423
 20
120.0000000000004
 30
0.0
 10
-308.8402994666668
 20
120.0000000000004
 30
0.0
 10
-200.0000000000005
 20
120.000000000001
 30
0.0
 10
-0.0000000000004344
 20
120.0000000000012
 30
0.0
 10
199.9999999999999
 20
120.0000000000019
 30
0.0
 10
308.8402994666674
 20
120.0000000000021
 30
0.0
 10
326.2865120157429
 20
120.0000000000021
 30
0.0
 10
350.4493998604112
 20
120.0000000000023
 30
0.0
 10
371.5384813318391
 20
120.0000000000023
 30
0.0
 10
387.6607435241642
 20
120.0000000000023
 30
0.0
 10
397.6520662592158
 20
120.0000000000023
 30
0.0
 10
400.0000000000004
 20
120.0000000000023
 30
0.0
 10
400.0000000000005
 20
120.0000000000024
 30
0.0
 10
400.0000000000005
 20
120.0000000000024
 30
0.0
 10
400.0000000000005
 20
120.0000000000024
 30
0.0
  0
LINE
  5
89
330
1B
100
AcDbEntity
 67
     1
  8
0
  6
Continuous
 62
     7
370
    25
100
AcDbLine
 10
-400.0
 20
120.0
 30
0.0
 11
-400.0
 21
100.0
 31
0.0
  0
LINE
  5
8A
330
1B
100
AcDbEntity
 67
     1
  8
0
  6
Continuous
 62
     7
370
    25
100
AcDbLine
 10
400.0
 20
100.0
 30
0.0
 11
400.0
 21
120.0
 31
0.0
  0
LINE
  5
8B
330
1B
100
AcDbEntity
 67
     1
  8
0
  6
Continuous
 62
     7
370
    25
100
AcDbLine
 10
62.5
 20
0.0
 30
0.0
 11
62.5
 21
-26.0
 31
0.0
  0
LINE
  5
8C
330
1B
100
AcDbEntity
 67
     1
  8
0
  6
Continuous
 62
     7
370
    25
100
AcDbLine
 10
-62.5
 20
0.0
 30
0.0
 11
-62.5
 21
-26.0
 31
0.0
  0
LINE
  5
8D
330
1B
100
AcDbEntity
 67
     1
  8
0
  6
Continuous
 62
     7
370
    25
100
AcDbLine
 10
-62.5
 20
-26.0
 30
0.0
 11
62.5
 21
-26.0
 31
0.0
  0
VIEWPORT
  5
136
330
1B
100
AcDbEntity
 67
     1
  8
0
100
AcDbViewport
 10
0.0
 20
0.0
 30
0.0
 40
205.6
 41
156.0
 68
     1
 69
     1
 12
0.0
 22
0.0
 13
0.0
 23
0.0
 14
10.0
 24
10.0
 15
10.0
 25
10.0
 16
0.0
 26
0.0
 36
1.0
 17
0.0
 27
0.0
 37
0.0
 42
50.0
 43
0.0
 44
0.0
 45
619.1439688716
 50
0.0
 51
0.0
 72
   100
 90
   557152
  1

281
     0
 71
     1
 74
     0
110
0.0
120
0.0
130
0.0
111
1.0
121
0.0
131
0.0
112
0.0
122
1.0
132
0.0
 79
     0
146
0.0
170
     0
 61
     5
348
2F
292
     1
282
     1
141
0.0
142
0.0
 63
   256
361
137
  0
ENDSEC
  0
SECTION
  2
OBJECTS
  0
DICTIONARY
  5
C
330
0
100
AcDbDictionary
281
     1
  3
ACAD_DETAILVIEWSTYLE
350
14F
  3
ACAD_GROUP
350
D
  3
ACAD_LAYOUT
350
1A
  3
ACAD_MATERIAL
350
43
  3
ACAD_MLEADERSTYLE
350
6B
  3
ACAD_MLINESTYLE
350
17
  3
ACAD_PLOTSETTINGS
350
19
  3
ACAD_PLOTSTYLENAME
350
E
  3
ACAD_SCALELIST
350
47
  3
ACAD_SECTIONVIEWSTYLE
350
150
  3
ACAD_TABLESTYLE
350
69
  3
ACAD_VISUALSTYLE
350
2A
  3
ACDB_RECOMPOSE_DATA
350
14C
  3
AcDbVariableDictionary
350
148
  0
SUN
  5
6D
330
29
100
AcDbSun
 90
        1
290
     0
 63
     7
421
 16777215
 40
1.0
291
     1
 91
  2455826
 92
 54000000
292
     0
 70
     2
 71
   256
280
     1
  0
SUN
  5
139
330
138
100
AcDbSun
 90
        1
290
     0
 63
     7
421
 16777215
 40
1.0
291
     1
 91
  2455826
 92
 54000000
292
     0
 70
     2
 71
   256
280
     1
  0
SUN
  5
13B
330
13A
100
AcDbSun
 90
        1
290
     0
 63
     7
421
 16777215
 40
1.0
291
     1
 91
  2455826
 92
 54000000
292
     0
 70
     2
 71
   256
280
     1
  0
SUN
  5
13D
330
13C
100
AcDbSun
 90
        1
290
     0
 63
     7
421
 16777215
 40
1.0
291
     1
 91
  2455826
 92
 54000000
292
     0
 70
     2
 71
   256
280
     1
  0
SUN
  5
13F
330
13E
100
AcDbSun
 90
        1
290
     0
 63
     7
421
 16777215
 40
1.0
291
     1
 91
  2455826
 92
 54000000
292
     0
 70
     2
 71
   256
280
     1
  0
SUN
  5
141
330
140
100
AcDbSun
 90
        1
290
     0
 63
     7
421
 16777215
 40
1.0
291
     1
 91
  2455826
 92
 54000000
292
     0
 70
     2
 71
   256
280
     1
  0
SUN
  5
143
330
142
100
AcDbSun
 90
        1
290
     0
 63
     7
421
 16777215
 40
1.0
291
     1
 91
  2455826
 92
 54000000
292
     0
 70
     2
 71
   256
280
     1
  0
SUN
  5
145
330
144
100
AcDbSun
 90
        1
290
     0
 63
     7
421
 16777215
 40
1.0
291
     1
 91
  2455826
 92
 54000000
292
     0
 70
     2
 71
   256
280
     1
  0
SUN
  5
147
330
146
100
AcDbSun
 90
        1
290
     0
 63
     7
421
 16777215
 40
1.0
291
     1
 91
  2455826
 92
 54000000
292
     0
 70
     2
 71
   256
280
     1
  0
SUN
  5
137
330
136
100
AcDbSun
 90
        1
290
     0
 63
     7
421
 16777215
 40
1.0
291
     1
 91
  2455826
 92
 54000000
292
     0
 70
     2
 71
   256
280
     1
  0
DICTIONARY
  5
14F
102
{ACAD_REACTORS
330
C
102
}
330
C
100
AcDbDictionary
281
     1
  0
DICTIONARY
  5
D
102
{ACAD_REACTORS
330
C
102
}
330
C
100
AcDbDictionary
281
     1
  0
DICTIONARY
  5
1A
102
{ACAD_REACTORS
330
C
102
}
330
C
100
AcDbDictionary
281
     1
  3
_Dimetrisch
350
123
  3
_Isometrisch
350
EF
  3
_Links
350
26
  3
_Normal auf
350
9D
  3
_Rechts
350
C3
  3
_Rückseite
350
AE
  3
_Trimetrisch
350
105
  3
_Unten
350
D5
  3
_Vorderseite
350
1E
  3
Model
350
22
  0
DICTIONARY
  5
43
102
{ACAD_REACTORS
330
C
102
}
330
C
100
AcDbDictionary
281
     1
  3
ByBlock
350
45
  3
ByLayer
350
44
  3
Global
350
46
  0
DICTIONARY
  5
6B
102
{ACAD_REACTORS
330
C
102
}
330
C
100
AcDbDictionary
281
     1
  3
Standard
350
6C
  0
DICTIONARY
  5
17
102
{ACAD_REACTORS
330
C
102
}
330
C
100
AcDbDictionary
281
     1
  3
Standard
350
18
  0
DICTIONARY
  5
19
102
{ACAD_REACTORS
330
C
102
}
330
C
100
AcDbDictionary
281
     1
  0
ACDBDICTIONARYWDFLT
  5
E
102
{ACAD_REACTORS
330
C
102
}
330
C
100
AcDbDictionary
281
     1
  3
Normal
350
F
100
AcDbDictionaryWithDefault
340
F
  0
DICTIONARY
  5
47
102
{ACAD_REACTORS
330
C
102
}
330
C
100
AcDbDictionary
281
     1
  3
A0
350
48
  3
A1
350
49
  3
A2
350
4A
  3
A3
350
4B
  3
A4
350
4C
  3
A5
350
4D
  3
A6
350
4E
  3
A7
350
4F
  3
A8
350
50
  3
A9
350
51
  3
B0
350
52
  3
B1
350
53
  3
B2
350
54
  3
B3
350
55
  3
B4
350
56
  3
B5
350
57
  3
B6
350
58
  3
B7
350
59
  3
B8
350
5A
  3
B9
350
5B
  3
C0
350
5C
  3
C1
350
5D
  3
C2
350
5E
  3
C3
350
5F
  3
C4
350
60
  3
C5
350
61
  3
C6
350
62
  3
C7
350
63
  3
C8
350
64
  3
C9
350
65
  3
D0
350
66
  3
D1
350
67
  3
D2
350
68
  0
DICTIONARY
  5
150
102
{ACAD_REACTORS
330
C
102
}
330
C
100
AcDbDictionary
281
     1
  0
DICTIONARY
  5
69
102
{ACAD_REACTORS
330
C
102
}
330
C
100
AcDbDictionary
281
     1
  3
Standard
350
6A
  0
DICTIONARY
  5
2A
102
{ACAD_REACTORS
330
C
102
}
330
C
100
AcDbDictionary
281
     1
  3
2dWireframe
350
2F
  3
Basic
350
32
  3
Brighten
350
36
  3
ColorChange
350
3A
  3
Conceptual
350
34
  3
Dim
350
35
  3
EdgeColorOff
350
3D
  3
Facepattern
350
39
  3
Flat
350
2B
  3
FlatWithEdges
350
2C
  3
Gouraud
350
2D
  3
GouraudWithEdges
350
2E
  3
Hidden
350
31
  3
JitterOff
350
3B
  3
Linepattern
350
38
  3
OverhangOff
350
3C
  3
Realistic
350
33
  3
Shaded
350
42
  3
Shaded with edges
350
41
  3
Shades of Gray
350
3E
  3
Sketchy
350
3F
  3
Thicken
350
37
  3
Wireframe
350
30
  3
X-Ray
350
40
  0
XRECORD
  5
14C
102
{ACAD_REACTORS
330
C
102
}
330
C
100
AcDbXrecord
280
     1
 90
        1
330
6A
  0
DICTIONARY
  5
148
102
{ACAD_REACTORS
330
C
102
}
330
C
100
AcDbDictionary
281
     1
  3
CANNOSCALE
350
149
  3
CMLEADERSTYLE
350
14E
  3
CTABLESTYLE
350
14D
  0
LAYOUT
  5
123
102
{ACAD_REACTORS
330
1A
102
}
330
1A
100
AcDbPlotSettings
  1

  2
none_device
  4
ISO_A4_(210.00_x_297.00_MM)
  6

 40
7.5
 41
20.0
 42
7.5
 43
20.0
 44
210.0
 45
297.0
 46
0.0
 47
0.0
 48
0.0
 49
0.0
140
0.0
141
0.0
142
1.0
143
3.1128404669
 70
   688
 72
     1
 73
     1
 74
     1
  7

 75
     0
 76
     0
 77
     2
 78
   300
147
0.32125
148
400.0
149
26.0
100
AcDbLayout
  1
_Dimetrisch
 70
     1
 71
     9
 10
0.0
 20
0.0
 11
0.0
 21
0.0
 12
0.0
 22
0.0
 32
0.0
 14
0.0
 24
0.0
 34
0.0
 15
0.0
 25
0.0
 35
0.0
146
0.0
 13
0.0
 23
0.0
 33
0.0
 16
1.0
 26
0.0
 36
0.0
 17
0.0
 27
1.0
 37
0.0
 76
     0
330
122
331
146
  0
LAYOUT
  5
EF
102
{ACAD_REACTORS
330
1A
102
}
330
1A
100
AcDbPlotSettings
  1

  2
none_device
  4
ISO_A4_(210.00_x_297.00_MM)
  6

 40
7.5
 41
20.0
 42
7.5
 43
20.0
 44
210.0
 45
297.0
 46
0.0
 47
0.0
 48
0.0
 49
0.0
140
0.0
141
0.0
142
1.0
143
3.1128404669
 70
   688
 72
     1
 73
     1
 74
     1
  7

 75
     0
 76
     0
 77
     2
 78
   300
147
0.32125
148
400.0
149
26.0
100
AcDbLayout
  1
_Isometrisch
 70
     1
 71
     7
 10
0.0
 20
0.0
 11
0.0
 21
0.0
 12
0.0
 22
0.0
 32
0.0
 14
0.0
 24
0.0
 34
0.0
 15
0.0
 25
0.0
 35
0.0
146
0.0
 13
0.0
 23
0.0
 33
0.0
 16
1.0
 26
0.0
 36
0.0
 17
0.0
 27
1.0
 37
0.0
 76
     0
330
EE
331
142
  0
LAYOUT
  5
26
102
{ACAD_REACTORS
330
1A
102
}
330
1A
100
AcDbPlotSettings
  1

  2
none_device
  4
ISO_A4_(210.00_x_297.00_MM)
  6

 40
7.5
 41
20.0
 42
7.5
 43
20.0
 44
210.0
 45
297.0
 46
0.0
 47
0.0
 48
0.0
 49
0.0
140
0.0
141
0.0
142
1.0
143
3.1128404669
 70
   688
 72
     1
 73
     1
 74
     1
  7

 75
     0
 76
     0
 77
     2
 78
   300
147
0.32125
148
400.0
149
26.0
100
AcDbLayout
  1
_Links
 70
     1
 71
     2
 10
0.0
 20
0.0
 11
0.0
 21
0.0
 12
0.0
 22
0.0
 32
0.0
 14
0.0
 24
0.0
 34
0.0
 15
0.0
 25
0.0
 35
0.0
146
0.0
 13
0.0
 23
0.0
 33
0.0
 16
1.0
 26
0.0
 36
0.0
 17
0.0
 27
1.0
 37
0.0
 76
     0
330
23
331
138
  0
LAYOUT
  5
9D
102
{ACAD_REACTORS
330
1A
102
}
330
1A
100
AcDbPlotSettings
  1

  2
none_device
  4
ISO_A4_(210.00_x_297.00_MM)
  6

 40
7.5
 41
20.0
 42
7.5
 43
20.0
 44
210.0
 45
297.0
 46
0.0
 47
0.0
 48
0.0
 49
0.0
140
0.0
141
0.0
142
1.0
143
3.1128404669
 70
   688
 72
     1
 73
     1
 74
     1
  7

 75
     0
 76
     0
 77
     2
 78
   300
147
0.32125
148
400.0
149
26.0
100
AcDbLayout
  1
_Normal auf
 70
     1
 71
     3
 10
0.0
 20
0.0
 11
0.0
 21
0.0
 12
0.0
 22
0.0
 32
0.0
 14
0.0
 24
0.0
 34
0.0
 15
0.0
 25
0.0
 35
0.0
146
0.0
 13
0.0
 23
0.0
 33
0.0
 16
1.0
 26
0.0
 36
0.0
 17
0.0
 27
1.0
 37
0.0
 76
     0
330
9C
331
13A
  0
LAYOUT
  5
C3
102
{ACAD_REACTORS
330
1A
102
}
330
1A
100
AcDbPlotSettings
  1

  2
none_device
  4
ISO_A4_(210.00_x_297.00_MM)
  6

 40
7.5
 41
20.0
 42
7.5
 43
20.0
 44
210.0
 45
297.0
 46
0.0
 47
0.0
 48
0.0
 49
0.0
140
0.0
141
0.0
142
1.0
143
3.1128404669
 70
   688
 72
     1
 73
     1
 74
     1
  7

 75
     0
 76
     0
 77
     2
 78
   300
147
0.32125
148
400.0
149
26.0
100
AcDbLayout
  1
_Rechts
 70
     1
 71
     5
 10
0.0
 20
0.0
 11
0.0
 21
0.0
 12
0.0
 22
0.0
 32
0.0
 14
0.0
 24
0.0
 34
0.0
 15
0.0
 25
0.0
 35
0.0
146
0.0
 13
0.0
 23
0.0
 33
0.0
 16
1.0
 26
0.0
 36
0.0
 17
0.0
 27
1.0
 37
0.0
 76
     0
330
C2
331
13E
  0
LAYOUT
  5
AE
102
{ACAD_REACTORS
330
1A
102
}
330
1A
100
AcDbPlotSettings
  1

  2
none_device
  4
ISO_A4_(210.00_x_297.00_MM)
  6

 40
7.5
 41
20.0
 42
7.5
 43
20.0
 44
210.0
 45
297.0
 46
0.0
 47
0.0
 48
0.0
 49
0.0
140
0.0
141
0.0
142
1.0
143
3.1128404669
 70
   688
 72
     1
 73
     1
 74
     1
  7

 75
     0
 76
     0
 77
     2
 78
   300
147
0.32125
148
400.0
149
26.0
100
AcDbLayout
  1
_Rückseite
 70
     1
 71
     4
 10
0.0
 20
0.0
 11
0.0
 21
0.0
 12
0.0
 22
0.0
 32
0.0
 14
0.0
 24
0.0
 34
0.0
 15
0.0
 25
0.0
 35
0.0
146
0.0
 13
0.0
 23
0.0
 33
0.0
 16
1.0
 26
0.0
 36
0.0
 17
0.0
 27
1.0
 37
0.0
 76
     0
330
AD
331
13C
  0
LAYOUT
  5
105
102
{ACAD_REACTORS
330
1A
102
}
330
1A
100
AcDbPlotSettings
  1

  2
none_device
  4
ISO_A4_(210.00_x_297.00_MM)
  6

 40
7.5
 41
20.0
 42
7.5
 43
20.0
 44
210.0
 45
297.0
 46
0.0
 47
0.0
 48
0.0
 49
0.0
140
0.0
141
0.0
142
1.0
143
3.1128404669
 70
   688
 72
     1
 73
     1
 74
     1
  7

 75
     0
 76
     0
 77
     2
 78
   300
147
0.32125
148
400.0
149
26.0
100
AcDbLayout
  1
_Trimetrisch
 70
     1
 71
     8
 10
0.0
 20
0.0
 11
0.0
 21
0.0
 12
0.0
 22
0.0
 32
0.0
 14
0.0
 24
0.0
 34
0.0
 15
0.0
 25
0.0
 35
0.0
146
0.0
 13
0.0
 23
0.0
 33
0.0
 16
1.0
 26
0.0
 36
0.0
 17
0.0
 27
1.0
 37
0.0
 76
     0
330
104
331
144
  0
LAYOUT
  5
D5
102
{ACAD_REACTORS
330
1A
102
}
330
1A
100
AcDbPlotSettings
  1

  2
none_device
  4
ISO_A4_(210.00_x_297.00_MM)
  6

 40
7.5
 41
20.0
 42
7.5
 43
20.0
 44
210.0
 45
297.0
 46
0.0
 47
0.0
 48
0.0
 49
0.0
140
0.0
141
0.0
142
1.0
143
3.1128404669
 70
   688
 72
     1
 73
     1
 74
     1
  7

 75
     0
 76
     0
 77
     2
 78
   300
147
0.32125
148
400.0
149
26.0
100
AcDbLayout
  1
_Unten
 70
     1
 71
     6
 10
0.0
 20
0.0
 11
0.0
 21
0.0
 12
0.0
 22
0.0
 32
0.0
 14
0.0
 24
0.0
 34
0.0
 15
0.0
 25
0.0
 35
0.0
146
0.0
 13
0.0
 23
0.0
 33
0.0
 16
1.0
 26
0.0
 36
0.0
 17
0.0
 27
1.0
 37
0.0
 76
     0
330
D4
331
140
  0
LAYOUT
  5
1E
102
{ACAD_REACTORS
330
1A
102
}
330
1A
100
AcDbPlotSettings
  1

  2
none_device
  4
ISO_A4_(210.00_x_297.00_MM)
  6

 40
7.5
 41
20.0
 42
7.5
 43
20.0
 44
210.0
 45
297.0
 46
0.0
 47
0.0
 48
0.0
 49
0.0
140
0.0
141
0.0
142
1.0
143
3.1128404669
 70
   688
 72
     1
 73
     1
 74
     1
  7

 75
     0
 76
     0
 77
     2
 78
   300
147
0.32125
148
400.0
149
26.0
100
AcDbLayout
  1
_Vorderseite
 70
     1
 71
     1
 10
-462.2568093385
 20
-49.3463035019
 11
462.2568093385
 21
604.3501945525
 12
0.0
 22
0.0
 32
0.0
 14
-400.0
 24
-26.0
 34
0.0
 15
400.0
 25
120.0
 35
0.0
146
0.0
 13
0.0
 23
0.0
 33
0.0
 16
1.0
 26
0.0
 36
0.0
 17
0.0
 27
1.0
 37
0.0
 76
     0
330
1B
331
136
  0
LAYOUT
  5
22
102
{ACAD_REACTORS
330
1A
102
}
330
1A
100
AcDbPlotSettings
  1

  2
none_device
  4
ANSI_A_(11.00_x_8.50_Inches)
  6

 40
6.35
 41
19.05
 42
6.35000508
 43
19.05000254
 44
279.4
 45
215.9
 46
133.34999746
 47
88.89999873
 48
0.0
 49
0.0
140
0.0
141
0.0
142
0.0136125
143
1.0
 70
  1696
 72
     0
 73
     0
 74
     0
  7

 75
     0
 76
     0
 77
     2
 78
   300
147
0.0179189148
148
-1300.4909072572
149
0.0
100
AcDbLayout
  1
Model
 70
     1
 71
     0
 10
0.0
 20
0.0
 11
420.0
 21
297.0
 12
0.0
 22
0.0
 32
0.0
 14
-400.0
 24
-200.0
 34
0.0
 15
400.0
 25
200.0
 35
0.0
146
0.0
 13
0.0
 23
0.0
 33
0.0
 16
1.0
 26
0.0
 36
0.0
 17
0.0
 27
1.0
 37
0.0
 76
     0
330
1F
331
29
  0
MATERIAL
  5
45
102
{ACAD_REACTORS
330
43
102
}
330
43
100
AcDbMaterial
  1
ByBlock
 72
     1
 94
      127
  0
MATERIAL
  5
44
102
{ACAD_REACTORS
330
43
102
}
330
43
100
AcDbMaterial
  1
ByLayer
 72
     1
 94
      127
  0
MATERIAL
  5
46
102
{ACAD_REACTORS
330
43
102
}
330
43
100
AcDbMaterial
  1
Global
 72
     1
 94
      127
  0
MLEADERSTYLE
  5
6C
102
{ACAD_REACTORS
330
6B
102
}
330
6B
100
AcDbMLeaderStyle
179
     2
170
     2
171
     1
172
     0
 90
        2
 40
0.0
 41
0.0
173
     1
 91
-1056964608
340
14
 92
       -2
290
     1
 42
2.0
291
     1
 43
8.0
  3
Standard
341
0
 44
4.0
300

342
11
174
     1
178
     6
175
     1
176
     0
 93
-1056964608
 45
4.0
292
     0
297
     0
 46
4.0
343
0
 94
-1056964608
 47
1.0
 49
1.0
140
1.0
293
     1
141
0.0
294
     1
177
     0
142
1.0
295
     0
296
     0
143
3.75
271
     0
272
     9
273
     9
298
     0
  0
MLINESTYLE
  5
18
102
{ACAD_REACTORS
330
17
102
}
330
17
100
AcDbMlineStyle
  2
Standard
 70
     0
  3

 62
   256
 51
90.0
 52
90.0
 71
     2
 49
0.5
 62
   256
  6
BYLAYER
 49
-0.5
 62
   256
  6
BYLAYER
  0
ACDBPLACEHOLDER
  5
F
102
{ACAD_REACTORS
330
E
102
}
330
E
  0
SCALE
  5
48
102
{ACAD_REACTORS
330
47
102
}
330
47
100
AcDbScale
 70
     0
300
1:1
140
1.0
141
1.0
290
     1
  0
SCALE
  5
49
102
{ACAD_REACTORS
330
47
102
}
330
47
100
AcDbScale
 70
     0
300
1:2
140
1.0
141
2.0
290
     0
  0
SCALE
  5
4A
102
{ACAD_REACTORS
330
47
102
}
330
47
100
AcDbScale
 70
     0
300
1:4
140
1.0
141
4.0
290
     0
  0
SCALE
  5
4B
102
{ACAD_REACTORS
330
47
102
}
330
47
100
AcDbScale
 70
     0
300
1:5
140
1.0
141
5.0
290
     0
  0
SCALE
  5
4C
102
{ACAD_REACTORS
330
47
102
}
330
47
100
AcDbScale
 70
     0
300
1:8
140
1.0
141
8.0
290
     0
  0
SCALE
  5
4D
102
{ACAD_REACTORS
330
47
102
}
330
47
100
AcDbScale
 70
     0
300
1:10
140
1.0
141
10.0
290
     0
  0
SCALE
  5
4E
102
{ACAD_REACTORS
330
47
102
}
330
47
100
AcDbScale
 70
     0
300
1:16
140
1.0
141
16.0
290
     0
  0
SCALE
  5
4F
102
{ACAD_REACTORS
330
47
102
}
330
47
100
AcDbScale
 70
     0
300
1:20
140
1.0
141
20.0
290
     0
  0
SCALE
  5
50
102
{ACAD_REACTORS
330
47
102
}
330
47
100
AcDbScale
 70
     0
300
1:30
140
1.0
141
30.0
290
     0
  0
SCALE
  5
51
102
{ACAD_REACTORS
330
47
102
}
330
47
100
AcDbScale
 70
     0
300
1:40
140
1.0
141
40.0
290
     0
  0
SCALE
  5
52
102
{ACAD_REACTORS
330
47
102
}
330
47
100
AcDbScale
 70
     0
300
1:50
140
1.0
141
50.0
290
     0
  0
SCALE
  5
53
102
{ACAD_REACTORS
330
47
102
}
330
47
100
AcDbScale
 70
     0
300
1:100
140
1.0
141
100.0
290
     0
  0
SCALE
  5
54
102
{ACAD_REACTORS
330
47
102
}
330
47
100
AcDbScale
 70
     0
300
2:1
140
2.0
141
1.0
290
     0
  0
SCALE
  5
55
102
{ACAD_REACTORS
330
47
102
}
330
47
100
AcDbScale
 70
     0
300
4:1
140
4.0
141
1.0
290
     0
  0
SCALE
  5
56
102
{ACAD_REACTORS
330
47
102
}
330
47
100
AcDbScale
 70
     0
300
8:1
140
8.0
141
1.0
290
     0
  0
SCALE
  5
57
102
{ACAD_REACTORS
330
47
102
}
330
47
100
AcDbScale
 70
     0
300
10:1
140
10.0
141
1.0
290
     0
  0
SCALE
  5
58
102
{ACAD_REACTORS
330
47
102
}
330
47
100
AcDbScale
 70
     0
300
100:1
140
100.0
141
1.0
290
     0
  0
SCALE
  5
59
102
{ACAD_REACTORS
330
47
102
}
330
47
100
AcDbScale
 70
     0
300
1/128" = 1'-0"
140
0.0078125
141
12.0
290
     0
  0
SCALE
  5
5A
102
{ACAD_REACTORS
330
47
102
}
330
47
100
AcDbScale
 70
     0
300
1/64" = 1'-0"
140
0.015625
141
12.0
290
     0
  0
SCALE
  5
5B
102
{ACAD_REACTORS
330
47
102
}
330
47
100
AcDbScale
 70
     0
300
1/32" = 1'-0"
140
0.03125
141
12.0
290
     0
  0
SCALE
  5
5C
102
{ACAD_REACTORS
330
47
102
}
330
47
100
AcDbScale
 70
     0
300
1/16" = 1'-0"
140
0.0625
141
12.0
290
     0
  0
SCALE
  5
5D
102
{ACAD_REACTORS
330
47
102
}
330
47
100
AcDbScale
 70
     0
300
3/32" = 1'-0"
140
0.09375
141
12.0
290
     0
  0
SCALE
  5
5E
102
{ACAD_REACTORS
330
47
102
}
330
47
100
AcDbScale
 70
     0
300
1/8" = 1'-0"
140
0.125
141
12.0
290
     0
  0
SCALE
  5
5F
102
{ACAD_REACTORS
330
47
102
}
330
47
100
AcDbScale
 70
     0
300
3/16" = 1'-0"
140
0.1875
141
12.0
290
     0
  0
SCALE
  5
60
102
{ACAD_REACTORS
330
47
102
}
330
47
100
AcDbScale
 70
     0
300
1/4" = 1'-0"
140
0.25
141
12.0
290
     0
  0
SCALE
  5
61
102
{ACAD_REACTORS
330
47
102
}
330
47
100
AcDbScale
 70
     0
300
3/8" = 1'-0"
140
0.375
141
12.0
290
     0
  0
SCALE
  5
62
102
{ACAD_REACTORS
330
47
102
}
330
47
100
AcDbScale
 70
     0
300
1/2" = 1'-0"
140
0.5
141
12.0
290
     0
  0
SCALE
  5
63
102
{ACAD_REACTORS
330
47
102
}
330
47
100
AcDbScale
 70
     0
300
3/4" = 1'-0"
140
0.75
141
12.0
290
     0
  0
SCALE
  5
64
102
{ACAD_REACTORS
330
47
102
}
330
47
100
AcDbScale
 70
     0
300
1" = 1'-0"
140
1.0
141
12.0
290
     0
  0
SCALE
  5
65
102
{ACAD_REACTORS
330
47
102
}
330
47
100
AcDbScale
 70
     0
300
1-1/2" = 1'-0"
140
1.5
141
12.0
290
     0
  0
SCALE
  5
66
102
{ACAD_REACTORS
330
47
102
}
330
47
100
AcDbScale
 70
     0
300
3" = 1'-0"
140
3.0
141
12.0
290
     0
  0
SCALE
  5
67
102
{ACAD_REACTORS
330
47
102
}
330
47
100
AcDbScale
 70
     0
300
6" = 1'-0"
140
6.0
141
12.0
290
     0
  0
SCALE
  5
68
102
{ACAD_REACTORS
330
47
102
}
330
47
100
AcDbScale
 70
     0
300
1'-0" = 1'-0"
140
12.0
141
12.0
290
     0
  0
TABLESTYLE
  5
6A
102
{ACAD_REACTORS
330
69
102
}
102
{ACAD_XDICTIONARY
360
14A
102
}
330
69
100
AcDbTableStyle
  3
Standard
 70
     0
 71
     0
 40
0.06
 41
0.06
280
     0
281
     0
  7
STANDARD
140
4.5
170
     2
 62
     0
 63
   257
283
     0
 90
        4
 91
        0
  1

274
    -2
284
     1
 64
     0
275
    -2
285
     1
 65
     0
276
    -2
286
     1
 66
     0
277
    -2
287
     1
 67
     0
278
    -2
288
     1
 68
     0
279
    -2
289
     1
 69
     0
  7
STANDARD
140
6.0
170
     5
 62
     0
 63
   257
283
     0
 90
        4
 91
        0
  1

274
    -2
284
     1
 64
     0
275
    -2
285
     1
 65
     0
276
    -2
286
     1
 66
     0
277
    -2
287
     1
 67
     0
278
    -2
288
     1
 68
     0
279
    -2
289
     1
 69
     0
  7
STANDARD
140
4.5
170
     5
 62
     0
 63
   257
283
     0
 90
        4
 91
        0
  1

274
    -2
284
     1
 64
     0
275
    -2
285
     1
 65
     0
276
    -2
286
     1
 66
     0
277
    -2
287
     1
 67
     0
278
    -2
288
     1
 68
     0
279
    -2
289
     1
 69
     0
  0
VISUALSTYLE
  5
2F
102
{ACAD_REACTORS
330
2A
102
}
330
2A
100
AcDbVisualStyle
  2
2dWireframe
 70
     4
177
     3
291
     0
 70
    58
 90
        0
176
     1
 90
        2
176
     1
 90
        0
176
     1
 90
        0
176
     1
 40
0.6
176
     1
 40
30.0
176
     1
 62
     7
420
 16777215
176
     1
 90
        1
176
     1
 90
        4
176
     1
 62
     7
176
     1
 62
   257
176
     1
 90
        1
176
     1
 90
        1
176
     1
 40
1.0
176
     1
 90
        0
176
     1
 62
   257
176
     1
 40
1.0
176
     1
 90
        1
176
     1
 90
        6
176
     1
 90
        2
176
     1
 62
     7
176
     1
 90
        5
176
     1
 90
        0
176
     1
 90
        0
176
     1
290
     0
176
     1
 90
        1
176
     1
 40
0.0
176
     1
 90
        0
176
     1
290
     1
176
     1
290
     1
176
     1
290
     0
176
     1
290
     0
176
     1
290
     0
176
     1
290
     0
176
     1
290
     0
176
     1
290
     0
176
     1
290
     0
176
     1
 90
       50
176
     1
 40
0.0
176
     1
 40
1.0
176
     1
 90
        0
176
     1
 62
    18
420
        0
176
     1
 90
       50
176
     1
 90
        3
176
     1
 62
     5
420
      255
176
     1
290
     0
176
     1
 90
       50
176
     1
 90
       50
176
     1
 90
       50
176
     1
290
     0
176
     1
 90
       50
176
     1
 62
   256
176
     0
 40
1.0
176
     0
 90
        2
176
     1
  1
strokes_ogs.tif
176
     1
290
     0
176
     1
 40
1.0
176
     1
 40
1.0
176
     1
  0
VISUALSTYLE
  5
32
102
{ACAD_REACTORS
330
2A
102
}
330
2A
100
AcDbVisualStyle
  2
Basic
 70
     7
177
     3
291
     1
 70
    58
 90
        1
176
     1
 90
        0
176
     1
 90
        1
176
     1
 90
        0
176
     1
 40
0.6
176
     1
 40
30.0
176
     1
 62
     7
420
 16777215
176
     1
 90
        0
176
     1
 90
        4
176
     1
 62
     7
176
     1
 62
   257
176
     1
 90
        1
176
     1
 90
        1
176
     1
 40
1.0
176
     1
 90
        8
176
     1
 62
     7
176
     1
 40
1.0
176
     1
 90
        1
176
     1
 90
        6
176
     1
 90
        2
176
     1
 62
     7
176
     1
 90
        5
176
     1
 90
        0
176
     1
 90
        0
176
     1
290
     0
176
     1
 90
        1
176
     1
 40
0.0
176
     1
 90
        0
176
     1
290
     0
176
     1
290
     1
176
     1
290
     1
176
     1
290
     0
176
     1
290
     0
176
     1
290
     0
176
     1
290
     0
176
     1
290
     0
176
     1
290
     0
176
     1
 90
       50
176
     1
 40
0.0
176
     1
 40
1.0
176
     1
 90
        0
176
     1
 62
    18
420
        0
176
     1
 90
       50
176
     1
 90
        3
176
     1
 62
     5
420
      255
176
     1
290
     0
176
     1
 90
       50
176
     1
 90
       50
176
     1
 90
       50
176
     1
290
     0
176
     1
 90
       50
176
     1
 62
   256
176
     0
 40
1.0
176
     0
 90
        2
176
     1
  1
strokes_ogs.tif
176
     1
290
     0
176
     1
 40
1.0
176
     1
 40
1.0
176
     1
  0
VISUALSTYLE
  5
36
102
{ACAD_REACTORS
330
2A
102
}
330
2A
100
AcDbVisualStyle
  2
Brighten
 70
    12
177
     3
291
     1
 70
    58
 90
        2
176
     1
 90
        2
176
     1
 90
        0
176
     1
 90
        0
176
     1
 40
0.6
176
     1
 40
30.0
176
     1
 62
     7
420
 16777215
176
     1
 90
        1
176
     1
 90
        4
176
     1
 62
     7
176
     1
 62
   257
176
     1
 90
        1
176
     1
 90
        1
176
     1
 40
1.0
176
     1
 90
        8
176
     1
 62
     7
176
     1
 40
1.0
176
     1
 90
        1
176
     1
 90
        6
176
     1
 90
        2
176
     1
 62
     7
176
     1
 90
        5
176
     1
 90
        0
176
     1
 90
        0
176
     1
290
     0
176
     1
 90
        1
176
     1
 40
50.0
176
     1
 90
        0
176
     1
290
     0
176
     1
290
     1
176
     1
290
     1
176
     1
290
     0
176
     1
290
     0
176
     1
290
     0
176
     1
290
     0
176
     1
290
     0
176
     1
290
     0
176
     1
 90
       50
176
     1
 40
0.0
176
     1
 40
1.0
176
     1
 90
        0
176
     1
 62
    18
420
        0
176
     1
 90
       50
176
     1
 90
        3
176
     1
 62
     5
420
      255
176
     1
290
     0
176
     1
 90
       50
176
     1
 90
       50
176
     1
 90
       50
176
     1
290
     0
176
     1
 90
       50
176
     1
 62
   256
176
     0
 40
1.0
176
     0
 90
        2
176
     1
  1
strokes_ogs.tif
176
     1
290
     0
176
     1
 40
1.0
176
     1
 40
1.0
176
     1
  0
VISUALSTYLE
  5
3A
102
{ACAD_REACTORS
330
2A
102
}
330
2A
100
AcDbVisualStyle
  2
ColorChange
 70
    16
177
     3
291
     1
 70
    58
 90
        2
176
     1
 90
        2
176
     1
 90
        3
176
     1
 90
        0
176
     1
 40
0.6
176
     1
 40
30.0
176
     1
 62
     8
420
  8421504
176
     1
 90
        1
176
     1
 90
        4
176
     1
 62
     7
176
     1
 62
   257
176
     1
 90
        1
176
     1
 90
        1
176
     1
 40
1.0
176
     1
 90
        8
176
     1
 62
     8
420
  8421504
176
     1
 40
1.0
176
     1
 90
        1
176
     1
 90
        6
176
     1
 90
        2
176
     1
 62
     7
176
     1
 90
        5
176
     1
 90
        0
176
     1
 90
        0
176
     1
290
     0
176
     1
 90
        1
176
     1
 40
0.0
176
     1
 90
        0
176
     1
290
     0
176
     1
290
     1
176
     1
290
     1
176
     1
290
     0
176
     1
290
     0
176
     1
290
     0
176
     1
290
     0
176
     1
290
     0
176
     1
290
     0
176
     1
 90
       50
176
     1
 40
0.0
176
     1
 40
1.0
176
     1
 90
        0
176
     1
 62
    18
420
        0
176
     1
 90
       50
176
     1
 90
        3
176
     1
 62
     5
420
      255
176
     1
290
     0
176
     1
 90
       50
176
     1
 90
       50
176
     1
 90
       50
176
     1
290
     0
176
     1
 90
       50
176
     1
 62
   256
176
     0
 40
1.0
176
     0
 90
        2
176
     1
  1
strokes_ogs.tif
176
     1
290
     0
176
     1
 40
1.0
176
     1
 40
1.0
176
     1
  0
VISUALSTYLE
  5
34
102
{ACAD_REACTORS
330
2A
102
}
330
2A
100
AcDbVisualStyle
  2
Conceptual
 70
     9
177
     3
291
     0
 70
    58
 90
        3
176
     1
 90
        2
176
     1
 90
        0
176
     1
 90
        0
176
     1
 40
0.6
176
     1
 40
30.0
176
     1
 62
     7
420
 16777215
176
     1
 90
        2
176
     1
 90
        2
176
     1
 62
     7
176
     1
 62
   257
176
     1
 90
        1
176
     1
 90
        1
176
     1
 40
179.0
176
     1
 90
        8
176
     1
 62
     7
176
     1
 40
1.0
176
     1
 90
        1
176
     1
 90
        6
176
     1
 90
        2
176
     1
 62
     7
176
     1
 90
        3
176
     1
 90
        0
176
     1
 90
        0
176
     1
290
     0
176
     1
 90
        1
176
     1
 40
0.0
176
     1
 90
        0
176
     1
290
     0
176
     1
290
     1
176
     1
290
     1
176
     1
290
     0
176
     1
290
     0
176
     1
290
     0
176
     1
290
     0
176
     1
290
     0
176
     1
290
     0
176
     1
 90
       50
176
     1
 40
0.0
176
     1
 40
1.0
176
     1
 90
        0
176
     1
 62
    18
420
        0
176
     1
 90
       50
176
     1
 90
        3
176
     1
 62
     5
420
      255
176
     1
290
     0
176
     1
 90
       50
176
     1
 90
       50
176
     1
 90
       50
176
     1
290
     0
176
     1
 90
       50
176
     1
 62
   256
176
     0
 40
1.0
176
     0
 90
        2
176
     1
  1
strokes_ogs.tif
176
     1
290
     0
176
     1
 40
1.0
176
     1
 40
1.0
176
     1
  0
VISUALSTYLE
  5
35
102
{ACAD_REACTORS
330
2A
102
}
330
2A
100
AcDbVisualStyle
  2
Dim
 70
    11
177
     3
291
     1
 70
    58
 90
        2
176
     1
 90
        2
176
     1
 90
        0
176
     1
 90
        0
176
     1
 40
0.6
176
     1
 40
30.0
176
     1
 62
     7
420
 16777215
176
     1
 90
        1
176
     1
 90
        4
176
     1
 62
     7
176
     1
 62
   257
176
     1
 90
        1
176
     1
 90
        1
176
     1
 40
1.0
176
     1
 90
        8
176
     1
 62
     7
176
     1
 40
1.0
176
     1
 90
        1
176
     1
 90
        6
176
     1
 90
        2
176
     1
 62
     7
176
     1
 90
        5
176
     1
 90
        0
176
     1
 90
        0
176
     1
290
     0
176
     1
 90
        1
176
     1
 40
-50.0
176
     1
 90
        0
176
     1
290
     0
176
     1
290
     1
176
     1
290
     1
176
     1
290
     0
176
     1
290
     0
176
     1
290
     0
176
     1
290
     0
176
     1
290
     0
176
     1
290
     0
176
     1
 90
       50
176
     1
 40
0.0
176
     1
 40
1.0
176
     1
 90
        0
176
     1
 62
    18
420
        0
176
     1
 90
       50
176
     1
 90
        3
176
     1
 62
     5
420
      255
176
     1
290
     0
176
     1
 90
       50
176
     1
 90
       50
176
     1
 90
       50
176
     1
290
     0
176
     1
 90
       50
176
     1
 62
   256
176
     0
 40
1.0
176
     0
 90
        2
176
     1
  1
strokes_ogs.tif
176
     1
290
     0
176
     1
 40
1.0
176
     1
 40
1.0
176
     1
  0
VISUALSTYLE
  5
3D
102
{ACAD_REACTORS
330
2A
102
}
330
2A
100
AcDbVisualStyle
  2
EdgeColorOff
 70
    22
177
     3
291
     1
 70
    58
 90
        2
176
     0
 90
        2
176
     0
 90
        0
176
     0
 90
        0
176
     0
 40
0.6
176
     0
 40
30.0
176
     0
 62
     7
420
 16777215
176
     0
 90
        1
176
     0
 90
        4
176
     0
 62
     7
176
     0
 62
   257
176
     0
 90
        1
176
     0
 90
        1
176
     0
 40
1.0
176
     0
 90
        8
176
     2
 62
     7
176
     0
 40
1.0
176
     0
 90
        1
176
     0
 90
        6
176
     0
 90
        2
176
     0
 62
     7
176
     0
 90
        5
176
     0
 90
        0
176
     0
 90
        0
176
     0
290
     0
176
     0
 90
        1
176
     0
 40
0.0
176
     0
 90
        0
176
     0
290
     0
176
     0
290
     1
176
     0
290
     1
176
     0
290
     0
176
     0
290
     0
176
     0
290
     0
176
     0
290
     0
176
     0
290
     0
176
     0
290
     0
176
     0
 90
       50
176
     0
 40
0.0
176
     0
 40
1.0
176
     0
 90
        0
176
     0
 62
    18
420
        0
176
     0
 90
       50
176
     0
 90
        3
176
     0
 62
     5
420
      255
176
     0
290
     0
176
     0
 90
       50
176
     0
 90
       50
176
     0
 90
       50
176
     0
290
     0
176
     0
 90
       50
176
     0
 62
   256
176
     0
 40
1.0
176
     0
 90
        2
176
     0
  1
strokes_ogs.tif
176
     0
290
     0
176
     0
 40
1.0
176
     0
 40
1.0
176
     0
  0
VISUALSTYLE
  5
39
102
{ACAD_REACTORS
330
2A
102
}
330
2A
100
AcDbVisualStyle
  2
Facepattern
 70
    15
177
     3
291
     1
 70
    58
 90
        2
176
     1
 90
        2
176
     1
 90
        0
176
     1
 90
        0
176
     1
 40
0.6
176
     1
 40
30.0
176
     1
 62
     7
420
 16777215
176
     1
 90
        1
176
     1
 90
        4
176
     1
 62
     7
176
     1
 62
   257
176
     1
 90
        1
176
     1
 90
        1
176
     1
 40
1.0
176
     1
 90
        8
176
     1
 62
     7
176
     1
 40
1.0
176
     1
 90
        1
176
     1
 90
        6
176
     1
 90
        2
176
     1
 62
     7
176
     1
 90
        5
176
     1
 90
        0
176
     1
 90
        0
176
     1
290
     0
176
     1
 90
        1
176
     1
 40
0.0
176
     1
 90
        0
176
     1
290
     0
176
     1
290
     1
176
     1
290
     1
176
     1
290
     0
176
     1
290
     0
176
     1
290
     0
176
     1
290
     0
176
     1
290
     0
176
     1
290
     0
176
     1
 90
       50
176
     1
 40
0.0
176
     1
 40
1.0
176
     1
 90
        0
176
     1
 62
    18
420
        0
176
     1
 90
       50
176
     1
 90
        3
176
     1
 62
     5
420
      255
176
     1
290
     0
176
     1
 90
       50
176
     1
 90
       50
176
     1
 90
       50
176
     1
290
     0
176
     1
 90
       50
176
     1
 62
   256
176
     0
 40
1.0
176
     0
 90
        2
176
     1
  1
strokes_ogs.tif
176
     1
290
     0
176
     1
 40
1.0
176
     1
 40
1.0
176
     1
  0
VISUALSTYLE
  5
2B
102
{ACAD_REACTORS
330
2A
102
}
330
2A
100
AcDbVisualStyle
  2
Flat
 70
     0
177
     3
291
     1
 70
    58
 90
        2
176
     1
 90
        1
176
     1
 90
        1
176
     1
 90
        2
176
     1
 40
0.6
176
     1
 40
30.0
176
     1
 62
     7
420
 16777215
176
     1
 90
        0
176
     1
 90
        0
176
     1
 62
     7
176
     1
 62
   257
176
     1
 90
        1
176
     1
 90
        1
176
     1
 40
1.0
176
     1
 90
        8
176
     1
 62
     7
176
     1
 40
1.0
176
     1
 90
        1
176
     1
 90
        6
176
     1
 90
        2
176
     1
 62
     7
176
     1
 90
        5
176
     1
 90
        0
176
     1
 90
        0
176
     1
290
     0
176
     1
 90
       13
176
     1
 40
0.0
176
     1
 90
        0
176
     1
290
     0
176
     1
290
     1
176
     1
290
     1
176
     1
290
     0
176
     1
290
     0
176
     1
290
     0
176
     1
290
     0
176
     1
290
     0
176
     1
290
     0
176
     1
 90
       50
176
     1
 40
0.0
176
     1
 40
1.0
176
     1
 90
        0
176
     1
 62
    18
420
        0
176
     1
 90
       50
176
     1
 90
        3
176
     1
 62
     5
420
      255
176
     1
290
     0
176
     1
 90
       50
176
     1
 90
       50
176
     1
 90
       50
176
     1
290
     0
176
     1
 90
       50
176
     1
 62
   256
176
     0
 40
1.0
176
     0
 90
        2
176
     1
  1
strokes_ogs.tif
176
     1
290
     0
176
     1
 40
1.0
176
     1
 40
1.0
176
     1
  0
VISUALSTYLE
  5
2C
102
{ACAD_REACTORS
330
2A
102
}
330
2A
100
AcDbVisualStyle
  2
FlatWithEdges
 70
     1
177
     3
291
     1
 70
    58
 90
        2
176
     1
 90
        1
176
     1
 90
        1
176
     1
 90
        2
176
     1
 40
0.6
176
     1
 40
30.0
176
     1
 62
     7
420
 16777215
176
     1
 90
        1
176
     1
 90
        0
176
     1
 62
     7
176
     1
 62
   257
176
     1
 90
        1
176
     1
 90
        1
176
     1
 40
1.0
176
     1
 90
        0
176
     1
 62
   257
176
     1
 40
1.0
176
     1
 90
        1
176
     1
 90
        6
176
     1
 90
        2
176
     1
 62
     7
176
     1
 90
        5
176
     1
 90
        0
176
     1
 90
        0
176
     1
290
     0
176
     1
 90
       13
176
     1
 40
0.0
176
     1
 90
        0
176
     1
290
     0
176
     1
290
     1
176
     1
290
     1
176
     1
290
     0
176
     1
290
     0
176
     1
290
     0
176
     1
290
     0
176
     1
290
     0
176
     1
290
     0
176
     1
 90
       50
176
     1
 40
0.0
176
     1
 40
1.0
176
     1
 90
        0
176
     1
 62
    18
420
        0
176
     1
 90
       50
176
     1
 90
        3
176
     1
 62
     5
420
      255
176
     1
290
     0
176
     1
 90
       50
176
     1
 90
       50
176
     1
 90
       50
176
     1
290
     0
176
     1
 90
       50
176
     1
 62
   256
176
     0
 40
1.0
176
     0
 90
        2
176
     1
  1
strokes_ogs.tif
176
     1
290
     0
176
     1
 40
1.0
176
     1
 40
1.0
176
     1
  0
VISUALSTYLE
  5
2D
102
{ACAD_REACTORS
330
2A
102
}
330
2A
100
AcDbVisualStyle
  2
Gouraud
 70
     2
177
     3
291
     1
 70
    58
 90
        2
176
     1
 90
        2
176
     1
 90
        1
176
     1
 90
        2
176
     1
 40
0.6
176
     1
 40
30.0
176
     1
 62
     7
420
 16777215
176
     1
 90
        0
176
     1
 90
        0
176
     1
 62
     7
176
     1
 62
   257
176
     1
 90
        1
176
     1
 90
        1
176
     1
 40
1.0
176
     1
 90
        0
176
     1
 62
     7
176
     1
 40
1.0
176
     1
 90
        1
176
     1
 90
        6
176
     1
 90
        2
176
     1
 62
     7
176
     1
 90
        5
176
     1
 90
        0
176
     1
 90
        0
176
     1
290
     0
176
     1
 90
       13
176
     1
 40
0.0
176
     1
 90
        0
176
     1
290
     0
176
     1
290
     1
176
     1
290
     1
176
     1
290
     0
176
     1
290
     0
176
     1
290
     0
176
     1
290
     0
176
     1
290
     0
176
     1
290
     0
176
     1
 90
       50
176
     1
 40
0.0
176
     1
 40
1.0
176
     1
 90
        0
176
     1
 62
    18
420
        0
176
     1
 90
       50
176
     1
 90
        3
176
     1
 62
     5
420
      255
176
     1
290
     0
176
     1
 90
       50
176
     1
 90
       50
176
     1
 90
       50
176
     1
290
     0
176
     1
 90
       50
176
     1
 62
   256
176
     0
 40
1.0
176
     0
 90
        2
176
     1
  1
strokes_ogs.tif
176
     1
290
     0
176
     1
 40
1.0
176
     1
 40
1.0
176
     1
  0
VISUALSTYLE
  5
2E
102
{ACAD_REACTORS
330
2A
102
}
330
2A
100
AcDbVisualStyle
  2
GouraudWithEdges
 70
     3
177
     3
291
     1
 70
    58
 90
        2
176
     1
 90
        2
176
     1
 90
        1
176
     1
 90
        2
176
     1
 40
0.6
176
     1
 40
30.0
176
     1
 62
     7
420
 16777215
176
     1
 90
        1
176
     1
 90
        0
176
     1
 62
     7
176
     1
 62
   257
176
     1
 90
        1
176
     1
 90
        1
176
     1
 40
1.0
176
     1
 90
        0
176
     1
 62
   257
176
     1
 40
1.0
176
     1
 90
        1
176
     1
 90
        6
176
     1
 90
        2
176
     1
 62
     7
176
     1
 90
        5
176
     1
 90
        0
176
     1
 90
        0
176
     1
290
     0
176
     1
 90
       13
176
     1
 40
0.0
176
     1
 90
        0
176
     1
290
     0
176
     1
290
     1
176
     1
290
     1
176
     1
290
     0
176
     1
290
     0
176
     1
290
     0
176
     1
290
     0
176
     1
290
     0
176
     1
290
     0
176
     1
 90
       50
176
     1
 40
0.0
176
     1
 40
1.0
176
     1
 90
        0
176
     1
 62
    18
420
        0
176
     1
 90
       50
176
     1
 90
        3
176
     1
 62
     5
420
      255
176
     1
290
     0
176
     1
 90
       50
176
     1
 90
       50
176
     1
 90
       50
176
     1
290
     0
176
     1
 90
       50
176
     1
 62
   256
176
     0
 40
1.0
176
     0
 90
        2
176
     1
  1
strokes_ogs.tif
176
     1
290
     0
176
     1
 40
1.0
176
     1
 40
1.0
176
     1
  0
VISUALSTYLE
  5
31
102
{ACAD_REACTORS
330
2A
102
}
330
2A
100
AcDbVisualStyle
  2
Hidden
 70
     6
177
     3
291
     0
 70
    58
 90
        1
176
     1
 90
        2
176
     1
 90
        2
176
     1
 90
        0
176
     1
 40
0.6
176
     1
 40
30.0
176
     1
 62
     7
420
 16777215
176
     1
 90
        2
176
     1
 90
        2
176
     1
 62
     7
176
     1
 62
   257
176
     1
 90
        2
176
     1
 90
        1
176
     1
 40
40.0
176
     1
 90
        0
176
     1
 62
   257
176
     1
 40
1.0
176
     1
 90
        1
176
     1
 90
        6
176
     1
 90
        2
176
     1
 62
     7
176
     1
 90
        3
176
     1
 90
        0
176
     1
 90
        0
176
     1
290
     0
176
     1
 90
        1
176
     1
 40
0.0
176
     1
 90
        0
176
     1
290
     0
176
     1
290
     1
176
     1
290
     1
176
     1
290
     0
176
     1
290
     0
176
     1
290
     0
176
     1
290
     0
176
     1
290
     0
176
     1
290
     0
176
     1
 90
       50
176
     1
 40
0.0
176
     1
 40
1.0
176
     1
 90
        0
176
     1
 62
    18
420
        0
176
     1
 90
       50
176
     1
 90
        3
176
     1
 62
     5
420
      255
176
     1
290
     0
176
     1
 90
       50
176
     1
 90
       50
176
     1
 90
       50
176
     1
290
     0
176
     1
 90
       50
176
     1
 62
   256
176
     0
 40
1.0
176
     0
 90
        2
176
     1
  1
strokes_ogs.tif
176
     1
290
     0
176
     1
 40
1.0
176
     1
 40
1.0
176
     1
  0
VISUALSTYLE
  5
3B
102
{ACAD_REACTORS
330
2A
102
}
330
2A
100
AcDbVisualStyle
  2
JitterOff
 70
    20
177
     3
291
     1
 70
    58
 90
        2
176
     0
 90
        2
176
     0
 90
        0
176
     0
 90
        0
176
     0
 40
0.6
176
     0
 40
30.0
176
     0
 62
     7
420
 16777215
176
     0
 90
        1
176
     0
 90
        4
176
     0
 62
     7
176
     0
 62
   257
176
     0
 90
        1
176
     0
 90
        1
176
     0
 40
1.0
176
     0
 90
       10
176
     2
 62
     7
176
     0
 40
1.0
176
     0
 90
        1
176
     0
 90
        6
176
     0
 90
        2
176
     0
 62
     7
176
     0
 90
        5
176
     0
 90
        0
176
     0
 90
        0
176
     0
290
     0
176
     0
 90
        1
176
     0
 40
0.0
176
     0
 90
        0
176
     0
290
     0
176
     0
290
     1
176
     0
290
     1
176
     0
290
     0
176
     0
290
     0
176
     0
290
     0
176
     0
290
     0
176
     0
290
     0
176
     0
290
     0
176
     0
 90
       50
176
     0
 40
0.0
176
     0
 40
1.0
176
     0
 90
        0
176
     0
 62
    18
420
        0
176
     0
 90
       50
176
     0
 90
        3
176
     0
 62
     5
420
      255
176
     0
290
     0
176
     0
 90
       50
176
     0
 90
       50
176
     0
 90
       50
176
     0
290
     0
176
     0
 90
       50
176
     0
 62
   256
176
     0
 40
1.0
176
     0
 90
        2
176
     0
  1
strokes_ogs.tif
176
     0
290
     0
176
     0
 40
1.0
176
     0
 40
1.0
176
     0
  0
VISUALSTYLE
  5
38
102
{ACAD_REACTORS
330
2A
102
}
330
2A
100
AcDbVisualStyle
  2
Linepattern
 70
    14
177
     3
291
     1
 70
    58
 90
        2
176
     1
 90
        2
176
     1
 90
        0
176
     1
 90
        0
176
     1
 40
0.6
176
     1
 40
30.0
176
     1
 62
     7
420
 16777215
176
     1
 90
        1
176
     1
 90
        4
176
     1
 62
     7
176
     1
 62
   257
176
     1
 90
        7
176
     1
 90
        7
176
     1
 40
1.0
176
     1
 90
        8
176
     1
 62
     7
176
     1
 40
1.0
176
     1
 90
        1
176
     1
 90
        6
176
     1
 90
        2
176
     1
 62
     7
176
     1
 90
        5
176
     1
 90
        0
176
     1
 90
        0
176
     1
290
     0
176
     1
 90
        1
176
     1
 40
0.0
176
     1
 90
        0
176
     1
290
     0
176
     1
290
     1
176
     1
290
     1
176
     1
290
     0
176
     1
290
     0
176
     1
290
     0
176
     1
290
     0
176
     1
290
     0
176
     1
290
     0
176
     1
 90
       50
176
     1
 40
0.0
176
     1
 40
1.0
176
     1
 90
        0
176
     1
 62
    18
420
        0
176
     1
 90
       50
176
     1
 90
        3
176
     1
 62
     5
420
      255
176
     1
290
     0
176
     1
 90
       50
176
     1
 90
       50
176
     1
 90
       50
176
     1
290
     0
176
     1
 90
       50
176
     1
 62
   256
176
     0
 40
1.0
176
     0
 90
        2
176
     1
  1
strokes_ogs.tif
176
     1
290
     0
176
     1
 40
1.0
176
     1
 40
1.0
176
     1
  0
VISUALSTYLE
  5
3C
102
{ACAD_REACTORS
330
2A
102
}
330
2A
100
AcDbVisualStyle
  2
OverhangOff
 70
    21
177
     3
291
     1
 70
    58
 90
        2
176
     0
 90
        2
176
     0
 90
        0
176
     0
 90
        0
176
     0
 40
0.6
176
     0
 40
30.0
176
     0
 62
     7
420
 16777215
176
     0
 90
        1
176
     0
 90
        4
176
     0
 62
     7
176
     0
 62
   257
176
     0
 90
        1
176
     0
 90
        1
176
     0
 40
1.0
176
     0
 90
        9
176
     2
 62
     7
176
     0
 40
1.0
176
     0
 90
        1
176
     0
 90
        6
176
     0
 90
        2
176
     0
 62
     7
176
     0
 90
        5
176
     0
 90
        0
176
     0
 90
        0
176
     0
290
     0
176
     0
 90
        1
176
     0
 40
0.0
176
     0
 90
        0
176
     0
290
     0
176
     0
290
     1
176
     0
290
     1
176
     0
290
     0
176
     0
290
     0
176
     0
290
     0
176
     0
290
     0
176
     0
290
     0
176
     0
290
     0
176
     0
 90
       50
176
     0
 40
0.0
176
     0
 40
1.0
176
     0
 90
        0
176
     0
 62
    18
420
        0
176
     0
 90
       50
176
     0
 90
        3
176
     0
 62
     5
420
      255
176
     0
290
     0
176
     0
 90
       50
176
     0
 90
       50
176
     0
 90
       50
176
     0
290
     0
176
     0
 90
       50
176
     0
 62
   256
176
     0
 40
1.0
176
     0
 90
        2
176
     0
  1
strokes_ogs.tif
176
     0
290
     0
176
     0
 40
1.0
176
     0
 40
1.0
176
     0
  0
VISUALSTYLE
  5
33
102
{ACAD_REACTORS
330
2A
102
}
330
2A
100
AcDbVisualStyle
  2
Realistic
 70
     8
177
     3
291
     0
 70
    58
 90
        2
176
     1
 90
        3
176
     1
 90
        0
176
     1
 90
        2
176
     1
 40
0.6
176
     1
 40
30.0
176
     1
 62
     7
420
 16777215
176
     1
 90
        0
176
     1
 90
        0
176
     1
 62
     7
176
     1
 62
   257
176
     1
 90
        1
176
     1
 90
        1
176
     1
 40
1.0
176
     1
 90
        8
176
     1
 62
   257
176
     1
 40
1.0
176
     1
 90
        1
176
     1
 90
        6
176
     1
 90
        2
176
     1
 62
     7
176
     1
 90
        3
176
     1
 90
        0
176
     1
 90
        0
176
     1
290
     0
176
     1
 90
       13
176
     1
 40
0.0
176
     1
 90
        0
176
     1
290
     0
176
     1
290
     1
176
     1
290
     1
176
     1
290
     0
176
     1
290
     0
176
     1
290
     0
176
     1
290
     0
176
     1
290
     0
176
     1
290
     0
176
     1
 90
       50
176
     1
 40
0.0
176
     1
 40
1.0
176
     1
 90
        0
176
     1
 62
    18
420
        0
176
     1
 90
       50
176
     1
 90
        3
176
     1
 62
     5
420
      255
176
     1
290
     0
176
     1
 90
       50
176
     1
 90
       50
176
     1
 90
       50
176
     1
290
     0
176
     1
 90
       50
176
     1
 62
   256
176
     0
 40
1.0
176
     0
 90
        2
176
     1
  1
strokes_ogs.tif
176
     1
290
     0
176
     1
 40
1.0
176
     1
 40
1.0
176
     1
  0
VISUALSTYLE
  5
42
102
{ACAD_REACTORS
330
2A
102
}
330
2A
100
AcDbVisualStyle
  2
Shaded
 70
    27
177
     3
291
     0
 70
    58
 90
        2
176
     1
 90
        2
176
     1
 90
        1
176
     1
 90
        2
176
     1
 40
0.6
176
     1
 40
30.0
176
     1
 62
     7
420
 16777215
176
     1
 90
        0
176
     1
 90
        4
176
     1
 62
     7
176
     1
 62
   257
176
     1
 90
        1
176
     1
 90
        1
176
     1
 40
1.0
176
     1
 90
        8
176
     1
 62
   257
176
     1
 40
1.0
176
     1
 90
        1
176
     1
 90
        6
176
     1
 90
        2
176
     1
 62
     8
420
  7895160
176
     1
 90
        3
176
     1
 90
        0
176
     1
 90
        0
176
     1
290
     0
176
     1
 90
        5
176
     1
 40
0.0
176
     1
 90
        0
176
     1
290
     0
176
     1
290
     1
176
     1
290
     1
176
     1
290
     0
176
     1
290
     0
176
     1
290
     0
176
     1
290
     0
176
     1
290
     0
176
     1
290
     0
176
     1
 90
       50
176
     1
 40
0.0
176
     1
 40
1.0
176
     1
 90
        0
176
     1
 62
    18
420
        0
176
     1
 90
       50
176
     1
 90
        3
176
     1
 62
     5
420
      255
176
     1
290
     0
176
     1
 90
       50
176
     1
 90
       50
176
     1
 90
       50
176
     1
290
     0
176
     1
 90
       50
176
     1
 62
   256
176
     0
 40
1.0
176
     0
 90
        2
176
     1
  1
strokes_ogs.tif
176
     1
290
     0
176
     1
 40
1.0
176
     1
 40
1.0
176
     1
  0
VISUALSTYLE
  5
41
102
{ACAD_REACTORS
330
2A
102
}
330
2A
100
AcDbVisualStyle
  2
Shaded with edges
 70
    26
177
     3
291
     0
 70
    58
 90
        2
176
     1
 90
        2
176
     1
 90
        1
176
     1
 90
        2
176
     1
 40
0.6
176
     1
 40
30.0
176
     1
 62
     7
420
 16777215
176
     1
 90
        1
176
     1
 90
       10
176
     1
 62
     7
176
     1
 62
   257
176
     1
 90
        2
176
     1
 90
        1
176
     1
 40
1.0
176
     1
 90
        8
176
     1
 62
   257
176
     1
 40
1.0
176
     1
 90
        1
176
     1
 90
        6
176
     1
 90
        2
176
     1
 62
     7
176
     1
 90
        3
176
     1
 90
        0
176
     1
 90
        0
176
     1
290
     0
176
     1
 90
        5
176
     1
 40
0.0
176
     1
 90
        0
176
     1
290
     0
176
     1
290
     1
176
     1
290
     1
176
     1
290
     0
176
     1
290
     0
176
     1
290
     0
176
     1
290
     0
176
     1
290
     0
176
     1
290
     0
176
     1
 90
       50
176
     1
 40
0.0
176
     1
 40
1.0
176
     1
 90
        0
176
     1
 62
    18
420
        0
176
     1
 90
       50
176
     1
 90
        3
176
     1
 62
     5
420
      255
176
     1
290
     0
176
     1
 90
       50
176
     1
 90
       50
176
     1
 90
       50
176
     1
290
     0
176
     1
 90
       50
176
     1
 62
   256
176
     0
 40
1.0
176
     0
 90
        2
176
     1
  1
strokes_ogs.tif
176
     1
290
     0
176
     1
 40
1.0
176
     1
 40
1.0
176
     1
  0
VISUALSTYLE
  5
3E
102
{ACAD_REACTORS
330
2A
102
}
330
2A
100
AcDbVisualStyle
  2
Shades of Gray
 70
    23
177
     3
291
     0
 70
    58
 90
        2
176
     1
 90
        2
176
     1
 90
        3
176
     1
 90
        0
176
     1
 40
0.6
176
     1
 40
30.0
176
     1
 62
     7
420
 16777215
176
     1
 90
        2
176
     1
 90
        2
176
     1
 62
     7
176
     1
 62
     7
176
     1
 90
        1
176
     1
 90
        1
176
     1
 40
40.0
176
     1
 90
        8
176
     1
 62
     7
176
     1
 40
1.0
176
     1
 90
        1
176
     1
 90
        6
176
     1
 90
        2
176
     1
 62
     7
176
     1
 90
        3
176
     1
 90
        0
176
     1
 90
        0
176
     1
290
     0
176
     1
 90
        1
176
     1
 40
0.0
176
     1
 90
        0
176
     1
290
     0
176
     1
290
     1
176
     1
290
     1
176
     1
290
     0
176
     1
290
     0
176
     1
290
     0
176
     1
290
     0
176
     1
290
     0
176
     1
290
     0
176
     1
 90
       50
176
     1
 40
0.0
176
     1
 40
1.0
176
     1
 90
        0
176
     1
 62
    18
420
        0
176
     1
 90
       50
176
     1
 90
        3
176
     1
 62
     5
420
      255
176
     1
290
     0
176
     1
 90
       50
176
     1
 90
       50
176
     1
 90
       50
176
     1
290
     0
176
     1
 90
       50
176
     1
 62
   256
176
     0
 40
1.0
176
     0
 90
        2
176
     1
  1
strokes_ogs.tif
176
     1
290
     0
176
     1
 40
1.0
176
     1
 40
1.0
176
     1
  0
VISUALSTYLE
  5
3F
102
{ACAD_REACTORS
330
2A
102
}
330
2A
100
AcDbVisualStyle
  2
Sketchy
 70
    24
177
     3
291
     0
 70
    58
 90
        1
176
     1
 90
        2
176
     1
 90
        2
176
     1
 90
        0
176
     1
 40
0.6
176
     1
 40
30.0
176
     1
 62
     7
420
 16777215
176
     1
 90
        2
176
     1
 90
        2
176
     1
 62
     7
176
     1
 62
     7
176
     1
 90
        1
176
     1
 90
        1
176
     1
 40
40.0
176
     1
 90
       11
176
     1
 62
     7
176
     1
 40
1.0
176
     1
 90
        1
176
     1
 90
        6
176
     1
 90
        2
176
     1
 62
     7
176
     1
 90
        6
176
     1
 90
        0
176
     1
 90
        0
176
     1
290
     0
176
     1
 90
        1
176
     1
 40
0.0
176
     1
 90
        0
176
     1
290
     0
176
     1
290
     1
176
     1
290
     1
176
     1
290
     0
176
     1
290
     0
176
     1
290
     0
176
     1
290
     0
176
     1
290
     0
176
     1
290
     0
176
     1
 90
       50
176
     1
 40
0.0
176
     1
 40
1.0
176
     1
 90
        0
176
     1
 62
    18
420
        0
176
     1
 90
       50
176
     1
 90
        3
176
     1
 62
     5
420
      255
176
     1
290
     0
176
     1
 90
       50
176
     1
 90
       50
176
     1
 90
       50
176
     1
290
     0
176
     1
 90
       50
176
     1
 62
   256
176
     0
 40
1.0
176
     0
 90
        2
176
     1
  1
strokes_ogs.tif
176
     1
290
     0
176
     1
 40
1.0
176
     1
 40
1.0
176
     1
  0
VISUALSTYLE
  5
37
102
{ACAD_REACTORS
330
2A
102
}
330
2A
100
AcDbVisualStyle
  2
Thicken
 70
    13
177
     3
291
     1
 70
    58
 90
        2
176
     1
 90
        2
176
     1
 90
        0
176
     1
 90
        0
176
     1
 40
0.6
176
     1
 40
30.0
176
     1
 62
     7
420
 16777215
176
     1
 90
        1
176
     1
 90
        4
176
     1
 62
     7
176
     1
 62
   257
176
     1
 90
        1
176
     1
 90
        1
176
     1
 40
1.0
176
     1
 90
       12
176
     1
 62
     7
176
     1
 40
1.0
176
     1
 90
        1
176
     1
 90
        6
176
     1
 90
        2
176
     1
 62
     7
176
     1
 90
        5
176
     1
 90
        0
176
     1
 90
        0
176
     1
290
     0
176
     1
 90
        1
176
     1
 40
0.0
176
     1
 90
        0
176
     1
290
     0
176
     1
290
     1
176
     1
290
     1
176
     1
290
     0
176
     1
290
     0
176
     1
290
     0
176
     1
290
     0
176
     1
290
     0
176
     1
290
     0
176
     1
 90
       50
176
     1
 40
0.0
176
     1
 40
1.0
176
     1
 90
        0
176
     1
 62
    18
420
        0
176
     1
 90
       50
176
     1
 90
        3
176
     1
 62
     5
420
      255
176
     1
290
     0
176
     1
 90
       50
176
     1
 90
       50
176
     1
 90
       50
176
     1
290
     0
176
     1
 90
       50
176
     1
 62
   256
176
     0
 40
1.0
176
     0
 90
        2
176
     1
  1
strokes_ogs.tif
176
     1
290
     0
176
     1
 40
1.0
176
     1
 40
1.0
176
     1
  0
VISUALSTYLE
  5
30
102
{ACAD_REACTORS
330
2A
102
}
330
2A
100
AcDbVisualStyle
  2
Wireframe
 70
     5
177
     3
291
     0
 70
    58
 90
        0
176
     1
 90
        2
176
     1
 90
        0
176
     1
 90
        0
176
     1
 40
0.6
176
     1
 40
30.0
176
     1
 62
     7
420
 16777215
176
     1
 90
        1
176
     1
 90
        4
176
     1
 62
     7
176
     1
 62
   257
176
     1
 90
        1
176
     1
 90
        1
176
     1
 40
1.0
176
     1
 90
        0
176
     1
 62
   257
176
     1
 40
1.0
176
     1
 90
        1
176
     1
 90
        6
176
     1
 90
        2
176
     1
 62
     7
176
     1
 90
        3
176
     1
 90
        0
176
     1
 90
        0
176
     1
290
     0
176
     1
 90
        1
176
     1
 40
0.0
176
     1
 90
        0
176
     1
290
     0
176
     1
290
     1
176
     1
290
     1
176
     1
290
     0
176
     1
290
     0
176
     1
290
     0
176
     1
290
     0
176
     1
290
     0
176
     1
290
     0
176
     1
 90
       50
176
     1
 40
0.0
176
     1
 40
1.0
176
     1
 90
        0
176
     1
 62
    18
420
        0
176
     1
 90
       50
176
     1
 90
        3
176
     1
 62
     5
420
      255
176
     1
290
     0
176
     1
 90
       50
176
     1
 90
       50
176
     1
 90
       50
176
     1
290
     0
176
     1
 90
       50
176
     1
 62
   256
176
     0
 40
1.0
176
     0
 90
        2
176
     1
  1
strokes_ogs.tif
176
     1
290
     0
176
     1
 40
1.0
176
     1
 40
1.0
176
     1
  0
VISUALSTYLE
  5
40
102
{ACAD_REACTORS
330
2A
102
}
330
2A
100
AcDbVisualStyle
  2
X-Ray
 70
    25
177
     3
291
     0
 70
    58
 90
        2
176
     1
 90
        2
176
     1
 90
        1
176
     1
 90
        1
176
     1
 40
0.5
176
     1
 40
30.0
176
     1
 62
     7
420
 16777215
176
     1
 90
        1
176
     1
 90
        0
176
     1
 62
     7
176
     1
 62
   257
176
     1
 90
        1
176
     1
 90
        1
176
     1
 40
1.0
176
     1
 90
        8
176
     1
 62
     7
176
     1
 40
1.0
176
     1
 90
        1
176
     1
 90
        6
176
     1
 90
        2
176
     1
 62
     7
176
     1
 90
        3
176
     1
 90
        0
176
     1
 90
        0
176
     1
290
     0
176
     1
 90
       13
176
     1
 40
0.0
176
     1
 90
        0
176
     1
290
     0
176
     1
290
     1
176
     1
290
     1
176
     1
290
     0
176
     1
290
     0
176
     1
290
     0
176
     1
290
     0
176
     1
290
     0
176
     1
290
     0
176
     1
 90
       50
176
     1
 40
0.0
176
     1
 40
1.0
176
     1
 90
        0
176
     1
 62
    18
420
        0
176
     1
 90
       50
176
     1
 90
        3
176
     1
 62
     5
420
      255
176
     1
290
     0
176
     1
 90
       50
176
     1
 90
       50
176
     1
 90
       50
176
     1
290
     0
176
     1
 90
       50
176
     1
 62
   256
176
     0
 40
1.0
176
     0
 90
        2
176
     1
  1
strokes_ogs.tif
176
     1
290
     0
176
     1
 40
1.0
176
     1
 40
1.0
176
     1
  0
DICTIONARYVAR
  5
149
102
{ACAD_REACTORS
330
148
102
}
330
148
100
DictionaryVariables
280
     0
  1
1:1
  0
DICTIONARYVAR
  5
14E
102
{ACAD_REACTORS
330
148
102
}
330
148
100
DictionaryVariables
280
     0
  1
Standard
  0
DICTIONARYVAR
  5
14D
102
{ACAD_REACTORS
330
148
102
}
330
148
100
DictionaryVariables
280
     0
  1
Standard
  0
DICTIONARY
  5
14A
330
6A
100
AcDbDictionary
280
     1
281
     1
  3
ACAD_ROUNDTRIP_2008_TABLESTYLE_CELLSTYLEMAP
360
14B
  0
CELLSTYLEMAP
  5
14B
102
{ACAD_REACTORS
330
14A
102
}
330
14A
100
AcDbCellStyleMap
 90
        3
300
CELLSTYLE
  1
TABLEFORMAT_BEGIN
 90
        5
170
     1
 91
        0
 92
    32768
 62
   257
 93
        1
300
CONTENTFORMAT
  1
CONTENTFORMAT_BEGIN
 90
        0
 91
        0
 92
        4
 93
        0
300

 40
0.0
140
1.0
 94
        5
 62
     0
340
11
144
6.0
309
CONTENTFORMAT_END
171
     1
301
MARGIN
  1
CELLMARGIN_BEGIN
 40
1.5
 40
1.5
 40
1.5
 40
1.5
 40
1.5
 40
1.5
309
CELLMARGIN_END
 94
        6
 95
        1
302
GRIDFORMAT
  1
GRIDFORMAT_BEGIN
 90
        0
 91
        1
 62
     0
 92
       -2
340
14
 93
        0
 40
0.045
309
GRIDFORMAT_END
 95
        2
302
GRIDFORMAT
  1
GRIDFORMAT_BEGIN
 90
        0
 91
        1
 62
     0
 92
       -2
340
14
 93
        0
 40
0.045
309
GRIDFORMAT_END
 95
        4
302
GRIDFORMAT
  1
GRIDFORMAT_BEGIN
 90
        0
 91
        1
 62
     0
 92
       -2
340
14
 93
        0
 40
0.045
309
GRIDFORMAT_END
 95
        8
302
GRIDFORMAT
  1
GRIDFORMAT_BEGIN
 90
        0
 91
        1
 62
     0
 92
       -2
340
14
 93
        0
 40
0.045
309
GRIDFORMAT_END
 95
       16
302
GRIDFORMAT
  1
GRIDFORMAT_BEGIN
 90
        0
 91
        1
 62
     0
 92
       -2
340
14
 93
        0
 40
0.045
309
GRIDFORMAT_END
 95
       32
302
GRIDFORMAT
  1
GRIDFORMAT_BEGIN
 90
        0
 91
        1
 62
     0
 92
       -2
340
14
 93
        0
 40
0.045
309
GRIDFORMAT_END
309
TABLEFORMAT_END
  1
CELLSTYLE_BEGIN
 90
        1
 91
        1
300
_TITLE
309
CELLSTYLE_END
300
CELLSTYLE
  1
TABLEFORMAT_BEGIN
 90
        5
170
     1
 91
        0
 92
        0
 62
   257
 93
        1
300
CONTENTFORMAT
  1
CONTENTFORMAT_BEGIN
 90
        0
 91
        0
 92
        4
 93
        0
300

 40
0.0
140
1.0
 94
        5
 62
     0
340
11
144
4.5
309
CONTENTFORMAT_END
171
     1
301
MARGIN
  1
CELLMARGIN_BEGIN
 40
1.5
 40
1.5
 40
1.5
 40
1.5
 40
1.5
 40
1.5
309
CELLMARGIN_END
 94
        6
 95
        1
302
GRIDFORMAT
  1
GRIDFORMAT_BEGIN
 90
        0
 91
        1
 62
     0
 92
       -2
340
14
 93
        0
 40
0.045
309
GRIDFORMAT_END
 95
        2
302
GRIDFORMAT
  1
GRIDFORMAT_BEGIN
 90
        0
 91
        1
 62
     0
 92
       -2
340
14
 93
        0
 40
0.045
309
GRIDFORMAT_END
 95
        4
302
GRIDFORMAT
  1
GRIDFORMAT_BEGIN
 90
        0
 91
        1
 62
     0
 92
       -2
340
14
 93
        0
 40
0.045
309
GRIDFORMAT_END
 95
        8
302
GRIDFORMAT
  1
GRIDFORMAT_BEGIN
 90
        0
 91
        1
 62
     0
 92
       -2
340
14
 93
        0
 40
0.045
309
GRIDFORMAT_END
 95
       16
302
GRIDFORMAT
  1
GRIDFORMAT_BEGIN
 90
        0
 91
        1
 62
     0
 92
       -2
340
14
 93
        0
 40
0.045
309
GRIDFORMAT_END
 95
       32
302
GRIDFORMAT
  1
GRIDFORMAT_BEGIN
 90
        0
 91
        1
 62
     0
 92
       -2
340
14
 93
        0
 40
0.045
309
GRIDFORMAT_END
309
TABLEFORMAT_END
  1
CELLSTYLE_BEGIN
 90
        2
 91
        1
300
_HEADER
309
CELLSTYLE_END
300
CELLSTYLE
  1
TABLEFORMAT_BEGIN
 90
        5
170
     1
 91
        0
 92
        0
 62
   257
 93
        1
300
CONTENTFORMAT
  1
CONTENTFORMAT_BEGIN
 90
        0
 91
        0
 92
        4
 93
        0
300

 40
0.0
140
1.0
 94
        2
 62
     0
340
11
144
4.5
309
CONTENTFORMAT_END
171
     1
301
MARGIN
  1
CELLMARGIN_BEGIN
 40
1.5
 40
1.5
 40
1.5
 40
1.5
 40
1.5
 40
1.5
309
CELLMARGIN_END
 94
        6
 95
        1
302
GRIDFORMAT
  1
GRIDFORMAT_BEGIN
 90
        0
 91
        1
 62
     0
 92
       -2
340
14
 93
        0
 40
0.045
309
GRIDFORMAT_END
 95
        2
302
GRIDFORMAT
  1
GRIDFORMAT_BEGIN
 90
        0
 91
        1
 62
     0
 92
       -2
340
14
 93
        0
 40
0.045
309
GRIDFORMAT_END
 95
        4
302
GRIDFORMAT
  1
GRIDFORMAT_BEGIN
 90
        0
 91
        1
 62
     0
 92
       -2
340
14
 93
        0
 40
0.045
309
GRIDFORMAT_END
 95
        8
302
GRIDFORMAT
  1
GRIDFORMAT_BEGIN
 90
        0
 91
        1
 62
     0
 92
       -2
340
14
 93
        0
 40
0.045
309
GRIDFORMAT_END
 95
       16
302
GRIDFORMAT
  1
GRIDFORMAT_BEGIN
 90
        0
 91
        1
 62
     0
 92
       -2
340
14
 93
        0
 40
0.045
309
GRIDFORMAT_END
 95
       32
302
GRIDFORMAT
  1
GRIDFORMAT_BEGIN
 90
        0
 91
        1
 62
     0
 92
       -2
340
14
 93
        0
 40
0.045
309
GRIDFORMAT_END
309
TABLEFORMAT_END
  1
CELLSTYLE_BEGIN
 90
        3
 91
        2
300
_DATA
309
CELLSTYLE_END
  0
ENDSEC
  0
EOF
