  0
SECTION
  2
HEADER
  9
$ACADVER
  1
AC1027
  9
$ACADMAINTVER
 70
   105
  9
$DWGCODEPAGE
  3
ANSI_1252
  9
$REQUIREDVERSIONS
160
                 0
  9
$INSBASE
 10
0.0
 20
0.0
 30
0.0
  9
$EXTMIN
 10
-200.0
 20
-300.0
 30
0.0
  9
$EXTMAX
 10
200.0
 20
300.0
 30
0.0
  9
$LIMMIN
 10
0.0
 20
0.0
  9
$LIMMAX
 10
420.0
 20
297.0
  9
$ORTHOMODE
 70
     0
  9
$REGENMODE
 70
     1
  9
$FILLMODE
 70
     1
  9
$QTEXTMODE
 70
     0
  9
$MIRRTEXT
 70
     1
  9
$LTSCALE
 40
1.0
  9
$ATTMODE
 70
     1
  9
$TEXTSIZE
 40
3.5
  9
$TRACEWID
 40
1.0
  9
$TEXTSTYLE
  7
STANDARD
  9
$CLAYER
  8
0
  9
$CELTYPE
  6
ByLayer
  9
$CECOLOR
 62
   256
  9
$CELTSCALE
 40
1.0
  9
$DISPSILH
 70
     0
  9
$DIMSCALE
 40
1.0
  9
$DIMASZ
 40
6.0
  9
$DIMEXO
 40
1.0
  9
$DIMDLI
 40
3.75
  9
$DIMRND
 40
0.0
  9
$DIMDLE
 40
0.0
  9
$DIMEXE
 40
1.0
  9
$DIMTP
 40
0.0
  9
$DIMTM
 40
0.0
  9
$DIMTXT
 40
3.5
  9
$DIMCEN
 40
2.5
  9
$DIMTSZ
 40
0.0
  9
$DIMTOL
 70
     0
  9
$DIMLIM
 70
     0
  9
$DIMTIH
 70
     1
  9
$DIMTOH
 70
     1
  9
$DIMSE1
 70
     0
  9
$DIMSE2
 70
     0
  9
$DIMTAD
 70
     1
  9
$DIMZIN
 70
     0
  9
$DIMBLK
  1

  9
$DIMASO
 70
     1
  9
$DIMSHO
 70
     1
  9
$DIMPOST
  1

  9
$DIMAPOST
  1

  9
$DIMALT
 70
     0
  9
$DIMALTD
 70
     3
  9
$DIMALTF
 40
0.0393700787
  9
$DIMLFAC
 40
1.0
  9
$DIMTOFL
 70
     1
  9
$DIMTVP
 40
0.0
  9
$DIMTIX
 70
     0
  9
$DIMSOXD
 70
     0
  9
$DIMSAH
 70
     0
  9
$DIMBLK1
  1

  9
$DIMBLK2
  1

  9
$DIMSTYLE
  2
ISO-25
  9
$DIMCLRD
 70
     0
  9
$DIMCLRE
 70
     0
  9
$DIMCLRT
 70
     0
  9
$DIMTFAC
 40
1.0
  9
$DIMGAP
 40
1.524
  9
$DIMJUST
 70
     0
  9
$DIMSD1
 70
     0
  9
$DIMSD2
 70
     0
  9
$DIMTOLJ
 70
     0
  9
$DIMTZIN
 70
     0
  9
$DIMALTZ
 70
     0
  9
$DIMALTTZ
 70
     0
  9
$DIMUPT
 70
     0
  9
$DIMDEC
 70
     2
  9
$DIMTDEC
 70
     2
  9
$DIMALTU
 70
     2
  9
$DIMALTTD
 70
     3
  9
$DIMTXSTY
  7
STANDARD
  9
$DIMAUNIT
 70
     0
  9
$DIMADEC
 70
     2
  9
$DIMALTRND
 40
0.0
  9
$DIMAZIN
 70
     0
  9
$DIMDSEP
 70
    44
  9
$DIMATFIT
 70
     3
  9
$DIMFRAC
 70
     0
  9
$DIMLDRBLK
  1

  9
$DIMLUNIT
 70
     2
  9
$DIMLWD
 70
    -2
  9
$DIMLWE
 70
    -2
  9
$DIMTMOVE
 70
     0
  9
$DIMFXL
 40
1.0
  9
$DIMFXLON
 70
     0
  9
$DIMJOGANG
 40
0.7853981634
  9
$DIMTFILL
 70
     0
  9
$DIMTFILLCLR
 70
     0
  9
$DIMARCSYM
 70
     0
  9
$DIMLTYPE
  6

  9
$DIMLTEX1
  6

  9
$DIMLTEX2
  6

  9
$DIMTXTDIRECTION
 70
     0
  9
$LUNITS
 70
     2
  9
$LUPREC
 70
     2
  9
$SKETCHINC
 40
1.0
  9
$FILLETRAD
 40
10.0
  9
$AUNITS
 70
     0
  9
$AUPREC
 70
     2
  9
$MENU
  1
.
  9
$ELEVATION
 40
0.0
  9
$PELEVATION
 40
0.0
  9
$THICKNESS
 40
0.0
  9
$LIMCHECK
 70
     0
  9
$CHAMFERA
 40
0.0
  9
$CHAMFERB
 40
0.0
  9
$CHAMFERC
 40
0.0
  9
$CHAMFERD
 40
0.0
  9
$SKPOLY
 70
     0
  9
$TDCREATE
 40
2458299.434814109
  9
$TDUCREATE
 40
2458299.351480776
  9
$TDUPDATE
 40
2458299.434842303
  9
$TDUUPDATE
 40
2458299.35150897
  9
$TDINDWG
 40
0.0000000116
  9
$TDUSRTIMER
 40
0.0000000116
  9
$USRTIMER
 70
     1
  9
$ANGBASE
 50
0.0
  9
$ANGDIR
 70
     0
  9
$PDMODE
 70
     0
  9
$PDSIZE
 40
-1.0
  9
$PLINEWID
 40
0.0
  9
$SPLFRAME
 70
     0
  9
$SPLINETYPE
 70
     6
  9
$SPLINESEGS
 70
     8
  9
$HANDSEED
  5
13C
  9
$SURFTAB1
 70
     6
  9
$SURFTAB2
 70
     6
  9
$SURFTYPE
 70
     6
  9
$SURFU
 70
     6
  9
$SURFV
 70
     6
  9
$UCSBASE
  2

  9
$UCSNAME
  2

  9
$UCSORG
 10
0.0
 20
0.0
 30
0.0
  9
$UCSXDIR
 10
1.0
 20
0.0
 30
0.0
  9
$UCSYDIR
 10
0.0
 20
1.0
 30
0.0
  9
$UCSORTHOREF
  2

  9
$UCSORTHOVIEW
 70
     0
  9
$UCSORGTOP
 10
0.0
 20
0.0
 30
0.0
  9
$UCSORGBOTTOM
 10
0.0
 20
0.0
 30
0.0
  9
$UCSORGLEFT
 10
0.0
 20
0.0
 30
0.0
  9
$UCSORGRIGHT
 10
0.0
 20
0.0
 30
0.0
  9
$UCSORGFRONT
 10
0.0
 20
0.0
 30
0.0
  9
$UCSORGBACK
 10
0.0
 20
0.0
 30
0.0
  9
$PUCSBASE
  2

  9
$PUCSNAME
  2

  9
$PUCSORG
 10
0.0
 20
0.0
 30
0.0
  9
$PUCSXDIR
 10
1.0
 20
0.0
 30
0.0
  9
$PUCSYDIR
 10
0.0
 20
1.0
 30
0.0
  9
$PUCSORTHOREF
  2

  9
$PUCSORTHOVIEW
 70
     0
  9
$PUCSORGTOP
 10
0.0
 20
0.0
 30
0.0
  9
$PUCSORGBOTTOM
 10
0.0
 20
0.0
 30
0.0
  9
$PUCSORGLEFT
 10
0.0
 20
0.0
 30
0.0
  9
$PUCSORGRIGHT
 10
0.0
 20
0.0
 30
0.0
  9
$PUCSORGFRONT
 10
0.0
 20
0.0
 30
0.0
  9
$PUCSORGBACK
 10
0.0
 20
0.0
 30
0.0
  9
$USERI1
 70
     0
  9
$USERI2
 70
     0
  9
$USERI3
 70
     0
  9
$USERI4
 70
     0
  9
$USERI5
 70
     0
  9
$USERR1
 40
0.0
  9
$USERR2
 40
0.0
  9
$USERR3
 40
0.0
  9
$USERR4
 40
0.0
  9
$USERR5
 40
0.0
  9
$WORLDVIEW
 70
     1
  9
$SHADEDGE
 70
     3
  9
$SHADEDIF
 70
    70
  9
$TILEMODE
 70
     1
  9
$MAXACTVP
 70
    64
  9
$PINSBASE
 10
0.0
 20
0.0
 30
0.0
  9
$PLIMCHECK
 70
     0
  9
$PEXTMIN
 10
-200.0
 20
-0.0000000079
 30
0.0
  9
$PEXTMAX
 10
200.0
 20
120.0006304874
 30
0.0
  9
$PLIMMIN
 10
-231.1284046693
 20
-11.6731517588
  9
$PLIMMAX
 10
231.1284046693
 20
315.1750972684
  9
$UNITMODE
 70
     0
  9
$VISRETAIN
 70
     1
  9
$PLINEGEN
 70
     0
  9
$PSLTSCALE
 70
     1
  9
$TREEDEPTH
 70
  3020
  9
$CMLSTYLE
  2
Standard
  9
$CMLJUST
 70
     0
  9
$CMLSCALE
 40
20.0
  9
$PROXYGRAPHICS
 70
     1
  9
$MEASUREMENT
 70
     1
  9
$CELWEIGHT
370
    -1
  9
$ENDCAPS
280
     0
  9
$JOINSTYLE
280
     0
  9
$LWDISPLAY
290
     1
  9
$INSUNITS
 70
     4
  9
$HYPERLINKBASE
  1

  9
$STYLESHEET
  1

  9
$XEDIT
290
     1
  9
$CEPSNTYPE
380
     0
  9
$PSTYLEMODE
290
     1
  9
$FINGERPRINTGUID
  2
{B6366EC0-9586-4B2A-A2F7-B4F846DEDEDB}
  9
$VERSIONGUID
  2
{FAEB1C32-E019-11D5-929B-00C0DF256EC4}
  9
$EXTNAMES
290
     1
  9
$PSVPSCALE
 40
0.0
  9
$OLESTARTUP
290
     0
  9
$SORTENTS
280
   127
  9
$INDEXCTL
280
     0
  9
$HIDETEXT
280
     1
  9
$XCLIPFRAME
280
     2
  9
$HALOGAP
280
     0
  9
$OBSCOLOR
 70
   257
  9
$OBSLTYPE
280
     0
  9
$INTERSECTIONDISPLAY
280
     0
  9
$INTERSECTIONCOLOR
 70
   257
  9
$DIMASSOC
280
     2
  9
$PROJECTNAME
  1

  9
$CAMERADISPLAY
290
     0
  9
$LENSLENGTH
 40
50.0
  9
$CAMERAHEIGHT
 40
0.0
  9
$STEPSPERSEC
 40
2.0
  9
$STEPSIZE
 40
6.0
  9
$3DDWFPREC
 40
2.0
  9
$PSOLWIDTH
 40
5.0
  9
$PSOLHEIGHT
 40
80.0
  9
$LOFTANG1
 40
1.5707963268
  9
$LOFTANG2
 40
1.5707963268
  9
$LOFTMAG1
 40
0.0
  9
$LOFTMAG2
 40
0.0
  9
$LOFTPARAM
 70
     7
  9
$LOFTNORMALS
280
     1
  9
$LATITUDE
 40
37.795
  9
$LONGITUDE
 40
-122.394
  9
$NORTHDIRECTION
 40
0.0
  9
$TIMEZONE
 70
 -8000
  9
$LIGHTGLYPHDISPLAY
280
     1
  9
$TILEMODELIGHTSYNCH
280
     1
  9
$CMATERIAL
347
44
  9
$SOLIDHIST
280
     0
  9
$SHOWHIST
280
     1
  9
$DWFFRAME
280
     2
  9
$DGNFRAME
280
     2
  9
$REALWORLDSCALE
290
     1
  9
$INTERFERECOLOR
 62
   256
  9
$CSHADOW
280
     0
  9
$SHADOWPLANELOCATION
 40
0.0
  0
ENDSEC
  0
SECTION
  2
CLASSES
  0
CLASS
  1
ACDBDICTIONARYWDFLT
  2
AcDbDictionaryWithDefault
  3
ObjectDBX Classes
 90
        0
 91
        4
280
     0
281
     0
  0
CLASS
  1
VISUALSTYLE
  2
AcDbVisualStyle
  3
ObjectDBX Classes
 90
     4095
 91
        4
280
     0
281
     0
  0
CLASS
  1
MATERIAL
  2
AcDbMaterial
  3
ObjectDBX Classes
 90
     1153
 91
        4
280
     0
281
     0
  0
CLASS
  1
SCALE
  2
AcDbScale
  3
ObjectDBX Classes
 90
     1153
 91
        4
280
     0
281
     0
  0
CLASS
  1
TABLESTYLE
  2
AcDbTableStyle
  3
ObjectDBX Classes
 90
     4095
 91
        4
280
     0
281
     0
  0
CLASS
  1
MLEADERSTYLE
  2
AcDbMLeaderStyle
  3
ACDB_MLEADERSTYLE_CLASS
 90
     4095
 91
        4
280
     0
281
     0
  0
CLASS
  1
SUN
  2
AcDbSun
  3
SCENEOE
 90
     1153
 91
        4
280
     0
281
     0
  0
CLASS
  1
DICTIONARYVAR
  2
AcDbDictionaryVar
  3
ObjectDBX Classes
 90
        0
 91
        4
280
     0
281
     0
  0
CLASS
  1
CELLSTYLEMAP
  2
AcDbCellStyleMap
  3
ObjectDBX Classes
 90
     1152
 91
        4
280
     0
281
     0
  0
ENDSEC
  0
SECTION
  2
TABLES
  0
TABLE
  2
VPORT
  5
8
330
0
100
AcDbSymbolTable
 70
     1
  0
VPORT
  5
29
330
8
100
AcDbSymbolTableRecord
100
AcDbViewportTableRecord
  2
*Active
 70
     0
 10
0.0
 20
0.0
 11
1.0
 21
1.0
 12
0.0
 22
0.0
 13
0.0
 23
0.0
 14
10.0
 24
10.0
 15
10.0
 25
10.0
 16
0.0
 26
0.0
 36
1.0
 17
0.0
 27
0.0
 37
0.0
 40
612.0
 41
0.6666666667
 42
50.0
 43
0.0
 44
0.0
 50
0.0
 51
0.0
 71
     0
 72
   100
 73
     1
 74
     3
 75
     0
 76
     0
 77
     0
 78
     0
281
     0
 65
     1
110
0.0
120
0.0
130
0.0
111
1.0
121
0.0
131
0.0
112
0.0
122
1.0
132
0.0
 79
     0
146
0.0
348
2F
 60
     3
 61
     5
292
     1
282
     1
141
0.0
142
0.0
 63
   250
361
6D
  0
ENDTAB
  0
TABLE
  2
LTYPE
  5
5
330
0
100
AcDbSymbolTable
 70
     6
  0
LTYPE
  5
14
330
5
100
AcDbSymbolTableRecord
100
AcDbLinetypeTableRecord
  2
ByBlock
 70
     0
  3

 72
    65
 73
     0
 40
0.0
  0
LTYPE
  5
15
330
5
100
AcDbSymbolTableRecord
100
AcDbLinetypeTableRecord
  2
ByLayer
 70
     0
  3

 72
    65
 73
     0
 40
0.0
  0
LTYPE
  5
16
330
5
100
AcDbSymbolTableRecord
100
AcDbLinetypeTableRecord
  2
Continuous
 70
     0
  3
Solid line
 72
    65
 73
     0
 40
0.0
  0
LTYPE
  5
6E
330
5
100
AcDbSymbolTableRecord
100
AcDbLinetypeTableRecord
  2
HIDDEN
 70
     0
  3
Hidden __ __ __ __ __ __ __ __ __ __ __ __ __ __
 72
    65
 73
     2
 40
1.905
 49
1.27
 74
     0
 49
-0.635
 74
     0
  0
LTYPE
  5
6F
330
5
100
AcDbSymbolTableRecord
100
AcDbLinetypeTableRecord
  2
PHANTOM
 70
     0
  3
Phantom ______  __  __  ______  __  __  ______
 72
    65
 73
     6
 40
12.7
 49
6.35
 74
     0
 49
-1.27
 74
     0
 49
1.27
 74
     0
 49
-1.27
 74
     0
 49
1.27
 74
     0
 49
-1.27
 74
     0
  0
LTYPE
  5
70
330
5
100
AcDbSymbolTableRecord
100
AcDbLinetypeTableRecord
  2
CENTER
 70
     0
  3
Center ____ _ ____ _ ____ _ ____ _ ____ _ ____
 72
    65
 73
     4
 40
10.16
 49
6.35
 74
     0
 49
-1.27
 74
     0
 49
1.27
 74
     0
 49
-1.27
 74
     0
  0
LTYPE
  5
71
330
5
100
AcDbSymbolTableRecord
100
AcDbLinetypeTableRecord
  2
CENTERX2
 70
     0
  3
Center (2x) ________  __  ________  __  _____
 72
    65
 73
     4
 40
20.32
 49
12.7
 74
     0
 49
-2.54
 74
     0
 49
2.54
 74
     0
 49
-2.54
 74
     0
  0
LTYPE
  5
72
330
5
100
AcDbSymbolTableRecord
100
AcDbLinetypeTableRecord
  2
DOT2
 70
     0
  3
Dot (.5x) ........................................
 72
    65
 73
     2
 40
0.635
 49
0.0
 74
     0
 49
-0.635
 74
     0
  0
ENDTAB
  0
TABLE
  2
LAYER
  5
2
330
0
100
AcDbSymbolTable
 70
     1
  0
LAYER
  5
10
330
2
100
AcDbSymbolTableRecord
100
AcDbLayerTableRecord
  2
0
 70
     0
 62
     7
  6
Continuous
370
    -3
390
F
347
46
348
0
  0
ENDTAB
  0
TABLE
  2
STYLE
  5
3
330
0
100
AcDbSymbolTable
 70
     1
  0
STYLE
  5
11
330
3
100
AcDbSymbolTableRecord
100
AcDbTextStyleTableRecord
  2
STANDARD
 70
     0
 40
0.0
 41
1.0
 50
0.0
 71
     0
 42
3.5
  3
GOTHIC.TTF
  4

1001
ACAD
1000
CENTURY GOTHIC
1071
       34
  0
ENDTAB
  0
TABLE
  2
VIEW
  5
6
330
0
100
AcDbSymbolTable
 70
     0
  0
ENDTAB
  0
TABLE
  2
UCS
  5
7
330
0
100
AcDbSymbolTable
 70
     0
  0
ENDTAB
  0
TABLE
  2
APPID
  5
9
330
0
100
AcDbSymbolTable
 70
     1
  0
APPID
  5
12
330
9
100
AcDbSymbolTableRecord
100
AcDbRegAppTableRecord
  2
ACAD
 70
     0
  0
ENDTAB
  0
TABLE
  2
DIMSTYLE
  5
A
330
0
100
AcDbSymbolTable
 70
     1
100
AcDbDimStyleTable
  0
DIMSTYLE
105
27
330
A
100
AcDbSymbolTableRecord
100
AcDbDimStyleTableRecord
  2
ISO-25
 70
     0
 41
2.5
 42
0.625
 43
3.75
 44
1.25
 73
     0
 74
     0
 77
     1
 78
     8
140
2.5
141
2.5
143
0.0393700787
147
0.625
171
     3
172
     1
178
     0
271
     2
272
     2
274
     3
278
    44
283
     0
284
     8
340
11
  0
ENDTAB
  0
TABLE
  2
BLOCK_RECORD
  5
1
330
0
100
AcDbSymbolTable
 70
     8
  0
BLOCK_RECORD
  5
1F
330
1
100
AcDbSymbolTableRecord
100
AcDbBlockTableRecord
  2
*Model_Space
340
22
 70
     0
280
     1
281
     0
  0
BLOCK_RECORD
  5
1B
330
1
100
AcDbSymbolTableRecord
100
AcDbBlockTableRecord
  2
*Paper_Space
340
1E
 70
     0
280
     1
281
     0
  0
BLOCK_RECORD
  5
23
330
1
100
AcDbSymbolTableRecord
100
AcDbBlockTableRecord
  2
*Paper_Space0
340
26
 70
     0
280
     1
281
     0
  0
BLOCK_RECORD
  5
9D
330
1
100
AcDbSymbolTableRecord
100
AcDbBlockTableRecord
  2
*Paper_Space1
340
9E
 70
     0
280
     1
281
     0
  0
BLOCK_RECORD
  5
B3
330
1
100
AcDbSymbolTableRecord
100
AcDbBlockTableRecord
  2
*Paper_Space2
340
B4
 70
     0
280
     1
281
     0
  0
BLOCK_RECORD
  5
CC
330
1
100
AcDbSymbolTableRecord
100
AcDbBlockTableRecord
  2
*Paper_Space3
340
CD
 70
     0
280
     1
281
     0
  0
BLOCK_RECORD
  5
E4
330
1
100
AcDbSymbolTableRecord
100
AcDbBlockTableRecord
  2
*Paper_Space4
340
E5
 70
     0
280
     1
281
     0
  0
BLOCK_RECORD
  5
EA
330
1
100
AcDbSymbolTableRecord
100
AcDbBlockTableRecord
  2
*Paper_Space5
340
EB
 70
     0
280
     1
281
     0
  0
BLOCK_RECORD
  5
FC
330
1
100
AcDbSymbolTableRecord
100
AcDbBlockTableRecord
  2
*Paper_Space6
340
FD
 70
     0
280
     1
281
     0
  0
BLOCK_RECORD
  5
10D
330
1
100
AcDbSymbolTableRecord
100
AcDbBlockTableRecord
  2
*Paper_Space7
340
10E
 70
     0
280
     1
281
     0
  0
ENDTAB
  0
ENDSEC
  0
SECTION
  2
BLOCKS
  0
BLOCK
  5
20
330
1F
100
AcDbEntity
  8
0
100
AcDbBlockBegin
  2
*Model_Space
 70
     0
 10
0.0
 20
0.0
 30
0.0
  3
*Model_Space
  1

  0
ENDBLK
  5
21
330
1F
100
AcDbEntity
  8
0
100
AcDbBlockEnd
  0
BLOCK
  5
1C
330
1B
100
AcDbEntity
 67
     1
  8
0
100
AcDbBlockBegin
  2
*Paper_Space
 70
     0
 10
0.0
 20
0.0
 30
0.0
  3
*Paper_Space
  1

  0
ENDBLK
  5
1D
330
1B
100
AcDbEntity
 67
     1
  8
0
100
AcDbBlockEnd
  0
BLOCK
  5
24
330
23
100
AcDbEntity
  8
0
100
AcDbBlockBegin
  2
*Paper_Space0
 70
     0
 10
0.0
 20
0.0
 30
0.0
  3
*Paper_Space0
  1

  0
SPLINE
  5
8A
330
23
100
AcDbEntity
  8
0
  6
Continuous
 62
     7
370
    25
100
AcDbSpline
210
0.0
220
0.0
230
1.0
 70
     8
 71
     3
 72
    13
 73
     9
 74
     0
 42
0.000000001
 43
0.00000001
 40
0.0
 40
0.0
 40
0.0
 40
0.0
 40
0.2520550392180482
 40
0.419247362013433
 40
0.5924418021893806
 40
0.7625142617257795
 40
0.9541640023150707
 40
1.0
 40
1.0
 40
1.0
 40
1.0
 10
-299.9999999999999
 20
120.0
 30
0.0
 10
-299.4435167519935
 20
120.000005167979
 30
0.0
 10
-298.5179088591493
 20
120.0000137639649
 30
0.0
 10
-297.2099250254138
 20
120.0001136539303
 30
0.0
 10
-296.0829407925972
 20
120.000449542422
 30
0.0
 10
-294.9019609541083
 20
120.0001539913756
 30
0.0
 10
-294.0021576165299
 20
120.0022302987836
 30
0.0
 10
-293.4778432062296
 20
120.0003608193686
 30
0.0
 10
-293.3766477648893
 20
120.0
 30
0.0
  0
SPLINE
  5
8B
330
23
100
AcDbEntity
  8
0
  6
Continuous
 62
     7
370
    25
100
AcDbSpline
210
0.0
220
0.0
230
1.0
 70
     8
 71
     3
 72
    14
 73
    10
 74
     0
 42
0.000000001
 43
0.00000001
 40
0.0
 40
0.0
 40
0.0
 40
0.0
 40
0.0260811799670014
 40
0.2028326239637131
 40
0.345305632478725
 40
0.4868897678086207
 40
0.6324817942947542
 40
0.7756736897807514
 40
1.0
 40
1.0
 40
1.0
 40
1.0
 10
293.0405156600277
 20
120.0000081395738
 30
0.0
 10
293.1010184134572
 20
120.0003924033059
 30
0.0
 10
293.5715466737066
 20
120.0033808118516
 30
0.0
 10
294.3726057340932
 20
119.9999867139795
 30
0.0
 10
295.4416001177383
 20
120.0006698169244
 30
0.0
 10
296.4383134815179
 20
120.0002124289719
 30
0.0
 10
297.4366936702347
 20
120.0001303892017
 30
0.0
 10
298.6270218227682
 20
119.9999946636757
 30
0.0
 10
299.4796012800275
 20
119.9999979773777
 30
0.0
 10
300.0000000000001
 20
120.0
 30
0.0
  0
SPLINE
  5
8C
330
23
100
AcDbEntity
  8
0
  6
Continuous
 62
     7
370
    25
100
AcDbSpline
210
0.0
220
0.0
230
1.0
 70
     8
 71
     3
 72
    33
 73
    29
 74
     0
 42
0.000000001
 43
0.00000001
 40
0.0
 40
0.0
 40
0.0
 40
0.0
 40
0.0489983224407191
 40
0.1040426335965918
 40
0.1590456641471608
 40
0.2141625033189712
 40
0.2715002540393905
 40
0.3317719070052674
 40
0.395032879728327
 40
0.4695043123164092
 40
0.5478787189683404
 40
0.5733171853468587
 40
0.5989381726443918
 40
0.6247097714432676
 40
0.6506674832583818
 40
0.6768521899394768
 40
0.7019157636079606
 40
0.7273033721804023
 40
0.7530778865758281
 40
0.7792408343022434
 40
0.8057595098957636
 40
0.8326031982698604
 40
0.8597543768863168
 40
0.8871932302159546
 40
0.9148904308040655
 40
0.9428727871749922
 40
0.9712218759626576
 40
0.9999999999999999
 40
0.9999999999999999
 40
0.9999999999999999
 40
0.9999999999999999
 10
5.410556213379692
 20
120.0
 30
0.0
 10
-0.1629164136768929
 20
119.9999932962152
 30
0.0
 10
-11.99758220451192
 20
119.9999790614539
 30
0.0
 10
-30.08874120114574
 20
120.0002441533435
 30
0.0
 10
-48.87570047832426
 20
119.9999537127718
 30
0.0
 10
-67.9236633415056
 20
120.0000670851384
 30
0.0
 10
-87.56925743744002
 20
120.0003083586915
 30
0.0
 10
-108.137033031567
 20
120.000672801546
 30
0.0
 10
-130.6479055028104
 20
120.0010575505711
 30
0.0
 10
-155.2090606870181
 20
120.0013408491086
 30
0.0
 10
-175.4703002530604
 20
120.0013600648756
 30
0.0
 10
-190.1734764806737
 20
120.0012834732256
 30
0.0
 10
-198.9218111522438
 20
120.0011757929165
 30
0.0
 10
-207.688842888594
 20
120.0010295194578
 30
0.0
 10
-216.4229545750183
 20
120.0008687523066
 30
0.0
 10
-224.921594955985
 20
120.000717206157
 30
0.0
 10
-233.1448932731357
 20
120.0005782985798
 30
0.0
 10
-241.0614923510921
 20
120.000453949835
 30
0.0
 10
-248.766089696912
 20
120.0003439415346
 30
0.0
 10
-256.1963522723926
 20
120.0002496248092
 30
0.0
 10
-263.2782122112067
 20
120.0001717207227
 30
0.0
 10
-269.9249786010004
 20
120.0001102166156
 30
0.0
 10
-276.0666863180918
 20
120.0000646046675
 30
0.0
 10
-281.6514857905374
 20
120.0000334557989
 30
0.0
 10
-286.6335034554337
 20
120.0000143999196
 30
0.0
 10
-290.9575888050903
 20
120.0000043363269
 30
0.0
 10
-294.6681016232993
 20
120.0000002678088
 30
0.0
 10
-296.5448619473035
 20
120.0000000897155
 30
0.0
 10
-297.490289506635
 20
120.0
 30
0.0
  0
SPLINE
  5
8D
330
23
100
AcDbEntity
  8
0
  6
Continuous
 62
     7
370
    25
100
AcDbSpline
210
0.0
220
0.0
230
1.0
 70
     8
 71
     3
 72
    38
 73
    34
 74
     0
 42
0.000000001
 43
0.00000001
 40
0.0
 40
0.0
 40
0.0
 40
0.0
 40
0.0000882511298399
 40
0.0014180304178538
 40
0.0028042117277836
 40
0.0043387055323283
 40
0.0080890335226665
 40
0.015756034848495
 40
0.0244596778025256
 40
0.0336395614606818
 40
0.0571907494111563
 40
0.0918665358110904
 40
0.1312181386736542
 40
0.1752181226426272
 40
0.223771492148422
 40
0.2767036141695111
 40
0.3327936870809788
 40
0.3895774953404442
 40
0.4894676976220299
 40
0.58850857451073
 40
0.6849904352143396
 40
0.7772139738982725
 40
0.8067152705688064
 40
0.8355947383989275
 40
0.8646605048106227
 40
0.8863745933339187
 40
0.9076483567972852
 40
0.9281561934770167
 40
0.9475807842509814
 40
0.9657226606374955
 40
0.9826679697305569
 40
0.9990469459539628
 40
1.0
 40
1.0
 40
1.0
 40
1.0
 10
-91.6930517510904
 20
0.0000074659490673
 30
0.0
 10
-91.69385056533645
 20
0.0000074647407144
 30
0.0
 10
-91.70668601459604
 20
0.0000074453247664
 30
0.0
 10
-91.65661747141651
 20
0.0000073816186774
 30
0.0
 10
-91.53198608657091
 20
0.0000072753956956
 30
0.0
 10
-91.22682727824989
 20
0.0000070863512072
 30
0.0
 10
-90.45963720877418
 20
0.0000067022247682
 30
0.0
 10
-89.11443762276785
 20
0.0000061329547413
 30
0.0
 10
-87.41546507456388
 20
0.0000053815642359
 30
0.0
 10
-84.62787965952518
 20
0.0000040897395748
 30
0.0
 10
-80.0449106573947
 20
0.0000020880060458
 30
0.0
 10
-73.33592155399047
 20
0.0000014709049881
 30
0.0
 10
-65.21860437626985
 20
0.0000018906293545
 30
0.0
 10
-56.1336595295419
 20
0.000003012779054
 30
0.0
 10
-46.10748535831778
 20
0.0000043214551035
 30
0.0
 10
-35.24290693096692
 20
0.000004849512715
 30
0.0
 10
-23.80829944664
 20
0.0000039913836333
 30
0.0
 10
-9.134024519240645
 20
-0.0000025441251189
 30
0.0
 10
8.503872814201069
 20
-0.0000007970713325
 30
0.0
 10
28.87806015038298
 20
0.0000058836454736
 30
0.0
 10
48.71714869174244
 20
0.0000041972905568
 30
0.0
 10
63.75666484030414
 20
0.0000018236665997
 30
0.0
 10
74.12717819551212
 20
0.0000015915068152
 30
0.0
 10
80.15442742574729
 20
0.0000019972761015
 30
0.0
 10
85.59822252659139
 20
0.0000042768937211
 30
0.0
 10
90.4127171699477
 20
0.0000065634294943
 30
0.0
 10
94.5231479552141
 20
0.0000082631190432
 30
0.0
 10
98.28773930575046
 20
0.0000096630044799
 30
0.0
 10
101.5475589744915
 20
0.0000105681835436
 30
0.0
 10
104.1970713747057
 20
0.0000108304276658
 30
0.0
 10
105.8681209720381
 20
0.0000100294380787
 30
0.0
 10
106.6196204776857
 20
0.0000089834196818
 30
0.0
 10
106.4210265580333
 20
0.0000083850830584
 30
0.0
 10
106.4101062713905
 20
0.0000083521817101
 30
0.0
  0
SPLINE
  5
8E
330
23
100
AcDbEntity
  8
0
  6
Continuous
 62
     7
370
    25
100
AcDbSpline
210
0.0
220
0.0
230
1.0
 70
     8
 71
     3
 72
    25
 73
    21
 74
     0
 42
0.000000001
 43
0.00000001
 40
0.0
 40
0.0
 40
0.0
 40
0.0
 40
0.1102049688914438
 40
0.2049681475612841
 40
0.284714840451336
 40
0.3500146443790199
 40
0.4016907981475925
 40
0.4410898637074456
 40
0.456965665486993
 40
0.4709241580493212
 40
0.4836995827266644
 40
0.4961972347809599
 40
0.5093437017767865
 40
0.5239104380558756
 40
0.5592207157010305
 40
0.6046395044287527
 40
0.661047900038698
 40
0.7538496020371557
 40
0.8669015226080364
 40
1.0
 40
1.0
 40
1.0
 40
1.0
 10
-284.6674425076799
 20
99.99818013866707
 30
0.0
 10
-284.2266101317834
 20
99.98833870920146
 30
0.0
 10
-283.4067142924084
 20
99.97003481975605
 30
0.0
 10
-282.0452366345547
 20
99.86398678859352
 30
0.0
 10
-280.6936823956625
 20
99.69766867451993
 30
0.0
 10
-279.339283119381
 20
99.46673103891793
 30
0.0
 10
-277.9832124810777
 20
99.17104722242028
 30
0.0
 10
-276.7625273501594
 20
98.84485690381591
 30
0.0
 10
-275.7530579406047
 20
98.52938665596795
 30
0.0
 10
-275.0392803287502
 20
98.28672797868091
 30
0.0
 10
-274.3133478311731
 20
98.01946900918072
 30
0.0
 10
-273.583190447504
 20
97.72931500268389
 30
0.0
 10
-272.8599948738619
 20
97.4201140873372
 30
0.0
 10
-271.8440097813111
 20
96.95424149751902
 30
0.0
 10
-270.600690753938
 20
96.31724829861722
 30
0.0
 10
-269.2121821296661
 20
95.51293815573486
 30
0.0
 10
-267.6136153218337
 20
94.46930824960778
 30
0.0
 10
-265.8794179700659
 20
93.15970997118805
 30
0.0
 10
-264.0359990706921
 20
91.4894944880524
 30
0.0
 10
-262.8345372623413
 20
90.40991072783736
 30
0.0
 10
-262.1848826663726
 20
89.826158046993
 30
0.0
  0
LWPOLYLINE
  5
8F
330
23
100
AcDbEntity
  8
0
  6
Continuous
 62
     7
370
    25
100
AcDbPolyline
 90
        3
 70
   128
 43
0.0
 10
-262.1848826664
 20
89.826158047
 10
-254.1138492158
 20
82.5589668691
 10
-246.1833159879
 20
75.4182826224
  0
SPLINE
  5
90
330
23
100
AcDbEntity
  8
0
  6
Continuous
 62
     7
370
    25
100
AcDbSpline
210
0.0
220
0.0
230
1.0
 70
     8
 71
     3
 72
    50
 73
    46
 74
     0
 42
0.000000001
 43
0.00000001
 40
0.0
 40
0.0
 40
0.0
 40
0.0
 40
0.0373704613391751
 40
0.0706335220831627
 40
0.0998329751353155
 40
0.1250282848839809
 40
0.1463048249009546
 40
0.1611339273579822
 40
0.1734442727224141
 40
0.1834193209333331
 40
0.1895717982738454
 40
0.1948349940107819
 40
0.1995333834469949
 40
0.2041233023325452
 40
0.2093291886857303
 40
0.2191291595083729
 40
0.2318321312296777
 40
0.2457122162533476
 40
0.2620004783838626
 40
0.2806383923677755
 40
0.312770723501382
 40
0.3494814163438013
 40
0.3901622445209864
 40
0.4341049808147833
 40
0.4740663699855391
 40
0.5131198334217798
 40
0.5507410336201768
 40
0.5841914961720959
 40
0.607200409962943
 40
0.6265840995706343
 40
0.6431163279200602
 40
0.661345935768153
 40
0.6824148423346149
 40
0.7023660642493382
 40
0.7248243664660127
 40
0.7503230439931771
 40
0.7674564703719042
 40
0.7863561778760333
 40
0.8075803731845244
 40
0.832133293634305
 40
0.8602792607216871
 40
0.8954856514097628
 40
0.9351458979497963
 40
0.9796671660318108
 40
1.0
 40
1.0
 40
1.0
 40
1.0
 10
-246.1833159879015
 20
75.41828262242527
 30
0.0
 10
-245.8849945123562
 20
75.14976010974631
 30
0.0
 10
-245.3211401799313
 20
74.64222848852827
 30
0.0
 10
-244.3624389937479
 20
73.7758750890736
 30
0.0
 10
-243.378407905529
 20
72.88060952758474
 30
0.0
 10
-242.3625796973296
 20
71.94994425913913
 30
0.0
 10
-241.3605565712217
 20
71.02692716903566
 30
0.0
 10
-240.3833772703055
 20
70.12333771138523
 30
0.0
 10
-239.4570241992307
 20
69.2673376161186
 30
0.0
 10
-238.560808167306
 20
68.43623527270454
 30
0.0
 10
-237.6995408762432
 20
67.64805278886642
 30
0.0
 10
-236.9060353934101
 20
66.93453413452983
 30
0.0
 10
-236.0756058017168
 20
66.18757581394668
 30
0.0
 10
-235.2095230713911
 20
65.40328739406189
 30
0.0
 10
-234.1215291309846
 20
64.4099234318863
 30
0.0
 10
-232.7847553789987
 20
63.18363981135071
 30
0.0
 10
-231.2495719784371
 20
61.79747256214178
 30
0.0
 10
-229.5949159484146
 20
60.3263682741106
 30
0.0
 10
-227.8476777368021
 20
58.77318375033902
 30
0.0
 10
-225.5792092338724
 20
56.76279976447353
 30
0.0
 10
-222.7579770484458
 20
54.26270883954533
 30
0.0
 10
-219.4584347991872
 20
51.33086099673159
 30
0.0
 10
-215.4459109685874
 20
47.74145230288445
 30
0.0
 10
-213.0163305214121
 20
45.55561743171575
 30
0.0
 10
-204.5588578636218
 20
37.94261603745066
 30
0.0
 10
-198.0089140989455
 20
32.03802102574652
 30
0.0
 10
-191.4393746842081
 20
26.14954652712694
 30
0.0
 10
-185.9611979182327
 20
21.13902733947656
 30
0.0
 10
-181.3994077871464
 20
17.22407564638642
 30
0.0
 10
-177.6416513705132
 20
14.45570284687974
 30
0.0
 10
-174.0653577209782
 20
12.09024619287383
 30
0.0
 10
-170.2548189274202
 20
9.846793616459646
 30
0.0
 10
-166.0787939824098
 20
7.704473013492377
 30
0.0
 10
-161.473572671272
 20
5.686392545376235
 30
0.0
 10
-156.4201352404151
 20
3.841466221063183
 30
0.0
 10
-151.4615047211724
 20
2.421358953639818
 30
0.0
 10
-146.7014016499915
 20
1.378430099213936
 30
0.0
 10
-142.225835923121
 20
0.648637205525944
 30
0.0
 10
-137.1294950118522
 20
0.1129180652626807
 30
0.0
 10
-131.2754454634997
 20
-0.037073500096782
 30
0.0
 10
-124.3173590139118
 20
0.0133988590609591
 30
0.0
 10
-116.1623752577742
 20
-0.0044681376714303
 30
0.0
 10
-106.7114179089601
 20
0.0014526442925558
 30
0.0
 10
-98.43778176367375
 20
-0.0001549797364608
 30
0.0
 10
-93.303772825026
 20
-0.0000383114015928
 30
0.0
 10
-91.69417608340562
 20
-0.0000017339484015
 30
0.0
  0
LWPOLYLINE
  5
91
330
23
100
AcDbEntity
  8
0
  6
Continuous
 62
     7
370
    25
100
AcDbPolyline
 90
        3
 70
   128
 43
0.0
 10
246.1833159879
 20
75.4182826224
 10
254.1138492158
 20
82.5589668691
 10
262.1848826664
 20
89.826158047
  0
SPLINE
  5
92
330
23
100
AcDbEntity
  8
0
  6
Continuous
 62
     7
370
    25
100
AcDbSpline
210
0.0
220
0.0
230
1.0
 70
     8
 71
     3
 72
    24
 73
    20
 74
     0
 42
0.000000001
 43
0.00000001
 40
0.0
 40
0.0
 40
0.0
 40
0.0
 40
0.1279557665664022
 40
0.2355907084959573
 40
0.3232209974310564
 40
0.3762349475191758
 40
0.4190181829877777
 40
0.4529188365381466
 40
0.4674375949944665
 40
0.4810425587013414
 40
0.4944763205912086
 40
0.5085390172065444
 40
0.5412243413255935
 40
0.5834828111275159
 40
0.6377152786901906
 40
0.7054377445522773
 40
0.7877775865789537
 40
0.8856822740327718
 40
1.0
 40
1.0
 40
1.0
 40
1.0
 10
262.1848826663966
 20
89.8261580470145
 30
0.0
 10
262.5215351004778
 20
90.12963956645454
 30
0.0
 10
263.141375750027
 20
90.68840630357693
 30
0.0
 10
264.3036124432533
 20
91.72872697972772
 30
0.0
 10
265.4541727524723
 20
92.77259017763167
 30
0.0
 10
266.6351473413583
 20
93.72517919193025
 30
0.0
 10
267.7460426718675
 20
94.5422722189425
 30
0.0
 10
268.8226023570963
 20
95.25766688691334
 30
0.0
 10
269.7431422312541
 20
95.81627570391296
 30
0.0
 10
270.4291903716849
 20
96.20940472146977
 30
0.0
 10
271.1420804616506
 20
96.59365488892124
 30
0.0
 10
272.1700568368695
 20
97.11275024093247
 30
0.0
 10
273.5365888060562
 20
97.72704547875696
 30
0.0
 10
275.1347023609679
 20
98.33884041272869
 30
0.0
 10
276.8288625093665
 20
98.87875649412825
 30
0.0
 10
278.6300285069807
 20
99.33314662647628
 30
0.0
 10
280.549873446444
 20
99.68864701731631
 30
0.0
 10
282.6075510127523
 20
99.93563686468875
 30
0.0
 10
283.94629958209
 20
99.97628450014261
 30
0.0
 10
284.6674425076722
 20
99.99818013866697
 30
0.0
  0
SPLINE
  5
93
330
23
100
AcDbEntity
  8
0
  6
Continuous
 62
     7
370
    25
100
AcDbSpline
210
0.0
220
0.0
230
1.0
 70
     8
 71
     3
 72
    30
 73
    26
 74
     0
 42
0.000000001
 43
0.00000001
 40
0.0
 40
0.0
 40
0.0
 40
0.0
 40
0.1012219496072352
 40
0.1949301045159941
 40
0.2794930656411593
 40
0.3535097855155692
 40
0.3964421595364526
 40
0.4339621181831711
 40
0.4659348487254526
 40
0.4862309937160796
 40
0.5034375877748165
 40
0.5178108971923714
 40
0.5298026394129591
 40
0.5403755025825822
 40
0.5511982273115674
 40
0.5633219815105298
 40
0.577494192980378
 40
0.6004716839718851
 40
0.6288285243332105
 40
0.6629873134351513
 40
0.7119977539095422
 40
0.7700350676685365
 40
0.8372959124560683
 40
0.9139172642965849
 40
0.9999999999999999
 40
0.9999999999999999
 40
0.9999999999999999
 40
0.9999999999999999
 10
211.8045099351986
 20
44.46461976562679
 30
0.0
 10
213.1448136234512
 20
45.67077949895735
 30
0.0
 10
215.7259290736871
 20
47.9935646635725
 30
0.0
 10
219.3933369073037
 20
51.27224667975955
 30
0.0
 10
222.7726117844345
 20
54.27589826682261
 30
0.0
 10
225.5772357126706
 20
56.76098774261623
 30
0.0
 10
227.8479285475806
 20
58.77347791898755
 30
0.0
 10
229.5951724342251
 20
60.32638968114045
 30
0.0
 10
231.0984814531553
 20
61.66369068250941
 30
0.0
 10
232.3579898008791
 20
62.79682919157668
 30
0.0
 10
233.3751899885743
 20
63.72573100741287
 30
0.0
 10
234.3189534018841
 20
64.59012750405488
 30
0.0
 10
235.2095754358231
 20
65.40334569136004
 30
0.0
 10
236.0755922284851
 20
66.18756070287344
 30
0.0
 10
236.9060395358481
 20
66.93453874630372
 30
0.0
 10
237.699539514319
 20
67.64805127263597
 30
0.0
 10
238.5608088263569
 20
68.43623600642465
 30
0.0
 10
239.4570239357006
 20
69.26733732272962
 30
0.0
 10
240.3833773635559
 20
70.12333781519997
 30
0.0
 10
241.3605565313187
 20
71.02692712461038
 30
0.0
 10
242.3625797120296
 20
71.94994427550338
 30
0.0
 10
243.3784079005982
 20
72.88060952209347
 30
0.0
 10
244.3624389953678
 20
73.77587509087469
 30
0.0
 10
245.3211401794589
 20
74.64222848799957
 30
0.0
 10
245.8849945122031
 20
75.14976010957281
 30
0.0
 10
246.1833159879175
 20
75.41828262243972
 30
0.0
  0
SPLINE
  5
94
330
23
100
AcDbEntity
  8
0
  6
Continuous
 62
     7
370
    25
100
AcDbSpline
210
0.0
220
0.0
230
1.0
 70
     8
 71
     3
 72
    26
 73
    22
 74
     0
 42
0.000000001
 43
0.00000001
 40
0.0
 40
0.0
 40
0.0
 40
0.0
 40
0.0868400390267183
 40
0.1638543846742843
 40
0.231262551493109
 40
0.2903576052209078
 40
0.3411859397603611
 40
0.3835499761280969
 40
0.426925154614499
 40
0.4643902510364147
 40
0.4972020288332346
 40
0.5280148733422381
 40
0.5598558731217607
 40
0.6013501027330572
 40
0.645068759433971
 40
0.6915041031577046
 40
0.741786826717902
 40
0.7981018795310322
 40
0.8598900305655803
 40
0.9271459427093017
 40
1.0
 40
1.0
 40
1.0
 40
1.0
 10
90.14577431634598
 20
-0.0000016564581096
 30
0.0
 10
94.0807560730978
 20
0.0000933033158859
 30
0.0
 10
101.5054880479272
 20
0.000272478446528
 30
0.0
 10
111.9844704331924
 20
-0.0009088941382504
 30
0.0
 10
121.2069804579701
 20
0.0027849277943331
 30
0.0
 10
129.2406803842323
 20
-0.0085072212785559
 30
0.0
 10
136.1462919743387
 20
0.0250791224992095
 30
0.0
 10
142.3116356821633
 20
0.6379234597194208
 30
0.0
 10
147.8196300929498
 20
1.57444873494577
 30
0.0
 10
152.8281861318481
 20
2.78857226187218
 30
0.0
 10
157.2096424844727
 20
4.132535850491191
 30
0.0
 10
161.272902041297
 20
5.622494118878663
 30
0.0
 10
165.6126392836804
 20
7.482083599575702
 30
0.0
 10
170.3532505333072
 20
9.871803175970765
 30
0.0
 10
175.4728781110207
 20
12.94247996073694
 30
0.0
 10
180.6846628830255
 20
16.6092914691885
 30
0.0
 10
185.9476285657142
 20
21.13385508185431
 30
0.0
 10
191.583861044074
 20
26.27509348448925
 30
0.0
 10
197.8364304791475
 20
31.8838573324543
 30
0.0
 10
204.6322340585451
 20
38.00849691215478
 30
0.0
 10
209.3509058892249
 20
42.25600852046458
 30
0.0
 10
211.8045099352185
 20
44.46461976564473
 30
0.0
  0
SPLINE
  5
95
330
23
100
AcDbEntity
  8
0
  6
Continuous
 62
     7
370
    25
100
AcDbSpline
210
0.0
220
0.0
230
1.0
 70
    24
 71
     3
 72
    31
 73
    27
 74
     0
 42
0.000000001
 43
0.00000001
 40
0.7040000000000001
 40
0.7040000000000001
 40
0.7040000000000001
 40
0.7040000000000001
 40
0.7112798522621412
 40
0.7112798522621412
 40
0.7187608823973336
 40
0.7187608823973336
 40
0.7500000000000002
 40
0.7812391176026667
 40
0.7812391176026667
 40
0.7887201477378586
 40
0.7887201477378586
 40
0.7994464275267998
 40
0.7994464275267998
 40
0.819302731502832
 40
0.8315019841656741
 40
0.8475297624851112
 40
0.8635575408045484
 40
0.8802148448901774
 40
0.8802148448901774
 40
0.8956130974434227
 40
0.8956130974434227
 40
0.9791226194886845
 40
0.9843419646165134
 40
0.9895613097443423
 40
0.9947806548721712
 40
1.0
 40
1.0
 40
1.0
 40
1.0
 10
300.0000000000001
 20
120.0
 30
0.0
 10
300.0000000000001
 20
120.0
 30
0.0
 10
300.0000000000001
 20
120.0
 30
0.0
 10
300.0000000000001
 20
120.0
 30
0.0
 10
300.0000000000001
 20
120.0
 30
0.0
 10
300.0000000000001
 20
120.0
 30
0.0
 10
300.0000000000001
 20
120.0
 30
0.0
 10
300.0000000000001
 20
120.0
 30
0.0
 10
300.0000000000001
 20
120.0
 30
0.0
 10
300.0000000000001
 20
120.0
 30
0.0
 10
300.0000000000001
 20
120.0
 30
0.0
 10
300.0000000000001
 20
120.0
 30
0.0
 10
300.0000000000001
 20
120.0
 30
0.0
 10
296.8106721460859
 20
120.0
 30
0.0
 10
285.0147497671384
 20
120.0000000000001
 30
0.0
 10
268.6923294650223
 20
120.0
 30
0.0
 10
245.1906514458045
 20
120.0000000000001
 30
0.0
 10
227.0779828008008
 20
120.0
 30
0.0
 10
208.5657858098221
 20
120.0
 30
0.0
 10
199.3423852784305
 20
120.0
 30
0.0
 10
139.3333333333338
 20
120.0000000000002
 30
0.0
 10
85.50000000000021
 20
120.0000000000001
 30
0.0
 10
28.50000000000005
 20
120.0000000000001
 30
0.0
 10
19.0
 20
120.0
 30
0.0
 10
9.499999999999963
 20
120.0
 30
0.0
 10
3.166666666666655
 20
120.0
 30
0.0
 10
0.0000000000000007
 20
120.0
 30
0.0
  0
SPLINE
  5
97
330
23
100
AcDbEntity
  8
0
  6
Continuous
 62
     7
370
    25
100
AcDbSpline
210
0.0
220
0.0
230
1.0
 70
    24
 71
     3
 72
    31
 73
    27
 74
     0
 42
0.000000001
 43
0.00000001
 40
0.0
 40
0.0
 40
0.0
 40
0.0
 40
0.0052193451278288
 40
0.0104386902556577
 40
0.0156580353834865
 40
0.0208773805113154
 40
0.1043869025565773
 40
0.1043869025565773
 40
0.1197851551098225
 40
0.1197851551098225
 40
0.1364424591954516
 40
0.1524702375148887
 40
0.1684980158343259
 40
0.1806972684971682
 40
0.2005535724732001
 40
0.2005535724732001
 40
0.2112798522621407
 40
0.2112798522621407
 40
0.2187608823973334
 40
0.2187608823973334
 40
0.2500000000000002
 40
0.2812391176026667
 40
0.2812391176026667
 40
0.2887201477378576
 40
0.2887201477378576
 40
0.2960000000000002
 40
0.2960000000000002
 40
0.2960000000000002
 40
0.2960000000000002
 10
0.000000000000003
 20
100.0
 30
0.0
 10
-3.166666666666656
 20
100.0
 30
0.0
 10
-9.499999999999973
 20
99.99999999999997
 30
0.0
 10
-18.99999999999994
 20
99.99999999999994
 30
0.0
 10
-28.4999999999999
 20
99.99999999999994
 30
0.0
 10
-85.49999999999983
 20
99.99999999999986
 30
0.0
 10
-139.3333333333328
 20
99.99999999999994
 30
0.0
 10
-199.3423852784306
 20
100.0
 30
0.0
 10
-208.565785809822
 20
99.99999999999997
 30
0.0
 10
-227.0779828008006
 20
99.99999999999996
 30
0.0
 10
-245.1906514458042
 20
99.99999999999997
 30
0.0
 10
-268.6923294650225
 20
99.99999999999997
 30
0.0
 10
-285.0147497671385
 20
100.0
 30
0.0
 10
-296.8106721460858
 20
99.99999999999997
 30
0.0
 10
-300.0000000000002
 20
99.99999999999994
 30
0.0
 10
-299.9999999999999
 20
100.0
 30
0.0
 10
-299.9999999999999
 20
100.0
 30
0.0
 10
-299.9999999999999
 20
100.0
 30
0.0
 10
-299.9999999999999
 20
100.0
 30
0.0
 10
-299.9999999999999
 20
99.99999999999997
 30
0.0
 10
-299.9999999999999
 20
99.99999999999997
 30
0.0
 10
-299.9999999999999
 20
100.0
 30
0.0
 10
-300.0000000000001
 20
99.99999999999997
 30
0.0
 10
-300.0
 20
99.99999999999997
 30
0.0
 10
-299.9999999999999
 20
100.0
 30
0.0
 10
-300.0
 20
99.99999999999997
 30
0.0
 10
-300.0
 20
100.0
 30
0.0
  0
LINE
  5
99
330
23
100
AcDbEntity
  8
0
  6
Continuous
 62
     7
370
    25
100
AcDbLine
 10
300.0
 20
100.0
 30
0.0
 11
300.0
 21
120.0
 31
0.0
  0
LINE
  5
9A
330
23
100
AcDbEntity
  8
0
  6
Continuous
 62
     7
370
    25
100
AcDbLine
 10
-300.0
 20
120.0
 30
0.0
 11
-300.0
 21
100.0
 31
0.0
  0
LINE
  5
9B
330
23
100
AcDbEntity
  8
0
  6
Continuous
 62
     7
370
    25
100
AcDbLine
 10
0.0
 20
120.0
 30
0.0
 11
-300.0
 21
120.0
 31
0.0
  0
LINE
  5
9C
330
23
100
AcDbEntity
  8
0
  6
Continuous
 62
     7
370
    25
100
AcDbLine
 10
0.0
 20
100.0
 30
0.0
 11
300.0
 21
100.0
 31
0.0
  0
VIEWPORT
  5
123
330
23
100
AcDbEntity
  8
0
100
AcDbViewport
 10
0.0
 20
0.0
 30
0.0
 40
205.6
 41
156.0
 68
     1
 69
     1
 12
0.0
 22
0.0
 13
0.0
 23
0.0
 14
10.0
 24
10.0
 15
10.0
 25
10.0
 16
0.0
 26
0.0
 36
1.0
 17
0.0
 27
0.0
 37
0.0
 42
50.0
 43
0.0
 44
0.0
 45
612.0
 50
0.0
 51
0.0
 72
   100
 90
   557152
  1

281
     0
 71
     1
 74
     0
110
0.0
120
0.0
130
0.0
111
1.0
121
0.0
131
0.0
112
0.0
122
1.0
132
0.0
 79
     0
146
0.0
170
     0
 61
     5
348
2F
292
     1
282
     1
141
0.0
142
0.0
 63
   256
361
124
  0
ENDBLK
  5
25
330
23
100
AcDbEntity
  8
0
100
AcDbBlockEnd
  0
BLOCK
  5
9F
330
9D
100
AcDbEntity
  8
0
100
AcDbBlockBegin
  2
*Paper_Space1
 70
     0
 10
0.0
 20
0.0
 30
0.0
  3
*Paper_Space1
  1

  0
SPLINE
  5
A1
330
9D
100
AcDbEntity
  8
0
  6
Continuous
 62
     7
370
    25
100
AcDbSpline
210
0.0
220
0.0
230
1.0
 70
     8
 71
     3
 72
   113
 73
   109
 74
     0
 42
0.000000001
 43
0.00000001
 40
0.0
 40
0.0
 40
0.0
 40
0.0
 40
0.0055937541578256
 40
0.0104910296797069
 40
0.0155201932740202
 40
0.020576825619975
 40
0.0255803109607956
 40
0.0305670114131188
 40
0.0355764749183252
 40
0.0449035563067773
 40
0.0543436250162324
 40
0.0625742432664153
 40
0.0697470107187731
 40
0.0751868406111497
 40
0.0789056989359006
 40
0.0813142740521548
 40
0.0841347029620084
 40
0.0895311122635586
 40
0.0963633345757435
 40
0.1046161935992414
 40
0.1142556826927631
 40
0.1246464736727214
 40
0.135428849239134
 40
0.1598441808965721
 40
0.1860425097643763
 40
0.2140313723756293
 40
0.2438318683964727
 40
0.275477335315376
 40
0.3086035679984218
 40
0.3409720187873223
 40
0.3722763988867179
 40
0.4025629759508723
 40
0.4318749362851807
 40
0.4630404379219467
 40
0.493125530212174
 40
0.5046594389769025
 40
0.5160366139002236
 40
0.5268871013513268
 40
0.5360612525689068
 40
0.5433376170894423
 40
0.5489378232292228
 40
0.5528673982844335
 40
0.5547246754211219
 40
0.5553073369065024
 40
0.5556663393513172
 40
0.5557239515725929
 40
0.5557705925260615
 40
0.5558088010033074
 40
0.5558261512397439
 40
0.5558432339028824
 40
0.5558794602961834
 40
0.5559228142908056
 40
0.5560416505371215
 40
0.5564357655052019
 40
0.557054070885797
 40
0.5589784413512862
 40
0.5618234612964096
 40
0.567554609765971
 40
0.5749141432736334
 40
0.5838972667115783
 40
0.5944985938033173
 40
0.6048204671518731
 40
0.6163131170564236
 40
0.6289730672043526
 40
0.642796877420384
 40
0.6577811501164421
 40
0.6739225283612145
 40
0.6907523761826685
 40
0.7049616833210769
 40
0.7177726727968979
 40
0.7291778146266825
 40
0.7391785746233612
 40
0.7477872284849995
 40
0.7550297330399783
 40
0.7601577839189259
 40
0.7643743705747474
 40
0.7677632540024036
 40
0.7704773246050313
 40
0.7716673355910092
 40
0.7738966062251575
 40
0.7768013228409006
 40
0.7797882710006699
 40
0.7834088689763045
 40
0.790040467696926
 40
0.7980428720712749
 40
0.8067412986128869
 40
0.8160048925067473
 40
0.8258299409523033
 40
0.8362081494274222
 40
0.847124042623216
 40
0.863235214576631
 40
0.8789243053924901
 40
0.8934250950175358
 40
0.9067136577161761
 40
0.9187922018860168
 40
0.9244049243799668
 40
0.9300151396086885
 40
0.9359432450421626
 40
0.9434710756999587
 40
0.9525584747581654
 40
0.9609223586263704
 40
0.9695391770470395
 40
0.9780331829703779
 40
0.9829748743538049
 40
0.9877695486362423
 40
0.9924087819047627
 40
0.9968439207477873
 40
1.0
 40
1.0
 40
1.0
 40
1.0
 10
-193.8152113072227
 20
100.0
 30
0.0
 10
-193.7265738432674
 20
99.99999999125137
 30
0.0
 10
-193.560335170839
 20
99.9999999748434
 30
0.0
 10
-192.7826101479916
 20
99.99999984659512
 30
0.0
 10
-191.735804119122
 20
99.99999971586554
 30
0.0
 10
-190.7444632136758
 20
99.99999958930724
 30
0.0
 10
-189.9616751805272
 20
99.9999994887396
 30
0.0
 10
-189.4045320834769
 20
99.99999942505235
 30
0.0
 10
-188.9793421084779
 20
99.99999939940818
 30
0.0
 10
-188.9227648913523
 20
99.99999943035994
 30
0.0
 10
-189.5780261065248
 20
99.99999964357878
 30
0.0
 10
-189.7216967272906
 20
99.99999946285703
 30
0.0
 10
-189.4991153505119
 20
100.0000002335952
 30
0.0
 10
-189.1217239423547
 20
99.99999835396261
 30
0.0
 10
-188.7420401691307
 20
100.0000024795061
 30
0.0
 10
-187.95788176851
 20
99.99999267984538
 30
0.0
 10
-187.2397279090991
 20
100.0000434914514
 30
0.0
 10
-186.4022251311086
 20
99.99962514878702
 30
0.0
 10
-185.4675660800316
 20
100.0019329998093
 30
0.0
 10
-184.4752355679747
 20
99.99053743798721
 30
0.0
 10
-183.4271323780564
 20
99.95025507986945
 30
0.0
 10
-182.3557622240446
 20
99.88409257896352
 30
0.0
 10
-180.8691998414976
 20
99.75643884085528
 30
0.0
 10
-179.0778407128824
 20
99.53416502706179
 30
0.0
 10
-177.1233748214762
 20
99.19859505917226
 30
0.0
 10
-175.3728069451952
 20
98.81645959033442
 30
0.0
 10
-173.8412845756083
 20
98.41252131803105
 30
0.0
 10
-172.5401983397895
 20
98.01026778457761
 30
0.0
 10
-171.5111676184098
 20
97.64814037066489
 30
0.0
 10
-170.5787068725564
 20
97.27776618682257
 30
0.0
 10
-169.790518975299
 20
96.92916241718551
 30
0.0
 10
-169.1290023775169
 20
96.61018490657534
 30
0.0
 10
-168.5664488268947
 20
96.31858450754038
 30
0.0
 10
-168.1035202445653
 20
96.06273433771356
 30
0.0
 10
-167.8127324415641
 20
95.8920549660243
 30
0.0
 10
-167.6425829720253
 20
95.78773201930225
 30
0.0
 10
-167.5492310132715
 20
95.72867274777913
 30
0.0
 10
-167.4757571360633
 20
95.68043011231161
 30
0.0
 10
-167.3749966429531
 20
95.61945687760225
 30
0.0
 10
-167.256172365978
 20
95.55083771927862
 30
0.0
 10
-167.122414491012
 20
95.47608695741962
 30
0.0
 10
-166.976030708912
 20
95.39608835994393
 30
0.0
 10
-166.8438696290442
 20
95.32468534355152
 30
0.0
 10
-166.733467283022
 20
95.26530135491649
 30
0.0
 10
-166.6754209251633
 20
95.23411102771847
 30
0.0
 10
-166.6246137446685
 20
95.20680882651999
 30
0.0
 10
-166.6049769042994
 20
95.19625532016826
 30
0.0
 10
-166.5872188091247
 20
95.18670976864458
 30
0.0
 10
-166.5732173069527
 20
95.1791819851712
 30
0.0
 10
-166.5593080773522
 20
95.17170275528166
 30
0.0
 10
-166.5410471763082
 20
95.16188106631301
 30
0.0
 10
-166.5104688151155
 20
95.1454278870935
 30
0.0
 10
-166.4505391697733
 20
95.11315563357874
 30
0.0
 10
-166.380524781598
 20
95.07536925948364
 30
0.0
 10
-166.2486959059703
 20
95.00401761907442
 30
0.0
 10
-166.0965337457077
 20
94.9210047882839
 30
0.0
 10
-165.866897286366
 20
94.7944250483433
 30
0.0
 10
-165.6030346946038
 20
94.64599421789241
 30
0.0
 10
-165.307058988233
 20
94.47526319437833
 30
0.0
 10
-165.0075451112501
 20
94.29726254330816
 30
0.0
 10
-164.7232516294568
 20
94.12271251412731
 30
0.0
 10
-164.452558840299
 20
93.95105823198803
 30
0.0
 10
-164.1953349070244
 20
93.78266889873188
 30
0.0
 10
-163.9407391318883
 20
93.61043489218065
 30
0.0
 10
-163.6898299628318
 20
93.43491979501935
 30
0.0
 10
-163.4446301641688
 20
93.25768961415079
 30
0.0
 10
-163.2053804128777
 20
93.0789355129293
 30
0.0
 10
-163.0020701647233
 20
92.9230750538144
 30
0.0
 10
-162.6508645545064
 20
92.65188957979123
 30
0.0
 10
-162.2033153439175
 20
92.296860469061
 30
0.0
 10
-161.6503426936791
 20
91.8411787667326
 30
0.0
 10
-160.9992241477393
 20
91.28307225053173
 30
0.0
 10
-160.2637525744901
 20
90.61004837055002
 30
0.0
 10
-159.473079434729
 20
89.86773628691626
 30
0.0
 10
-158.6386714483654
 20
89.08876400912733
 30
0.0
 10
-157.7958441655307
 20
88.30190092722448
 30
0.0
 10
-156.8852191465662
 20
87.4523530181391
 30
0.0
 10
-156.0065866477585
 20
86.63291069771374
 30
0.0
 10
-155.111133823946
 20
85.79786956091793
 30
0.0
 10
-154.0665372014612
 20
84.82377042170553
 30
0.0
 10
-152.7568249756779
 20
83.60244282089383
 30
0.0
 10
-151.2115441645058
 20
82.16144552155791
 30
0.0
 10
-149.0649892841568
 20
80.15975057010859
 30
0.0
 10
-146.1035361905464
 20
77.39815094964037
 30
0.0
 10
-142.3190635220509
 20
73.8690730963394
 30
0.0
 10
-138.1074389527235
 20
69.94166952639205
 30
0.0
 10
-133.6002415050119
 20
65.73864044358432
 30
0.0
 10
-128.8205549351845
 20
61.28150842735323
 30
0.0
 10
-123.7728571001325
 20
56.574462889466
 30
0.0
 10
-117.7055384638196
 20
50.91655605108716
 30
0.0
 10
-110.7766365220376
 20
44.45547468478678
 30
0.0
 10
-103.2667723230839
 20
37.45156212335255
 30
0.0
 10
-96.21294029315519
 20
30.87659569165951
 30
0.0
 10
-89.75071038892985
 20
24.84117841510545
 30
0.0
 10
-84.71300837671484
 20
20.16913320030828
 30
0.0
 10
-80.95709136577237
 20
16.61836846636561
 30
0.0
 10
-78.0561744349581
 20
14.15416520706516
 30
0.0
 10
-74.67098143941237
 20
11.61585387970936
 30
0.0
 10
-70.47300321124644
 20
8.891111785947016
 30
0.0
 10
-65.57661290006821
 20
6.281340828442818
 30
0.0
 10
-60.24705121564338
 20
4.022699178811026
 30
0.0
 10
-54.86602212512408
 20
2.276311973683241
 30
0.0
 10
-50.09321177395388
 20
1.178066092856665
 30
0.0
 10
-46.09836595578658
 20
0.5439126719979648
 30
0.0
 10
-42.92718647712046
 20
0.2027361105454428
 30
0.0
 10
-39.8554070355074
 20
0.0150558890521998
 30
0.0
 10
-37.14227950415214
 20
-0.0024788354312244
 30
0.0
 10
-35.45869500690991
 20
-0.0007279067601659
 30
0.0
 10
-34.75873802577313
 20
0.000000048830287
 30
0.0
  0
SPLINE
  5
A5
330
9D
100
AcDbEntity
  8
0
  6
Continuous
 62
     7
370
    25
100
AcDbSpline
210
0.0
220
0.0
230
1.0
 70
     8
 71
     3
 72
   112
 73
   108
 74
     0
 42
0.000000001
 43
0.00000001
 40
0.0
 40
0.0
 40
0.0
 40
0.0
 40
0.0037431912904623
 40
0.0088665886251642
 40
0.0141329175787894
 40
0.0195074396206707
 40
0.0249506240163961
 40
0.030402312022943
 40
0.0357743039799596
 40
0.0477654839696918
 40
0.0600598567403029
 40
0.0719345603375519
 40
0.0846793286078009
 40
0.0969381027767619
 40
0.109265355190069
 40
0.1223774080799932
 40
0.1363194843571896
 40
0.1467681837140697
 40
0.157606212829367
 40
0.1688110334725546
 40
0.1803549997193398
 40
0.1918404229997497
 40
0.2020749383331076
 40
0.2109796987759742
 40
0.2175434316646089
 40
0.2229787226294404
 40
0.227454151637539
 40
0.2310786551548648
 40
0.2343950246695109
 40
0.2378907950895218
 40
0.2419151569613876
 40
0.2467091981909955
 40
0.2541893627293942
 40
0.2632206513629322
 40
0.27295581241281
 40
0.2831920012612167
 40
0.2939270187802446
 40
0.3051569265526566
 40
0.3168762458776723
 40
0.3396082527954931
 40
0.3639054576394531
 40
0.3896968723865536
 40
0.40107089888881
 40
0.4116849349491385
 40
0.4211735853112263
 40
0.4295393756829765
 40
0.4389502879891232
 40
0.4463715873520883
 40
0.4518063702155003
 40
0.4545836058372799
 40
0.456262314333765
 40
0.4565183273292497
 40
0.456715175381386
 40
0.4568633842235277
 40
0.4569265590656308
 40
0.4569880115945164
 40
0.4570527527533657
 40
0.4571251201927364
 40
0.4573038965565376
 40
0.4578371926941096
 40
0.459974635604186
 40
0.4629312013009722
 40
0.4688430544978852
 40
0.4774671819304912
 40
0.4881347257645
 40
0.5008493805462525
 40
0.5156061476705369
 40
0.5316828667247933
 40
0.5496149080750808
 40
0.5693819124848225
 40
0.59095923018654
 40
0.6137762189359691
 40
0.6357218151908148
 40
0.6566198356226057
 40
0.6837069589067492
 40
0.7089592532337493
 40
0.7324479682483579
 40
0.7542356041684559
 40
0.7745716378479856
 40
0.793275092568023
 40
0.8103853015955423
 40
0.8183533617971911
 40
0.8258555051298376
 40
0.8318246876775246
 40
0.8350781557574413
 40
0.8373087007374443
 40
0.8380713106335599
 40
0.83837866688021
 40
0.8386478432138494
 40
0.8388929277006874
 40
0.8391324157198908
 40
0.8393861359435537
 40
0.8396710518291173
 40
0.8403777203014408
 40
0.8418694680148486
 40
0.843941175511204
 40
0.8476514111298546
 40
0.852472835799807
 40
0.8606572227586491
 40
0.8708697747635468
 40
0.8831259541961686
 40
0.8974365567423098
 40
0.9138093086814315
 40
0.932251095380411
 40
0.9527639235896519
 40
0.9753473576430025
 40
1.0
 40
1.0
 40
1.0
 40
1.0
 10
34.75876412674875
 20
0.0000289355669286
 30
0.0
 10
35.56172203940041
 20
-0.0017850561262744
 30
0.0
 10
37.46370805677104
 20
-0.0060819025509001
 30
0.0
 10
40.496174782642
 20
0.0357915298153932
 30
0.0
 10
43.87076158890633
 20
0.2839701691981569
 30
0.0
 10
47.29606003871418
 20
0.7107015673822672
 30
0.0
 10
50.73267802109505
 20
1.329214157578737
 30
0.0
 10
54.13067139607212
 20
2.131219621957302
 30
0.0
 10
58.82832294947671
 20
3.510401678133129
 30
0.0
 10
64.7734498720464
 20
5.823722489847041
 30
0.0
 10
71.621792658558
 20
9.501276046077846
 30
0.0
 10
78.14394510565418
 20
14.03552708043358
 30
0.0
 10
83.94505126349388
 20
19.43161124430129
 30
0.0
 10
89.79782381323076
 20
24.89298726884264
 30
0.0
 10
95.71334932523621
 20
30.4083408184892
 30
0.0
 10
101.8915640473184
 20
36.16989798472737
 30
0.0
 10
107.775455062645
 20
41.65663801094448
 30
0.0
 10
113.3024712461451
 20
46.81067893316005
 30
0.0
 10
118.4000625967675
 20
51.56425464824152
 30
0.0
 10
123.6694858169968
 20
56.47807086383013
 30
0.0
 10
129.040474754416
 20
61.4865967451222
 30
0.0
 10
134.2592529314111
 20
66.35318376733602
 30
0.0
 10
139.0639006301414
 20
70.83358755646184
 30
0.0
 10
143.0965853447899
 20
74.59412418782613
 30
0.0
 10
146.3757906913577
 20
77.65203049826039
 30
0.0
 10
148.9615056364547
 20
80.06324746436981
 30
0.0
 10
151.0821212691945
 20
82.04075279964805
 30
0.0
 10
152.8815284247332
 20
83.7187266010025
 30
0.0
 10
154.4891066640803
 20
85.2178182274218
 30
0.0
 10
155.8757833706156
 20
86.51106174895841
 30
0.0
 10
157.0575159946262
 20
87.6135680167748
 30
0.0
 10
158.1798903606721
 20
88.66137322326642
 30
0.0
 10
159.1463681136217
 20
89.56499137549626
 30
0.0
 10
159.8398417612547
 20
90.21426301933778
 30
0.0
 10
160.5505891440549
 20
90.88406549121214
 30
0.0
 10
161.2179627971658
 20
91.47870601232603
 30
0.0
 10
161.8433653398488
 20
92.00907442609977
 30
0.0
 10
162.4183384083153
 20
92.47406406327613
 30
0.0
 10
163.0954939168284
 20
92.99812631876017
 30
0.0
 10
163.7837955891105
 20
93.49807004178669
 30
0.0
 10
164.3662988869335
 20
93.89488049731509
 30
0.0
 10
164.65706171462
 20
94.08183231676185
 30
0.0
 10
164.7577314581649
 20
94.14462042204367
 30
0.0
 10
164.8415741508358
 20
94.19631111762205
 30
0.0
 10
164.9493552141522
 20
94.26189751361628
 30
0.0
 10
165.0885367853542
 20
94.34533018131614
 30
0.0
 10
165.2638013224454
 20
94.4488349884596
 30
0.0
 10
165.4968717289943
 20
94.58358092702701
 30
0.0
 10
165.7341208752122
 20
94.71858250931736
 30
0.0
 10
165.9962241784588
 20
94.86465142119728
 30
0.0
 10
166.1781409494733
 20
94.96511374123179
 30
0.0
 10
166.3539805038474
 20
95.0608868424072
 30
0.0
 10
166.4195140961656
 20
95.09646035598276
 30
0.0
 10
166.4814899509687
 20
95.12999003477087
 30
0.0
 10
166.5317034812177
 20
95.15707831046052
 30
0.0
 10
166.5679880989927
 20
95.17661875388562
 30
0.0
 10
166.6041735312362
 20
95.19607259998897
 30
0.0
 10
166.6556296756191
 20
95.223689724703
 30
0.0
 10
166.757484372533
 20
95.27820066315304
 30
0.0
 10
166.9929903504656
 20
95.40346813286652
 30
0.0
 10
167.2444865932656
 20
95.53549307666817
 30
0.0
 10
167.6505206202113
 20
95.74613348496551
 30
0.0
 10
168.0609296862312
 20
95.95546102265048
 30
0.0
 10
168.444256939301
 20
96.15068584558749
 30
0.0
 10
168.7343936339825
 20
96.30116352377898
 30
0.0
 10
168.9259087960124
 20
96.40661919966402
 30
0.0
 10
169.0155721895269
 20
96.4660056016015
 30
0.0
 10
169.0122374756026
 20
96.48315870977116
 30
0.0
 10
168.9228002415248
 20
96.45992014691504
 30
0.0
 10
168.7520212353136
 20
96.39645682092747
 30
0.0
 10
168.5077435243817
 20
96.29353386776454
 30
0.0
 10
168.2087849126463
 20
96.1559733656418
 30
0.0
 10
168.0543109406438
 20
96.08482808402046
 30
0.0
 10
168.0183214051919
 20
96.07134622179109
 30
0.0
 10
168.1621794105839
 20
96.1472187560709
 30
0.0
 10
168.5569577324755
 20
96.34397400425762
 30
0.0
 10
169.1875614073519
 20
96.64223501403441
 30
0.0
 10
170.0604605641981
 20
97.02770336499242
 30
0.0
 10
171.183589878529
 20
97.48151651612937
 30
0.0
 10
172.5683494457377
 20
97.98020455115038
 30
0.0
 10
173.9655473984004
 20
98.41701562317787
 30
0.0
 10
175.2309900310794
 20
98.75936814116132
 30
0.0
 10
176.1487904246016
 20
98.98321874713716
 30
0.0
 10
177.0103255828114
 20
99.17295179375586
 30
0.0
 10
177.7928197729354
 20
99.32775592253854
 30
0.0
 10
178.3611483304645
 20
99.43138698295141
 30
0.0
 10
178.8087295525685
 20
99.50643497949267
 30
0.0
 10
179.0359615670957
 20
99.54298181523227
 30
0.0
 10
179.1943259099124
 20
99.56782567761657
 30
0.0
 10
179.3534597135291
 20
99.59215940561343
 30
0.0
 10
179.5114597965563
 20
99.6156903440154
 30
0.0
 10
179.6653984553948
 20
99.63801344419407
 30
0.0
 10
179.8797649498725
 20
99.66827682712231
 30
0.0
 10
180.2071265462718
 20
99.71237387009039
 30
0.0
 10
180.579930543056
 20
99.7588228690433
 30
0.0
 10
181.0321522500697
 20
99.81067310645986
 30
0.0
 10
181.4935133053377
 20
99.85750530657711
 30
0.0
 10
182.0316849982117
 20
99.9051380551304
 30
0.0
 10
182.5715141133762
 20
99.9437968262764
 30
0.0
 10
183.1030074891157
 20
99.97275603187438
 30
0.0
 10
183.5913835834544
 20
99.99072505308776
 30
0.0
 10
184.0406026546445
 20
99.99972105023161
 30
0.0
 10
184.4507987697325
 20
100.0000808678678
 30
0.0
 10
184.8434759149978
 20
99.99996506097287
 30
0.0
 10
185.2205921392141
 20
100.0000009343994
 30
0.0
 10
185.5863337011663
 20
99.99998974170472
 30
0.0
 10
185.8087404486806
 20
99.9999914741023
 30
0.0
 10
185.9248151615045
 20
99.99999237824554
 30
0.0
  0
SPLINE
  5
A6
330
9D
100
AcDbEntity
  8
0
  6
Continuous
 62
     7
370
    25
100
AcDbSpline
210
0.0
220
0.0
230
1.0
 70
     8
 71
     3
 72
    30
 73
    26
 74
     0
 42
0.000000001
 43
0.00000001
 40
0.0
 40
0.0
 40
0.0
 40
0.0
 40
0.0866508376369849
 40
0.1737061813333388
 40
0.2527513269683309
 40
0.3198397618969888
 40
0.3477797727909836
 40
0.3716424437064676
 40
0.3914018103987469
 40
0.407225903232252
 40
0.4195849601971476
 40
0.4247791531447763
 40
0.4295611811519739
 40
0.4341880737173095
 40
0.4389363332619391
 40
0.449697037072259
 40
0.4632344486279847
 40
0.4801321313856799
 40
0.5246124144082449
 40
0.5831709818051296
 40
0.654767021674832
 40
0.7380382375127651
 40
0.831458349198847
 40
0.9333481557656834
 40
1.0
 40
1.0
 40
1.0
 40
1.0
 10
16.04473936674788
 20
0.0000000056937441
 30
0.0
 10
16.68079236666033
 20
0.0000000271654088
 30
0.0
 10
17.9558676083248
 20
0.0000000702089567
 30
0.0
 10
19.60098586039303
 20
0.0000002789435558
 30
0.0
 10
21.3107507395235
 20
0.0000004212012406
 30
0.0
 10
22.82650407087457
 20
0.0000004213159058
 30
0.0
 10
24.08255303378828
 20
0.0000002881529876
 30
0.0
 10
24.9518848573329
 20
0.000000133151018
 30
0.0
 10
25.80998126465979
 20
0.0000000185586269
 30
0.0
 10
26.64974434900228
 20
-0.000000027311306
 30
0.0
 10
27.38042244203043
 20
0.0000000315522053
 30
0.0
 10
27.94987185926819
 20
0.0000001724980159
 30
0.0
 10
28.34636219752629
 20
0.0000003185552724
 30
0.0
 10
28.73346162809799
 20
0.0000005148638946
 30
0.0
 10
29.25184959590044
 20
0.0000008593432632
 30
0.0
 10
29.87086369727892
 20
0.0000014520223635
 30
0.0
 10
30.50022158866482
 20
0.0000023317741349
 30
0.0
 10
31.34623610755337
 20
0.0000039683640471
 30
0.0
 10
32.1814681532238
 20
0.0000066459267048
 30
0.0
 10
32.9815163227255
 20
0.0000105637479736
 30
0.0
 10
33.6495783904935
 20
0.000015210697972
 30
0.0
 10
34.18510834643332
 20
0.0000201773951367
 30
0.0
 10
34.56005700448893
 20
0.0000247036668899
 30
0.0
 10
34.75871397333881
 20
0.000027935643819
 30
0.0
 10
34.75259416099671
 20
0.0000283253626734
 30
0.0
 10
34.75017400682692
 20
0.0000284794817312
 30
0.0
  0
SPLINE
  5
A9
330
9D
100
AcDbEntity
  8
0
  6
Continuous
 62
     7
370
    25
100
AcDbSpline
210
0.0
220
0.0
230
1.0
 70
     8
 71
     3
 72
    27
 73
    23
 74
     0
 42
0.000000001
 43
0.00000001
 40
0.0
 40
0.0
 40
0.0
 40
0.0
 40
0.0417636911057391
 40
0.0879524792725968
 40
0.1350929276640495
 40
0.1836059917310346
 40
0.2336649247838232
 40
0.2852159745983476
 40
0.3203429165550756
 40
0.3560161685765258
 40
0.3921859448202686
 40
0.4287906248693986
 40
0.4657741895908558
 40
0.5031739000640171
 40
0.5456548112703641
 40
0.5888846385333633
 40
0.6329647070223883
 40
0.6779995660505561
 40
0.7239516123885079
 40
0.7706359553272709
 40
0.883447735072603
 40
1.0
 40
1.0
 40
1.0
 40
1.0
 10
-99.37074501839585
 20
120.0
 30
0.0
 10
-102.5943056610984
 20
120.0000295911835
 30
0.0
 10
-109.3829812571665
 20
120.0000919089025
 30
0.0
 10
-119.5889616150464
 20
120.0001904883748
 30
0.0
 10
-130.0010205493596
 20
120.0002844401384
 30
0.0
 10
-140.2551576904079
 20
120.0003746768824
 30
0.0
 10
-150.2402559081938
 20
120.00046594749
 30
0.0
 10
-158.7000503266142
 20
120.0005373649535
 30
0.0
 10
-165.7027374234542
 20
120.0005856082614
 30
0.0
 10
-171.3834612420603
 20
120.0006147826066
 30
0.0
 10
-176.6627015585364
 20
120.0006305454567
 30
0.0
 10
-181.4842386438504
 20
120.0006322137731
 30
0.0
 10
-185.7911263594447
 20
120.0006195821991
 30
0.0
 10
-189.6863284978155
 20
120.0005920061281
 30
0.0
 10
-193.0387924275232
 20
120.000548466525
 30
0.0
 10
-195.6819063663878
 20
120.0004898680946
 30
0.0
 10
-197.4704124504242
 20
120.0004128310889
 30
0.0
 10
-198.1520459331082
 20
120.0003167120711
 30
0.0
 10
-198.3010086908978
 20
120.0002206954176
 30
0.0
 10
-198.7473455299949
 20
120.0001042967016
 30
0.0
 10
-199.2783698048707
 20
120.0000094219417
 30
0.0
 10
-199.7568555417943
 20
120.000003174608
 30
0.0
 10
-200.0000000000003
 20
120.0000000000002
 30
0.0
  0
SPLINE
  5
AC
330
9D
100
AcDbEntity
  8
0
  6
Continuous
 62
     7
370
    25
100
AcDbSpline
210
0.0
220
0.0
230
1.0
 70
    24
 71
     3
 72
    37
 73
    33
 74
     0
 42
0.000000001
 43
0.00000001
 40
0.5937499999999996
 40
0.5937499999999996
 40
0.5937499999999996
 40
0.5937499999999996
 40
0.6043869025565776
 40
0.6043869025565776
 40
0.6197851551098223
 40
0.6197851551098223
 40
0.6364424591954517
 40
0.6524702375148889
 40
0.668498015834326
 40
0.6806972684971684
 40
0.7005535724732002
 40
0.7005535724732002
 40
0.7112798522621412
 40
0.7112798522621412
 40
0.7187608823973336
 40
0.7187608823973336
 40
0.7500000000000002
 40
0.7812391176026667
 40
0.7812391176026667
 40
0.7887201477378586
 40
0.7887201477378586
 40
0.7994464275267998
 40
0.7994464275267998
 40
0.819302731502832
 40
0.8315019841656741
 40
0.8475297624851112
 40
0.8635575408045484
 40
0.8802148448901774
 40
0.8802148448901774
 40
0.8956130974434227
 40
0.8956130974434227
 40
0.9062499999999911
 40
0.9062499999999911
 40
0.9062499999999911
 40
0.9062499999999911
 10
200.0000000000002
 20
100.0000000000004
 30
0.0
 10
200.0000000000002
 20
100.0000000000004
 30
0.0
 10
200.0000000000002
 20
100.0000000000003
 30
0.0
 10
200.0000000000001
 20
99.99999999999962
 30
0.0
 10
198.8080864718468
 20
100.0
 30
0.0
 10
194.039903244397
 20
99.99999999999993
 30
0.0
 10
186.6589759895216
 20
100.0
 30
0.0
 10
168.6923294650227
 20
99.99999999999994
 30
0.0
 10
147.341426753238
 20
100.0
 30
0.0
 10
121.1660790566502
 20
99.99999999999997
 30
0.0
 10
102.0471619301132
 20
99.99999999999994
 30
0.0
 10
83.49218113899504
 20
100.0
 30
0.0
 10
76.98436227798992
 20
100.0
 30
0.0
 10
65.93767346658984
 20
99.99999999999997
 30
0.0
 10
61.3988035161949
 20
99.99999999999997
 30
0.0
 10
37.90662237719985
 20
99.99999999999997
 30
0.0
 10
-0.0000000000002567
 20
99.99999999999994
 30
0.0
 10
-37.90662237720039
 20
99.99999999999997
 30
0.0
 10
-61.39880351619506
 20
100.0
 30
0.0
 10
-65.93767346658966
 20
100.0
 30
0.0
 10
-76.98436227798952
 20
99.99999999999994
 30
0.0
 10
-83.49218113899484
 20
99.99999999999997
 30
0.0
 10
-102.0471619301133
 20
99.99999999999997
 30
0.0
 10
-121.1660790566504
 20
100.0
 30
0.0
 10
-147.3414267532381
 20
100.0
 30
0.0
 10
-168.6923294650226
 20
99.99999999999997
 30
0.0
 10
-186.6589759895214
 20
100.0000000000001
 30
0.0
 10
-194.0399032443969
 20
99.99999999999996
 30
0.0
 10
-198.8080864718467
 20
100.0
 30
0.0
 10
-200.0000000000001
 20
100.0
 30
0.0
 10
-200.0
 20
99.99999999999997
 30
0.0
 10
-199.9999999999999
 20
99.99999999999996
 30
0.0
 10
-199.9999999999999
 20
99.99999999999996
 30
0.0
  0
SPLINE
  5
AD
330
9D
100
AcDbEntity
  8
0
  6
Continuous
 62
     7
370
    25
100
AcDbSpline
210
0.0
220
0.0
230
1.0
 70
    24
 71
     3
 72
    38
 73
    34
 74
     0
 42
0.000000001
 43
0.00000001
 40
0.5625000000012439
 40
0.5625000000012439
 40
0.5625000000012439
 40
0.5625000000012439
 40
0.5833333333333333
 40
0.6043869025565776
 40
0.6043869025565776
 40
0.6197851551098223
 40
0.6197851551098223
 40
0.6364424591954517
 40
0.6524702375148889
 40
0.668498015834326
 40
0.6806972684971684
 40
0.7005535724732002
 40
0.7005535724732002
 40
0.7112798522621412
 40
0.7112798522621412
 40
0.7187608823973336
 40
0.7187608823973336
 40
0.7500000000000002
 40
0.7812391176026667
 40
0.7812391176026667
 40
0.7887201477378586
 40
0.7887201477378586
 40
0.7994464275267998
 40
0.7994464275267998
 40
0.819302731502832
 40
0.8315019841656741
 40
0.8475297624851112
 40
0.8635575408045484
 40
0.8802148448901774
 40
0.8802148448901774
 40
0.8956130974434227
 40
0.8956130974434227
 40
0.9375000000000002
 40
0.9375000000000002
 40
0.9375000000000002
 40
0.9375000000000002
 10
200.0000000000001
 20
120.0
 30
0.0
 10
200.0000000000001
 20
120.0
 30
0.0
 10
200.0000000000001
 20
120.0000000000001
 30
0.0
 10
200.0000000000002
 20
120.0000000000001
 30
0.0
 10
200.0000000000001
 20
119.9999999999999
 30
0.0
 10
198.8080864718468
 20
120.0
 30
0.0
 10
194.039903244397
 20
120.0
 30
0.0
 10
186.6589759895216
 20
120.0000000000001
 30
0.0
 10
168.6923294650227
 20
119.9999999999999
 30
0.0
 10
147.341426753238
 20
120.0
 30
0.0
 10
121.1660790566502
 20
120.0
 30
0.0
 10
102.0471619301132
 20
120.0
 30
0.0
 10
83.49218113899498
 20
120.0
 30
0.0
 10
76.98436227798987
 20
120.0
 30
0.0
 10
65.93767346658976
 20
120.0
 30
0.0
 10
61.39880351619482
 20
120.0
 30
0.0
 10
37.90662237719976
 20
120.0
 30
0.0
 10
-0.0000000000003053
 20
120.0
 30
0.0
 10
-37.90662237720037
 20
120.0
 30
0.0
 10
-61.39880351619502
 20
120.0
 30
0.0
 10
-65.9376734665896
 20
120.0
 30
0.0
 10
-76.98436227798946
 20
120.0
 30
0.0
 10
-83.49218113899475
 20
120.0
 30
0.0
 10
-102.0471619301132
 20
120.0
 30
0.0
 10
-121.1660790566503
 20
120.0
 30
0.0
 10
-147.341426753238
 20
120.0000000000001
 30
0.0
 10
-168.6923294650224
 20
120.0
 30
0.0
 10
-186.6589759895214
 20
120.0000000000001
 30
0.0
 10
-194.0399032443967
 20
120.0
 30
0.0
 10
-198.8080864718466
 20
120.0
 30
0.0
 10
-200.0
 20
120.0
 30
0.0
 10
-200.0000000000002
 20
120.0000000000001
 30
0.0
 10
-200.0000000000003
 20
120.0000000000001
 30
0.0
 10
-200.0000000000003
 20
120.0000000000002
 30
0.0
  0
LWPOLYLINE
  5
AE
330
9D
100
AcDbEntity
  8
0
  6
Continuous
 62
     7
370
    25
100
AcDbPolyline
 90
        2
 70
   128
 43
0.0
 10
200.0
 20
120.0
 10
200.0
 20
120.0
  0
LWPOLYLINE
  5
AF
330
9D
100
AcDbEntity
  8
0
  6
Continuous
 62
     7
370
    25
100
AcDbPolyline
 90
        2
 70
   128
 43
0.0
 10
-200.0
 20
120.0
 10
-200.0
 20
120.0
  0
LINE
  5
B0
330
9D
100
AcDbEntity
  8
0
  6
Continuous
 62
     7
370
    25
100
AcDbLine
 10
200.0
 20
100.0
 30
0.0
 11
200.0
 21
120.0
 31
0.0
  0
LINE
  5
B1
330
9D
100
AcDbEntity
  8
0
  6
Continuous
 62
     7
370
    25
100
AcDbLine
 10
-200.0
 20
120.0
 30
0.0
 11
-200.0
 21
100.0
 31
0.0
  0
LINE
  5
B2
330
9D
100
AcDbEntity
  8
0
  6
Continuous
 62
     7
370
    25
100
AcDbLine
 10
-34.7587380267
 20
0.0000000488
 30
0.0
 11
16.1082606685
 21
0.0
 31
0.0
  0
VIEWPORT
  5
125
330
9D
100
AcDbEntity
  8
0
100
AcDbViewport
 10
0.0
 20
0.0
 30
0.0
 40
205.6
 41
156.0
 68
     1
 69
     1
 12
0.0
 22
0.0
 13
0.0
 23
0.0
 14
10.0
 24
10.0
 15
10.0
 25
10.0
 16
0.0
 26
0.0
 36
1.0
 17
0.0
 27
0.0
 37
0.0
 42
50.0
 43
0.0
 44
0.0
 45
612.0
 50
0.0
 51
0.0
 72
   100
 90
   557152
  1

281
     0
 71
     1
 74
     0
110
0.0
120
0.0
130
0.0
111
1.0
121
0.0
131
0.0
112
0.0
122
1.0
132
0.0
 79
     0
146
0.0
170
     0
 61
     5
348
2F
292
     1
282
     1
141
0.0
142
0.0
 63
   256
361
126
  0
ENDBLK
  5
A0
330
9D
100
AcDbEntity
  8
0
100
AcDbBlockEnd
  0
BLOCK
  5
B5
330
B3
100
AcDbEntity
  8
0
100
AcDbBlockBegin
  2
*Paper_Space2
 70
     0
 10
0.0
 20
0.0
 30
0.0
  3
*Paper_Space2
  1

  0
LWPOLYLINE
  5
B7
330
B3
100
AcDbEntity
  8
0
  6
Continuous
 62
     7
370
    25
100
AcDbPolyline
 90
      116
 70
   128
 43
0.0
 10
-185.6924697617
 20
99.9999930015
 10
-185.5816995682
 20
99.9999937052
 10
-185.4657871602
 20
99.9999945129
 10
-185.3393572026
 20
99.9999953444
 10
-185.197865257
 20
99.9999961431
 10
-185.0375311481
 20
99.9999968716
 10
-184.8793613475
 20
99.9999974338
 10
-184.7014627233
 20
99.9994467202
 10
-184.4985007523
 20
99.9966692207
 10
-184.2683401254
 20
99.9911675397
 10
-184.0093037498
 20
99.9824920312
 10
-183.7199818251
 20
99.970163126
 10
-183.3992290732
 20
99.9536687846
 10
-183.0461661421
 20
99.9324614633
 10
-182.8573174824
 20
99.9199087547
 10
-182.7597890805
 20
99.9131117793
 10
-182.6601847963
 20
99.9059545545
 10
-182.6096030685
 20
99.9022376987
 10
-182.5585011557
 20
99.8984269777
 10
-182.5068788012
 20
99.8945210995
 10
-182.45473582
 20
99.8905187601
 10
-182.3488875988
 20
99.8822194217
 10
-182.2409564635
 20
99.8735182861
 10
-182.0188512266
 20
99.854866908
 10
-181.7884436454
 20
99.8344751009
 10
-181.3029136312
 20
99.7880945973
 10
-180.789086324
 20
99.7339536119
 10
-180.2739311437
 20
99.6739193916
 10
-179.7626127718
 20
99.6085453407
 10
-179.2556522347
 20
99.5380150389
 10
-178.0064525209
 20
99.3395444599
 10
-176.7963965658
 20
99.1126959041
 10
-175.6339578328
 20
98.8608243263
 10
-174.5275020597
 20
98.5875328739
 10
-173.4851947355
 20
98.296840214
 10
-172.7163959547
 20
98.0592333483
 10
-171.9958290059
 20
97.8163752249
 10
-171.3336578587
 20
97.5735881482
 10
-170.7338209115
 20
97.3357365521
 10
-170.1937204031
 20
97.1059927839
 10
-169.3671056816
 20
96.7238633447
 10
-168.7005377337
 20
96.3868187253
 10
-168.1776140828
 20
96.1023041169
 10
-167.7855819009
 20
95.8747610818
 10
-167.515021473
 20
95.7061444155
 10
-167.4210024504
 20
95.647479838
 10
-167.3059835659
 20
95.5797153356
 10
-167.1690300038
 20
95.5022518344
 10
-167.0515986654
 20
95.4374506984
 10
-166.9214673499
 20
95.3666507515
 10
-166.7786883643
 20
95.2896306164
 10
-166.7026036188
 20
95.2487200139
 10
-166.6633999199
 20
95.2276528351
 10
-166.62342788
 20
95.206173306
 10
-166.6031552542
 20
95.1952778772
 10
-166.5826924205
 20
95.1842781236
 10
-166.5723898868
 20
95.1787389967
 10
-166.5620400576
 20
95.173173635
 10
-166.541198869
 20
95.1619640026
 10
-166.5201695833
 20
95.1506488188
 10
-166.4882746277
 20
95.1334772459
 10
-166.4559608014
 20
95.1160659029
 10
-166.2766659687
 20
95.0191002634
 10
-166.0860215734
 20
94.9150748433
 10
-165.8852163115
 20
94.8041369654
 10
-165.6116476953
 20
94.6502020065
 10
-165.3345167646
 20
94.4904467567
 10
-165.0550401268
 20
94.3248898068
 10
-164.7408472923
 20
94.132738588
 10
-164.4272684787
 20
93.9338503298
 10
-164.1163141851
 20
93.7288699663
 10
-163.8100530738
 20
93.5187728264
 10
-163.5105819143
 20
93.3049386193
 10
-163.2199908518
 20
93.0892348795
 10
-163.0204596608
 20
92.9368608441
 10
-162.744414003
 20
92.7236068067
 10
-162.3795739081
 20
92.4359229407
 10
-161.9292549635
 20
92.070406352
 10
-161.3977832069
 20
91.6232420677
 10
-160.7906894824
 20
91.0903426786
 10
-160.114588662
 20
90.468014814
 10
-159.3709651218
 20
89.7728524016
 10
-158.5542960536
 20
89.0099838441
 10
-157.6662123188
 20
88.1810209594
 10
-156.7077659985
 20
87.2868746838
 10
-155.6791042949
 20
86.3275195693
 10
-155.1382550795
 20
85.8231592833
 10
-154.1921636285
 20
84.9409135205
 10
-152.9796049553
 20
83.8101844881
 10
-151.3896499013
 20
82.3275278136
 10
-148.5779077217
 20
79.7055368374
 10
-144.9715935953
 20
76.3425964355
 10
-140.7907986633
 20
72.4439448664
 10
-136.2985656776
 20
68.2548724996
 10
-131.5131176372
 20
63.7923724269
 10
-126.43744279
 20
59.0592311924
 10
-121.0777093973
 20
54.0612007546
 10
-113.1173554263
 20
46.6380525117
 10
-105.0689237703
 20
39.1327696962
 10
-97.6234092664
 20
32.189715484
 10
-90.8064743493
 20
25.8328206984
 10
-84.619471284
 20
20.0633465199
 10
-81.7600004971
 20
17.3969429226
 10
-78.8676431266
 20
14.8627822833
 10
-75.7533593074
 20
12.4484245245
 10
-71.6706128157
 20
9.7062566164
 10
-66.3624426459
 20
6.760001545
 10
-61.1623954548
 20
4.4599844007
 10
-55.5583856058
 20
2.5588310338
 10
-49.8609487266
 20
1.1861457878
 10
-46.4947903983
 20
0.6254900562
 10
-43.2063981641
 20
0.2509710666
 10
-40.0133406917
 20
0.0486099179
 10
-36.9485834633
 20
0.0000343834
 10
-34.7587641267
 20
0.0000289356
 10
-34.7587641267
 20
0.0000289356
  0
SPLINE
  5
BA
330
B3
100
AcDbEntity
  8
0
  6
Continuous
 62
     7
370
    25
100
AcDbSpline
210
0.0
220
0.0
230
1.0
 70
     8
 71
     3
 72
   105
 73
   101
 74
     0
 42
0.000000001
 43
0.00000001
 40
0.0
 40
0.0
 40
0.0
 40
0.0
 40
0.0033280139249863
 40
0.0066986092125814
 40
0.0100680766001752
 40
0.0147870600631232
 40
0.0197025073291439
 40
0.0247135159841331
 40
0.0298013638254653
 40
0.034935252246925
 40
0.0451546609398218
 40
0.0548997326713275
 40
0.0646710710501863
 40
0.0789329662348064
 40
0.092257018049159
 40
0.1043061459608158
 40
0.1161695002750173
 40
0.1281028586311574
 40
0.1407030628328079
 40
0.1540041258398567
 40
0.1649327712248147
 40
0.176266326300667
 40
0.1879857684989722
 40
0.2000672443880442
 40
0.2124822236644645
 40
0.2244288929957375
 40
0.2350172892366207
 40
0.2432537335639596
 40
0.2502782112834626
 40
0.2561378280759861
 40
0.2630832736998941
 40
0.2658674437236236
 40
0.268545393658925
 40
0.271296310282219
 40
0.2742781187983592
 40
0.277618843151939
 40
0.2814119241094483
 40
0.2885694458037972
 40
0.297203205015298
 40
0.3068059026047754
 40
0.3168651295971764
 40
0.3273799511530245
 40
0.3383479717839366
 40
0.349765622691376
 40
0.3718490533754962
 40
0.3953887843104085
 40
0.4203344756279797
 40
0.4345123293327324
 40
0.4490789426338622
 40
0.4633850887044689
 40
0.4760574007784327
 40
0.4870540968983552
 40
0.4949405476147951
 40
0.5016672219965556
 40
0.5072352931109528
 40
0.5106518827300565
 40
0.513418654082997
 40
0.5155380943980977
 40
0.5170169260625713
 40
0.5175228117007513
 40
0.5178828625090126
 40
0.5180156761662432
 40
0.5181254312606719
 40
0.518175654418132
 40
0.5182252840432268
 40
0.51833064249672
 40
0.5184561923901445
 40
0.5187000109260923
 40
0.519022829053147
 40
0.5209961665167814
 40
0.5238246176690139
 40
0.5294161156073849
 40
0.5381041530514789
 40
0.5489056146816408
 40
0.5618274963086618
 40
0.5743191455181379
 40
0.5883002318381748
 40
0.6037624395318458
 40
0.6206946788617099
 40
0.6390832893121285
 40
0.6589121920712612
 40
0.6801530088366786
 40
0.701570814439966
 40
0.7339391483348283
 40
0.7648417336960429
 40
0.7943932727072177
 40
0.8227003302341728
 40
0.8534817712136034
 40
0.8829169483732703
 40
0.9111250315932498
 40
0.9382063193623777
 40
0.9513492248425164
 40
0.9641137722741588
 40
0.975248643844977
 40
0.9843850104118275
 40
0.9914823347942352
 40
0.9965111170912228
 40
0.9994585833868816
 40
0.9998746413821585
 40
1.0
 40
1.0
 40
1.0
 40
1.0
 10
30.90725449827482
 20
0.0000000241242928
 30
0.0
 10
31.54508668724741
 20
-0.0000202142423564
 30
0.0
 10
32.82891201774099
 20
-0.0000609499220539
 30
0.0
 10
34.75853711709297
 20
0.0002476019884123
 30
0.0
 10
36.95464857245596
 20
-0.0010843888747711
 30
0.0
 10
39.44735868549981
 20
0.0059974958432074
 30
0.0
 10
42.251519603322
 20
0.1539690413942252
 30
0.0
 10
45.11702595944433
 20
0.4258361767616736
 30
0.0
 10
48.00907969442055
 20
0.8327021756040152
 30
0.0
 10
51.86101295619393
 20
1.553263129811404
 30
0.0
 10
56.52528802048053
 20
2.758257089623434
 30
0.0
 10
61.90267261648188
 20
4.666871477232881
 30
0.0
 10
67.8000282169626
 20
7.355391802695781
 30
0.0
 10
73.98196658921191
 20
11.00654852491156
 30
0.0
 10
80.01272249814473
 20
15.65734318993531
 30
0.0
 10
85.16557828591479
 20
20.60033567301732
 30
0.0
 10
90.2069960311704
 20
25.26636286292285
 30
0.0
 10
95.30408665240743
 20
30.02901291003516
 30
0.0
 10
100.6086187668813
 20
34.97283465024739
 30
0.0
 10
105.7706380779676
 20
39.78725124194157
 30
0.0
 10
110.7555605361593
 20
44.43559557540351
 30
0.0
 10
115.5186860483338
 20
48.87732658464778
 30
0.0
 10
120.4434289262223
 20
53.46971104157521
 30
0.0
 10
125.5197470966451
 20
58.203457846436
 30
0.0
 10
130.6279108193215
 20
62.96689660719906
 30
0.0
 10
135.5268151958132
 20
67.53519908943365
 30
0.0
 10
139.839947398228
 20
71.55725988929714
 30
0.0
 10
143.4633543718551
 20
74.93614154294937
 30
0.0
 10
146.4233439245583
 20
77.69637652021484
 30
0.0
 10
149.204224436366
 20
80.28958933655721
 30
0.0
 10
151.3846090317134
 20
82.32283158425061
 30
0.0
 10
153.1322831697751
 20
83.95256278743923
 30
0.0
 10
154.2488507609554
 20
84.99378513070029
 30
0.0
 10
155.2699784953228
 20
85.94606845540052
 30
0.0
 10
156.1942582252387
 20
86.80817722992332
 30
0.0
 10
157.0252100896604
 20
87.58347618960485
 30
0.0
 10
157.950618522178
 20
88.4473055295328
 30
0.0
 10
158.85098062113
 20
89.28866574539985
 30
0.0
 10
159.5716697403707
 20
89.96304399983035
 30
0.0
 10
160.1958074386299
 20
90.55022889024009
 30
0.0
 10
160.8246283232799
 20
91.13187141377423
 30
0.0
 10
161.4131734068253
 20
91.6459751538794
 30
0.0
 10
161.9659620797865
 20
92.10937907162604
 30
0.0
 10
162.629522322304
 20
92.64216872808355
 30
0.0
 10
163.3328700265865
 20
93.17417354140144
 30
0.0
 10
163.9844352633085
 20
93.63660191304056
 30
0.0
 10
164.3810840032509
 20
93.9028982744984
 30
0.0
 10
164.6111581496033
 20
94.05238039301256
 30
0.0
 10
164.7301219979962
 20
94.12760569921942
 30
0.0
 10
164.8030627639116
 20
94.17264026752177
 30
0.0
 10
164.9225999695546
 20
94.24576674925846
 30
0.0
 10
165.059306737581
 20
94.32792387944228
 30
0.0
 10
165.2118259309514
 20
94.41814163610928
 30
0.0
 10
165.3706537108939
 20
94.51074969322505
 30
0.0
 10
165.5356376046555
 20
94.60562420966082
 30
0.0
 10
165.7015517512573
 20
94.69979903791211
 30
0.0
 10
165.8543602195814
 20
94.7856763075039
 30
0.0
 10
166.0161469112418
 20
94.87566690127844
 30
0.0
 10
166.1649985752538
 20
94.95774252862935
 30
0.0
 10
166.3023848231104
 20
95.03281334091146
 30
0.0
 10
166.3852686458468
 20
95.07789528078388
 30
0.0
 10
166.4577054793164
 20
95.11712654736178
 30
0.0
 10
166.5020341096435
 20
95.14107485514724
 30
0.0
 10
166.5369868130674
 20
95.15992088665502
 30
0.0
 10
166.5718646762668
 20
95.17870389477973
 30
0.0
 10
166.6176690423204
 20
95.20332373467863
 30
0.0
 10
166.6815768731368
 20
95.2375889392832
 30
0.0
 10
166.7532084691015
 20
95.27587315980712
 30
0.0
 10
166.9545452371396
 20
95.38309458181168
 30
0.0
 10
167.1736117723647
 20
95.49834169191811
 30
0.0
 10
167.5433802535234
 20
95.69092826761359
 30
0.0
 10
167.9468437860842
 20
95.8974158581651
 30
0.0
 10
168.3359098793464
 20
96.09539881587978
 30
0.0
 10
168.6462956832348
 20
96.25493488976498
 30
0.0
 10
168.8507206102763
 20
96.36438046390222
 30
0.0
 10
168.9701128489684
 20
96.43454458120264
 30
0.0
 10
169.0186057547765
 20
96.47206894299094
 30
0.0
 10
169.0037587334538
 20
96.48079112233917
 30
0.0
 10
168.9283112527681
 20
96.46111283430112
 30
0.0
 10
168.7935019692717
 20
96.41221257836754
 30
0.0
 10
168.6095664322879
 20
96.33740016540814
 30
0.0
 10
168.3566489435095
 20
96.2242850519334
 30
0.0
 10
168.1273299771161
 20
96.11883148167875
 30
0.0
 10
168.0782158120892
 20
96.10095087200972
 30
0.0
 10
168.3004142198179
 20
96.21827174650024
 30
0.0
 10
168.810281122472
 20
96.47085735927362
 30
0.0
 10
169.6453963523301
 20
96.85788942546198
 30
0.0
 10
170.8651203579266
 20
97.37330850024327
 30
0.0
 10
172.5460283950299
 20
97.991426482486
 30
0.0
 10
174.6455888460092
 20
98.63357528163978
 30
0.0
 10
176.7678043772566
 20
99.13996295731923
 30
0.0
 10
178.6618931317529
 20
99.48354154761252
 30
0.0
 10
180.1131378927099
 20
99.69165210346326
 30
0.0
 10
181.4406752121628
 20
99.8339224195454
 30
0.0
 10
182.5823680158337
 20
99.92150927867428
 30
0.0
 10
183.5216475422727
 20
99.96957272377723
 30
0.0
 10
184.25713476289
 20
99.99180795593153
 30
0.0
 10
184.7441558774073
 20
99.99878347451575
 30
0.0
 10
185.0258681296703
 20
99.99995163172663
 30
0.0
 10
185.087896622359
 20
99.99996819576705
 30
0.0
 10
185.102258586735
 20
99.99997203097483
 30
0.0
  0
LWPOLYLINE
  5
BB
330
B3
100
AcDbEntity
  8
0
  6
Continuous
 62
     7
370
    25
100
AcDbPolyline
 90
       26
 70
   128
 43
0.0
 10
-34.8029279116
 20
0.0000282976
 10
-34.8150045748
 20
0.0000281232
 10
-34.6755460907
 20
0.0000252222
 10
-34.3489091482
 20
0.000021043
 10
-33.851258108
 20
0.0000163306
 10
-33.1996947881
 20
0.0000117053
 10
-32.400646131
 20
0.0000076268
 10
-31.4348707571
 20
0.0000043795
 10
-30.8739625619
 20
0.0000031093
 10
-30.2565742263
 20
0.0000020769
 10
-29.5836118514
 20
0.0000012731
 10
-29.2269215242
 20
0.0000009519
 10
-28.8572682929
 20
0.0000006816
 10
-28.475148573
 20
0.0000004605
 10
-28.0811597737
 20
0.0000002864
 10
-27.2605010674
 20
0.0000000667
 10
-26.4022842112
 20
-0.0000000077
 10
-25.5154295895
 20
0.0000000265
 10
-24.6092807268
 20
0.0000001291
 10
-23.6886499773
 20
0.0000002558
 10
-22.1909670989
 20
0.0000003551
 10
-20.6891061574
 20
0.0000003218
 10
-19.2007929975
 20
0.0000002034
 10
-17.65774691
 20
0.0000000673
 10
-15.9255023999
 20
0.0
 10
-15.9255023999
 20
0.0
  0
SPLINE
  5
BC
330
B3
100
AcDbEntity
  8
0
  6
Continuous
 62
     7
370
    25
100
AcDbSpline
210
0.0
220
0.0
230
1.0
 70
     8
 71
     3
 72
    11
 73
     7
 74
     0
 42
0.000000001
 43
0.00000001
 40
0.0
 40
0.0
 40
0.0
 40
0.0
 40
0.3079287239892477
 40
0.5878862039349873
 40
0.8475662075892232
 40
1.0
 40
1.0
 40
1.0
 40
1.0
 10
-192.4596988586037
 20
120.0023283907243
 30
0.0
 10
-193.2643391382949
 20
120.0019776122271
 30
0.0
 10
-194.8005287909932
 20
120.0013079188106
 30
0.0
 10
-197.014590413649
 20
120.0005864068831
 30
0.0
 10
-198.609610411557
 20
120.0001075256102
 30
0.0
 10
-199.6245801731839
 20
120.0000290330466
 30
0.0
 10
-199.9999999999995
 20
119.9999999999997
 30
0.0
  0
SPLINE
  5
BF
330
B3
100
AcDbEntity
  8
0
  6
Continuous
 62
     7
370
    25
100
AcDbSpline
210
0.0
220
0.0
230
1.0
 70
     8
 71
     3
 72
     9
 73
     5
 74
     0
 42
0.000000001
 43
0.00000001
 40
0.0
 40
0.0
 40
0.0
 40
0.0
 40
0.0748925469889147
 40
1.0
 40
1.0
 40
1.0
 40
1.0
 10
189.9889320317311
 20
120.0010576356925
 30
0.0
 10
189.9735274047221
 20
120.0010580470623
 30
0.0
 10
189.7678376848721
 20
120.0010635398616
 30
0.0
 10
189.4817465107019
 20
120.0010660133667
 30
0.0
 10
189.2170814332363
 20
120.0010683016247
 30
0.0
  0
SPLINE
  5
C4
330
B3
100
AcDbEntity
  8
0
  6
Continuous
 62
     7
370
    25
100
AcDbSpline
210
0.0
220
0.0
230
1.0
 70
    24
 71
     3
 72
    37
 73
    33
 74
     0
 42
0.000000001
 43
0.00000001
 40
0.0937500002267623
 40
0.0937500002267623
 40
0.0937500002267623
 40
0.0937500002267623
 40
0.1043869025565773
 40
0.1043869025565773
 40
0.1197851551098225
 40
0.1197851551098225
 40
0.1364424591954516
 40
0.1524702375148887
 40
0.1684980158343259
 40
0.1806972684971682
 40
0.2005535724732001
 40
0.2005535724732001
 40
0.2112798522621407
 40
0.2112798522621407
 40
0.2187608823973334
 40
0.2187608823973334
 40
0.2500000000000002
 40
0.2812391176026667
 40
0.2812391176026667
 40
0.2887201477378576
 40
0.2887201477378576
 40
0.2994464275268
 40
0.2994464275268
 40
0.3193027315028319
 40
0.3315019841656742
 40
0.3475297624851114
 40
0.3635575408045486
 40
0.3802148448901759
 40
0.3802148448901759
 40
0.3956130974434229
 40
0.3956130974434229
 40
0.4062500000000017
 40
0.4062500000000017
 40
0.4062500000000017
 40
0.4062500000000017
 10
200.0
 20
99.99999999999997
 30
0.0
 10
200.0
 20
99.99999999999997
 30
0.0
 10
200.0000000000001
 20
99.99999999999997
 30
0.0
 10
200.0000000000002
 20
100.0
 30
0.0
 10
198.8080864718468
 20
99.99999999999997
 30
0.0
 10
194.0399032443967
 20
99.99999999999996
 30
0.0
 10
186.6589759895214
 20
99.99999999999997
 30
0.0
 10
168.6923294650225
 20
99.99999999999997
 30
0.0
 10
147.341426753238
 20
100.0
 30
0.0
 10
121.1660790566503
 20
99.99999999999997
 30
0.0
 10
102.0471619301132
 20
99.99999999999994
 30
0.0
 10
83.49218113899528
 20
100.0
 30
0.0
 10
76.9843622779904
 20
100.0
 30
0.0
 10
65.93767346659044
 20
100.0
 30
0.0
 10
61.39880351619536
 20
100.0
 30
0.0
 10
37.90662237720007
 20
99.99999999999997
 30
0.0
 10
-0.0000000000001735
 20
99.99999999999997
 30
0.0
 10
-37.90662237720036
 20
100.0
 30
0.0
 10
-61.39880351619436
 20
99.99999999999997
 30
0.0
 10
-65.93767346658841
 20
99.99999999999997
 30
0.0
 10
-76.98436227798835
 20
100.0
 30
0.0
 10
-83.49218113899425
 20
99.99999999999997
 30
0.0
 10
-102.0471619301132
 20
100.0
 30
0.0
 10
-121.1660790566504
 20
100.0
 30
0.0
 10
-147.341426753238
 20
100.0
 30
0.0
 10
-168.6923294650227
 20
99.99999999999997
 30
0.0
 10
-186.6589759895207
 20
100.0
 30
0.0
 10
-194.039903244396
 20
99.99999999999997
 30
0.0
 10
-198.8080864718465
 20
100.0
 30
0.0
 10
-200.0000000000007
 20
99.99999999999991
 30
0.0
 10
-199.9999999999997
 20
100.0
 30
0.0
 10
-199.9999999999995
 20
100.0000000000001
 30
0.0
 10
-199.9999999999995
 20
100.0000000000001
 30
0.0
  0
SPLINE
  5
C5
330
B3
100
AcDbEntity
  8
0
  6
Continuous
 62
     7
370
    25
100
AcDbSpline
210
0.0
220
0.0
230
1.0
 70
    24
 71
     3
 72
    39
 73
    35
 74
     0
 42
0.000000001
 43
0.00000001
 40
0.0935577083373958
 40
0.0935577083373958
 40
0.0935577083373958
 40
0.0935577083373958
 40
0.1043869025565773
 40
0.1043869025565773
 40
0.1197851551098225
 40
0.1197851551098225
 40
0.1364424591954516
 40
0.1524702375148887
 40
0.1684980158343259
 40
0.1806972684971682
 40
0.2005535724732001
 40
0.2005535724732001
 40
0.2112798522621407
 40
0.2112798522621407
 40
0.2187608823973334
 40
0.2187608823973334
 40
0.2500000000000002
 40
0.2812391176026667
 40
0.2812391176026667
 40
0.2887201477378576
 40
0.2887201477378576
 40
0.2994464275268
 40
0.2994464275268
 40
0.3193027315028319
 40
0.3315019841656742
 40
0.3475297624851114
 40
0.3635575408045486
 40
0.3802148448901759
 40
0.3802148448901759
 40
0.3956130974434229
 40
0.3956130974434229
 40
0.4166666666666666
 40
0.5
 40
0.562596156819397
 40
0.562596156819397
 40
0.562596156819397
 40
0.562596156819397
 10
199.9999999999999
 20
120.0
 30
0.0
 10
200.0
 20
120.0
 30
0.0
 10
200.0
 20
120.0
 30
0.0
 10
200.0000000000002
 20
120.0
 30
0.0
 10
198.8080864718468
 20
120.0
 30
0.0
 10
194.0399032443967
 20
119.9999999999999
 30
0.0
 10
186.6589759895214
 20
120.0000000000001
 30
0.0
 10
168.6923294650225
 20
120.0
 30
0.0
 10
147.341426753238
 20
120.0
 30
0.0
 10
121.1660790566503
 20
119.9999999999999
 30
0.0
 10
102.0471619301132
 20
120.0000000000001
 30
0.0
 10
83.49218113899528
 20
120.0
 30
0.0
 10
76.9843622779904
 20
120.0
 30
0.0
 10
65.93767346659044
 20
120.0
 30
0.0
 10
61.39880351619536
 20
120.0
 30
0.0
 10
37.90662237720007
 20
120.0
 30
0.0
 10
-0.0000000000001735
 20
120.0
 30
0.0
 10
-37.90662237720036
 20
120.0
 30
0.0
 10
-61.39880351619436
 20
120.0
 30
0.0
 10
-65.93767346658841
 20
120.0
 30
0.0
 10
-76.98436227798835
 20
120.0
 30
0.0
 10
-83.49218113899425
 20
120.0
 30
0.0
 10
-102.0471619301132
 20
120.0
 30
0.0
 10
-121.1660790566504
 20
120.0
 30
0.0
 10
-147.341426753238
 20
120.0000000000001
 30
0.0
 10
-168.6923294650227
 20
120.0
 30
0.0
 10
-186.6589759895207
 20
120.0
 30
0.0
 10
-194.039903244396
 20
120.0
 30
0.0
 10
-198.8080864718465
 20
120.0
 30
0.0
 10
-200.0000000000007
 20
120.0000000000003
 30
0.0
 10
-199.9999999999993
 20
119.9999999999997
 30
0.0
 10
-200.0000000000001
 20
120.0
 30
0.0
 10
-200.0000000000001
 20
120.0
 30
0.0
 10
-200.0000000000001
 20
120.0
 30
0.0
 10
-200.0000000000001
 20
120.0
 30
0.0
  0
LINE
  5
C6
330
B3
100
AcDbEntity
  8
0
  6
Continuous
 62
     7
370
    25
100
AcDbLine
 10
-16.1444027114
 20
0.0
 30
0.0
 11
34.7587380267
 21
0.0000000488
 31
0.0
  0
LINE
  5
C7
330
B3
100
AcDbEntity
  8
0
  6
Continuous
 62
     7
370
    25
100
AcDbLine
 10
-189.3153767221
 20
120.0018265786
 30
0.0
 11
-188.7911396324
 21
119.999516218
 31
0.0
  0
LINE
  5
C8
330
B3
100
AcDbEntity
  8
0
  6
Continuous
 62
     7
370
    25
100
AcDbLine
 10
189.0390757437
 20
120.0002118655
 30
0.0
 11
189.4366293997
 21
120.0021246095
 31
0.0
  0
LINE
  5
C9
330
B3
100
AcDbEntity
  8
0
  6
Continuous
 62
     7
370
    25
100
AcDbLine
 10
-189.03564483
 20
120.0005937747
 30
0.0
 11
-189.241553119
 21
120.0005923284
 31
0.0
  0
LINE
  5
CA
330
B3
100
AcDbEntity
  8
0
  6
Continuous
 62
     7
370
    25
100
AcDbLine
 10
200.0
 20
100.0
 30
0.0
 11
200.0
 21
120.0
 31
0.0
  0
LINE
  5
CB
330
B3
100
AcDbEntity
  8
0
  6
Continuous
 62
     7
370
    25
100
AcDbLine
 10
-200.0
 20
120.0
 30
0.0
 11
-200.0
 21
100.0
 31
0.0
  0
VIEWPORT
  5
127
330
B3
100
AcDbEntity
  8
0
100
AcDbViewport
 10
0.0
 20
0.0
 30
0.0
 40
205.6
 41
156.0
 68
     1
 69
     1
 12
0.0
 22
0.0
 13
0.0
 23
0.0
 14
10.0
 24
10.0
 15
10.0
 25
10.0
 16
0.0
 26
0.0
 36
1.0
 17
0.0
 27
0.0
 37
0.0
 42
50.0
 43
0.0
 44
0.0
 45
612.0
 50
0.0
 51
0.0
 72
   100
 90
   557152
  1

281
     0
 71
     1
 74
     0
110
0.0
120
0.0
130
0.0
111
1.0
121
0.0
131
0.0
112
0.0
122
1.0
132
0.0
 79
     0
146
0.0
170
     0
 61
     5
348
2F
292
     1
282
     1
141
0.0
142
0.0
 63
   256
361
128
  0
ENDBLK
  5
B6
330
B3
100
AcDbEntity
  8
0
100
AcDbBlockEnd
  0
BLOCK
  5
CE
330
CC
100
AcDbEntity
  8
0
100
AcDbBlockBegin
  2
*Paper_Space3
 70
     0
 10
0.0
 20
0.0
 30
0.0
  3
*Paper_Space3
  1

  0
SPLINE
  5
D0
330
CC
100
AcDbEntity
  8
0
  6
Continuous
 62
     7
370
    25
100
AcDbSpline
210
0.0
220
0.0
230
1.0
 70
     8
 71
     3
 72
    32
 73
    28
 74
     0
 42
0.000000001
 43
0.00000001
 40
0.0
 40
0.0
 40
0.0
 40
0.0
 40
0.0563556200018119
 40
0.1175788347766678
 40
0.1807302312067638
 40
0.2434026602189585
 40
0.3030794590220148
 40
0.35821250145705
 40
0.4081311379630437
 40
0.4524969356186019
 40
0.4969390620250306
 40
0.5356371107178656
 40
0.5680849511569723
 40
0.5951806138709651
 40
0.6185695414103662
 40
0.639108113375033
 40
0.6572842136085936
 40
0.6793975574885206
 40
0.7016928108906456
 40
0.7264677700974599
 40
0.753815145354169
 40
0.7839610648902251
 40
0.8173350005641542
 40
0.8555894511447579
 40
0.8988292956936856
 40
0.9469430179024105
 40
0.9999999999999999
 40
0.9999999999999999
 40
0.9999999999999999
 40
0.9999999999999999
 10
22.86040726252915
 20
-0.0000000023477331
 30
0.0
 10
26.67803514890242
 20
0.0000002078967068
 30
0.0
 10
34.64303027230364
 20
0.000000646545005
 30
0.0
 10
46.88601096023156
 20
-0.0000033872733715
 30
0.0
 10
59.55690353499377
 20
0.0000114512119578
 30
0.0
 10
72.1230383053862
 20
-0.0000445210704275
 30
0.0
 10
84.1459989372628
 20
0.0001476610288625
 30
0.0
 10
95.30498495492958
 20
-0.0004917927294776
 30
0.0
 10
105.4268110584733
 20
0.0015624681291432
 30
0.0
 10
114.8243053639666
 20
-0.0051449852496582
 30
0.0
 10
123.4620772222261
 20
0.0182504959267624
 30
0.0
 10
131.2912932923819
 20
-0.0544851658823425
 30
0.0
 10
137.9490064333784
 20
0.1563336477992394
 30
0.0
 10
143.5328915472995
 20
0.8252461497004204
 30
0.0
 10
148.2681007541489
 20
1.690248609422129
 30
0.0
 10
152.3596918459777
 20
2.677763754175923
 30
0.0
 10
156.3139394838176
 20
3.841525401314001
 30
0.0
 10
160.3170723129179
 20
5.244663373751609
 30
0.0
 10
164.6474253771613
 20
7.043334083123548
 30
0.0
 10
169.1823553240129
 20
9.252949300344905
 30
0.0
 10
174.022659491519
 20
12.02364828846965
 30
0.0
 10
179.1376974800775
 20
15.4599686665487
 30
0.0
 10
184.5143069770145
 20
19.78853846742645
 30
0.0
 10
190.2281430723012
 20
25.07289480337169
 30
0.0
 10
196.7752814574361
 20
30.92251132561728
 30
0.0
 10
204.0385905425305
 20
37.47580132316171
 30
0.0
 10
209.1328998255385
 20
42.06034577546793
 30
0.0
 10
211.8045099352179
 20
44.46461976564544
 30
0.0
  0
SPLINE
  5
D1
330
CC
100
AcDbEntity
  8
0
  6
Continuous
 62
     7
370
    25
100
AcDbSpline
210
0.0
220
0.0
230
1.0
 70
     8
 71
     3
 72
    24
 73
    20
 74
     0
 42
0.000000001
 43
0.00000001
 40
0.0
 40
0.0
 40
0.0
 40
0.0
 40
0.1279557665665184
 40
0.2355907084961378
 40
0.3232209974312602
 40
0.3762349475193628
 40
0.4190181829879147
 40
0.4529188365382062
 40
0.4674375949944769
 40
0.4810425587013021
 40
0.4944763205911198
 40
0.508539017206411
 40
0.5412243413254018
 40
0.583482811127296
 40
0.6377152786899755
 40
0.7054377445520941
 40
0.7877775865788138
 40
0.8856822740326961
 40
1.0
 40
1.0
 40
1.0
 40
1.0
 10
262.1848826664574
 20
89.82615804706934
 30
0.0
 10
262.5215351005351
 20
90.12963956650613
 30
0.0
 10
263.1413757500777
 20
90.68840630362249
 30
0.0
 10
264.3036124432937
 20
91.72872697976453
 30
0.0
 10
265.4541727525046
 20
92.77259017765952
 30
0.0
 10
266.6351473413848
 20
93.72517919195046
 30
0.0
 10
267.7460426718881
 20
94.54227221895691
 30
0.0
 10
268.8226023571124
 20
95.25766688692353
 30
0.0
 10
269.743142231267
 20
95.8162757039207
 30
0.0
 10
270.4291903716954
 20
96.20940472147565
 30
0.0
 10
271.142080461659
 20
96.59365488892568
 30
0.0
 10
272.1700568368749
 20
97.11275024093518
 30
0.0
 10
273.5365888060576
 20
97.72704547875769
 30
0.0
 10
275.1347023609645
 20
98.33884041272773
 30
0.0
 10
276.8288625093589
 20
98.87875649412615
 30
0.0
 10
278.630028506969
 20
99.33314662647362
 30
0.0
 10
280.5498734464285
 20
99.68864701731387
 30
0.0
 10
282.607551012733
 20
99.93563686468708
 30
0.0
 10
283.9462995820684
 20
99.9762845001419
 30
0.0
 10
284.6674425076495
 20
99.99818013866674
 30
0.0
  0
LWPOLYLINE
  5
D2
330
CC
100
AcDbEntity
  8
0
  6
Continuous
 62
     7
370
    25
100
AcDbPolyline
 90
        3
 70
   128
 43
0.0
 10
246.1833159879
 20
75.4182826224
 10
254.1138492158
 20
82.5589668691
 10
262.1848826664
 20
89.826158047
  0
SPLINE
  5
D3
330
CC
100
AcDbEntity
  8
0
  6
Continuous
 62
     7
370
    25
100
AcDbSpline
210
0.0
220
0.0
230
1.0
 70
     8
 71
     3
 72
    30
 73
    26
 74
     0
 42
0.000000001
 43
0.00000001
 40
0.0
 40
0.0
 40
0.0
 40
0.0
 40
0.1012219496072719
 40
0.1949301045161132
 40
0.2794930656413908
 40
0.353509785515932
 40
0.3964421595369059
 40
0.4339621181837117
 40
0.4659348487260766
 40
0.4862309937167651
 40
0.5034375877755549
 40
0.5178108971931495
 40
0.5298026394137559
 40
0.5403755025833754
 40
0.5511982273123441
 40
0.5633219815112815
 40
0.5774941929810964
 40
0.6004716839725532
 40
0.6288285243338204
 40
0.662987313435696
 40
0.7119977539099986
 40
0.7700350676688917
 40
0.8372959124563155
 40
0.9139172642967125
 40
1.0
 40
1.0
 40
1.0
 40
1.0
 10
211.804509934974
 20
44.46461976542584
 30
0.0
 10
213.1448136232443
 20
45.67077949877227
 30
0.0
 10
215.7259290735149
 20
47.99356466341854
 30
0.0
 10
219.3933369071754
 20
51.27224667964495
 30
0.0
 10
222.7726117843437
 20
54.27589826674195
 30
0.0
 10
225.5772357126077
 20
56.76098774256111
 30
0.0
 10
227.847928547538
 20
58.77347791895106
 30
0.0
 10
229.5951724341964
 20
60.32638968111675
 30
0.0
 10
231.0984814531368
 20
61.66369068249566
 30
0.0
 10
232.3579898008689
 20
62.79682919156926
 30
0.0
 10
233.3751899885699
 20
63.72573100740976
 30
0.0
 10
234.3189534018827
 20
64.5901275040542
 30
0.0
 10
235.209575435823
 20
65.40334569136033
 30
0.0
 10
236.0755922284853
 20
66.18756070287398
 30
0.0
 10
236.9060395358482
 20
66.93453874630441
 30
0.0
 10
237.6995395143186
 20
67.64805127263661
 30
0.0
 10
238.5608088263561
 20
68.43623600642547
 30
0.0
 10
239.4570239357003
 20
69.26733732273017
 30
0.0
 10
240.3833773635556
 20
70.12333781520033
 30
0.0
 10
241.3605565313187
 20
71.02692712461068
 30
0.0
 10
242.3625797120299
 20
71.94994427550364
 30
0.0
 10
243.3784079005983
 20
72.88060952209368
 30
0.0
 10
244.362438995368
 20
73.77587509087488
 30
0.0
 10
245.3211401794591
 20
74.64222848799987
 30
0.0
 10
245.8849945122035
 20
75.14976010957307
 30
0.0
 10
246.1833159879178
 20
75.41828262243996
 30
0.0
  0
SPLINE
  5
D4
330
CC
100
AcDbEntity
  8
0
  6
Continuous
 62
     7
370
    25
100
AcDbSpline
210
0.0
220
0.0
230
1.0
 70
     8
 71
     3
 72
    25
 73
    21
 74
     0
 42
0.000000001
 43
0.00000001
 40
0.0
 40
0.0
 40
0.0
 40
0.0
 40
0.1102049688915026
 40
0.2049681475614009
 40
0.2847148404514895
 40
0.3500146443792052
 40
0.4016907981477924
 40
0.4410898637076416
 40
0.4569656654871792
 40
0.4709241580494862
 40
0.483699582726803
 40
0.4961972347810652
 40
0.5093437017768586
 40
0.5239104380559166
 40
0.5592207157010177
 40
0.6046395044287087
 40
0.6610479000386311
 40
0.7538496020370864
 40
0.866901522607985
 40
1.0
 40
1.0
 40
1.0
 40
1.0
 10
-284.6674425076573
 20
99.9981801386668
 30
0.0
 10
-284.2266101317618
 20
99.98833870920087
 30
0.0
 10
-283.4067142923886
 20
99.97003481975491
 30
0.0
 10
-282.0452366345388
 20
99.863986788592
 30
0.0
 10
-280.6936823956495
 20
99.6976686745181
 30
0.0
 10
-279.3392831193732
 20
99.46673103891644
 30
0.0
 10
-277.9832124810732
 20
99.1710472224193
 30
0.0
 10
-276.7625273501597
 20
98.84485690381585
 30
0.0
 10
-275.7530579406083
 20
98.52938665596905
 30
0.0
 10
-275.0392803287563
 20
98.28672797868292
 30
0.0
 10
-274.3133478311816
 20
98.01946900918388
 30
0.0
 10
-273.5831904475149
 20
97.72931500268834
 30
0.0
 10
-272.8599948738752
 20
97.42011408734312
 30
0.0
 10
-271.8440097813281
 20
96.95424149752716
 30
0.0
 10
-270.6006907539593
 20
96.31724829862901
 30
0.0
 10
-269.2121821296928
 20
95.51293815575154
 30
0.0
 10
-267.613615321867
 20
94.46930824963124
 30
0.0
 10
-265.8794179701059
 20
93.15970997122118
 30
0.0
 10
-264.035999070741
 20
91.48949448809752
 30
0.0
 10
-262.8345372623979
 20
90.40991072788869
 30
0.0
 10
-262.1848826664333
 20
89.82615804704764
 30
0.0
  0
SPLINE
  5
D5
330
CC
100
AcDbEntity
  8
0
  6
Continuous
 62
     7
370
    25
100
AcDbSpline
210
0.0
220
0.0
230
1.0
 70
     8
 71
     3
 72
    29
 73
    25
 74
     0
 42
0.000000001
 43
0.00000001
 40
0.0
 40
0.0
 40
0.0
 40
0.0
 40
0.0860862302684703
 40
0.1627106925851643
 40
0.2299742678551353
 40
0.288013937663424
 40
0.3370263677373794
 40
0.3711865435298123
 40
0.3995445350490713
 40
0.4225229588215471
 40
0.4366957456183154
 40
0.4488199919862119
 40
0.4596431560682902
 40
0.4702164484477708
 40
0.4822086774782092
 40
0.5047837946866321
 40
0.5340462364524102
 40
0.5660202649411983
 40
0.6035417467264956
 40
0.6464758636052451
 40
0.72049558821968
 40
0.8050619822139947
 40
0.8987739412449189
 40
1.0
 40
1.0
 40
1.0
 40
1.0
 10
-246.1833159879016
 20
75.41828262242545
 30
0.0
 10
-245.8849945123566
 20
75.14976010974667
 30
0.0
 10
-245.3211401799322
 20
74.64222848852901
 30
0.0
 10
-244.3624389937457
 20
73.77587508907162
 30
0.0
 10
-243.3784079055356
 20
72.88060952759056
 30
0.0
 10
-242.3625796973105
 20
71.94994425912174
 30
0.0
 10
-241.3605565712742
 20
71.02692716908255
 30
0.0
 10
-240.3833772701834
 20
70.12333771127521
 30
0.0
 10
-239.4570241995756
 20
69.2673376164286
 30
0.0
 10
-238.5608081664442
 20
68.43623527192845
 30
0.0
 10
-237.6995408780241
 20
67.64805279046934
 30
0.0
 10
-236.906035387994
 20
66.9345341296529
 30
0.0
 10
-236.0756058194646
 20
66.18757582992524
 30
0.0
 10
-235.209523002922
 20
65.40328733241573
 30
0.0
 10
-234.1215295364248
 20
64.40992379691932
 30
0.0
 10
-232.7847519387491
 20
63.18363671395945
 30
0.0
 10
-231.2495893815652
 20
61.79748823085325
 30
0.0
 10
-229.5948397641805
 20
60.32629968248463
 30
0.0
 10
-227.8480370796169
 20
58.77350728063142
 30
0.0
 10
-225.5771798476251
 20
56.76097262921206
 30
0.0
 10
-222.7726327529391
 20
54.27590393953243
 30
0.0
 10
-219.3933303076869
 20
51.27224489435091
 30
0.0
 10
-215.7259309547187
 20
47.99356517247503
 30
0.0
 10
-213.1448142663956
 20
45.6707796729186
 30
0.0
 10
-211.8045099352377
 20
44.46461976566201
 30
0.0
  0
LWPOLYLINE
  5
D6
330
CC
100
AcDbEntity
  8
0
  6
Continuous
 62
     7
370
    25
100
AcDbPolyline
 90
        3
 70
   128
 43
0.0
 10
-262.1848826664
 20
89.826158047
 10
-254.1138492158
 20
82.5589668691
 10
-246.1833159879
 20
75.4182826224
  0
SPLINE
  5
D7
330
CC
100
AcDbEntity
  8
0
  6
Continuous
 62
     7
370
    25
100
AcDbSpline
210
0.0
220
0.0
230
1.0
 70
     8
 71
     3
 72
    24
 73
    20
 74
     0
 42
0.000000001
 43
0.00000001
 40
0.0
 40
0.0
 40
0.0
 40
0.0
 40
0.1031710124003409
 40
0.2027469054051019
 40
0.265369584152685
 40
0.3228002972917192
 40
0.3746460368673122
 40
0.4050944325333333
 40
0.4389103115444485
 40
0.4765981470769695
 40
0.5188411453070009
 40
0.5668071739700377
 40
0.6057056711293656
 40
0.650044227184369
 40
0.7026469468410482
 40
0.763904438095665
 40
0.8332524517313922
 40
0.9119184681760277
 40
1.0
 40
1.0
 40
1.0
 40
1.0
 10
-211.8045099352185
 20
44.46461976564475
 30
0.0
 10
-208.332789930321
 20
41.33388831343696
 30
0.0
 10
-201.51032622613
 20
35.1815195538235
 30
0.0
 10
-192.5424374979117
 20
27.17052346694959
 30
0.0
 10
-185.223063601737
 20
20.42814787977514
 30
0.0
 10
-179.2068035130238
 20
15.46498583391451
 30
0.0
 10
-173.9181836606269
 20
11.96482081668415
 30
0.0
 10
-169.3450550650803
 20
9.360412918278723
 30
0.0
 10
-165.20849045438
 20
7.297518082920465
 30
0.0
 10
-160.4619639621716
 20
5.279791481425732
 30
0.0
 10
-154.9823424634406
 20
3.378615349611189
 30
0.0
 10
-149.3181768752063
 20
1.886810018540193
 30
0.0
 10
-143.4691217454189
 20
0.8050061743433077
 30
0.0
 10
-137.3470439972042
 20
0.0917666917398113
 30
0.0
 10
-130.1732619066719
 20
-0.0310473915739462
 30
0.0
 10
-121.8735530721162
 20
0.0100993618192338
 30
0.0
 10
-112.3904351870859
 20
-0.0032512012522329
 30
0.0
 10
-101.6926476065083
 20
0.0009717714278407
 30
0.0
 10
-94.136944738518
 20
0.0003348083569832
 30
0.0
 10
-90.14577431634598
 20
-0.0000016564581096
 30
0.0
  0
SPLINE
  5
D8
330
CC
100
AcDbEntity
  8
0
  6
Continuous
 62
     7
370
    25
100
AcDbSpline
210
0.0
220
0.0
230
1.0
 70
     8
 71
     3
 72
    15
 73
    11
 74
     0
 42
0.000000001
 43
0.00000001
 40
0.0
 40
0.0
 40
0.0
 40
0.0
 40
0.1291132247317733
 40
0.2664890613731203
 40
0.4086450245578834
 40
0.5500281508493073
 40
0.6843249370799309
 40
0.8069951336949741
 40
0.915517635775696
 40
1.0
 40
1.0
 40
1.0
 40
1.0
 10
-90.14577411824541
 20
-0.0000016564581026
 30
0.0
 10
-87.11658554995101
 20
-0.0000012809123276
 30
0.0
 10
-80.86435523067912
 20
-0.0000005057876964
 30
0.0
 10
-70.97303461003403
 20
0.0000014437995591
 30
0.0
 10
-60.6770057587944
 20
0.000001593677558
 30
0.0
 10
-50.36546835549215
 20
0.0000013192305165
 30
0.0
 10
-40.49275213326112
 20
0.0000008573908944
 30
0.0
 10
-31.40324657682138
 20
0.0000003587755301
 30
0.0
 10
-23.52902148735568
 20
0.0000000482750576
 30
0.0
 10
-18.68314260287631
 20
0.000000019479543
 30
0.0
 10
-16.5619976144466
 20
0.0000000068751255
 30
0.0
  0
SPLINE
  5
D9
330
CC
100
AcDbEntity
  8
0
  6
Continuous
 62
     7
370
    25
100
AcDbSpline
210
0.0
220
0.0
230
1.0
 70
     8
 71
     3
 72
    14
 73
    10
 74
     0
 42
0.000000001
 43
0.00000001
 40
0.0
 40
0.0
 40
0.0
 40
0.0
 40
0.0045438908535948
 40
0.2067720557164443
 40
0.3546685357403195
 40
0.4973744045538273
 40
0.6425478220328422
 40
0.7832086293456513
 40
0.9999999999999999
 40
0.9999999999999999
 40
0.9999999999999999
 40
0.9999999999999999
 10
292.7595378972865
 20
120.0
 30
0.0
 10
292.770497499646
 20
120.0003958075802
 30
0.0
 10
293.2692197583291
 20
120.018407232076
 30
0.0
 10
294.1256186172117
 20
119.9951395755581
 30
0.0
 10
295.314938405123
 20
120.0017816213833
 30
0.0
 10
296.3667093556909
 20
119.9999348430326
 30
0.0
 10
297.4009808346639
 20
120.0002081135748
 30
0.0
 10
298.6140670573531
 20
119.9999648388074
 30
0.0
 10
299.4767754849093
 20
119.9999867257662
 30
0.0
 10
299.9999999999999
 20
120.0
 30
0.0
  0
SPLINE
  5
DA
330
CC
100
AcDbEntity
  8
0
  6
Continuous
 62
     7
370
    25
100
AcDbSpline
210
0.0
220
0.0
230
1.0
 70
     8
 71
     3
 72
    28
 73
    24
 74
     0
 42
0.000000001
 43
0.00000001
 40
0.0
 40
0.0
 40
0.0
 40
0.0
 40
0.021767927552389
 40
0.0520860306222945
 40
0.0822728924055071
 40
0.112378176520575
 40
0.1423615839840921
 40
0.1721957744172125
 40
0.2018571484502915
 40
0.2313230253839542
 40
0.2605808522225376
 40
0.2896972310549245
 40
0.3187500876167773
 40
0.3491159495821789
 40
0.3795115746146799
 40
0.4099630567872027
 40
0.4402920296890326
 40
0.47046133461234
 40
0.5006137043504806
 40
0.6425602435272956
 40
0.8952764780881542
 40
0.9525887243449562
 40
1.0
 40
1.0
 40
1.0
 40
1.0
 10
292.7598023271431
 20
120.0000094272045
 30
0.0
 10
291.8239199800706
 20
120.0000129128966
 30
0.0
 10
289.5845521545775
 20
120.000021253418
 30
0.0
 10
285.2082397694404
 20
120.0000601733211
 30
0.0
 10
279.662587330499
 20
120.0001341813835
 30
0.0
 10
273.3661503348526
 20
120.0002498023903
 30
0.0
 10
266.4186477456279
 20
120.0004088576091
 30
0.0
 10
258.8799503504478
 20
120.0006088126908
 30
0.0
 10
250.8460442607047
 20
120.0008436541995
 30
0.0
 10
242.4083544171283
 20
120.0011046126049
 30
0.0
 10
233.6413657961415
 20
120.0013807926904
 30
0.0
 10
224.6102336674629
 20
120.0016586013133
 30
0.0
 10
215.2275629454602
 20
120.0019288910461
 30
0.0
 10
205.5351475958118
 20
120.0021731600461
 30
0.0
 10
195.5823717650274
 20
120.002332789726
 30
0.0
 10
185.5988732429618
 20
120.0023231381975
 30
0.0
 10
175.6528680896577
 20
120.0021927224897
 30
0.0
 10
165.7346856693794
 20
120.0020129852709
 30
0.0
 10
143.6067865059775
 20
120.0015717300923
 30
0.0
 10
97.12967792283062
 20
120.0002079713392
 30
0.0
 10
47.67896616727988
 20
120.0004065888652
 30
0.0
 10
8.570747059189683
 20
119.9999718208236
 30
0.0
 10
-2.887285097796195
 20
119.9999912182438
 30
0.0
 10
-8.074657630172466
 20
120.0
 30
0.0
  0
SPLINE
  5
DB
330
CC
100
AcDbEntity
  8
0
  6
Continuous
 62
     7
370
    25
100
AcDbSpline
210
0.0
220
0.0
230
1.0
 70
     8
 71
     3
 72
    30
 73
    26
 74
     0
 42
0.000000001
 43
0.00000001
 40
0.0
 40
0.0
 40
0.0
 40
0.0
 40
0.0013648702556862
 40
0.0742363538990732
 40
0.1508335763757556
 40
0.2312270148586411
 40
0.3258644196762481
 40
0.4254601983912355
 40
0.4577865021460004
 40
0.4903447386341144
 40
0.5230943718636434
 40
0.5560805159962708
 40
0.5893551231153109
 40
0.6212050391718461
 40
0.6534667319650405
 40
0.6862200936012592
 40
0.7194670617832138
 40
0.7531660740332133
 40
0.7872781014193481
 40
0.8217808878490249
 40
0.8566492421272102
 40
0.8918458833580408
 40
0.9274048677898592
 40
0.9634298507215003
 40
1.0
 40
1.0
 40
1.0
 40
1.0
 10
-67.2992593621078
 20
120.0
 30
0.0
 10
-67.42142906450201
 20
120.0000007045258
 30
0.0
 10
-74.06633412041953
 20
120.0000390242292
 30
0.0
 10
-87.56626851161616
 20
120.0002800887032
 30
0.0
 10
-108.1357971531716
 20
120.0006477948345
 30
0.0
 10
-130.6476638889353
 20
120.0010532181826
 30
0.0
 10
-155.2093363501575
 20
120.0013398743542
 30
0.0
 10
-175.4707573370355
 20
120.0013598412612
 30
0.0
 10
-190.1739656733405
 20
120.0012831955303
 30
0.0
 10
-198.9222971295046
 20
120.0011755353367
 30
0.0
 10
-207.6893197348995
 20
120.0010292836213
 30
0.0
 10
-216.4234176371379
 20
120.000868547254
 30
0.0
 10
-224.9220395185454
 20
120.0007170318078
 30
0.0
 10
-233.1453150954326
 20
120.0005781541949
 30
0.0
 10
-241.0618874493485
 20
120.0004538336152
 30
0.0
 10
-248.7664536890374
 20
120.0003438513653
 30
0.0
 10
-256.1966810002447
 20
120.0002495578687
 30
0.0
 10
-263.2785022102245
 20
120.0001716736642
 30
0.0
 10
-269.9252277016851
 20
120.000110185769
 30
0.0
 10
-276.0669005547705
 20
120.0000645862341
 30
0.0
 10
-281.6516697183117
 20
120.0000334460771
 30
0.0
 10
-286.6336583633315
 20
120.0000143956625
 30
0.0
 10
-290.957709382298
 20
120.000004335022
 30
0.0
 10
-294.6681775550314
 20
120.0000002677259
 30
0.0
 10
-296.5448876905018
 20
120.0000000896876
 30
0.0
 10
-297.4902895062593
 20
120.0
 30
0.0
  0
SPLINE
  5
DF
330
CC
100
AcDbEntity
  8
0
  6
Continuous
 62
     7
370
    25
100
AcDbSpline
210
0.0
220
0.0
230
1.0
 70
    24
 71
     3
 72
    45
 73
    41
 74
     0
 42
0.000000001
 43
0.00000001
 40
0.2498077083373958
 40
0.2498077083373958
 40
0.2498077083373958
 40
0.2498077083373958
 40
0.2500000000000002
 40
0.2812391176026667
 40
0.2812391176026667
 40
0.2887201477378576
 40
0.2887201477378576
 40
0.2994464275268
 40
0.2994464275268
 40
0.3193027315028319
 40
0.3315019841656742
 40
0.3475297624851114
 40
0.3635575408045486
 40
0.3802148448901759
 40
0.3802148448901759
 40
0.3956130974434229
 40
0.3956130974434229
 40
0.4166666666666666
 40
0.5
 40
0.5833333333333333
 40
0.6043869025565776
 40
0.6043869025565776
 40
0.6197851551098223
 40
0.6197851551098223
 40
0.6364424591954517
 40
0.6524702375148889
 40
0.668498015834326
 40
0.6806972684971684
 40
0.7005535724732002
 40
0.7005535724732002
 40
0.7112798522621412
 40
0.7112798522621412
 40
0.7187608823973336
 40
0.7187608823973336
 40
0.7500000000000002
 40
0.7812391176026667
 40
0.7812391176026667
 40
0.7887201477378586
 40
0.7887201477378586
 40
0.7959999999999998
 40
0.7959999999999998
 40
0.7959999999999998
 40
0.7959999999999998
 10
299.9999999999999
 20
99.99999999999997
 30
0.0
 10
299.9999999999999
 20
99.99999999999997
 30
0.0
 10
299.9999999999999
 20
99.99999999999997
 30
0.0
 10
299.9999999999999
 20
100.0
 30
0.0
 10
300.0000000000001
 20
99.99999999999997
 30
0.0
 10
300.0
 20
99.99999999999997
 30
0.0
 10
299.9999999999999
 20
100.0
 30
0.0
 10
300.0
 20
99.99999999999997
 30
0.0
 10
299.9999999999999
 20
100.0
 30
0.0
 10
296.8106721460857
 20
100.0
 30
0.0
 10
285.0147497671384
 20
100.0
 30
0.0
 10
268.6923294650223
 20
99.99999999999997
 30
0.0
 10
245.1906514458049
 20
100.0
 30
0.0
 10
227.0779828008027
 20
99.99999999999997
 30
0.0
 10
208.565785809824
 20
100.0
 30
0.0
 10
199.3423852784319
 20
99.99999999999991
 30
0.0
 10
177.2264366044442
 20
100.0000000000001
 30
0.0
 10
113.8931032711114
 20
99.99999999999996
 30
0.0
 10
0.0000000000004649
 20
99.99999999999997
 30
0.0
 10
-113.8931032711108
 20
100.0
 30
0.0
 10
-177.2264366044452
 20
100.0000000000005
 30
0.0
 10
-199.3423852784297
 20
99.99999999999962
 30
0.0
 10
-208.5657858098214
 20
100.0
 30
0.0
 10
-227.0779828008002
 20
99.99999999999993
 30
0.0
 10
-245.190651445804
 20
100.0
 30
0.0
 10
-268.6923294650226
 20
99.99999999999994
 30
0.0
 10
-285.0147497671385
 20
100.0
 30
0.0
 10
-296.8106721460862
 20
99.99999999999997
 30
0.0
 10
-300.0000000000001
 20
99.99999999999994
 30
0.0
 10
-299.9999999999999
 20
100.0
 30
0.0
 10
-300.0000000000001
 20
100.0
 30
0.0
 10
-300.0000000000001
 20
99.99999999999997
 30
0.0
 10
-300.0000000000001
 20
99.99999999999997
 30
0.0
 10
-300.0000000000001
 20
99.99999999999997
 30
0.0
 10
-299.9999999999999
 20
99.99999999999994
 30
0.0
 10
-299.9999999999999
 20
99.99999999999997
 30
0.0
 10
-300.0000000000002
 20
100.0
 30
0.0
 10
-300.0000000000002
 20
100.0
 30
0.0
 10
-300.0000000000001
 20
99.99999999999996
 30
0.0
 10
-300.0000000000001
 20
99.99999999999997
 30
0.0
 10
-300.0000000000001
 20
99.99999999999997
 30
0.0
  0
SPLINE
  5
E0
330
CC
100
AcDbEntity
  8
0
  6
Continuous
 62
     7
370
    25
100
AcDbSpline
210
0.0
220
0.0
230
1.0
 70
    24
 71
     3
 72
    53
 73
    49
 74
     0
 42
0.000000001
 43
0.00000001
 40
0.1875000000000015
 40
0.1875000000000015
 40
0.1875000000000015
 40
0.1875000000000015
 40
0.2005535724732001
 40
0.2005535724732001
 40
0.2112798522621407
 40
0.2112798522621407
 40
0.2187608823973334
 40
0.2187608823973334
 40
0.2500000000000002
 40
0.2812391176026667
 40
0.2812391176026667
 40
0.2887201477378576
 40
0.2887201477378576
 40
0.2994464275268
 40
0.2994464275268
 40
0.3193027315028319
 40
0.3315019841656742
 40
0.3475297624851114
 40
0.3635575408045486
 40
0.3802148448901759
 40
0.3802148448901759
 40
0.3956130974434229
 40
0.3956130974434229
 40
0.4166666666666666
 40
0.5
 40
0.5833333333333333
 40
0.6043869025565776
 40
0.6043869025565776
 40
0.6197851551098223
 40
0.6197851551098223
 40
0.6364424591954517
 40
0.6524702375148889
 40
0.668498015834326
 40
0.6806972684971684
 40
0.7005535724732002
 40
0.7005535724732002
 40
0.7112798522621412
 40
0.7112798522621412
 40
0.7187608823973336
 40
0.7187608823973336
 40
0.7500000000000002
 40
0.7812391176026667
 40
0.7812391176026667
 40
0.7887201477378586
 40
0.7887201477378586
 40
0.7994464275267998
 40
0.7994464275267998
 40
0.8124999999999984
 40
0.8124999999999984
 40
0.8124999999999984
 40
0.8124999999999984
 10
297.49028950626
 20
120.0
 30
0.0
 10
299.1461999031325
 20
120.0
 30
0.0
 10
300.0000000000002
 20
120.0
 30
0.0
 10
299.9999999999999
 20
120.0
 30
0.0
 10
299.9999999999999
 20
120.0
 30
0.0
 10
299.9999999999999
 20
120.0
 30
0.0
 10
299.9999999999999
 20
120.0
 30
0.0
 10
299.9999999999999
 20
120.0
 30
0.0
 10
299.9999999999999
 20
120.0
 30
0.0
 10
299.9999999999999
 20
120.0
 30
0.0
 10
300.0000000000001
 20
120.0
 30
0.0
 10
300.0
 20
120.0
 30
0.0
 10
299.9999999999999
 20
120.0
 30
0.0
 10
300.0
 20
120.0
 30
0.0
 10
299.9999999999999
 20
120.0
 30
0.0
 10
296.8106721460857
 20
120.0
 30
0.0
 10
285.0147497671384
 20
120.0000000000001
 30
0.0
 10
268.6923294650223
 20
120.0
 30
0.0
 10
245.1906514458049
 20
120.0
 30
0.0
 10
227.0779828008027
 20
120.0
 30
0.0
 10
208.565785809824
 20
120.0
 30
0.0
 10
199.3423852784319
 20
120.0000000000003
 30
0.0
 10
177.2264366044442
 20
119.9999999999997
 30
0.0
 10
113.8931032711114
 20
120.0
 30
0.0
 10
0.0000000000006037
 20
120.0
 30
0.0
 10
-113.8931032711108
 20
120.0
 30
0.0
 10
-177.2264366044452
 20
120.0000000000001
 30
0.0
 10
-199.3423852784297
 20
119.9999999999999
 30
0.0
 10
-208.5657858098214
 20
120.0
 30
0.0
 10
-227.0779828008002
 20
120.0
 30
0.0
 10
-245.190651445804
 20
120.0000000000001
 30
0.0
 10
-268.6923294650226
 20
119.9999999999999
 30
0.0
 10
-285.0147497671385
 20
120.0
 30
0.0
 10
-296.8106721460862
 20
120.0
 30
0.0
 10
-300.0000000000001
 20
120.0
 30
0.0
 10
-300.0000000000001
 20
120.0
 30
0.0
 10
-300.0000000000001
 20
120.0
 30
0.0
 10
-300.0000000000001
 20
120.0
 30
0.0
 10
-300.0000000000001
 20
120.0
 30
0.0
 10
-300.0000000000001
 20
120.0
 30
0.0
 10
-300.0000000000001
 20
120.0
 30
0.0
 10
-300.0000000000001
 20
120.0
 30
0.0
 10
-300.0000000000001
 20
120.0
 30
0.0
 10
-300.0000000000001
 20
120.0
 30
0.0
 10
-300.0000000000001
 20
120.0
 30
0.0
 10
-300.0000000000001
 20
120.0
 30
0.0
 10
-300.0000000000001
 20
120.0
 30
0.0
 10
-299.1461999031325
 20
120.0
 30
0.0
 10
-297.49028950626
 20
120.0
 30
0.0
  0
LINE
  5
E1
330
CC
100
AcDbEntity
  8
0
  6
Continuous
 62
     7
370
    25
100
AcDbLine
 10
300.0
 20
100.0
 30
0.0
 11
300.0
 21
120.0
 31
0.0
  0
LINE
  5
E2
330
CC
100
AcDbEntity
  8
0
  6
Continuous
 62
     7
370
    25
100
AcDbLine
 10
-300.0
 20
120.0
 30
0.0
 11
-300.0
 21
100.0
 31
0.0
  0
LINE
  5
E3
330
CC
100
AcDbEntity
  8
0
  6
Continuous
 62
     7
370
    25
100
AcDbLine
 10
-16.6029158436
 20
0.0
 30
0.0
 11
22.999999414
 21
0.0
 31
0.0
  0
VIEWPORT
  5
129
330
CC
100
AcDbEntity
  8
0
100
AcDbViewport
 10
0.0
 20
0.0
 30
0.0
 40
205.6
 41
156.0
 68
     1
 69
     1
 12
0.0
 22
0.0
 13
0.0
 23
0.0
 14
10.0
 24
10.0
 15
10.0
 25
10.0
 16
0.0
 26
0.0
 36
1.0
 17
0.0
 27
0.0
 37
0.0
 42
50.0
 43
0.0
 44
0.0
 45
612.0
 50
0.0
 51
0.0
 72
   100
 90
   557152
  1

281
     0
 71
     1
 74
     0
110
0.0
120
0.0
130
0.0
111
1.0
121
0.0
131
0.0
112
0.0
122
1.0
132
0.0
 79
     0
146
0.0
170
     0
 61
     5
348
2F
292
     1
282
     1
141
0.0
142
0.0
 63
   256
361
12A
  0
ENDBLK
  5
CF
330
CC
100
AcDbEntity
  8
0
100
AcDbBlockEnd
  0
BLOCK
  5
E6
330
E4
100
AcDbEntity
  8
0
100
AcDbBlockBegin
  2
*Paper_Space4
 70
     0
 10
0.0
 20
0.0
 30
0.0
  3
*Paper_Space4
  1

  0
CIRCLE
  5
E8
330
E4
100
AcDbEntity
  8
0
  6
Continuous
 62
     7
370
    25
100
AcDbCircle
 10
0.0
 20
0.0
 30
0.0
 40
22.99999999999999
  0
SPLINE
  5
E9
330
E4
100
AcDbEntity
  8
0
  6
Continuous
 62
     7
370
    25
100
AcDbSpline
210
0.0
220
0.0
230
1.0
 70
    11
 71
     3
 72
    77
 73
    73
 74
     0
 42
0.000000001
 43
0.00000001
 40
0.0
 40
0.0
 40
0.0
 40
0.0
 40
0.0052193451278288
 40
0.0104386902556577
 40
0.0156580353834865
 40
0.0208773805113154
 40
0.1043869025565773
 40
0.1043869025565773
 40
0.1197851551098225
 40
0.1197851551098225
 40
0.1364424591954516
 40
0.1524702375148887
 40
0.1684980158343259
 40
0.1806972684971682
 40
0.2005535724732001
 40
0.2005535724732001
 40
0.2112798522621407
 40
0.2112798522621407
 40
0.2187608823973334
 40
0.2187608823973334
 40
0.2500000000000002
 40
0.2812391176026667
 40
0.2812391176026667
 40
0.2887201477378576
 40
0.2887201477378576
 40
0.2994464275268
 40
0.2994464275268
 40
0.3193027315028319
 40
0.3315019841656742
 40
0.3475297624851114
 40
0.3635575408045486
 40
0.3802148448901759
 40
0.3802148448901759
 40
0.3956130974434229
 40
0.3956130974434229
 40
0.4166666666666666
 40
0.5
 40
0.5833333333333333
 40
0.6043869025565776
 40
0.6043869025565776
 40
0.6197851551098223
 40
0.6197851551098223
 40
0.6364424591954517
 40
0.6524702375148889
 40
0.668498015834326
 40
0.6806972684971684
 40
0.7005535724732002
 40
0.7005535724732002
 40
0.7112798522621412
 40
0.7112798522621412
 40
0.7187608823973336
 40
0.7187608823973336
 40
0.7500000000000002
 40
0.7812391176026667
 40
0.7812391176026667
 40
0.7887201477378586
 40
0.7887201477378586
 40
0.7994464275267998
 40
0.7994464275267998
 40
0.819302731502832
 40
0.8315019841656741
 40
0.8475297624851112
 40
0.8635575408045484
 40
0.8802148448901774
 40
0.8802148448901774
 40
0.8956130974434227
 40
0.8956130974434227
 40
0.9791226194886845
 40
0.9843419646165134
 40
0.9895613097443423
 40
0.9947806548721712
 40
1.0
 40
1.0
 40
1.0
 40
1.0
 10
-200.0000000000001
 20
0.000000000000003
 30
0.0
 10
-200.0000000000001
 20
-3.166666666666656
 30
0.0
 10
-200.0000000000001
 20
-9.499999999999973
 30
0.0
 10
-200.0000000000001
 20
-18.99999999999994
 30
0.0
 10
-200.0000000000001
 20
-28.4999999999999
 30
0.0
 10
-200.0
 20
-85.49999999999983
 30
0.0
 10
-199.9999999999996
 20
-139.3333333333328
 30
0.0
 10
-200.0000000000002
 20
-199.3423852784306
 30
0.0
 10
-198.8080864718468
 20
-208.565785809822
 30
0.0
 10
-194.0399032443967
 20
-227.0779828008006
 30
0.0
 10
-186.6589759895214
 20
-245.1906514458042
 30
0.0
 10
-168.6923294650225
 20
-268.6923294650225
 30
0.0
 10
-147.341426753238
 20
-285.0147497671385
 30
0.0
 10
-121.1660790566503
 20
-296.8106721460858
 30
0.0
 10
-102.0471619301132
 20
-300.0000000000002
 30
0.0
 10
-83.49218113899528
 20
-299.9999999999999
 30
0.0
 10
-76.9843622779904
 20
-299.9999999999999
 30
0.0
 10
-65.93767346659044
 20
-299.9999999999999
 30
0.0
 10
-61.39880351619536
 20
-299.9999999999999
 30
0.0
 10
-37.90662237720007
 20
-299.9999999999999
 30
0.0
 10
0.0000000000001735
 20
-299.9999999999999
 30
0.0
 10
37.90662237720036
 20
-299.9999999999999
 30
0.0
 10
61.39880351619436
 20
-300.0000000000001
 30
0.0
 10
65.93767346658841
 20
-300.0
 30
0.0
 10
76.98436227798835
 20
-299.9999999999999
 30
0.0
 10
83.49218113899425
 20
-300.0
 30
0.0
 10
102.0471619301132
 20
-299.9999999999999
 30
0.0
 10
121.1660790566504
 20
-296.8106721460857
 30
0.0
 10
147.341426753238
 20
-285.0147497671384
 30
0.0
 10
168.6923294650227
 20
-268.6923294650223
 30
0.0
 10
186.6589759895207
 20
-245.1906514458049
 30
0.0
 10
194.039903244396
 20
-227.0779828008027
 30
0.0
 10
198.8080864718465
 20
-208.565785809824
 30
0.0
 10
200.0000000000007
 20
-199.3423852784319
 30
0.0
 10
199.9999999999993
 20
-177.2264366044442
 30
0.0
 10
200.0000000000001
 20
-113.8931032711114
 30
0.0
 10
200.0000000000001
 20
-0.0000000000004649
 30
0.0
 10
200.0000000000001
 20
113.8931032711108
 30
0.0
 10
200.0000000000002
 20
177.2264366044452
 30
0.0
 10
200.0000000000001
 20
199.3423852784297
 30
0.0
 10
198.8080864718468
 20
208.5657858098214
 30
0.0
 10
194.039903244397
 20
227.0779828008002
 30
0.0
 10
186.6589759895216
 20
245.190651445804
 30
0.0
 10
168.6923294650227
 20
268.6923294650226
 30
0.0
 10
147.341426753238
 20
285.0147497671385
 30
0.0
 10
121.1660790566502
 20
296.8106721460862
 30
0.0
 10
102.0471619301132
 20
300.0000000000001
 30
0.0
 10
83.49218113899504
 20
299.9999999999999
 30
0.0
 10
76.98436227798992
 20
300.0000000000001
 30
0.0
 10
65.93767346658984
 20
300.0000000000001
 30
0.0
 10
61.3988035161949
 20
300.0000000000001
 30
0.0
 10
37.90662237719985
 20
300.0000000000001
 30
0.0
 10
-0.0000000000002567
 20
299.9999999999999
 30
0.0
 10
-37.90662237720039
 20
299.9999999999999
 30
0.0
 10
-61.39880351619506
 20
300.0000000000002
 30
0.0
 10
-65.93767346658966
 20
300.0000000000002
 30
0.0
 10
-76.98436227798952
 20
300.0000000000001
 30
0.0
 10
-83.49218113899484
 20
300.0000000000001
 30
0.0
 10
-102.0471619301133
 20
300.0000000000005
 30
0.0
 10
-121.1660790566504
 20
296.8106721460861
 30
0.0
 10
-147.3414267532381
 20
285.0147497671384
 30
0.0
 10
-168.6923294650226
 20
268.6923294650225
 30
0.0
 10
-186.6589759895214
 20
245.1906514458041
 30
0.0
 10
-194.0399032443969
 20
227.0779828008008
 30
0.0
 10
-198.8080864718467
 20
208.5657858098219
 30
0.0
 10
-200.0000000000001
 20
199.3423852784305
 30
0.0
 10
-199.9999999999996
 20
139.3333333333333
 30
0.0
 10
-200.0
 20
85.5000000000001
 30
0.0
 10
-200.0000000000001
 20
28.50000000000005
 30
0.0
 10
-200.0000000000001
 20
19.00000000000002
 30
0.0
 10
-200.0000000000001
 20
9.499999999999979
 30
0.0
 10
-200.0000000000001
 20
3.166666666666662
 30
0.0
 10
-200.0000000000001
 20
0.000000000000003
 30
0.0
  0
VIEWPORT
  5
12B
330
E4
100
AcDbEntity
  8
0
100
AcDbViewport
 10
0.0
 20
0.0
 30
0.0
 40
205.6
 41
156.0
 68
     1
 69
     1
 12
0.0
 22
0.0
 13
0.0
 23
0.0
 14
10.0
 24
10.0
 15
10.0
 25
10.0
 16
0.0
 26
0.0
 36
1.0
 17
0.0
 27
0.0
 37
0.0
 42
50.0
 43
0.0
 44
0.0
 45
612.0
 50
0.0
 51
0.0
 72
   100
 90
   557152
  1

281
     0
 71
     1
 74
     0
110
0.0
120
0.0
130
0.0
111
1.0
121
0.0
131
0.0
112
0.0
122
1.0
132
0.0
 79
     0
146
0.0
170
     0
 61
     5
348
2F
292
     1
282
     1
141
0.0
142
0.0
 63
   256
361
12C
  0
ENDBLK
  5
E7
330
E4
100
AcDbEntity
  8
0
100
AcDbBlockEnd
  0
BLOCK
  5
EC
330
EA
100
AcDbEntity
  8
0
100
AcDbBlockBegin
  2
*Paper_Space5
 70
     0
 10
0.0
 20
0.0
 30
0.0
  3
*Paper_Space5
  1

  0
SPLINE
  5
EE
330
EA
100
AcDbEntity
  8
0
  6
Continuous
 62
     7
370
    25
100
AcDbSpline
210
0.0
220
0.0
230
1.0
 70
     8
 71
     3
 72
    31
 73
    27
 74
     0
 42
0.000000001
 43
0.00000001
 40
0.0
 40
0.0
 40
0.0
 40
0.0
 40
0.0025621176660791
 40
0.0165931915346576
 40
0.0550826099698146
 40
0.1010123048391431
 40
0.1555945707496504
 40
0.2186933300110319
 40
0.2902773817403573
 40
0.3743144948619102
 40
0.4601298331744665
 40
0.5351016569598444
 40
0.6182451224408663
 40
0.6817011154217618
 40
0.7374931442798653
 40
0.8119993725201873
 40
0.8533942511442241
 40
0.8978145647268604
 40
0.9343743866924231
 40
0.9554655947612469
 40
0.9721763093406846
 40
0.9794881755787069
 40
0.9863810780718897
 40
0.9924097152416682
 40
0.9980930885517033
 40
1.0
 40
1.0
 40
1.0
 40
1.0
 10
193.3895295350528
 20
78.00107217879007
 30
0.0
 10
193.38554705434
 20
77.99895242877992
 30
0.0
 10
193.359755083063
 20
77.98522416860284
 30
0.0
 10
193.0703559860431
 20
77.81392739879084
 30
0.0
 10
192.1106958991275
 20
77.25420301658676
 30
0.0
 10
190.0530522934724
 20
76.00532685884649
 30
0.0
 10
187.6696954612435
 20
74.5728999959935
 30
0.0
 10
184.8451859018727
 20
72.87955279049466
 30
0.0
 10
181.5526023027708
 20
70.91627919981404
 30
0.0
 10
177.8769165810327
 20
68.7364122591728
 30
0.0
 10
174.1305571158899
 20
66.51484676706647
 30
0.0
 10
170.3834598088105
 20
64.29508829962057
 30
0.0
 10
166.9593111815096
 20
62.26889867414969
 30
0.0
 10
163.8024724006774
 20
60.40344263045373
 30
0.0
 10
160.7289121753335
 20
58.58958246894816
 30
0.0
 10
157.9979260664769
 20
56.98047105758054
 30
0.0
 10
155.4321234037167
 20
55.47110399948645
 30
0.0
 10
153.4896163633231
 20
54.32974698562332
 30
0.0
 10
151.7697662929555
 20
53.32051152880485
 30
0.0
 10
150.4423617994856
 20
52.54159281137346
 30
0.0
 10
149.6072516678585
 20
52.05037435833825
 30
0.0
 10
149.084798461433
 20
51.74092926300325
 30
0.0
 10
148.7786995285157
 20
51.55825709731313
 30
0.0
 10
148.5692323606224
 20
51.43119763545915
 30
0.0
 10
148.4803359369608
 20
51.37513036181556
 30
0.0
 10
148.4953763567697
 20
51.38171867357543
 30
0.0
 10
148.4991549697775
 20
51.38337385879174
 30
0.0
  0
SPLINE
  5
EF
330
EA
100
AcDbEntity
  8
0
  6
Continuous
 62
     7
370
    25
100
AcDbSpline
210
0.0
220
0.0
230
1.0
 70
     8
 71
     3
 72
    33
 73
    29
 74
     0
 42
0.000000001
 43
0.00000001
 40
0.0
 40
0.0
 40
0.0
 40
0.0
 40
0.0004588678562383
 40
0.0043168414366447
 40
0.008811610090479
 40
0.0202091446791705
 40
0.0424351918451186
 40
0.0725934017485328
 40
0.1085371926466066
 40
0.1475968460738722
 40
0.2152458335729003
 40
0.2905203852626601
 40
0.4047298227325928
 40
0.5326410792887792
 40
0.6654227914801122
 40
0.8324558004225886
 40
0.864132725927569
 40
0.8954310124826342
 40
0.9253621602049209
 40
0.9500161895078593
 40
0.9635009698949137
 40
0.9757631712057572
 40
0.9876033745639871
 40
0.9928092753408803
 40
0.9950903986239703
 40
0.9972778516180083
 40
0.9994831007160765
 40
1.0
 40
1.0
 40
1.0
 40
1.0
 10
179.1693089393591
 20
70.19606768121977
 30
0.0
 10
179.1703545540342
 20
70.19742695549388
 30
0.0
 10
179.1801912699749
 20
70.21021445287562
 30
0.0
 10
179.1174186182909
 20
70.17714100324831
 30
0.0
 10
178.9303365442844
 20
70.06990216546406
 30
0.0
 10
178.3454286546711
 20
69.70672546383611
 30
0.0
 10
177.1510519457402
 20
68.96891299547822
 30
0.0
 10
175.2841848192581
 20
67.86478900921638
 30
0.0
 10
172.9649999002062
 20
66.5534461792854
 30
0.0
 10
169.8453804391362
 20
64.76047316632189
 30
0.0
 10
165.8449745238579
 20
62.45972548736793
 30
0.0
 10
160.1881078345523
 20
59.18963685401659
 30
0.0
 10
153.1923781128581
 20
55.1376964061349
 30
0.0
 10
144.9277514950795
 20
50.34277099806498
 30
0.0
 10
135.5016590802368
 20
44.86171920268323
 30
0.0
 10
128.1845665947062
 20
40.60030678116334
 30
0.0
 10
123.1039516713955
 20
37.64383291640493
 30
0.0
 10
121.0466926860125
 20
36.44689095434072
 30
0.0
 10
119.1584261445963
 20
35.34933892544471
 30
0.0
 10
117.4942480342329
 20
34.37209238195199
 30
0.0
 10
116.1908445597472
 20
33.60486436285917
 30
0.0
 10
115.2180745183953
 20
33.03300486961039
 30
0.0
 10
114.5033055188202
 20
32.61559973922318
 30
0.0
 10
114.0962817595675
 20
32.37969889118323
 30
0.0
 10
113.9511304310359
 20
32.29570691334871
 30
0.0
 10
113.8879713311687
 20
32.2591381388717
 30
0.0
 10
113.8622705145506
 20
32.24421568776071
 30
0.0
 10
113.8675347934826
 20
32.24713945444025
 30
0.0
 10
113.8685344090908
 20
32.24769463832112
 30
0.0
  0
SPLINE
  5
F0
330
EA
100
AcDbEntity
  8
0
  6
Continuous
 62
     7
370
    25
100
AcDbSpline
210
0.0
220
0.0
230
1.0
 70
     8
 71
     3
 72
    41
 73
    37
 74
     0
 42
0.000000001
 43
0.00000001
 40
0.0
 40
0.0
 40
0.0
 40
0.0
 40
0.0733126781382095
 40
0.1414895647472552
 40
0.2041253523323902
 40
0.2608102531500662
 40
0.3117342991601786
 40
0.3598044937441098
 40
0.4054031748352344
 40
0.4433419001919683
 40
0.4769294063631876
 40
0.4953736547142036
 40
0.5133634164880664
 40
0.5374385850014982
 40
0.5597434397205319
 40
0.5857205414321864
 40
0.6153823510512746
 40
0.6468524923232543
 40
0.6837412951876263
 40
0.7145137183556307
 40
0.7393015444708836
 40
0.7513771993907565
 40
0.7636246619342594
 40
0.7796111927799055
 40
0.7994262786754619
 40
0.8203659610589442
 40
0.8502343270152352
 40
0.8743694602724432
 40
0.8956720301860727
 40
0.9055596136711629
 40
0.9187968056913256
 40
0.9373929411080455
 40
0.9547715264905646
 40
0.9747627259802482
 40
0.9921031877549128
 40
1.0
 40
1.0
 40
1.0
 40
1.0
 10
6.721593860527092
 20
-30.25130694390056
 30
0.0
 10
4.285107351084075
 20
-31.60934888318397
 30
0.0
 10
-0.4171818639375074
 20
-34.23029750731533
 30
0.0
 10
-7.321893648009572
 20
-38.12231829291345
 30
0.0
 10
-13.81927940137825
 20
-41.7215038226808
 30
0.0
 10
-19.80144039322895
 20
-45.04562361536836
 30
0.0
 10
-25.77427450548614
 20
-47.91842218303313
 30
0.0
 10
-31.87874097743958
 20
-50.23680712918819
 30
0.0
 10
-37.83002189934192
 20
-52.06131569256421
 30
0.0
 10
-43.40181851961449
 20
-53.42880723191772
 30
0.0
 10
-47.88163628474106
 20
-54.31228103132698
 30
0.0
 10
-51.51413833657123
 20
-54.90380884651656
 30
0.0
 10
-54.76574715417836
 20
-55.35604097988847
 30
0.0
 10
-58.32416052366973
 20
-55.75337461135297
 30
0.0
 10
-62.37580445696454
 20
-56.08438463085034
 30
0.0
 10
-66.78070704248562
 20
-56.31036463115181
 30
0.0
 10
-71.72599737835623
 20
-56.39278190258104
 30
0.0
 10
-77.28925902313458
 20
-56.27420661730027
 30
0.0
 10
-82.87319224140309
 20
-55.91297864733379
 30
0.0
 10
-87.97749207495438
 20
-55.36038944870568
 30
0.0
 10
-91.59611179239863
 20
-54.83745010017292
 30
0.0
 10
-94.11959739316832
 20
-54.41168616187815
 30
0.0
 10
-96.07055842560563
 20
-54.05137844436906
 30
0.0
 10
-98.25849198023877
 20
-53.60798735906483
 30
0.0
 10
-100.7231096349465
 20
-53.05278845955512
 30
0.0
 10
-103.6386942033925
 20
-52.32022387848216
 30
0.0
 10
-106.4982564030412
 20
-51.50348086140297
 30
0.0
 10
-108.8960716042818
 20
-50.73655356976507
 30
0.0
 10
-110.4807800070176
 20
-50.1856197273368
 30
0.0
 10
-111.6228008144899
 20
-49.7666791103554
 30
0.0
 10
-112.6510071565358
 20
-49.37448964260452
 30
0.0
 10
-113.8384545292477
 20
-48.89570422769009
 30
0.0
 10
-115.1451498185099
 20
-48.33461016613036
 30
0.0
 10
-116.3960740277211
 20
-47.75716774065253
 30
0.0
 10
-117.2845282461946
 20
-47.30326910125351
 30
0.0
 10
-117.2669639164282
 20
-47.29127994804469
 30
0.0
 10
-117.2614679894803
 20
-47.28752850912962
 30
0.0
  0
SPLINE
  5
F1
330
EA
100
AcDbEntity
  8
0
  6
Continuous
 62
     7
370
    25
100
AcDbSpline
210
0.0
220
0.0
230
1.0
 70
     8
 71
     3
 72
    18
 73
    14
 74
     0
 42
0.000000001
 43
0.00000001
 40
0.0
 40
0.0
 40
0.0
 40
0.0
 40
0.007015495011587
 40
0.0263999170853201
 40
0.0513889144527961
 40
0.111320485029056
 40
0.1923647999749548
 40
0.2951689640173805
 40
0.436489422290124
 40
0.6055974651390136
 40
0.7890677125040566
 40
0.9576301588858109
 40
1.0
 40
1.0
 40
1.0
 40
1.0
 10
-0.3402111991426815
 20
-33.92595463472893
 30
0.0
 10
-0.3435313418353181
 20
-33.92270539019361
 30
0.0
 10
-0.3560253271709252
 20
-33.91047820078201
 30
0.0
 10
-0.536739696768318
 20
-33.98924942514677
 30
0.0
 10
-1.004585286733986
 20
-34.22014705209055
 30
0.0
 10
-1.959961112087891
 20
-34.73367495913923
 30
0.0
 10
-3.490180349527791
 20
-35.58088664898694
 30
0.0
 10
-5.649936600976291
 20
-36.79799669314988
 30
0.0
 10
-8.484032044466003
 20
-38.41382941850087
 30
0.0
 10
-11.94948499401441
 20
-40.40916289407664
 30
0.0
 10
-15.64367026888046
 20
-42.54843700653181
 30
0.0
 10
-18.42215650371372
 20
-44.15236497863449
 30
0.0
 10
-19.89911388141348
 20
-45.00082525693055
 30
0.0
 10
-20.19578941728552
 20
-45.1712549602722
 30
0.0
  0
SPLINE
  5
F4
330
EA
100
AcDbEntity
  8
0
  6
Continuous
 62
     7
370
    25
100
AcDbSpline
210
0.0
220
0.0
230
1.0
 70
    11
 71
     3
 72
    77
 73
    73
 74
     0
 42
0.000000001
 43
0.00000001
 40
0.0
 40
0.0
 40
0.0
 40
0.0
 40
0.0052193451278288
 40
0.0104386902556577
 40
0.0156580353834865
 40
0.0208773805113154
 40
0.1043869025565773
 40
0.1043869025565773
 40
0.1197851551098225
 40
0.1197851551098225
 40
0.1364424591954516
 40
0.1524702375148887
 40
0.1684980158343259
 40
0.1806972684971682
 40
0.2005535724732001
 40
0.2005535724732001
 40
0.2112798522621407
 40
0.2112798522621407
 40
0.2187608823973334
 40
0.2187608823973334
 40
0.2500000000000002
 40
0.2812391176026667
 40
0.2812391176026667
 40
0.2887201477378576
 40
0.2887201477378576
 40
0.2994464275268
 40
0.2994464275268
 40
0.3193027315028319
 40
0.3315019841656742
 40
0.3475297624851114
 40
0.3635575408045486
 40
0.3802148448901759
 40
0.3802148448901759
 40
0.3956130974434229
 40
0.3956130974434229
 40
0.4166666666666666
 40
0.5
 40
0.5833333333333333
 40
0.6043869025565776
 40
0.6043869025565776
 40
0.6197851551098223
 40
0.6197851551098223
 40
0.6364424591954517
 40
0.6524702375148889
 40
0.668498015834326
 40
0.6806972684971684
 40
0.7005535724732002
 40
0.7005535724732002
 40
0.7112798522621412
 40
0.7112798522621412
 40
0.7187608823973336
 40
0.7187608823973336
 40
0.7500000000000002
 40
0.7812391176026667
 40
0.7812391176026667
 40
0.7887201477378586
 40
0.7887201477378586
 40
0.7994464275267998
 40
0.7994464275267998
 40
0.819302731502832
 40
0.8315019841656741
 40
0.8475297624851112
 40
0.8635575408045484
 40
0.8802148448901774
 40
0.8802148448901774
 40
0.8956130974434227
 40
0.8956130974434227
 40
0.9791226194886845
 40
0.9843419646165134
 40
0.9895613097443423
 40
0.9947806548721712
 40
1.0
 40
1.0
 40
1.0
 40
1.0
 10
-24.74873734152911
 20
30.61795819461243
 30
0.0
 10
-24.47388592003329
 20
30.77662654289121
 30
0.0
 10
-23.9146190889713
 20
31.08827211880237
 30
0.0
 10
-23.04844766651986
 20
31.53841637348902
 30
0.0
 10
-22.15642585656252
 20
31.97098577175485
 30
0.0
 10
-16.6577174018985
 20
34.45944853938011
 30
0.0
 10
-10.35623503003466
 20
35.93898580700499
 30
0.0
 10
-3.317894114909698
 20
36.4720453177896
 30
0.0
 10
-2.218483931702191
 20
36.52403692709839
 30
0.0
 10
0.0721585658972103
 20
36.56774349734146
 30
0.0
 10
2.409912533681436
 20
36.54113359346147
 30
0.0
 10
5.880324488550436
 20
36.29334985371594
 30
0.0
 10
9.004437475568498
 20
35.88263159697068
 30
0.0
 10
12.35286440699338
 20
35.25950724232364
 30
0.0
 10
14.52751002733209
 20
34.71449731799844
 30
0.0
 10
16.54677955293268
 20
34.12190754429703
 30
0.0
 10
17.24449555757049
 20
33.90030807455628
 30
0.0
 10
18.40728427993055
 20
33.50148674849058
 30
0.0
 10
18.87887649914801
 20
33.33112300025689
 30
0.0
 10
21.28392845185856
 20
32.41644943667104
 30
0.0
 10
24.90507541008083
 20
30.70821024051838
 30
0.0
 10
27.8641531115295
 20
28.61776659788072
 30
0.0
 10
29.44858587258967
 20
27.22935965865366
 30
0.0
 10
29.74369651615108
 20
26.95711526538433
 30
0.0
 10
30.43455017147122
 20
26.28585162421423
 30
0.0
 10
30.81841330436248
 20
25.88306874821133
 30
0.0
 10
31.84492012461092
 20
24.71736926369324
 30
0.0
 10
32.78900729798288
 20
23.46197306893106
 30
0.0
 10
33.86840729490277
 20
21.52896734660317
 30
0.0
 10
34.57986927156856
 20
19.72545530803076
 30
0.0
 10
35.0090898050359
 20
17.72202913061021
 30
0.0
 10
35.05518450499734
 20
16.37247249112922
 30
0.0
 10
34.97947430135353
 20
15.05011272448414
 30
0.0
 10
34.88941243407255
 20
14.41543673517667
 30
0.0
 10
34.54910440891026
 20
12.91798987339402
 30
0.0
 10
33.07688455345117
 20
8.649346016012707
 30
0.0
 10
25.99188966104966
 20
1.326017722507719
 30
0.0
 10
13.30613844862847
 20
-2.76406276906449
 30
0.0
 10
5.911829219422498
 20
-3.61395720110938
 30
0.0
 10
3.317894114909684
 20
-3.810412842359612
 30
0.0
 10
2.218483931702222
 20
-3.862404451668411
 30
0.0
 10
-0.0721585658972068
 20
-3.906111021911483
 30
0.0
 10
-2.409912533681429
 20
-3.87950111803146
 30
0.0
 10
-5.880324488550448
 20
-3.631717378285951
 30
0.0
 10
-9.00443747556852
 20
-3.220999121540682
 30
0.0
 10
-12.3528644069934
 20
-2.59787476689366
 30
0.0
 10
-14.52751002733212
 20
-2.052864842568461
 30
0.0
 10
-16.54677955293272
 20
-1.460275068867041
 30
0.0
 10
-17.24449555757057
 20
-1.238675599126278
 30
0.0
 10
-18.40728427993063
 20
-0.839854273060589
 30
0.0
 10
-18.87887649914807
 20
-0.669490524826899
 30
0.0
 10
-21.2839284518586
 20
0.2451830387589504
 30
0.0
 10
-24.90507541008085
 20
1.9534222349116
 30
0.0
 10
-27.8641531115295
 20
4.043865877549263
 30
0.0
 10
-29.4485858725897
 20
5.432272816776364
 30
0.0
 10
-29.74369651615115
 20
5.704517210045723
 30
0.0
 10
-30.43455017147127
 20
6.375780851215832
 30
0.0
 10
-30.81841330436248
 20
6.778563727218696
 30
0.0
 10
-31.8449201246109
 20
7.944263211736747
 30
0.0
 10
-32.78900729798288
 20
9.199659406498931
 30
0.0
 10
-33.86840729490275
 20
11.13266512882682
 30
0.0
 10
-34.57986927156854
 20
12.93617716739921
 30
0.0
 10
-35.00908980503591
 20
14.93960334481986
 30
0.0
 10
-35.05518450499734
 20
16.28915998430087
 30
0.0
 10
-34.97947430135351
 20
17.61151975094598
 30
0.0
 10
-34.88941243407253
 20
18.24619574025339
 30
0.0
 10
-33.96602622711696
 20
22.30934346402392
 30
0.0
 10
-31.40311481110954
 20
25.94711180522455
 30
0.0
 10
-27.09250380115874
 20
29.12144862844298
 30
0.0
 10
-26.34319043589915
 20
29.63640185824366
 30
0.0
 10
-25.56343322772916
 20
30.13643197698453
 30
0.0
 10
-25.02358876302494
 20
30.45928984633365
 30
0.0
 10
-24.74873734152911
 20
30.61795819461243
 30
0.0
  0
LWPOLYLINE
  5
F5
330
EA
100
AcDbEntity
  8
0
  6
Continuous
 62
     7
370
    25
100
AcDbPolyline
 90
       97
 70
   128
 43
0.0
 10
-141.4213562373
 20
179.6257086086
 10
-231.5142698065
 20
127.6161766591
 10
-271.1551517769
 20
104.7319826013
 10
-277.365971786
 20
101.127260574
 10
-283.173103036
 20
97.3417950482
 10
-288.411098801
 20
93.3259316833
 10
-293.0643471221
 20
89.1028888835
 10
-297.1172360399
 20
84.6950780247
 10
-301.437300075
 20
78.7596403045
 10
-304.6966064719
 20
72.5843932077
 10
-306.8615380429
 20
66.2183989383
 10
-307.8984776008
 20
59.7388470964
 10
-307.7762864848
 20
53.2271249478
 10
-306.5002216324
 20
46.7646255812
 10
-304.1032083742
 20
40.4327460211
 10
-300.6188638977
 20
34.3044501338
 10
-296.0808053903
 20
28.4228065098
 10
-290.5226500393
 20
22.8265678351
 10
-284.4443405071
 20
17.9013228939
 10
-277.534029604
 20
13.3030041077
 10
-270.0489073647
 20
8.9583797632
 10
-262.5411645673
 20
4.6242521008
 10
-255.0334217698
 20
0.2901244383
 10
-247.5256789724
 20
-4.0440032241
 10
-212.132034356
 20
-24.4763193471
 10
-167.0855775714
 20
-50.4810853218
 10
-160.0068486481
 20
-54.5675485464
 10
-152.9281197248
 20
-58.654011771
 10
-145.8096832619
 20
-62.7118077212
 10
-138.2509501056
 20
-66.4349241872
 10
-130.1921520547
 20
-69.730258524
 10
-120.4981319716
 20
-72.9389133099
 10
-110.3097224474
 20
-75.558678723
 10
-99.694052377
 20
-77.5701479739
 10
-88.7257268305
 20
-78.9539142736
 10
-77.5311366265
 20
-79.6905708327
 10
-66.2512808245
 20
-79.7611102625
 10
-55.0271516663
 20
-79.1624977976
 10
-43.999731307
 20
-77.9127094041
 10
-33.3027305437
 20
-76.0311518713
 10
-23.021136815
 20
-73.5372319884
 10
-12.7881054294
 20
-70.2966820713
 10
-3.1627563315
 20
-66.4303642695
 10
5.757378427
 20
-61.9604461528
 10
14.1758411677
 20
-57.1131860236
 10
22.5845131009
 20
-52.2589630417
 10
30.993185034
 20
-47.4047400597
 10
70.6340670044
 20
-24.520546002
 10
141.4213562373
 20
16.344086244
 10
231.5142698065
 20
68.3536181935
 10
271.1551517769
 20
91.2378122512
 10
277.365971786
 20
94.8425342786
 10
283.173103036
 20
98.6279998044
 10
288.411098801
 20
102.6438631693
 10
293.0643471221
 20
106.8669059691
 10
297.1172360399
 20
111.2747168278
 10
301.437300075
 20
117.2101545481
 10
304.6966064719
 20
123.3854016449
 10
306.8615380429
 20
129.7513959143
 10
307.8984776008
 20
136.2309477562
 10
307.7762864848
 20
142.7426699048
 10
306.5002216324
 20
149.2051692714
 10
304.1032083742
 20
155.5370488315
 10
300.6188638977
 20
161.6653447187
 10
296.0808053903
 20
167.5469883428
 10
290.5226500393
 20
173.1432270174
 10
284.4443405071
 20
178.0684719587
 10
277.534029604
 20
182.6667907449
 10
270.0489073647
 20
187.0114150893
 10
262.5411645673
 20
191.3455427518
 10
255.0334217698
 20
195.6796704142
 10
247.5256789724
 20
200.0137980767
 10
212.132034356
 20
220.4461141997
 10
167.0855775714
 20
246.4508801744
 10
160.0068486481
 20
250.537343399
 10
152.9281197248
 20
254.6238066236
 10
145.8096832619
 20
258.6816025738
 10
138.2509501056
 20
262.4047190398
 10
130.1921520547
 20
265.7000533765
 10
120.4981319716
 20
268.9087081625
 10
110.3097224474
 20
271.5284735756
 10
99.694052377
 20
273.5399428265
 10
88.7257268305
 20
274.9237091262
 10
77.5311366265
 20
275.6603656853
 10
66.2512808245
 20
275.7309051151
 10
55.0271516663
 20
275.1322926501
 10
43.999731307
 20
273.8825042567
 10
33.3027305437
 20
272.0009467239
 10
23.021136815
 20
269.5070268409
 10
12.7881054294
 20
266.2664769239
 10
3.1627563315
 20
262.4001591221
 10
-5.757378427
 20
257.9302410054
 10
-14.1758411677
 20
253.0829808762
 10
-22.5845131009
 20
248.2287578943
 10
-30.993185034
 20
243.3745349123
 10
-70.6340670044
 20
220.4903408546
 10
-141.4213562373
 20
179.6257086086
  0
SPLINE
  5
F6
330
EA
100
AcDbEntity
  8
0
  6
Continuous
 62
     7
370
    25
100
AcDbSpline
210
0.0
220
0.0
230
1.0
 70
     8
 71
     3
 72
    56
 73
    52
 74
     0
 42
0.000000001
 43
0.00000001
 40
0.0
 40
0.0
 40
0.0
 40
0.0
 40
0.0049257314792918
 40
0.0173748914441043
 40
0.029786497738282
 40
0.0421369214353186
 40
0.0544539777868741
 40
0.0673445062085347
 40
0.0802953153201498
 40
0.0933409053275851
 40
0.1064727593986364
 40
0.1196063755538476
 40
0.1327399917090587
 40
0.1946556107264821
 40
0.3052192161147382
 40
0.4459365320634286
 40
0.5078521510808521
 40
0.5175790464100519
 40
0.5272529108777744
 40
0.5368703251004557
 40
0.5464456678784763
 40
0.5559928382980941
 40
0.5683098946496493
 40
0.5806603183466862
 40
0.5930719246408639
 40
0.6055210846056764
 40
0.6179797333256363
 40
0.6304235458996489
 40
0.6428232995946376
 40
0.6551630621692112
 40
0.6674812841144572
 40
0.6798227274609012
 40
0.691392263608254
 40
0.7030387204814081
 40
0.7147617410554822
 40
0.7264881840512064
 40
0.7382146270469305
 40
0.7499410700426545
 40
0.8052228727367826
 40
0.8755815307111279
 40
0.8866378912499534
 40
0.8976942517887789
 40
0.9087430614387387
 40
0.9197170026530626
 40
0.930624088624067
 40
0.9429655319705108
 40
0.9552837539157569
 40
0.9676235164903304
 40
0.9800232701853191
 40
0.9924670827593318
 40
0.9999999999999999
 40
0.9999999999999999
 40
0.9999999999999999
 40
0.9999999999999999
 10
307.8501673353701
 20
122.4746478639366
 30
0.0
 10
307.8852630509844
 20
121.616263751913
 30
0.0
 10
308.0090587250921
 20
118.5884229476684
 30
0.0
 10
307.0059441053141
 20
113.4112357210593
 30
0.0
 10
304.8983659950321
 20
107.0383000370066
 30
0.0
 10
301.6164008507645
 20
100.8475056393859
 30
0.0
 10
297.2221535914421
 20
94.8039340131578
 30
0.0
 10
291.6670526064889
 20
88.96610379934562
 30
0.0
 10
284.9657333080378
 20
83.38674963436996
 30
0.0
 10
277.1577393755689
 20
78.25523724727711
 30
0.0
 10
268.6392387711283
 20
73.48593122238468
 30
0.0
 10
260.2651931674421
 20
68.61231464119007
 30
0.0
 10
241.4285267072501
 20
57.75798548601015
 30
0.0
 10
201.8378366451639
 20
34.87786019717948
 30
0.0
 10
134.9540361000919
 20
-3.68272914719596
 30
0.0
 10
68.25004833197953
 20
-42.34960659282525
 30
0.0
 10
22.72092561562065
 20
-68.38886638227656
 30
0.0
 10
5.523613978025921
 20
-78.50000382681792
 30
0.0
 10
-1.02436218553606
 20
-81.86596785663701
 30
0.0
 10
-7.995776014845857
 20
-84.89156971467177
 30
0.0
 10
-15.32126314173982
 20
-87.58259200008854
 30
0.0
 10
-23.71066819445808
 20
-90.15352348009114
 30
0.0
 10
-33.24758850468771
 20
-92.46739243280099
 30
0.0
 10
-43.97145646809283
 20
-94.35298673383213
 30
0.0
 10
-55.01122651172116
 20
-95.60285892951246
 30
0.0
 10
-66.24611901790179
 20
-96.20420391546024
 30
0.0
 10
-77.5388409939038
 20
-96.13298973314875
 30
0.0
 10
-88.74367427463868
 20
-95.39414191305077
 30
0.0
 10
-99.72677765733258
 20
-94.01014854731194
 30
0.0
 10
-110.3719936404192
 20
-91.99310902409795
 30
0.0
 10
-120.590284294141
 20
-89.36545955480928
 30
0.0
 10
-130.091046808632
 20
-86.21916568215455
 30
0.0
 10
-138.8500688947098
 20
-82.62293286663873
 30
0.0
 10
-146.8067076032028
 20
-78.61311248533441
 30
0.0
 10
-154.1941914708157
 20
-74.22855597548036
 30
0.0
 10
-161.7286979297925
 20
-69.91113993701961
 30
0.0
 10
-169.2291747438518
 20
-65.57270641212394
 30
0.0
 10
-186.0357257039534
 20
-55.87460158029783
 30
0.0
 10
-215.3514336314297
 20
-38.95055919566509
 30
0.0
 10
-244.5139011489618
 20
-22.10378789724086
 30
0.0
 10
-264.261566119475
 20
-10.71825180420979
 30
0.0
 10
-271.3172847622129
 20
-6.621169904307389
 30
0.0
 10
-278.4575005473561
 20
-2.58933918876876
 30
0.0
 10
-284.9200980665326
 20
1.781663600507993
 30
0.0
 10
-290.8972181680297
 20
6.653608565063085
 30
0.0
 10
-296.2468969794066
 20
12.03901446456368
 30
0.0
 10
-300.7962027832056
 20
17.93763134021102
 30
0.0
 10
-304.3006937784259
 20
24.08303171553511
 30
0.0
 10
-306.6582791076144
 20
30.42352821447474
 30
0.0
 10
-307.8988424390528
 20
36.03744972600817
 30
0.0
 10
-307.8634959515819
 20
39.52021670716722
 30
0.0
 10
-307.8501673353701
 20
40.83351451321365
 30
0.0
  0
LWPOLYLINE
  5
F7
330
EA
100
AcDbEntity
  8
0
  6
Continuous
 62
     7
370
    25
100
AcDbPolyline
 90
       22
 70
   128
 43
0.0
 10
21.7842276878
 20
4.2597193062
 10
21.1083563907
 20
5.2731777343
 10
19.7970666211
 20
6.7588571479
 10
18.1735652846
 20
8.1379453467
 10
16.2634559673
 20
9.388693286
 10
14.096862234
 20
10.4913759236
 10
11.7079525623
 20
11.4286032957
 10
9.1344014846
 20
12.1855947667
 10
6.4167954389
 20
12.7504121289
 10
3.5979926959
 20
13.1141478751
 10
0.7224474588
 20
13.2710656753
 10
-2.1644912063
 20
13.2186908421
 10
-5.0172945521
 20
12.9578493578
 10
-7.7909721656
 20
12.4926548485
 10
-10.441781494
 20
11.8304437094
 10
-12.9279176906
 20
10.981659406
 10
-15.2101729024
 20
9.9596877735
 10
-17.2525546015
 20
8.7806459153
 10
-19.0228532083
 20
7.4631280256
 10
-20.4931500563
 20
6.0279121488
 10
-21.6402576859
 20
4.4976324964
 10
-21.7709058426
 20
4.282356622
  0
SPLINE
  5
F8
330
EA
100
AcDbEntity
  8
0
  6
Continuous
 62
     7
370
    25
100
AcDbSpline
210
0.0
220
0.0
230
1.0
 70
     8
 71
     3
 72
    27
 73
    23
 74
     0
 42
0.000000001
 43
0.00000001
 40
0.0
 40
0.0
 40
0.0
 40
0.0
 40
0.0544879834253289
 40
0.1108517278989763
 40
0.1610913756750977
 40
0.2127877730960188
 40
0.2630279169948475
 40
0.314725879080777
 40
0.3649560703016709
 40
0.4166431618165589
 40
0.4668712843051282
 40
0.5185557443571088
 40
0.5687897009425406
 40
0.6204807212258336
 40
0.6707097275896401
 40
0.7223947924755411
 40
0.7726297500689144
 40
0.8243212582100787
 40
0.8745608355917326
 40
0.9262576770033369
 40
0.9764938479682802
 40
1.0
 40
1.0
 40
1.0
 40
1.0
 10
16.26345596729062
 20
17.88629229187274
 30
0.0
 10
15.23466437773063
 20
18.42182081918139
 30
0.0
 10
13.14166481743407
 20
19.51131356344328
 30
0.0
 10
9.53037703231991
 20
20.66307844167414
 30
0.0
 10
5.73265478365728
 20
21.41588772415692
 30
0.0
 10
1.908786986459101
 20
21.77166143619549
 30
0.0
 10
-2.001849699668021
 20
21.76698083250201
 30
0.0
 10
-5.821006723784373
 20
21.40395395799215
 30
0.0
 10
-9.508582933431695
 20
20.66657672946728
 30
0.0
 10
-12.89409327305152
 20
19.57342464523298
 30
0.0
 10
-15.94284576647809
 20
18.14585746888167
 30
0.0
 10
-18.51390615470229
 20
16.48199408371051
 30
0.0
 10
-20.58077465002454
 20
14.57546521414961
 30
0.0
 10
-22.04764541728451
 20
12.49648672651524
 30
0.0
 10
-22.89941534266046
 20
10.27314129403048
 30
0.0
 10
-23.09664542871775
 20
8.035079506097247
 30
0.0
 10
-22.63773779334448
 20
5.803506896069649
 30
0.0
 10
-21.54188670474134
 20
3.676902844677886
 30
0.0
 10
-19.82759184639698
 20
1.646083995095402
 30
0.0
 10
-17.5469910659085
 20
-0.1644270140242141
 30
0.0
 10
-15.3248785543728
 20
-1.500988248434129
 30
0.0
 10
-13.76604710611024
 20
-2.095761630939143
 30
0.0
 10
-13.2691529546154
 20
-2.285351990795527
 30
0.0
  0
SPLINE
  5
F9
330
EA
100
AcDbEntity
  8
0
  6
Continuous
 62
     7
370
    25
100
AcDbSpline
210
0.0
220
0.0
230
1.0
 70
     8
 71
     3
 72
    18
 73
    14
 74
     0
 42
0.000000001
 43
0.00000001
 40
0.0
 40
0.0
 40
0.0
 40
0.0
 40
0.0166543954520938
 40
0.1154835921158283
 40
0.211526304127577
 40
0.3103534999914155
 40
0.4063969867223615
 40
0.505224909007802
 40
0.6012757864369946
 40
0.7001134860079543
 40
0.7961482605074878
 40
0.8949685003980506
 40
1.0
 40
1.0
 40
1.0
 40
1.0
 10
13.43454450019727
 20
-2.246004848162043
 30
0.0
 10
13.62168729032192
 20
-2.178666860679843
 30
0.0
 10
14.91935802861681
 20
-1.711737112154069
 30
0.0
 10
16.93041161419119
 20
-0.5617547385030273
 30
0.0
 10
19.36204117267598
 20
1.211726586078175
 30
0.0
 10
21.19242878795416
 20
3.189602044316134
 30
0.0
 10
22.4441013812826
 20
5.311026925241588
 30
0.0
 10
23.04830429783356
 20
7.507424040848101
 30
0.0
 10
23.00086293614534
 20
9.765858336689838
 30
0.0
 10
22.30630306266168
 20
11.98317504596769
 30
0.0
 10
20.96033869193041
 20
14.11546492864017
 30
0.0
 10
19.0107374471343
 20
16.12667898152542
 30
0.0
 10
17.19763127088617
 20
17.28795997300966
 30
0.0
 10
16.26345596729062
 20
17.88629229187274
 30
0.0
  0
LINE
  5
FA
330
EA
100
AcDbEntity
  8
0
  6
Continuous
 62
     7
370
    25
100
AcDbLine
 10
307.9898987175
 20
122.4755216847
 30
0.0
 11
307.9898987175
 21
138.8063379224
 31
0.0
  0
LINE
  5
FB
330
EA
100
AcDbEntity
  8
0
  6
Continuous
 62
     7
370
    25
100
AcDbLine
 10
-307.9898987175
 20
57.1634569302
 30
0.0
 11
-307.9898987175
 21
40.8326406925
 31
0.0
  0
VIEWPORT
  5
12D
330
EA
100
AcDbEntity
  8
0
100
AcDbViewport
 10
0.0
 20
0.0
 30
0.0
 40
205.6
 41
156.0
 68
     1
 69
     1
 12
0.0
 22
0.0
 13
0.0
 23
0.0
 14
10.0
 24
10.0
 15
10.0
 25
10.0
 16
0.0
 26
0.0
 36
1.0
 17
0.0
 27
0.0
 37
0.0
 42
50.0
 43
0.0
 44
0.0
 45
612.0
 50
0.0
 51
0.0
 72
   100
 90
   557152
  1

281
     0
 71
     1
 74
     0
110
0.0
120
0.0
130
0.0
111
1.0
121
0.0
131
0.0
112
0.0
122
1.0
132
0.0
 79
     0
146
0.0
170
     0
 61
     5
348
2F
292
     1
282
     1
141
0.0
142
0.0
 63
   256
361
12E
  0
ENDBLK
  5
ED
330
EA
100
AcDbEntity
  8
0
100
AcDbBlockEnd
  0
BLOCK
  5
FE
330
FC
100
AcDbEntity
  8
0
100
AcDbBlockBegin
  2
*Paper_Space6
 70
     0
 10
0.0
 20
0.0
 30
0.0
  3
*Paper_Space6
  1

  0
SPLINE
  5
100
330
FC
100
AcDbEntity
  8
0
  6
Continuous
 62
     7
370
    25
100
AcDbSpline
210
0.0
220
0.0
230
1.0
 70
     8
 71
     3
 72
    35
 73
    31
 74
     0
 42
0.000000001
 43
0.00000001
 40
0.0
 40
0.0
 40
0.0
 40
0.0
 40
0.0317945944282026
 40
0.0628283865150159
 40
0.0931976404769969
 40
0.1230110210495476
 40
0.1523976716181722
 40
0.1814971061528316
 40
0.2306336140590535
 40
0.2806006790833251
 40
0.3313698975795535
 40
0.382743718300747
 40
0.4347818702792983
 40
0.4909604059536032
 40
0.5491566543238333
 40
0.6123276813804752
 40
0.6802392648560146
 40
0.7461925924232777
 40
0.8063913661290119
 40
0.8414450786101385
 40
0.8736185050074691
 40
0.900504344224735
 40
0.9170659595854515
 40
0.9324801659335863
 40
0.9448846298156939
 40
0.959371800444235
 40
0.976453783966122
 40
0.9888421675714829
 40
0.9984857194859481
 40
1.0
 40
1.0
 40
1.0
 40
1.0
 10
-5.516503400852926
 20
-43.66459100830348
 30
0.0
 10
-7.533226402647059
 20
-43.81406037980113
 30
0.0
 10
-11.51841490808842
 20
-44.10942251960818
 30
0.0
 10
-17.65713076927694
 20
-44.26498516168518
 30
0.0
 10
-23.75627911655333
 20
-44.20206989592516
 30
0.0
 10
-29.79253880767907
 20
-43.90693307927552
 30
0.0
 10
-35.72557528014431
 20
-43.39041094580621
 30
0.0
 10
-42.85380798984739
 20
-42.49845716430898
 30
0.0
 10
-51.12744807014955
 20
-40.99918816332779
 30
0.0
 10
-60.41573390548474
 20
-38.7350985556525
 30
0.0
 10
-69.64197011597886
 20
-36.23089207327235
 30
0.0
 10
-78.94884376165987
 20
-33.65308217458566
 30
0.0
 10
-88.61104084586748
 20
-31.00048254537663
 30
0.0
 10
-98.61703844345325
 20
-28.25762676505842
 30
0.0
 10
-109.2234554690551
 20
-25.35982088633249
 30
0.0
 10
-120.4792578111262
 20
-22.29525768802421
 30
0.0
 10
-132.142369282594
 20
-19.13375262377349
 30
0.0
 10
-143.6314872376149
 20
-16.03366563862155
 30
0.0
 10
-153.1884271958642
 20
-13.46413580653569
 30
0.0
 10
-160.7438162819957
 20
-11.43917267649725
 30
0.0
 10
-166.3315334704354
 20
-9.94027376000814
 30
0.0
 10
-170.7240647470847
 20
-8.772048507513814
 30
0.0
 10
-173.9911036409673
 20
-7.852881818809207
 30
0.0
 10
-176.266133386881
 20
-7.1889204807494
 30
0.0
 10
-178.3012255720062
 20
-6.574333567065521
 30
0.0
 10
-180.2192028740603
 20
-5.978552128881639
 30
0.0
 10
-181.8546533010979
 20
-5.445167370486518
 30
0.0
 10
-182.9521050095322
 20
-5.054507460870703
 30
0.0
 10
-183.4783221414071
 20
-4.848995286056756
 30
0.0
 10
-183.3834757550986
 20
-4.895992279451783
 30
0.0
 10
-183.3706037178516
 20
-4.902370456554991
 30
0.0
  0
SPLINE
  5
101
330
FC
100
AcDbEntity
  8
0
  6
Continuous
 62
     7
370
    25
100
AcDbSpline
210
0.0
220
0.0
230
1.0
 70
     8
 71
     3
 72
    32
 73
    28
 74
     0
 42
0.000000001
 43
0.00000001
 40
0.0
 40
0.0
 40
0.0
 40
0.0
 40
0.0044429376724019
 40
0.0275140010242653
 40
0.0553225714545042
 40
0.1081847601245498
 40
0.1652423696566618
 40
0.2240171635103624
 40
0.2745483045612516
 40
0.3160936900383807
 40
0.3431519417849829
 40
0.3721618873860899
 40
0.406750825409814
 40
0.447432299408876
 40
0.489043960783505
 40
0.5449996825301705
 40
0.5974546052496832
 40
0.644539091995144
 40
0.6849287311611323
 40
0.7030781146684485
 40
0.720641596623499
 40
0.7447525775570779
 40
0.7778579123550396
 40
0.8199732258289281
 40
0.8710638356086705
 40
0.9310930605239566
 40
1.0
 40
1.0
 40
1.0
 40
1.0
 10
32.64330429752543
 20
-32.66451965495868
 30
0.0
 10
32.65443153292741
 20
-32.65576423049558
 30
0.0
 10
32.72333971684131
 20
-32.60154407810829
 30
0.0
 10
32.29682348117895
 20
-32.91068917422108
 30
0.0
 10
31.49605393717998
 20
-33.44913074298243
 30
0.0
 10
30.54766782444146
 20
-34.05189605772641
 30
0.0
 10
29.54957174524496
 20
-34.64637252998254
 30
0.0
 10
28.72514793117692
 20
-35.13051132169332
 30
0.0
 10
27.54285926975045
 20
-35.7631375096974
 30
0.0
 10
26.29726100505783
 20
-36.37273641266859
 30
0.0
 10
24.7162389034009
 20
-37.07600914475607
 30
0.0
 10
23.44046155037825
 20
-37.61117666904774
 30
0.0
 10
22.30300652733822
 20
-38.06296326752293
 30
0.0
 10
21.26693881489694
 20
-38.45258000901178
 30
0.0
 10
20.15208073190457
 20
-38.85072266468195
 30
0.0
 10
19.04564353630692
 20
-39.22092262546025
 30
0.0
 10
18.25209363355205
 20
-39.4750435785794
 30
0.0
 10
17.45346947598311
 20
-39.72129900816211
 30
0.0
 10
16.30160783365561
 20
-40.04262296712397
 30
0.0
 10
15.15465006576483
 20
-40.33838464201936
 30
0.0
 10
14.05524067155237
 20
-40.60956513126677
 30
0.0
 10
12.5044612247016
 20
-40.97197584288052
 30
0.0
 10
10.34668200614583
 20
-41.43743837054282
 30
0.0
 10
7.47977676112925
 20
-41.99152633172086
 30
0.0
 10
3.869834147203266
 20
-42.58680948118474
 30
0.0
 10
-0.5117102966961662
 20
-43.1874886477402
 30
0.0
 10
-3.7733798409363
 20
-43.49842062965204
 30
0.0
 10
-5.516503400852926
 20
-43.66459100830348
 30
0.0
  0
SPLINE
  5
104
330
FC
100
AcDbEntity
  8
0
  6
Continuous
 62
     7
370
    25
100
AcDbSpline
210
0.0
220
0.0
230
1.0
 70
     8
 71
     3
 72
    26
 73
    22
 74
     0
 42
0.000000001
 43
0.00000001
 40
0.0
 40
0.0
 40
0.0
 40
0.0
 40
0.0250388176300935
 40
0.0608165905617461
 40
0.1069461747512762
 40
0.1505719833011137
 40
0.1854539047032943
 40
0.2220971416907171
 40
0.2629882965652031
 40
0.3078366257362925
 40
0.3407822853514309
 40
0.3739568976146603
 40
0.4142959217286928
 40
0.4619056912409951
 40
0.5169183527711925
 40
0.5795058432402789
 40
0.6619756435451133
 40
0.7456314749886606
 40
0.8269620492100523
 40
0.9059071127272559
 40
1.0
 40
1.0
 40
1.0
 40
1.0
 10
-116.4814171354326
 20
-57.33016068010978
 30
0.0
 10
-115.9805672834755
 20
-57.55479734957235
 30
0.0
 10
-114.7640569502251
 20
-58.10041561932009
 30
0.0
 10
-112.3523707538021
 20
-59.13868702230696
 30
0.0
 10
-109.4746642395045
 20
-60.27709374961177
 30
0.0
 10
-106.5666045432203
 20
-61.33767161535781
 30
0.0
 10
-103.8326181079109
 20
-62.2437224695098
 30
0.0
 10
-101.1801047141136
 20
-63.08735567558396
 30
0.0
 10
-98.3918347098239
 20
-63.96425358907212
 30
0.0
 10
-95.68537609468537
 20
-64.79766667772877
 30
0.0
 10
-93.15806746026158
 20
-65.5611075551382
 30
0.0
 10
-90.77796093728921
 20
-66.26715839205657
 30
0.0
 10
-88.09919633088778
 20
-67.04488330916283
 30
0.0
 10
-84.95157288762448
 20
-67.93382973542
 30
0.0
 10
-81.3138975549095
 20
-68.92705836875047
 30
0.0
 10
-76.89347813153188
 20
-70.08592443291853
 30
0.0
 10
-71.80611876546313
 20
-71.35976178819509
 30
0.0
 10
-66.27093722554393
 20
-72.6553310198034
 30
0.0
 10
-60.86116463234162
 20
-73.90980074114509
 30
0.0
 10
-54.97365913309335
 20
-74.88919467316931
 30
0.0
 10
-50.80473649869023
 20
-75.18475594852531
 30
0.0
 10
-48.53780045548744
 20
-75.34547337286665
 30
0.0
  0
SPLINE
  5
105
330
FC
100
AcDbEntity
  8
0
  6
Continuous
 62
     7
370
    25
100
AcDbSpline
210
0.0
220
0.0
230
1.0
 70
    11
 71
     3
 72
    77
 73
    73
 74
     0
 42
0.000000001
 43
0.00000001
 40
0.0
 40
0.0
 40
0.0
 40
0.0
 40
0.0052193451278288
 40
0.0104386902556577
 40
0.0156580353834865
 40
0.0208773805113154
 40
0.1043869025565773
 40
0.1043869025565773
 40
0.1197851551098225
 40
0.1197851551098225
 40
0.1364424591954516
 40
0.1524702375148887
 40
0.1684980158343259
 40
0.1806972684971682
 40
0.2005535724732001
 40
0.2005535724732001
 40
0.2112798522621407
 40
0.2112798522621407
 40
0.2187608823973334
 40
0.2187608823973334
 40
0.2500000000000002
 40
0.2812391176026667
 40
0.2812391176026667
 40
0.2887201477378576
 40
0.2887201477378576
 40
0.2994464275268
 40
0.2994464275268
 40
0.3193027315028319
 40
0.3315019841656742
 40
0.3475297624851114
 40
0.3635575408045486
 40
0.3802148448901759
 40
0.3802148448901759
 40
0.3956130974434229
 40
0.3956130974434229
 40
0.4166666666666666
 40
0.5
 40
0.5833333333333333
 40
0.6043869025565776
 40
0.6043869025565776
 40
0.6197851551098223
 40
0.6197851551098223
 40
0.6364424591954517
 40
0.6524702375148889
 40
0.668498015834326
 40
0.6806972684971684
 40
0.7005535724732002
 40
0.7005535724732002
 40
0.7112798522621412
 40
0.7112798522621412
 40
0.7187608823973336
 40
0.7187608823973336
 40
0.7500000000000002
 40
0.7812391176026667
 40
0.7812391176026667
 40
0.7887201477378586
 40
0.7887201477378586
 40
0.7994464275267998
 40
0.7994464275267998
 40
0.819302731502832
 40
0.8315019841656741
 40
0.8475297624851112
 40
0.8635575408045484
 40
0.8802148448901774
 40
0.8802148448901774
 40
0.8956130974434227
 40
0.8956130974434227
 40
0.9791226194886845
 40
0.9843419646165134
 40
0.9895613097443423
 40
0.9947806548721712
 40
1.0
 40
1.0
 40
1.0
 40
1.0
 10
-30.95463425870975
 20
25.55615232797993
 30
0.0
 10
-30.77323041071139
 20
25.73320804481837
 30
0.0
 10
-30.39837354288576
 20
26.08392354736459
 30
0.0
 10
-29.80116982346816
 20
26.59937913715026
 30
0.0
 10
-29.17027678417898
 20
27.10378719226059
 30
0.0
 10
-25.19015721605984
 20
30.06137109102036
 30
0.0
 10
-19.92685625004044
 20
32.28111098117094
 30
0.0
 10
-13.4753001798059
 20
33.80620726919226
 30
0.0
 10
-12.45154598776951
 20
34.01777525955434
 30
0.0
 10
-10.28547133340474
 20
34.40350256461257
 30
0.0
 10
-8.038409178909436
 20
34.73646183733787
 30
0.0
 10
-4.596060877837082
 20
35.05321133245316
 30
0.0
 10
-1.401193266059014
 20
35.17839953770604
 30
0.0
 10
2.116659281206048
 20
35.15666563795679
 30
0.0
 10
4.473134880862689
 20
35.02294711956655
 30
0.0
 10
6.705511698432767
 20
34.82503613220467
 30
0.0
 10
7.485480089808223
 20
34.74229620502188
 30
0.0
 10
8.800447559410877
 20
34.57925029667637
 30
0.0
 10
9.338166234727044
 20
34.50578170955017
 30
0.0
 10
12.10390959477607
 20
34.09202763083923
 30
0.0
 10
16.43752282411475
 20
33.18687220593551
 30
0.0
 10
20.33416574358013
 20
31.85522036265134
 30
0.0
 10
22.55829473504944
 20
30.91283405625075
 30
0.0
 10
22.97953434414648
 20
30.72567832966395
 30
0.0
 10
23.98302139025164
 20
30.25861797911109
 30
0.0
 10
24.55584470546088
 20
29.97369810726407
 30
0.0
 10
26.13299123926521
 20
29.13626227593378
 30
0.0
 10
27.67728971336151
 20
28.20983398455587
 30
0.0
 10
29.69756871746997
 20
26.7264223964465
 30
0.0
 10
31.30006989805721
 20
25.29741214860752
 30
0.0
 10
32.7352107292193
 20
23.65506561930098
 30
0.0
 10
33.46976184330698
 20
22.51176774841909
 30
0.0
 10
34.07402727219772
 20
21.37312136993949
 30
0.0
 10
34.31272164583915
 20
20.81844691042673
 30
0.0
 10
34.75378012983141
 20
19.49030997771279
 30
0.0
 10
35.53133943909327
 20
15.62791442925691
 30
0.0
 10
32.50951460866814
 20
8.30795653804251
 30
0.0
 10
22.48250963244839
 20
2.891856507601452
 30
0.0
 10
15.85297951803627
 20
1.042549149772414
 30
0.0
 10
13.47530017980588
 20
0.4804847588930974
 30
0.0
 10
12.45154598776954
 20
0.2689167685310176
 30
0.0
 10
10.28547133340476
 20
-0.1168105365272135
 30
0.0
 10
8.038409178909442
 20
-0.4497698092525079
 30
0.0
 10
4.596060877837069
 20
-0.7665193043678089
 30
0.0
 10
1.401193266058991
 20
-0.8917075096206845
 30
0.0
 10
-2.116659281206064
 20
-0.8699736098714411
 30
0.0
 10
-4.473134880862711
 20
-0.7362550914812096
 30
0.0
 10
-6.705511698432802
 20
-0.5383441041193204
 30
0.0
 10
-7.485480089808298
 20
-0.4556041769365263
 30
0.0
 10
-8.800447559410962
 20
-0.2925582685910227
 30
0.0
 10
-9.338166234727106
 20
-0.2190896814648138
 30
0.0
 10
-12.10390959477611
 20
0.1946643972461151
 30
0.0
 10
-16.43752282411477
 20
1.099819822149836
 30
0.0
 10
-20.33416574358013
 20
2.431471665434004
 30
0.0
 10
-22.55829473504949
 20
3.373857971834635
 30
0.0
 10
-22.97953434414657
 20
3.561013698421447
 30
0.0
 10
-23.98302139025173
 20
4.028074048974317
 30
0.0
 10
-24.55584470546091
 20
4.312993920821316
 30
0.0
 10
-26.13299123926519
 20
5.150429752151569
 30
0.0
 10
-27.6772897133615
 20
6.076858043529497
 30
0.0
 10
-29.69756871746995
 20
7.560269631638854
 30
0.0
 10
-31.30006989805718
 20
8.989279879477834
 30
0.0
 10
-32.73521072921934
 20
10.63162640878443
 30
0.0
 10
-33.46976184330702
 20
11.77492427966636
 30
0.0
 10
-34.07402727219776
 20
12.91357065814598
 30
0.0
 10
-34.31272164583917
 20
13.46824511765869
 30
0.0
 10
-35.50948249326539
 20
17.07199006029258
 30
0.0
 10
-34.92222196485562
 20
20.56257754595878
 30
0.0
 10
-32.42812252605808
 20
23.92402987430843
 30
0.0
 10
-31.97572294485071
 20
24.47694862667323
 30
0.0
 10
-31.48660233128706
 20
25.02177888868919
 30
0.0
 10
-31.13603810670811
 20
25.37909661114149
 30
0.0
 10
-30.95463425870975
 20
25.55615232797993
 30
0.0
  0
LWPOLYLINE
  5
106
330
FC
100
AcDbEntity
  8
0
  6
Continuous
 62
     7
370
    25
100
AcDbPolyline
 90
       97
 70
   128
 43
0.0
 10
-176.8836243355
 20
150.933255021
 10
-236.3455733037
 20
92.8965699377
 10
-262.5088308497
 20
67.3604285011
 10
-266.5981443057
 20
63.3430551771
 10
-270.2093019027
 20
59.2330358699
 10
-273.1588327948
 20
55.0132163979
 10
-275.443701515
 20
50.7057622708
 10
-277.0604596727
 20
46.3321511184
 10
-278.1508476426
 20
40.6158044086
 10
-278.1051066847
 20
34.8564255633
 10
-276.9162226878
 20
29.1009474739
 10
-274.5915731824
 20
23.4202777437
 10
-271.1430514116
 20
17.8885248485
 10
-266.6173252803
 20
12.574265396
 10
-261.0874985786
 20
7.5418701791
 10
-254.6230211808
 20
2.8484166394
 10
-247.2780467679
 20
-1.4744993659
 10
-239.1045207484
 20
-5.3989606907
 10
-230.7773691599
 20
-8.6723621268
 10
-221.8226136121
 20
-11.5405326072
 10
-212.4484990315
 20
-14.1050181325
 10
-203.0581439118
 20
-16.6571154431
 10
-193.667788792
 20
-19.2092127537
 10
-184.2774336722
 20
-21.7613100643
 10
-140.008616679
 20
-33.792625957
 10
-83.6664859604
 20
-49.1052098205
 10
-74.8127225618
 20
-51.5114729991
 10
-65.9589591631
 20
-53.9177361776
 10
-57.0819277898
 20
-56.2935237987
 10
-47.9554869317
 20
-58.3170615253
 10
-38.5701719797
 20
-59.8998997547
 10
-27.6669464989
 20
-61.1600907223
 10
-16.5927011532
 20
-61.8431239713
 10
-5.4214993113
 20
-61.9426701621
 10
5.7654530587
 20
-61.4535372996
 10
16.8374748411
 20
-60.3784115107
 10
27.6501328339
 20
-58.7225416951
 10
38.0671728883
 20
-56.5047901659
 10
47.9631008265
 20
-53.7619264417
 10
57.2201014858
 20
-50.5308334343
 10
65.7669091
 20
-46.8409818121
 10
73.8853010124
 20
-42.5221191885
 10
81.1029445898
 20
-37.7623222591
 10
87.3380017531
 20
-32.5953232771
 10
92.9007002213
 20
-27.1830114035
 10
98.450482125
 20
-21.7662541291
 10
104.0002640287
 20
-16.3494968546
 10
130.1635215747
 20
9.186644582
 10
176.8836243355
 20
54.7868971475
 10
236.3455733037
 20
112.8235822308
 10
262.5088308497
 20
138.3597236674
 10
266.5981443057
 20
142.3770969914
 10
270.2093019027
 20
146.4871162986
 10
273.1588327948
 20
150.7069357706
 10
275.443701515
 20
155.0143898977
 10
277.0604596727
 20
159.3880010501
 10
278.1508476426
 20
165.1043477599
 10
278.1051066847
 20
170.8637266052
 10
276.9162226878
 20
176.6192046946
 10
274.5915731824
 20
182.2998744248
 10
271.1430514116
 20
187.83162732
 10
266.6173252803
 20
193.1458867725
 10
261.0874985786
 20
198.1782819894
 10
254.6230211808
 20
202.8717355291
 10
247.2780467679
 20
207.1946515344
 10
239.1045207484
 20
211.1191128592
 10
230.7773691599
 20
214.3925142953
 10
221.8226136121
 20
217.2606847757
 10
212.4484990315
 20
219.825170301
 10
203.0581439118
 20
222.3772676116
 10
193.667788792
 20
224.9293649222
 10
184.2774336722
 20
227.4814622328
 10
140.008616679
 20
239.5127781255
 10
83.6664859604
 20
254.825361989
 10
74.8127225618
 20
257.2316251676
 10
65.9589591631
 20
259.6378883461
 10
57.0819277898
 20
262.0136759672
 10
47.9554869317
 20
264.0372136938
 10
38.5701719797
 20
265.6200519232
 10
27.6669464989
 20
266.8802428908
 10
16.5927011532
 20
267.5632761398
 10
5.4214993113
 20
267.6628223306
 10
-5.7654530587
 20
267.1736894681
 10
-16.8374748411
 20
266.0985636792
 10
-27.6501328339
 20
264.4426938637
 10
-38.0671728883
 20
262.2249423344
 10
-47.9631008265
 20
259.4820786102
 10
-57.2201014858
 20
256.2509856028
 10
-65.7669091
 20
252.5611339806
 10
-73.8853010124
 20
248.2422713571
 10
-81.1029445898
 20
243.4824744276
 10
-87.3380017531
 20
238.3154754456
 10
-92.9007002213
 20
232.903163572
 10
-98.450482125
 20
227.4864062976
 10
-104.0002640287
 20
222.0696490231
 10
-130.1635215747
 20
196.5335075865
 10
-176.8836243355
 20
150.933255021
  0
SPLINE
  5
107
330
FC
100
AcDbEntity
  8
0
  6
Continuous
 62
     7
370
    25
100
AcDbSpline
210
0.0
220
0.0
230
1.0
 70
     8
 71
     3
 72
    56
 73
    52
 74
     0
 42
0.000000001
 43
0.00000001
 40
0.0
 40
0.0
 40
0.0
 40
0.0
 40
0.0056790817306358
 40
0.0179961380821913
 40
0.0308866665038519
 40
0.043837475615467
 40
0.0568830656229023
 40
0.0700149196939537
 40
0.0831485358491648
 40
0.096282152004376
 40
0.1581977710217994
 40
0.2687613764100557
 40
0.4094786923587462
 40
0.4713943113761697
 40
0.4811212067053695
 40
0.4907950711730919
 40
0.5004124853957732
 40
0.5099878281737938
 40
0.5195349985934117
 40
0.531852054944967
 40
0.5442024786420039
 40
0.5566140849361817
 40
0.5690632449009941
 40
0.581521893620954
 40
0.5939657061949667
 40
0.6063654598899554
 40
0.6187052224645289
 40
0.631023444409775
 40
0.6433648877562189
 40
0.6549344239035718
 40
0.666580880776726
 40
0.6783039013508
 40
0.6900303443465242
 40
0.7017567873422484
 40
0.7134832303379723
 40
0.7687650330321004
 40
0.8391236910064458
 40
0.8501800515452713
 40
0.861236412084097
 40
0.8722852217340566
 40
0.8832591629483806
 40
0.894166248919385
 40
0.9065076922658288
 40
0.918825914211075
 40
0.9311656767856484
 40
0.9435654304806371
 40
0.9560092430546498
 40
0.9684678917746095
 40
0.980917051739422
 40
0.9933286580335998
 40
1.0
 40
1.0
 40
1.0
 40
1.0
 10
278.1298146282851
 20
150.6093305791363
 30
0.0
 10
278.1607596184316
 20
149.7262434767181
 30
0.0
 10
278.258819541152
 20
146.9278760315043
 30
0.0
 10
277.1896614230995
 20
142.1411249105558
 30
0.0
 10
274.9237543731757
 20
136.3203308459653
 30
0.0
 10
271.3612939846607
 20
130.5451718201658
 30
0.0
 10
266.5312910126543
 20
124.9834621841641
 30
0.0
 10
260.8320452697714
 20
119.6223719005718
 30
0.0
 10
255.3255561231719
 20
114.1943532200811
 30
0.0
 10
242.882926339441
 20
102.076933397297
 30
0.0
 10
216.7656878953124
 20
76.55189633358158
 30
0.0
 10
172.5959304513285
 20
33.50935542448183
 30
0.0
 10
128.6524682755986
 20
-9.596426070671738
 30
0.0
 10
98.47800910778888
 20
-38.71759739025115
 30
0.0
 10
87.22147200287507
 20
-49.95215485759508
 30
0.0
 10
82.68788304829759
 20
-53.81731131991605
 30
0.0
 10
77.57560013966194
 20
-57.45677336009403
 30
0.0
 10
71.95385141998732
 20
-60.86491750088905
 30
0.0
 10
65.25420960296336
 20
-64.33255378746533
 30
0.0
 10
57.32672449781541
 20
-67.75565037896811
 30
0.0
 10
48.0461208615277
 20
-70.99427145690323
 30
0.0
 10
38.13843714120026
 20
-73.73908535789828
 30
0.0
 10
27.71251210259596
 20
-75.96080340205724
 30
0.0
 10
16.88721676153535
 20
-77.61805540466857
 30
0.0
 10
5.804287753926024
 20
-78.69287171752298
 30
0.0
 10
-5.396899268201305
 20
-79.18405917730814
 30
0.0
 10
-16.59917881036327
 20
-79.08425989515305
 30
0.0
 10
-27.70600598511223
 20
-78.39905237059031
 30
0.0
 10
-38.39268921934676
 20
-77.16261533868948
 30
0.0
 10
-48.60094275739655
 20
-75.42982729870899
 30
0.0
 10
-58.25422992887582
 20
-73.22244720701443
 30
0.0
 10
-67.55549427342469
 20
-70.60907139562872
 30
0.0
 10
-76.96286824391743
 20
-68.07528996421075
 30
0.0
 10
-86.34848471413711
 20
-65.51841713445147
 30
0.0
 10
-107.3672776826208
 20
-59.80889162330919
 30
0.0
 10
-144.0343061290206
 20
-49.84326215841249
 30
0.0
 10
-180.5153928482541
 20
-39.9201829147047
 30
0.0
 10
-205.2074635313809
 20
-33.2197853383035
 30
0.0
 10
-214.0446732831226
 20
-30.80097016895753
 30
0.0
 10
-222.9292389042719
 20
-28.45062949170735
 30
0.0
 10
-231.3399044581239
 20
-25.70809711658632
 30
0.0
 10
-239.5432824829099
 20
-22.464759960243
 30
0.0
 10
-247.4090344315634
 20
-18.68817426399136
 30
0.0
 10
-254.776207541118
 20
-14.35294029917359
 30
0.0
 10
-261.2583324033171
 20
-9.646333513222652
 30
0.0
 10
-266.7937723910105
 20
-4.60674983711637
 30
0.0
 10
-271.3229450500385
 20
0.7119820704955815
 30
0.0
 10
-274.788347927594
 20
6.249872531958856
 30
0.0
 10
-277.0670768803496
 20
11.93661080890859
 30
0.0
 10
-278.2177980313861
 20
16.81870654942845
 30
0.0
 10
-278.1526056803499
 20
19.78657246316351
 30
0.0
 10
-278.1298146282851
 20
20.82412956129033
 30
0.0
  0
LWPOLYLINE
  5
108
330
FC
100
AcDbEntity
  8
0
  6
Continuous
 62
     7
370
    25
100
AcDbPolyline
 90
       21
 70
   128
 43
0.0
 10
21.2947614905
 20
4.4761855995
 10
20.6404858813
 20
5.2263129896
 10
19.2059192278
 20
6.5174739496
 10
17.468463755
 20
7.705850452
 10
15.4555201736
 20
8.7727010896
 10
13.1988338063
 20
9.7012009905
 10
10.7339939454
 20
10.4767071565
 10
8.0998725878
 20
11.0869893922
 10
5.3380114008
 20
11.5224231821
 10
2.4919665852
 20
11.7761414753
 10
-0.393378032
 20
11.8441429826
 10
-3.2725188427
 20
11.7253552798
 10
-6.1000500763
 20
11.4216517199
 10
-8.8313798762
 20
10.9378218893
 10
-11.4234335398
 20
10.2814960737
 10
-13.8353328325
 20
9.463024923
 10
-16.0290406616
 20
8.4953162164
 10
-17.9699609442
 20
7.3936312982
 10
-19.627484208
 20
6.1753443977
 10
-20.9754703209
 20
4.8596686271
 10
-21.3426607982
 20
4.4152562337
  0
SPLINE
  5
109
330
FC
100
AcDbEntity
  8
0
  6
Continuous
 62
     7
370
    25
100
AcDbSpline
210
0.0
220
0.0
230
1.0
 70
     8
 71
     3
 72
    23
 73
    19
 74
     0
 42
0.000000001
 43
0.00000001
 40
0.0
 40
0.0
 40
0.0
 40
0.0
 40
0.0669884851444863
 40
0.1362830639122042
 40
0.1980485704908618
 40
0.2616050307037942
 40
0.3233711472244339
 40
0.3869295310640465
 40
0.4486834115873879
 40
0.5122284309557731
 40
0.5739797681432103
 40
0.6375215523448157
 40
0.6992800620735441
 40
0.762829911538905
 40
0.8245823353781039
 40
0.8881248631731687
 40
0.9498846035586661
 40
1.0
 40
1.0
 40
1.0
 40
1.0
 10
10.73399394539143
 20
19.39709900503891
 30
0.0
 10
9.477422080039675
 20
19.69717902163823
 30
0.0
 10
6.921020581085855
 20
20.30766937670111
 30
0.0
 10
2.885891765998723
 20
20.74168164494509
 30
0.0
 10
-1.136245525379678
 20
20.80225372528041
 30
0.0
 10
-4.978836324048968
 20
20.52096227494366
 30
0.0
 10
-8.712809924278204
 20
19.92196659472859
 30
0.0
 10
-12.16708249618164
 20
19.03490057097768
 30
0.0
 10
-15.30563360233115
 20
17.84818046405694
 30
0.0
 10
-17.98335749249032
 20
16.40038495835648
 30
0.0
 10
-20.1728788902777
 20
14.7169898642076
 30
0.0
 10
-21.77288129567961
 20
12.90957350583467
 30
0.0
 10
-22.76723668420473
 20
10.97195244911064
 30
0.0
 10
-23.10831755337884
 20
8.975411502506372
 30
0.0
 10
-22.79825482765209
 20
6.945569580655155
 30
0.0
 10
-21.83059350938687
 20
5.011619486705691
 30
0.0
 10
-20.40251170967304
 20
3.296191230244911
 30
0.0
 10
-19.06271432023552
 20
2.335563094163357
 30
0.0
 10
-18.46254095529335
 20
1.905241744505966
 30
0.0
  0
SPLINE
  5
10A
330
FC
100
AcDbEntity
  8
0
  6
Continuous
 62
     7
370
    25
100
AcDbSpline
210
0.0
220
0.0
230
1.0
 70
     8
 71
     3
 72
    18
 73
    14
 74
     0
 42
0.000000001
 43
0.00000001
 40
0.0
 40
0.0
 40
0.0
 40
0.0
 40
0.0116713691064915
 40
0.1110013749347888
 40
0.2075307758197517
 40
0.3068587707092572
 40
0.403388950239246
 40
0.5027176752314377
 40
0.5992552829114539
 40
0.6985938347347886
 40
0.7951152578848187
 40
0.8944362615522023
 40
0.9999999999999999
 40
0.9999999999999999
 40
0.9999999999999999
 40
0.9999999999999999
 10
18.46193051557911
 20
1.885546262137834
 30
0.0
 10
18.56207700145406
 20
1.94549975927278
 30
0.0
 10
19.51452718322611
 20
2.515691701058413
 30
0.0
 10
20.8029132454123
 20
3.773398010240757
 30
0.0
 10
22.2301219149633
 20
5.656734969999549
 30
0.0
 10
22.96699716434052
 20
7.621837914920861
 30
0.0
 10
23.06932870789395
 20
9.617179133782287
 30
0.0
 10
22.51557153491811
 20
11.57849677458347
 30
0.0
 10
21.31532235278107
 20
13.49650921301174
 30
0.0
 10
19.52510694017887
 20
15.28383983939628
 30
0.0
 10
17.15598065483176
 20
16.89956529650279
 30
0.0
 10
14.25994212745191
 20
18.31557031178761
 30
0.0
 10
11.93294415766671
 20
19.02934003939306
 30
0.0
 10
10.73399394539143
 20
19.39709900503891
 30
0.0
  0
LINE
  5
10B
330
FC
100
AcDbEntity
  8
0
  6
Continuous
 62
     7
370
    25
100
AcDbLine
 10
278.2716905141
 20
150.6096294729
 30
0.0
 11
278.2716905141
 21
167.752975487
 31
0.0
  0
LINE
  5
10C
330
FC
100
AcDbEntity
  8
0
  6
Continuous
 62
     7
370
    25
100
AcDbLine
 10
-278.2716905141
 20
37.9671766816
 30
0.0
 11
-278.2716905141
 21
20.8238306675
 31
0.0
  0
VIEWPORT
  5
12F
330
FC
100
AcDbEntity
  8
0
100
AcDbViewport
 10
0.0
 20
0.0
 30
0.0
 40
205.6
 41
156.0
 68
     1
 69
     1
 12
0.0
 22
0.0
 13
0.0
 23
0.0
 14
10.0
 24
10.0
 15
10.0
 25
10.0
 16
0.0
 26
0.0
 36
1.0
 17
0.0
 27
0.0
 37
0.0
 42
50.0
 43
0.0
 44
0.0
 45
612.0
 50
0.0
 51
0.0
 72
   100
 90
   557152
  1

281
     0
 71
     1
 74
     0
110
0.0
120
0.0
130
0.0
111
1.0
121
0.0
131
0.0
112
0.0
122
1.0
132
0.0
 79
     0
146
0.0
170
     0
 61
     5
348
2F
292
     1
282
     1
141
0.0
142
0.0
 63
   256
361
130
  0
ENDBLK
  5
FF
330
FC
100
AcDbEntity
  8
0
100
AcDbBlockEnd
  0
BLOCK
  5
10F
330
10D
100
AcDbEntity
  8
0
100
AcDbBlockBegin
  2
*Paper_Space7
 70
     0
 10
0.0
 20
0.0
 30
0.0
  3
*Paper_Space7
  1

  0
SPLINE
  5
111
330
10D
100
AcDbEntity
  8
0
  6
Continuous
 62
     7
370
    25
100
AcDbSpline
210
0.0
220
0.0
230
1.0
 70
     8
 71
     3
 72
    29
 73
    25
 74
     0
 42
0.000000001
 43
0.00000001
 40
0.0
 40
0.0
 40
0.0
 40
0.0
 40
0.0092898280280077
 40
0.036122360142581
 40
0.1037157910776101
 40
0.1773918064649978
 40
0.2551704245322879
 40
0.4517066606965107
 40
0.5592708434396109
 40
0.6643782220190461
 40
0.763305795294112
 40
0.890453034499427
 40
0.9171470265890038
 40
0.9361094130508439
 40
0.9427207573224289
 40
0.9477811556466191
 40
0.9499417522215633
 40
0.9520155365587526
 40
0.954151326275753
 40
0.9564856921878139
 40
0.9621249447244462
 40
0.9738272542475689
 40
0.9899795854139744
 40
1.0
 40
1.0
 40
1.0
 40
1.0
 10
162.5707688577912
 20
104.2441219571864
 30
0.0
 10
162.5768767576552
 20
104.2505191645501
 30
0.0
 10
162.6006265792813
 20
104.2753939230068
 30
0.0
 10
162.2508340615088
 20
103.950607727545
 30
0.0
 10
161.2955352233334
 20
103.0709006079485
 30
0.0
 10
160.0892479838259
 20
101.9643062147099
 30
0.0
 10
158.0914194317254
 20
100.1342263602702
 30
0.0
 10
155.8172710954748
 20
98.05412347611991
 30
0.0
 10
153.3544106374497
 20
95.80829711254964
 30
0.0
 10
151.4604614595748
 20
94.08540549818666
 30
0.0
 10
149.4325118919775
 20
92.24542734450975
 30
0.0
 10
147.8513310440715
 20
90.8154401987955
 30
0.0
 10
146.776368283438
 20
89.84544705895884
 30
0.0
 10
146.3927660637278
 20
89.4996158016779
 30
0.0
 10
146.114225142363
 20
89.24848881125637
 30
0.0
 10
145.9657445868163
 20
89.11452325373256
 30
0.0
 10
145.860924435544
 20
89.01980365992141
 30
0.0
 10
145.7917323079339
 20
88.95718645943725
 30
0.0
 10
145.7289368454452
 20
88.9002398012147
 30
0.0
 10
145.6492504078662
 20
88.82776555446137
 30
0.0
 10
145.5457392721995
 20
88.73292664366787
 30
0.0
 10
145.467208104496
 20
88.65887202600264
 30
0.0
 10
145.4296709265996
 20
88.62081353280877
 30
0.0
 10
145.4391279965905
 20
88.62535352773475
 30
0.0
 10
145.4427487004698
 20
88.62709169582023
 30
0.0
  0
SPLINE
  5
112
330
10D
100
AcDbEntity
  8
0
  6
Continuous
 62
     7
370
    25
100
AcDbSpline
210
0.0
220
0.0
230
1.0
 70
     8
 71
     3
 72
    40
 73
    36
 74
     0
 42
0.000000001
 43
0.00000001
 40
0.0
 40
0.0
 40
0.0
 40
0.0
 40
0.00076245901703
 40
0.0087885912147324
 40
0.0159999333942905
 40
0.0304907518907323
 40
0.0775338494670961
 40
0.1272175673415468
 40
0.1776281096139157
 40
0.2306862098176369
 40
0.2892321777590589
 40
0.3741829347800176
 40
0.4672138632795807
 40
0.551650001611017
 40
0.6070082644172934
 40
0.6543678055070045
 40
0.6938618155316456
 40
0.7313990913799834
 40
0.7703339901505678
 40
0.810654530426707
 40
0.8547157332557296
 40
0.8823723575006122
 40
0.8943864450798459
 40
0.8986056899295479
 40
0.9019356118522335
 40
0.9034270100159126
 40
0.9049078661760939
 40
0.90646515582509
 40
0.9081733030279429
 40
0.9122412372128906
 40
0.9247048281827135
 40
0.9382558024657158
 40
0.9517215066096633
 40
0.9829248291985364
 40
1.0
 40
1.0
 40
1.0
 40
1.0
 10
150.2136578489315
 20
94.08854524136467
 30
0.0
 10
150.2125995085545
 20
94.09019974459821
 30
0.0
 10
150.2004003991832
 20
94.10927060907501
 30
0.0
 10
149.9817005095535
 20
93.90350613558041
 30
0.0
 10
149.6822274160259
 20
93.66993617146163
 30
0.0
 10
148.8578978506986
 20
92.97371796571879
 30
0.0
 10
147.4636055476563
 20
91.74167157438926
 30
0.0
 10
145.5977063333948
 20
90.08810158749114
 30
0.0
 10
143.6348144188333
 20
88.33397998928925
 30
0.0
 10
141.5437646253618
 20
86.4593655921759
 30
0.0
 10
139.0100120084528
 20
84.19123605929813
 30
0.0
 10
135.9614985072852
 20
81.46417624064351
 30
0.0
 10
132.5885154586491
 20
78.44956186380783
 30
0.0
 10
129.6055510922919
 20
75.78343206543953
 30
0.0
 10
127.211686483146
 20
73.64432245613826
 30
0.0
 10
125.3933154016497
 20
72.01988670272341
 30
0.0
 10
123.8002001434015
 20
70.59710956639853
 30
0.0
 10
122.3097729893503
 20
69.26617481856526
 30
0.0
 10
120.7785075616729
 20
67.89871298844297
 30
0.0
 10
119.2306021427032
 20
66.52109912777846
 30
0.0
 10
117.5270456216067
 20
64.99498295457268
 30
0.0
 10
116.0754218204462
 20
63.70365691037257
 30
0.0
 10
115.2574928144497
 20
62.98072051798987
 30
0.0
 10
114.8189969539211
 20
62.59431742620952
 30
0.0
 10
114.5941512436953
 20
62.39666077611913
 30
0.0
 10
114.4444015457737
 20
62.26528057674042
 30
0.0
 10
114.3473017635552
 20
62.18020506161909
 30
0.0
 10
114.2621347995728
 20
62.10568790527454
 30
0.0
 10
114.1582773899405
 20
62.01494592285736
 30
0.0
 10
113.9981246880739
 20
61.87541399252265
 30
0.0
 10
113.9643835829535
 20
61.84632691179839
 30
0.0
 10
113.8835695198826
 20
61.77641613752669
 30
0.0
 10
113.7957830146799
 20
61.70098183129616
 30
0.0
 10
113.7051719040908
 20
61.62390724682334
 30
0.0
 10
113.7071256015221
 20
61.62536081865883
 30
0.0
 10
113.7078165865754
 20
61.62587491894697
 30
0.0
  0
SPLINE
  5
113
330
10D
100
AcDbEntity
  8
0
  6
Continuous
 62
     7
370
    25
100
AcDbSpline
210
0.0
220
0.0
230
1.0
 70
     8
 71
     3
 72
    75
 73
    71
 74
     0
 42
0.000000001
 43
0.00000001
 40
0.0
 40
0.0
 40
0.0
 40
0.0
 40
0.0001113137332618
 40
0.0096171746848975
 40
0.017613592220986
 40
0.0247699288626686
 40
0.0313186287109041
 40
0.0425846117971164
 40
0.0514030508462438
 40
0.058738987455859
 40
0.0659199703280109
 40
0.0753109524980488
 40
0.0852009379821983
 40
0.0958570112671883
 40
0.1072847556685048
 40
0.1199293739189425
 40
0.1350419832920875
 40
0.1480459133291578
 40
0.1624752611400796
 40
0.178320370664683
 40
0.1950786742471297
 40
0.2062105287676103
 40
0.2146555459102233
 40
0.2204332036036517
 40
0.2241116533616374
 40
0.2282575197054525
 40
0.2369178120011468
 40
0.24775781528427
 40
0.2607686384523184
 40
0.2759449750838015
 40
0.2932887083517004
 40
0.3118501867246296
 40
0.339153698143408
 40
0.3657430052883882
 40
0.3916993909208018
 40
0.4169852515894491
 40
0.4415375070571054
 40
0.4874696378421532
 40
0.530794548563995
 40
0.5602340124869339
 40
0.5884073512495199
 40
0.6158707491797277
 40
0.6456396153008861
 40
0.6781589369609713
 40
0.7059903498720609
 40
0.7355383467653508
 40
0.7635247379311987
 40
0.7876294034449481
 40
0.8038405524866156
 40
0.8176606300918772
 40
0.8321228126105993
 40
0.8493456776712542
 40
0.8627123847268107
 40
0.875440105467656
 40
0.8889411612765622
 40
0.8977248927031656
 40
0.9059089029785206
 40
0.913058789807808
 40
0.9205018032021827
 40
0.9303237234243191
 40
0.9406849945040846
 40
0.9495131026664045
 40
0.956774678700686
 40
0.9623695806775326
 40
0.9671684066597129
 40
0.9729844633771789
 40
0.9806516274095196
 40
0.9885600474462519
 40
0.9991727068362711
 40
1.0
 40
1.0
 40
1.0
 40
1.0
 10
73.99085782171446
 20
24.99879287001875
 30
0.0
 10
73.99154265180344
 20
24.99935488964753
 30
0.0
 10
74.0507099297491
 20
25.04791170997734
 30
0.0
 10
73.889236089474
 20
24.95775205142991
 30
0.0
 10
73.35803071521859
 20
24.7051987752773
 30
0.0
 10
72.73470091263023
 20
24.4166535591908
 30
0.0
 10
71.98768149820539
 20
24.08702375565876
 30
0.0
 10
71.09468774963784
 20
23.71196572080309
 30
0.0
 10
70.03597630012625
 20
23.29347419963334
 30
0.0
 10
68.99791283664234
 20
22.90374931854421
 30
0.0
 10
67.85424155250912
 20
22.4944034063098
 30
0.0
 10
66.46580147747619
 20
22.02357388089172
 30
0.0
 10
64.74006544462605
 20
21.47540479517179
 30
0.0
 10
62.74046735975617
 20
20.88367318888462
 30
0.0
 10
60.40486981629016
 20
20.24403437684372
 30
0.0
 10
57.57649825994471
 20
19.53343135958685
 30
0.0
 10
54.40809485177144
 20
18.8156229235669
 30
0.0
 10
50.91237343999391
 20
18.10687055257744
 30
0.0
 10
47.18358163218463
 20
17.43274403710979
 30
0.0
 10
42.94670632540108
 20
16.7636951033952
 30
0.0
 10
38.8417985284832
 20
16.21042437061374
 30
0.0
 10
35.32996506740431
 20
15.80348641838777
 30
0.0
 10
32.82663110013002
 20
15.54566970818702
 30
0.0
 10
31.03233697232545
 20
15.37742305085053
 30
0.0
 10
29.63677651471677
 20
15.25516951034406
 30
0.0
 10
27.92506599744458
 20
15.11400459796478
 30
0.0
 10
25.4398409085565
 20
14.92979119039411
 30
0.0
 10
21.97822146434872
 20
14.7168846444856
 30
0.0
 10
17.77346689335173
 20
14.52222739812026
 30
0.0
 10
12.81806990864733
 20
14.38073748414682
 30
0.0
 10
7.216930036750322
 20
14.33450922536893
 30
0.0
 10
0.2626336268759799
 20
14.43190275433705
 30
0.0
 10
-7.692717519004813
 20
14.77369440172667
 30
0.0
 10
-16.34606700171418
 20
15.43440665658249
 30
0.0
 10
-24.53557609035085
 20
16.38094671856503
 30
0.0
 10
-32.44255053546666
 20
17.34725557790776
 30
0.0
 10
-42.34516577465782
 20
18.63475412707405
 30
0.0
 10
-54.07329488307467
 20
20.15353111404892
 30
0.0
 10
-66.3016037620862
 20
21.72596544059741
 30
0.0
 10
-76.69819823027017
 20
23.0544209055227
 30
0.0
 10
-85.45814622119329
 20
24.1677927089972
 30
0.0
 10
-94.247038038496
 20
25.27878151321054
 30
0.0
 10
-103.4852746577843
 20
26.43963235942984
 30
0.0
 10
-112.7649746863087
 20
27.59851409731998
 30
0.0
 10
-122.0257641303105
 20
28.74852516732518
 30
0.0
 10
-130.8259394328531
 20
29.83600014681834
 30
0.0
 10
-139.2393568220035
 20
30.87030824104646
 30
0.0
 10
-146.2703981408283
 20
31.73267229482748
 30
0.0
 10
-151.8279599434336
 20
32.40996151142597
 30
0.0
 10
-156.3958442887478
 20
32.97346820004756
 30
0.0
 10
-160.9402733836122
 20
33.55369842795582
 30
0.0
 10
-165.3014356486674
 20
34.12827070241427
 30
0.0
 10
-169.3587177584933
 20
34.67801923758665
 30
0.0
 10
-172.7658126484286
 20
35.21989182966107
 30
0.0
 10
-175.4831627835772
 20
35.71018442812428
 30
0.0
 10
-177.6388326076358
 20
36.14074465755917
 30
0.0
 10
-179.2428380304894
 20
36.48556007796613
 30
0.0
 10
-180.6667643298143
 20
36.81247363171532
 30
0.0
 10
-182.0428693333621
 20
37.14806537910607
 30
0.0
 10
-183.4333585796374
 20
37.51086038685592
 30
0.0
 10
-184.7344495716559
 20
37.878024172724
 30
0.0
 10
-185.7000907999825
 20
38.17108123698594
 30
0.0
 10
-186.312541217404
 20
38.36615806182608
 30
0.0
 10
-186.7958563434765
 20
38.52660738478145
 30
0.0
 10
-187.1888842294789
 20
38.66215836847804
 30
0.0
 10
-187.5361503217721
 20
38.78548187901665
 30
0.0
 10
-187.9029367136621
 20
38.922898507375
 30
0.0
 10
-188.1883151488452
 20
39.03269540306425
 30
0.0
 10
-188.4146897743942
 20
39.13511294290468
 30
0.0
 10
-188.3160100933826
 20
39.08727205237432
 30
0.0
 10
-188.3088739601586
 20
39.08381238403246
 30
0.0
  0
SPLINE
  5
114
330
10D
100
AcDbEntity
  8
0
  6
Continuous
 62
     7
370
    25
100
AcDbSpline
210
0.0
220
0.0
230
1.0
 70
     8
 71
     3
 72
    21
 73
    17
 74
     0
 42
0.000000001
 43
0.00000001
 40
0.0
 40
0.0
 40
0.0
 40
0.0
 40
0.0314432037486572
 40
0.0744576068210635
 40
0.1126113529133254
 40
0.1458644781615037
 40
0.2187872481491221
 40
0.3049591081928126
 40
0.4072188007974905
 40
0.5011751595547387
 40
0.5805899010685686
 40
0.6555434181091847
 40
0.7451075508142081
 40
0.8497352283989327
 40
0.9612938409988773
 40
0.9999999999999999
 40
0.9999999999999999
 40
0.9999999999999999
 40
0.9999999999999999
 10
85.37842786643616
 20
35.57169349152694
 30
0.0
 10
85.36128762353354
 20
35.55717615470458
 30
0.0
 10
85.32069947364076
 20
35.5227990547803
 30
0.0
 10
85.10633102639999
 20
35.33896911139085
 30
0.0
 10
84.88728676646895
 20
35.1515374239256
 30
0.0
 10
84.54617179978504
 20
34.85968280788454
 30
0.0
 10
83.86678611009302
 20
34.27922883807
 30
0.0
 10
82.77275708519693
 20
33.34731644069794
 30
0.0
 10
81.47954620474165
 20
32.24885440573699
 30
0.0
 10
80.15488701563942
 20
31.12641808130565
 30
0.0
 10
78.88085072001793
 20
30.04883938753964
 30
0.0
 10
77.52546560536788
 20
28.90406417926498
 30
0.0
 10
75.98423044508573
 20
27.60387865466243
 30
0.0
 10
74.19705794185822
 20
26.09743981189855
 30
0.0
 10
72.652884444573
 20
24.79685329085671
 30
0.0
 10
71.85378797996354
 20
24.12305156915599
 30
0.0
 10
71.64795161201879
 20
23.94948942083944
 30
0.0
  0
SPLINE
  5
117
330
10D
100
AcDbEntity
  8
0
  6
Continuous
 62
     7
370
    25
100
AcDbSpline
210
0.0
220
0.0
230
1.0
 70
     8
 71
     3
 72
    35
 73
    31
 74
     0
 42
0.000000001
 43
0.00000001
 40
0.0
 40
0.0
 40
0.0
 40
0.0
 40
0.0655910404297161
 40
0.1216081953047264
 40
0.166391873737418
 40
0.1978887050542744
 40
0.218036497540112
 40
0.2471295463497665
 40
0.2804911982941998
 40
0.3068343070137852
 40
0.3271132748490935
 40
0.3614461543698238
 40
0.3822000674973648
 40
0.401977087738365
 40
0.4192326121653011
 40
0.4347879227687898
 40
0.4635316616834648
 40
0.4968489693126602
 40
0.5350945858999006
 40
0.5863946629838668
 40
0.6381683805597984
 40
0.6877353837448728
 40
0.7330270847943715
 40
0.7749976722410239
 40
0.8195836896439096
 40
0.8677525773184533
 40
0.9128244450714375
 40
0.9461707847594317
 40
0.9870132393508845
 40
0.9999999999999999
 40
0.9999999999999999
 40
0.9999999999999999
 40
0.9999999999999999
 10
3.90305021839446
 20
-42.05689405606457
 30
0.0
 10
5.697354364137548
 20
-41.57820486108751
 30
0.0
 10
9.024060078242226
 20
-40.69069753185996
 30
0.0
 10
13.44992616718962
 20
-39.27618043525988
 30
0.0
 10
16.91319269430962
 20
-38.04735395347277
 30
0.0
 10
19.38850479605846
 20
-37.08932921459729
 30
0.0
 10
21.45989911827778
 20
-36.2402319129082
 30
0.0
 10
23.54979444814755
 20
-35.33462470197939
 30
0.0
 10
25.74992545122335
 20
-34.31156499417872
 30
0.0
 10
27.71017779676284
 20
-33.33510579047414
 30
0.0
 10
29.72498144448813
 20
-32.27479669852743
 30
0.0
 10
31.65791236397272
 20
-31.18372320035127
 30
0.0
 10
33.50756486204581
 20
-30.05226282731729
 30
0.0
 10
34.9060664883466
 20
-29.14566020359831
 30
0.0
 10
36.12024128224924
 20
-28.35068591502831
 30
0.0
 10
37.39937824129981
 20
-27.50406366174545
 30
0.0
 10
38.4151362949893
 20
-26.83051312532935
 30
0.0
 10
39.87344812654345
 20
-25.86363922159355
 30
0.0
 10
41.65780336786455
 20
-24.67792258015603
 30
0.0
 10
43.75565011325941
 20
-23.27798276062703
 30
0.0
 10
46.05425325569743
 20
-21.73217019080306
 30
0.0
 10
48.31204336777309
 20
-20.19792254435476
 30
0.0
 10
50.46796922682041
 20
-18.71482110228873
 30
0.0
 10
52.60864439912375
 20
-17.22214316995569
 30
0.0
 10
54.84054236852091
 20
-15.64159941029316
 30
0.0
 10
57.15712374523783
 20
-13.96916009442391
 30
0.0
 10
59.30300134099243
 20
-12.38752931337526
 30
0.0
 10
61.36871968041343
 20
-10.829395237432
 30
0.0
 10
62.943315707595
 20
-9.62952036845203
 30
0.0
 10
63.92328480716389
 20
-8.849255912231214
 30
0.0
 10
64.15971077181437
 20
-8.661010408545797
 30
0.0
  0
SPLINE
  5
118
330
10D
100
AcDbEntity
  8
0
  6
Continuous
 62
     7
370
    25
100
AcDbSpline
210
0.0
220
0.0
230
1.0
 70
     8
 71
     3
 72
    52
 73
    48
 74
     0
 42
0.000000001
 43
0.00000001
 40
0.0
 40
0.0
 40
0.0
 40
0.0
 40
0.0101325461496593
 40
0.0297406267216756
 40
0.059564843156065
 40
0.0902004022501708
 40
0.1195545007031404
 40
0.1515789137225848
 40
0.1824095059135846
 40
0.2093955561388605
 40
0.2415950698929731
 40
0.2760125510827116
 40
0.3093022703162768
 40
0.3402164852497466
 40
0.3590697498697024
 40
0.3757015723783965
 40
0.3905086606511883
 40
0.4076321117249274
 40
0.4282838868966235
 40
0.452593824532516
 40
0.4871855752420411
 40
0.5197148073336298
 40
0.5503482256413492
 40
0.57896991145485
 40
0.6020432062911509
 40
0.6199038614520107
 40
0.6401733910151199
 40
0.6637858899422152
 40
0.6911207648602419
 40
0.7224757474107049
 40
0.7459927244011749
 40
0.7660819016812354
 40
0.7824348801136048
 40
0.7950304474293015
 40
0.8024617816866516
 40
0.8116643954561786
 40
0.824819758289
 40
0.842173274612218
 40
0.860788973229927
 40
0.8875945019934925
 40
0.908449496320971
 40
0.9259171209923315
 40
0.9369559320303841
 40
0.9484402447405201
 40
0.9614095687194522
 40
0.9784938020338111
 40
1.0
 40
1.0
 40
1.0
 40
1.0
 10
-173.9426725138745
 20
9.29112426419476
 30
0.0
 10
-173.4233948200294
 20
8.908441743514532
 30
0.0
 10
-171.8992325976783
 20
7.785207974592298
 30
0.0
 10
-168.8270482542481
 20
5.608934185722656
 30
0.0
 10
-164.6795648202551
 20
2.753729979747849
 30
0.0
 10
-160.01178709039
 20
-0.3377615891809044
 30
0.0
 10
-155.2197027535125
 20
-3.415561519730228
 30
0.0
 10
-150.4164101432007
 20
-6.41629147824737
 30
0.0
 10
-145.7308616005818
 20
-9.275233505960497
 30
0.0
 10
-141.0455514821971
 20
-12.08301132838115
 30
0.0
 10
-136.1853372987411
 20
-14.95155644624224
 30
0.0
 10
-131.0099813391191
 20
-17.96611705215714
 30
0.0
 10
-125.9266575129351
 20
-20.90039823171385
 30
0.0
 10
-121.6505784206106
 20
-23.35644455694482
 30
0.0
 10
-118.328945880393
 20
-25.26414355434
 30
0.0
 10
-115.6669979151923
 20
-26.78964251728801
 30
0.0
 10
-112.9098748958718
 20
-28.38381059578285
 30
0.0
 10
-109.8194423287297
 20
-30.06325615160304
 30
0.0
 10
-106.1290495610218
 20
-31.91272910542258
 30
0.0
 10
-101.3154013973077
 20
-34.10963706992487
 30
0.0
 10
-95.66436120262017
 20
-36.37713313801357
 30
0.0
 10
-89.50162591911152
 20
-38.49110719936131
 30
0.0
 10
-83.62166793488373
 20
-40.19730679905164
 30
0.0
 10
-78.30184075650844
 20
-41.48950834886491
 30
0.0
 10
-73.73757239469067
 20
-42.37625237886946
 30
0.0
 10
-69.75104103441029
 20
-43.0614802444393
 30
0.0
 10
-65.81969718131427
 20
-43.7083463559369
 30
0.0
 10
-61.33314057613185
 20
-44.38495080431425
 30
0.0
 10
-56.1499651929029
 20
-45.08088862581296
 30
0.0
 10
-50.92978157549175
 20
-45.67646301341487
 30
0.0
 10
-46.12115256270953
 20
-46.14180161517137
 30
0.0
 10
-42.24211502917451
 20
-46.46699141873408
 30
0.0
 10
-39.06040452680122
 20
-46.7055462910383
 30
0.0
 10
-36.66675336054258
 20
-46.80408078703041
 30
0.0
 10
-34.74648118694032
 20
-46.84812114153998
 30
0.0
 10
-32.81725761940609
 20
-46.86346035054361
 30
0.0
 10
-30.23105419986335
 20
-46.83616361440384
 30
0.0
 10
-27.00167291862632
 20
-46.72537910787588
 30
0.0
 10
-22.84146518251599
 20
-46.47424800748895
 30
0.0
 10
-18.43814017569409
 20
-46.07167851561381
 30
0.0
 10
-14.1318180606317
 20
-45.54614253829863
 30
0.0
 10
-10.87794714732979
 20
-45.07090546545263
 30
0.0
 10
-8.254526084570287
 20
-44.64051184728842
 30
0.0
 10
-5.936208521498918
 20
-44.22709482416855
 30
0.0
 10
-3.237805111559446
 20
-43.70242173914545
 30
0.0
 10
0.0916394544688698
 20
-42.99585866024005
 30
0.0
 10
2.539097606627995
 20
-42.39291221405035
 30
0.0
 10
3.903050218394454
 20
-42.0568940560646
 30
0.0
  0
SPLINE
  5
119
330
10D
100
AcDbEntity
  8
0
  6
Continuous
 62
     7
370
    25
100
AcDbSpline
210
0.0
220
0.0
230
1.0
 70
     8
 71
     3
 72
    27
 73
    23
 74
     0
 42
0.000000001
 43
0.00000001
 40
0.0
 40
0.0
 40
0.0
 40
0.0
 40
0.0520595229970436
 40
0.103966283971074
 40
0.1554994187959956
 40
0.2063453577855294
 40
0.2564761531026956
 40
0.306600009572214
 40
0.3573199815117306
 40
0.4088576113577753
 40
0.460843596580555
 40
0.5129447852516654
 40
0.5650459739227759
 40
0.6170319591455558
 40
0.6685695889916006
 40
0.7192895609311172
 40
0.7694134174006353
 40
0.8195372474094416
 40
0.8702571479420269
 40
0.921794873664113
 40
0.9737838652727868
 40
0.9999999999999999
 40
0.9999999999999999
 40
0.9999999999999999
 40
0.9999999999999999
 10
-32.73950213534494
 20
22.98097038719593
 30
0.0
 10
-31.99711681406106
 20
23.55010488138966
 30
0.0
 10
-30.51452460642712
 20
24.68670381727384
 30
0.0
 10
-27.30247552401176
 20
26.20919914406992
 30
0.0
 10
-23.52602427366396
 20
27.55176336591118
 30
0.0
 10
-19.21595688322171
 20
28.67256796159512
 30
0.0
 10
-14.47337741978632
 20
29.54331004329763
 30
0.0
 10
-9.381117725475042
 20
30.15252782112396
 30
0.0
 10
-4.015373162714688
 20
30.48943205667635
 30
0.0
 10
1.506661515457057
 20
30.54879811194778
 30
0.0
 10
7.044100603833891
 20
30.32956243368763
 30
0.0
 10
12.42277366818987
 20
29.8120381038307
 30
0.0
 10
17.48371335197088
 20
29.01429508547868
 30
0.0
 10
22.07181146003925
 20
27.95783185291893
 30
0.0
 10
26.09558563496363
 20
26.69581117873735
 30
0.0
 10
29.45119148036428
 20
25.26010451925662
 30
0.0
 10
32.06204484600351
 20
23.68050063036075
 30
0.0
 10
33.88713859526283
 20
21.98340308575675
 30
0.0
 10
34.90692740359301
 20
20.19396157340055
 30
0.0
 10
35.05053997486171
 20
18.35650803551987
 30
0.0
 10
34.61080818666963
 20
16.80740420736878
 30
0.0
 10
33.78020832355176
 20
15.91796153125185
 30
0.0
 10
33.50177238289003
 20
15.61980014309596
 30
0.0
  0
SPLINE
  5
11A
330
10D
100
AcDbEntity
  8
0
  6
Continuous
 62
     7
370
    25
100
AcDbSpline
210
0.0
220
0.0
230
1.0
 70
     8
 71
     3
 72
    10
 73
     6
 74
     0
 42
0.000000001
 43
0.00000001
 40
0.0
 40
0.0
 40
0.0
 40
0.0
 40
0.31427250787429
 40
0.6566324698499793
 40
1.0
 40
1.0
 40
1.0
 40
1.0
 10
-34.76906764680032
 20
17.65653276025537
 30
0.0
 10
-34.87501984557803
 20
18.22282655140588
 30
0.0
 10
-35.09639350132673
 20
19.40602546771901
 30
0.0
 10
-34.44401548490408
 20
21.21143140471903
 30
0.0
 10
-33.3082295378462
 20
22.39054655191818
 30
0.0
 10
-32.73950213534494
 20
22.98097038719593
 30
0.0
  0
LWPOLYLINE
  5
11B
330
10D
100
AcDbEntity
  8
0
  6
Continuous
 62
     7
370
    25
100
AcDbPolyline
 90
       97
 70
   128
 43
0.0
 10
-187.0828693448
 20
136.7073110217
 10
-232.1293261191
 20
96.980070331
 10
-251.9497670997
 20
79.5000844271
 10
-255.041427565
 20
76.7512173402
 10
-257.6363334066
 20
73.9625935817
 10
-259.5483011526
 20
71.130771616
 10
-260.7796494254
 20
68.2701118466
 10
-261.3321216718
 20
65.3945499572
 10
-261.0393548611
 20
61.6783928859
 10
-259.6088592449
 20
57.9815085258
 10
-257.0449618938
 20
54.334327593
 10
-253.3720365116
 20
50.7820835747
 10
-248.6197075367
 20
47.3718791682
 10
-242.8507758824
 20
44.1458286267
 10
-236.1532632874
 20
41.1422536669
 10
-228.6098116918
 20
38.3949429522
 10
-220.2817564198
 20
35.9219519828
 10
-211.2273568145
 20
33.7390649027
 10
-202.1770919127
 20
31.9806426877
 10
-192.6015125206
 20
30.5083794408
 10
-182.682838504
 20
29.2484625067
 10
-172.7510283289
 20
27.997172041
 10
-162.8192181539
 20
26.7458815754
 10
-152.8874079789
 20
25.4945911097
 10
-106.0660171536
 20
19.5956503431
 10
-46.4751561034
 20
12.0879075491
 10
-37.1108779384
 20
10.9081193958
 10
-27.7465997733
 20
9.7283312425
 10
-18.3665620632
 20
8.5690757127
 10
-8.8237501862
 20
7.646338834
 10
0.8699558157
 20
7.017315251
 10
11.9922877866
 20
6.6581730934
 10
23.1455185663
 20
6.6767527253
 10
34.2546329581
 20
7.0740610166
 10
45.2378016963
 20
7.85007951
 10
55.9659960252
 20
8.9976875431
 10
66.2971573419
 20
10.5075507975
 10
76.1006170807
 20
12.3619298832
 10
85.2606903954
 20
14.5320293519
 10
93.6693395901
 20
16.9892979849
 10
101.262935281
 20
19.7118667744
 10
108.2801398845
 20
22.8207088274
 10
114.2974898074
 20
26.1755362758
 10
119.2418896626
 20
29.7513067367
 10
123.4601118246
 20
33.4568609225
 10
127.6644477902
 20
37.1647367203
 10
131.8687837558
 20
40.8726125181
 10
151.6892247365
 20
58.352598422
 10
187.0828693448
 20
89.5668589647
 10
232.1293261191
 20
129.2940996554
 10
251.9497670997
 20
146.7740855593
 10
255.041427565
 20
149.5229526462
 10
257.6363334066
 20
152.3115764047
 10
259.5483011526
 20
155.1433983704
 10
260.7796494254
 20
158.0040581398
 10
261.3321216718
 20
160.8796200292
 10
261.0393548611
 20
164.5957771005
 10
259.6088592449
 20
168.2926614607
 10
257.0449618938
 20
171.9398423934
 10
253.3720365116
 20
175.4920864117
 10
248.6197075367
 20
178.9022908182
 10
242.8507758824
 20
182.1283413597
 10
236.1532632874
 20
185.1319163195
 10
228.6098116918
 20
187.8792270342
 10
220.2817564198
 20
190.3522180036
 10
211.2273568145
 20
192.5351050838
 10
202.1770919127
 20
194.2935272988
 10
192.6015125206
 20
195.7657905456
 10
182.682838504
 20
197.0257074798
 10
172.7510283289
 20
198.2769979454
 10
162.8192181539
 20
199.5282884111
 10
152.8874079789
 20
200.7795788767
 10
106.0660171536
 20
206.6785196434
 10
46.4751561034
 20
214.1862624373
 10
37.1108779384
 20
215.3660505906
 10
27.7465997733
 20
216.545838744
 10
18.3665620632
 20
217.7050942737
 10
8.8237501862
 20
218.6278311524
 10
-0.8699558157
 20
219.2568547354
 10
-11.9922877866
 20
219.615996893
 10
-23.1455185663
 20
219.5974172611
 10
-34.2546329581
 20
219.2001089698
 10
-45.2378016963
 20
218.4240904764
 10
-55.9659960252
 20
217.2764824433
 10
-66.2971573419
 20
215.7666191889
 10
-76.1006170807
 20
213.9122401032
 10
-85.2606903954
 20
211.7421406345
 10
-93.6693395901
 20
209.2848720015
 10
-101.262935281
 20
206.562303212
 10
-108.2801398845
 20
203.4534611591
 10
-114.2974898074
 20
200.0986337106
 10
-119.2418896626
 20
196.5228632497
 10
-123.4601118246
 20
192.817309064
 10
-127.6644477902
 20
189.1094332662
 10
-131.8687837558
 20
185.4015574684
 10
-151.6892247365
 20
167.9215715645
 10
-187.0828693448
 20
136.7073110217
  0
SPLINE
  5
11C
330
10D
100
AcDbEntity
  8
0
  6
Continuous
 62
     7
370
    25
100
AcDbSpline
210
0.0
220
0.0
230
1.0
 70
     8
 71
     3
 72
    56
 73
    52
 74
     0
 42
0.000000001
 43
0.00000001
 40
0.0
 40
0.0
 40
0.0
 40
0.0
 40
0.003006171956329
 40
0.0158967003779896
 40
0.0288475094896048
 40
0.0418930994970401
 40
0.0550249535680915
 40
0.0681585697233027
 40
0.0812921858785139
 40
0.1432078048959374
 40
0.253771410284194
 40
0.3944887262328848
 40
0.4564043452503085
 40
0.4661312405795083
 40
0.4758051050472308
 40
0.4854225192699121
 40
0.4949978620479328
 40
0.5045450324675507
 40
0.516862088819106
 40
0.5292125125161429
 40
0.5416241188103207
 40
0.5540732787751332
 40
0.5665319274950932
 40
0.5789757400691058
 40
0.5913754937640945
 40
0.6037152563386681
 40
0.6160334782839142
 40
0.6283749216303582
 40
0.6399444577777111
 40
0.6515909146508653
 40
0.6633139352249394
 40
0.6750403782206635
 40
0.6867668212163878
 40
0.6984932642121118
 40
0.7537750669062401
 40
0.8241337248805856
 40
0.8351900854194111
 40
0.8462464459582367
 40
0.8572952556081965
 40
0.8682691968225205
 40
0.8791762827935249
 40
0.8915177261399687
 40
0.9038359480852148
 40
0.9161757106597884
 40
0.9285754643547771
 40
0.94101927692879
 40
0.9534779256487496
 40
0.9659270856135621
 40
0.9783386919077399
 40
0.9906891156047767
 40
1.0
 40
1.0
 40
1.0
 40
1.0
 10
261.2606673119916
 20
142.930425968407
 30
0.0
 10
261.2923679478649
 20
142.6280858865589
 30
0.0
 10
261.4600015754779
 20
141.029305190306
 30
0.0
 10
260.5642244725239
 20
138.1297198883028
 30
0.0
 10
258.5101195267173
 20
134.2747352343787
 30
0.0
 10
255.0299776641719
 20
130.5032135319507
 30
0.0
 10
250.6706671241252
 20
126.824990779832
 30
0.0
 10
246.5102138112528
 20
123.1116505970989
 30
0.0
 10
237.0784846575558
 20
114.8159098243472
 30
0.0
 10
217.3001189653862
 20
97.34494529990184
 30
0.0
 10
183.82262301781
 20
67.8785968016753
 30
0.0
 10
150.5841327948546
 20
38.38096912431913
 30
0.0
 10
127.6455874065794
 20
18.43299992822765
 30
0.0
 10
119.1775996523081
 20
10.75321047179527
 30
0.0
 10
115.6084775149784
 20
8.083756366081483
 30
0.0
 10
111.4108392237057
 20
5.535353909983068
 30
0.0
 10
106.6520274623276
 20
3.11447290289274
 30
0.0
 10
100.8379309226988
 20
0.6108807654967852
 30
0.0
 10
93.79473493640108
 20
-1.914802621080292
 30
0.0
 10
85.36447499787907
 20
-4.377880435381051
 30
0.0
 10
76.19320544026023
 20
-6.549717716267243
 30
0.0
 10
66.38188306973612
 20
-8.40701101141985
 30
0.0
 10
56.03851413359885
 20
-9.918283703382595
 30
0.0
 10
45.29942214685327
 20
-11.06614332502664
 30
0.0
 10
34.30262249781332
 20
-11.84406903933277
 30
0.0
 10
23.1626088635105
 20
-12.24249793263476
 30
0.0
 10
11.97652425857659
 20
-12.26102645143639
 30
0.0
 10
1.074779695749595
 20
-11.90819884804916
 30
0.0
 10
-9.471589866783702
 20
-11.21685253318923
 30
0.0
 10
-19.58140421764916
 20
-10.19780142603856
 30
0.0
 10
-29.43954692053781
 20
-8.90347844916927
 30
0.0
 10
-39.3838399929361
 20
-7.664653435936302
 30
0.0
 10
-49.31209650275852
 20
-6.410100398881256
 30
0.0
 10
-71.5421440001141
 20
-3.611171838095159
 30
0.0
 10
-110.3234975194427
 20
1.275013306434231
 30
0.0
 10
-148.9101081271955
 20
6.141549154643017
 30
0.0
 10
-175.0234465312602
 20
9.425169984701803
 30
0.0
 10
-184.3743173110331
 20
10.61370271104327
 30
0.0
 10
-193.7557110538528
 20
11.75630470828565
 30
0.0
 10
-202.7611761142675
 20
13.17034542972111
 30
0.0
 10
-211.6813858456647
 20
14.91457038880173
 30
0.0
 10
-220.3948366751618
 20
17.01519593260067
 30
0.0
 10
-228.7478108853974
 20
19.49518374548356
 30
0.0
 10
-236.3122036561098
 20
22.25020342437173
 30
0.0
 10
-243.0160150602637
 20
25.25819940090193
 30
0.0
 10
-248.7931925564566
 20
28.4868440793989
 30
0.0
 10
-253.5497302591796
 20
31.90080095599923
 30
0.0
 10
-257.2307857916011
 20
35.45694600274886
 30
0.0
 10
-259.7698567438909
 20
39.10796735441892
 30
0.0
 10
-261.1901486964763
 20
42.51327662559685
 30
0.0
 10
-261.2394679514026
 20
44.69401500458287
 30
0.0
 10
-261.2606673119915
 20
45.63138235361296
 30
0.0
  0
SPLINE
  5
11D
330
10D
100
AcDbEntity
  8
0
  6
Continuous
 62
     7
370
    25
100
AcDbSpline
210
0.0
220
0.0
230
1.0
 70
     8
 71
     3
 72
    14
 73
    10
 74
     0
 42
0.000000001
 43
0.00000001
 40
0.0
 40
0.0
 40
0.0
 40
0.0
 40
0.1629747777544753
 40
0.3315599987801566
 40
0.4818279095388138
 40
0.6364529910841362
 40
0.7867223857569132
 40
0.9413521472502896
 40
1.0
 40
1.0
 40
1.0
 40
1.0
 10
8.13172798177982
 20
16.98316062399825
 30
0.0
 10
6.812855761873534
 20
17.12428886944593
 30
0.0
 10
4.129708850134287
 20
17.41140373183874
 30
0.0
 10
0.0229533879104139
 20
17.52778271694194
 30
0.0
 10
-3.985454798342357
 20
17.39185253485162
 30
0.0
 10
-7.740367901174638
 20
17.04795885353528
 30
0.0
 10
-11.27963961961123
 20
16.50052658742938
 30
0.0
 10
-13.91005431884745
 20
15.96337305779458
 30
0.0
 10
-15.19166627796725
 20
15.54346078466144
 30
0.0
 10
-15.54408858786359
 20
15.42799178314477
 30
0.0
  0
SPLINE
  5
11E
330
10D
100
AcDbEntity
  8
0
  6
Continuous
 62
     7
370
    25
100
AcDbSpline
210
0.0
220
0.0
230
1.0
 70
     8
 71
     3
 72
    11
 73
     7
 74
     0
 42
0.000000001
 43
0.00000001
 40
0.0
 40
0.0
 40
0.0
 40
0.0
 40
0.0411823642953763
 40
0.3482313015927425
 40
0.6641861190012588
 40
1.0
 40
1.0
 40
1.0
 40
1.0
 10
18.02569005117639
 20
14.54549991521033
 30
0.0
 10
17.92983935514452
 20
14.59328857586306
 30
0.0
 10
17.11934162853648
 20
14.99738163329688
 30
0.0
 10
15.07429029213747
 20
15.64154474828412
 30
0.0
 10
11.90010646660052
 20
16.43714431407583
 30
0.0
 10
9.41311328610641
 20
16.79749528324878
 30
0.0
 10
8.13172798177982
 20
16.98316062399825
 30
0.0
  0
LINE
  5
11F
330
10D
100
AcDbEntity
  8
0
  6
Continuous
 62
     7
370
    25
100
AcDbLine
 10
261.3654110592
 20
142.9313428503
 30
0.0
 11
261.3654110592
 21
161.7875236825
 31
0.0
  0
LINE
  5
120
330
10D
100
AcDbEntity
  8
0
  6
Continuous
 62
     7
370
    25
100
AcDbLine
 10
-261.3654110592
 20
64.486646304
 30
0.0
 11
-261.3654110592
 21
45.6304654718
 31
0.0
  0
VIEWPORT
  5
131
330
10D
100
AcDbEntity
  8
0
100
AcDbViewport
 10
0.0
 20
0.0
 30
0.0
 40
205.6
 41
156.0
 68
     1
 69
     1
 12
0.0
 22
0.0
 13
0.0
 23
0.0
 14
10.0
 24
10.0
 15
10.0
 25
10.0
 16
0.0
 26
0.0
 36
1.0
 17
0.0
 27
0.0
 37
0.0
 42
50.0
 43
0.0
 44
0.0
 45
612.0
 50
0.0
 51
0.0
 72
   100
 90
   557152
  1

281
     0
 71
     1
 74
     0
110
0.0
120
0.0
130
0.0
111
1.0
121
0.0
131
0.0
112
0.0
122
1.0
132
0.0
 79
     0
146
0.0
170
     0
 61
     5
348
2F
292
     1
282
     1
141
0.0
142
0.0
 63
   256
361
132
  0
ENDBLK
  5
110
330
10D
100
AcDbEntity
  8
0
100
AcDbBlockEnd
  0
ENDSEC
  0
SECTION
  2
ENTITIES
  0
SPLINE
  5
73
330
1F
100
AcDbEntity
  8
0
  6
Continuous
 62
     7
370
    25
100
AcDbSpline
210
0.0
220
0.0
230
1.0
 70
    11
 71
     3
 72
    77
 73
    73
 74
     0
 42
0.000000001
 43
0.00000001
 40
0.0
 40
0.0
 40
0.0
 40
0.0
 40
0.0052193451278288
 40
0.0104386902556577
 40
0.0156580353834865
 40
0.0208773805113154
 40
0.1043869025565773
 40
0.1043869025565773
 40
0.1197851551098225
 40
0.1197851551098225
 40
0.1364424591954516
 40
0.1524702375148887
 40
0.1684980158343259
 40
0.1806972684971682
 40
0.2005535724732001
 40
0.2005535724732001
 40
0.2112798522621407
 40
0.2112798522621407
 40
0.2187608823973334
 40
0.2187608823973334
 40
0.2500000000000002
 40
0.2812391176026667
 40
0.2812391176026667
 40
0.2887201477378576
 40
0.2887201477378576
 40
0.2994464275268
 40
0.2994464275268
 40
0.3193027315028319
 40
0.3315019841656742
 40
0.3475297624851114
 40
0.3635575408045486
 40
0.3802148448901759
 40
0.3802148448901759
 40
0.3956130974434229
 40
0.3956130974434229
 40
0.4166666666666666
 40
0.5
 40
0.5833333333333333
 40
0.6043869025565776
 40
0.6043869025565776
 40
0.6197851551098223
 40
0.6197851551098223
 40
0.6364424591954517
 40
0.6524702375148889
 40
0.668498015834326
 40
0.6806972684971684
 40
0.7005535724732002
 40
0.7005535724732002
 40
0.7112798522621412
 40
0.7112798522621412
 40
0.7187608823973336
 40
0.7187608823973336
 40
0.7500000000000002
 40
0.7812391176026667
 40
0.7812391176026667
 40
0.7887201477378586
 40
0.7887201477378586
 40
0.7994464275267998
 40
0.7994464275267998
 40
0.819302731502832
 40
0.8315019841656741
 40
0.8475297624851112
 40
0.8635575408045484
 40
0.8802148448901774
 40
0.8802148448901774
 40
0.8956130974434227
 40
0.8956130974434227
 40
0.9791226194886845
 40
0.9843419646165134
 40
0.9895613097443423
 40
0.9947806548721712
 40
1.0
 40
1.0
 40
1.0
 40
1.0
 10
-35.0
 20
0.0000000000000109
 30
0.0
 10
-35.0
 20
0.388698607916931
 30
0.0
 10
-34.98626631304174
 20
1.165887658431953
 30
0.0
 10
-34.92516223613242
 20
2.329734954493456
 30
0.0
 10
-34.82425212715406
 20
3.490334187089355
 30
0.0
 10
-33.98414036728695
 20
10.42657049934369
 30
0.0
 10
-31.34057149245388
 20
16.69464345785543
 30
0.0
 10
-27.01664555165855
 20
22.32443469583529
 30
0.0
 10
-26.3029285128877
 20
23.16551844876758
 30
0.0
 10
-24.73673486796262
 20
24.83878249049576
 30
0.0
 10
-23.05109930967716
 20
26.45923029894227
 30
0.0
 10
-20.29364273303914
 20
28.60967737590171
 30
0.0
 10
-17.58148166646894
 20
30.31567926595837
 30
0.0
 10
-14.45053521951594
 20
31.92012359804178
 30
0.0
 10
-12.24525811237426
 20
32.79025982053835
 30
0.0
 10
-10.09156900424684
 20
33.49224906160198
 30
0.0
 10
-9.326777061710178
 20
33.71417655550887
 30
0.0
 10
-8.016053966557777
 20
34.04788504169255
 30
0.0
 10
-7.473913173131648
 20
34.17267636059339
 30
0.0
 10
-4.652921478584235
 20
34.75294175578114
 30
0.0
 10
0.0000000000000325
 20
35.22109541686088
 30
0.0
 10
4.6529214785843
 20
34.75294175578114
 30
0.0
 10
7.473913173131566
 20
34.17267636059343
 30
0.0
 10
8.016053966557575
 20
34.04788504169262
 30
0.0
 10
9.32677706170998
 20
33.71417655550898
 30
0.0
 10
10.09156900424677
 20
33.49224906160204
 30
0.0
 10
12.2452581123743
 20
32.79025982053834
 30
0.0
 10
14.45053521951598
 20
31.92012359804178
 30
0.0
 10
17.58148166646899
 20
30.31567926595836
 30
0.0
 10
20.2936427330392
 20
28.60967737590168
 30
0.0
 10
23.0510993096771
 20
26.45923029894232
 30
0.0
 10
24.73673486796249
 20
24.83878249049592
 30
0.0
 10
26.30292851288759
 20
23.16551844876773
 30
0.0
 10
27.01664555165851
 20
22.32443469583539
 30
0.0
 10
28.61020054173302
 20
20.24961148119198
 30
0.0
 10
32.79775009670222
 20
13.9800286398376
 30
0.0
 10
36.75808287036153
 20
-0.0000000000000035
 30
0.0
 10
32.7977500967022
 20
-13.98002863983764
 30
0.0
 10
28.61020054173302
 20
-20.24961148119209
 30
0.0
 10
27.01664555165854
 20
-22.3244346958353
 30
0.0
 10
26.30292851288772
 20
-23.16551844876757
 30
0.0
 10
24.73673486796265
 20
-24.83878249049578
 30
0.0
 10
23.05109930967716
 20
-26.45923029894226
 30
0.0
 10
20.29364273303914
 20
-28.60967737590173
 30
0.0
 10
17.58148166646892
 20
-30.31567926595839
 30
0.0
 10
14.45053521951593
 20
-31.92012359804179
 30
0.0
 10
12.24525811237425
 20
-32.79025982053839
 30
0.0
 10
10.09156900424682
 20
-33.49224906160202
 30
0.0
 10
9.326777061710121
 20
-33.71417655550893
 30
0.0
 10
8.016053966557706
 20
-34.0478850416926
 30
0.0
 10
7.473913173131594
 20
-34.17267636059342
 30
0.0
 10
4.652921478584209
 20
-34.75294175578116
 30
0.0
 10
-0.0000000000000477
 20
-35.2210954168609
 30
0.0
 10
-4.6529214785843
 20
-34.75294175578114
 30
0.0
 10
-7.473913173131633
 20
-34.1726763605934
 30
0.0
 10
-8.016053966557704
 20
-34.04788504169258
 30
0.0
 10
-9.326777061710098
 20
-33.71417655550893
 30
0.0
 10
-10.09156900424681
 20
-33.492249061602
 30
0.0
 10
-12.24525811237427
 20
-32.79025982053833
 30
0.0
 10
-14.45053521951597
 20
-31.92012359804178
 30
0.0
 10
-17.58148166646895
 20
-30.31567926595836
 30
0.0
 10
-20.29364273303916
 20
-28.60967737590169
 30
0.0
 10
-23.05109930967718
 20
-26.45923029894225
 30
0.0
 10
-24.73673486796262
 20
-24.83878249049578
 30
0.0
 10
-26.30292851288771
 20
-23.16551844876757
 30
0.0
 10
-27.01664555165858
 20
-22.3244346958353
 30
0.0
 10
-31.34057149245374
 20
-16.69464345785534
 30
0.0
 10
-33.9841403672869
 20
-10.42657049934365
 30
0.0
 10
-34.82425212715404
 20
-3.490334187089341
 30
0.0
 10
-34.92516223613241
 20
-2.329734954493439
 30
0.0
 10
-34.98626631304173
 20
-1.16588765843193
 30
0.0
 10
-35.0
 20
-0.3886986079169092
 30
0.0
 10
-35.0
 20
0.0000000000000109
 30
0.0
  0
LWPOLYLINE
  5
74
330
1F
100
AcDbEntity
  8
0
  6
Continuous
 62
     7
370
    25
100
AcDbPolyline
 90
       97
 70
   128
 43
0.0
 10
-200.0
 20
0.0
 10
-200.0
 20
-127.4106202432
 10
-200.0
 20
-183.4712931502
 10
-199.9763697178
 20
-192.2783493228
 10
-199.4458997157
 20
-201.021343097
 10
-198.2307810032
 20
-209.6441064602
 10
-196.3484139609
 20
-218.1071603872
 10
-193.8152104587
 20
-226.3720143637
 10
-189.5997723861
 20
-236.6969455851
 10
-184.3405282632
 20
-246.5655450183
 10
-178.0738023429
 20
-255.8939465281
 10
-170.8703714953
 20
-264.5638313618
 10
-162.8079068001
 20
-272.4534917235
 10
-153.9898220439
 20
-279.466948259
 10
-144.5391003423
 20
-285.5277813017
 10
-134.5688844413
 20
-290.570389988
 10
-124.1556990332
 20
-294.5657915081
 10
-113.370782356
 20
-297.4902895063
 10
-103.0399463165
 20
-299.2250977689
 10
-92.5212409867
 20
-299.9711476994
 10
-81.9068272992
 20
-300.0
 10
-71.2892756123
 20
-300.0
 10
-60.6717239253
 20
-300.0
 10
-50.0541722384
 20
-300.0
 10
0.0
 20
-300.0
 10
63.7053101216
 20
-300.0
 10
73.7161445693
 20
-300.0
 10
83.726979017
 20
-300.0
 10
93.7307770332
 20
-299.9368086274
 10
103.6359704272
 20
-299.1523390776
 10
113.370782356
 20
-297.4902895063
 10
124.1556990332
 20
-294.5657915081
 10
134.5688844413
 20
-290.570389988
 10
144.5391003423
 20
-285.5277813017
 10
153.9898220439
 20
-279.466948259
 10
162.8079068001
 20
-272.4534917235
 10
170.8703714953
 20
-264.5638313618
 10
178.0738023429
 20
-255.8939465281
 10
184.3405282632
 20
-246.5655450183
 10
189.5997723861
 20
-236.6969455851
 10
193.8152104587
 20
-226.3720143637
 10
197.0817793727
 20
-215.166891508
 10
199.1521629621
 20
-203.6249758605
 10
199.9845482112
 20
-191.842385556
 10
200.0
 20
-179.9523331625
 10
200.0
 20
-168.0606752732
 10
200.0
 20
-156.1690173838
 10
200.0
 20
-100.1083444768
 10
200.0
 20
0.0
 10
200.0
 20
127.4106202432
 10
200.0
 20
183.4712931502
 10
199.9763697178
 20
192.2783493228
 10
199.4458997157
 20
201.021343097
 10
198.2307810032
 20
209.6441064602
 10
196.3484139609
 20
218.1071603872
 10
193.8152104587
 20
226.3720143637
 10
189.5997723861
 20
236.6969455851
 10
184.3405282632
 20
246.5655450183
 10
178.0738023429
 20
255.8939465281
 10
170.8703714953
 20
264.5638313618
 10
162.8079068001
 20
272.4534917235
 10
153.9898220439
 20
279.466948259
 10
144.5391003423
 20
285.5277813017
 10
134.5688844413
 20
290.570389988
 10
124.1556990332
 20
294.5657915081
 10
113.370782356
 20
297.4902895063
 10
103.0399463165
 20
299.2250977689
 10
92.5212409867
 20
299.9711476994
 10
81.9068272992
 20
300.0
 10
71.2892756123
 20
300.0
 10
60.6717239253
 20
300.0
 10
50.0541722384
 20
300.0
 10
0.0
 20
300.0
 10
-63.7053101216
 20
300.0
 10
-73.7161445693
 20
300.0
 10
-83.726979017
 20
300.0
 10
-93.7307770332
 20
299.9368086274
 10
-103.6359704272
 20
299.1523390776
 10
-113.370782356
 20
297.4902895063
 10
-124.1556990332
 20
294.5657915081
 10
-134.5688844413
 20
290.570389988
 10
-144.5391003423
 20
285.5277813017
 10
-153.9898220439
 20
279.466948259
 10
-162.8079068001
 20
272.4534917235
 10
-170.8703714953
 20
264.5638313618
 10
-178.0738023429
 20
255.8939465281
 10
-184.3405282632
 20
246.5655450183
 10
-189.5997723861
 20
236.6969455851
 10
-193.8152104587
 20
226.3720143637
 10
-197.0817793727
 20
215.166891508
 10
-199.1521629621
 20
203.6249758605
 10
-199.9845482112
 20
191.842385556
 10
-200.0
 20
179.9523331625
 10
-200.0
 20
168.0606752732
 10
-200.0
 20
156.1690173838
 10
-200.0
 20
100.1083444768
 10
-200.0
 20
0.0
  0
SPLINE
  5
75
330
1F
100
AcDbEntity
  8
0
  6
Continuous
 62
     7
370
    25
100
AcDbSpline
210
0.0
220
0.0
230
1.0
 70
    11
 71
     3
 72
   122
 73
   118
 74
     0
 42
0.000000001
 43
0.00000001
 40
0.0
 40
0.0
 40
0.0
 40
0.0
 40
0.0312499999999999
 40
0.0312499999999999
 40
0.0468749999999999
 40
0.0468749999999999
 40
0.0546874999999999
 40
0.0546874999999999
 40
0.0624999999999998
 40
0.0624999999999998
 40
0.0937499999999998
 40
0.0937499999999998
 40
0.1093749999999997
 40
0.1093749999999997
 40
0.1171874999999997
 40
0.1171874999999997
 40
0.1249999999999997
 40
0.1249999999999997
 40
0.1562499999999997
 40
0.1562499999999997
 40
0.1718749999999996
 40
0.1718749999999996
 40
0.1874999999999996
 40
0.1874999999999996
 40
0.2187499999999996
 40
0.2187499999999996
 40
0.2343749999999996
 40
0.2343749999999996
 40
0.2499999999999996
 40
0.2499999999999996
 40
0.2656249999999996
 40
0.2656249999999996
 40
0.2812499999999995
 40
0.2812499999999995
 40
0.3124999999999995
 40
0.3124999999999995
 40
0.3281249999999994
 40
0.3281249999999994
 40
0.3437499999999994
 40
0.3437499999999994
 40
0.3749999999999993
 40
0.3749999999999993
 40
0.3906249999999993
 40
0.3906249999999993
 40
0.4062499999999993
 40
0.4062499999999993
 40
0.4218749999999992
 40
0.4218749999999992
 40
0.4296874999999992
 40
0.4296874999999992
 40
0.4374999999999992
 40
0.4374999999999992
 40
0.4687499999999992
 40
0.4687499999999992
 40
0.4843749999999991
 40
0.4843749999999991
 40
0.4921874999999991
 40
0.4921874999999991
 40
0.4999999999999991
 40
0.4999999999999991
 40
0.5312499999999991
 40
0.5312499999999991
 40
0.539062499999999
 40
0.539062499999999
 40
0.546874999999999
 40
0.546874999999999
 40
0.562499999999999
 40
0.562499999999999
 40
0.5937499999999989
 40
0.5937499999999989
 40
0.6093749999999989
 40
0.6093749999999989
 40
0.6249999999999989
 40
0.6249999999999989
 40
0.6406249999999989
 40
0.6406249999999989
 40
0.6562499999999989
 40
0.6562499999999989
 40
0.6874999999999988
 40
0.6874999999999988
 40
0.7031249999999988
 40
0.7031249999999988
 40
0.7187499999999987
 40
0.7187499999999987
 40
0.7499999999999987
 40
0.7499999999999987
 40
0.7656249999999987
 40
0.7656249999999987
 40
0.7812499999999987
 40
0.7812499999999987
 40
0.7968749999999986
 40
0.7968749999999986
 40
0.8046874999999986
 40
0.8046874999999986
 40
0.8124999999999986
 40
0.8124999999999986
 40
0.8437499999999984
 40
0.8437499999999984
 40
0.8593749999999986
 40
0.8593749999999986
 40
0.8671874999999986
 40
0.8671874999999986
 40
0.8749999999999986
 40
0.8749999999999986
 40
0.9062499999999987
 40
0.9062499999999987
 40
0.9140624999999988
 40
0.9140624999999988
 40
0.9218749999999989
 40
0.9218749999999989
 40
0.9374999999999991
 40
0.9374999999999991
 40
0.9687499999999996
 40
0.9687499999999996
 40
0.9843749999999998
 40
0.9843749999999998
 40
1.0
 40
1.0
 40
1.0
 40
1.0
 10
0.0000000000000021
 20
23.0
 30
0.0
 10
-1.519647690138825
 20
23.0
 30
0.0
 10
-3.011625852842841
 20
22.85088422937931
 30
0.0
 10
-5.210131354330769
 20
22.41456516098675
 30
0.0
 10
-5.936340871087415
 20
22.23341618324118
 30
0.0
 10
-7.015537268061368
 20
21.90715571152908
 30
0.0
 10
-7.373580069805177
 20
21.78929662048574
 30
0.0
 10
-8.086218781033047
 20
21.53499932868835
 30
0.0
 10
-8.441540009629392
 20
21.39821468904905
 30
0.0
 10
-10.18989650506501
 20
20.67503429310336
 30
0.0
 10
-11.51226295415401
 20
19.96792955621753
 30
0.0
 10
-13.3843995601285
 20
18.71952057844284
 30
0.0
 10
-13.98974236381231
 20
18.27186680641921
 30
0.0
 10
-14.86884706724733
 20
17.55166342231279
 30
0.0
 10
-15.1571445759373
 20
17.30329173189855
 30
0.0
 10
-15.71765823148734
 20
16.79577792700334
 30
0.0
 10
-15.99070878162309
 20
16.53597859017099
 30
0.0
 10
-17.32052630024524
 20
15.20726974360771
 30
0.0
 10
-18.27199824148754
 20
14.05007145491474
 30
0.0
 10
-19.52965618988156
 20
12.17210483077203
 30
0.0
 10
-19.92223998850708
 20
11.51846875429317
 30
0.0
 10
-20.63518583964794
 20
10.1862590761521
 30
0.0
 10
-20.95661497049463
 20
9.506942005744081
 30
0.0
 10
-21.81827909649535
 20
7.430297878012749
 30
0.0
 10
-22.25689347469692
 20
5.994655310711796
 30
0.0
 10
-22.7030510808415
 20
3.761352347263489
 30
0.0
 10
-22.81410537187088
 20
3.013447121966256
 30
0.0
 10
-22.96211501631157
 20
1.518400952776348
 30
0.0
 10
-22.99931324189873
 20
0.7700221481413058
 30
0.0
 10
-23.00066795903311
 20
-0.7284347231661117
 30
0.0
 10
-22.96482674503512
 20
-1.478512748755556
 30
0.0
 10
-22.81855529257679
 20
-2.980402948818939
 30
0.0
 10
-22.70720939097296
 20
-3.735186736284197
 30
0.0
 10
-22.26691633661493
 20
-5.954859358524669
 30
0.0
 10
-21.83258612845654
 20
-7.388908340381839
 30
0.0
 10
-20.97240729597969
 20
-9.472200277195256
 30
0.0
 10
-20.64985061307872
 20
-10.15675038475417
 30
0.0
 10
-19.93542118634387
 20
-11.49586407555966
 30
0.0
 10
-19.54802296472991
 20
-12.14240855350034
 30
0.0
 10
-18.2982333418344
 20
-14.01527045071498
 30
0.0
 10
-17.34906860244529
 20
-15.17544980764356
 30
0.0
 10
-15.74772290120326
 20
-16.78035571691148
 30
0.0
 10
-15.18323867546609
 20
-17.29267603447191
 30
0.0
 10
-14.01925158996705
 20
-18.24905383757126
 30
0.0
 10
-13.41685114956903
 20
-18.69623501562502
 30
0.0
 10
-12.1719099621485
 20
-19.52961101513609
 30
0.0
 10
-11.52936879935596
 20
-19.915805189648
 30
0.0
 10
-10.53508113542112
 20
-20.44880132883067
 30
0.0
 10
-10.1985635269587
 20
-20.61873721933954
 30
0.0
 10
-9.515176247112635
 20
-20.94288527209117
 30
0.0
 10
-9.167354525032238
 20
-21.09746482552268
 30
0.0
 10
-7.41854660032017
 20
-21.82337607171739
 30
0.0
 10
-5.983181830261834
 20
-22.2587247142763
 30
0.0
 10
-3.777260194288492
 20
-22.70010194040153
 30
0.0
 10
-3.033075879915003
 20
-22.81169808414593
 30
0.0
 10
-1.903098865707683
 20
-22.92425559099421
 30
0.0
 10
-1.523460697844555
 20
-22.95260802011589
 30
0.0
 10
-0.7677033325697398
 20
-22.99029749733845
 30
0.0
 10
-0.3906954143853655
 20
-22.99975755648744
 30
0.0
 10
1.490065784249614
 20
-23.00094678449049
 30
0.0
 10
2.981106223584471
 20
-22.85565656190945
 30
0.0
 10
4.827895661575475
 20
-22.49073532436093
 30
0.0
 10
5.196395576079432
 20
-22.40850335543937
 30
0.0
 10
5.931647233935115
 20
-22.22519090370174
 30
0.0
 10
6.298424474929615
 20
-22.12403089767707
 30
0.0
 10
7.383876451892057
 20
-21.79564049653601
 30
0.0
 10
8.091867261708359
 20
-21.54259830101076
 30
0.0
 10
10.17010040775371
 20
-20.68372517356303
 30
0.0
 10
11.49504687336641
 20
-19.97911679897775
 30
0.0
 10
13.3883993588794
 20
-18.71699936632951
 30
0.0
 10
13.99714004904722
 20
-18.26594609089076
 30
0.0
 10
15.15961645071621
 20
-17.31331121464476
 30
0.0
 10
15.71526921416078
 20
-16.8104588569294
 30
0.0
 10
16.77587930884992
 20
-15.75217721043561
 30
0.0
 10
17.28083787596783
 20
-15.19674920190265
 30
0.0
 10
18.23906547781488
 20
-14.03228543384841
 30
0.0
 10
18.69418587566255
 20
-13.42002654417368
 30
0.0
 10
19.95363408152935
 20
-11.53825285478785
 30
0.0
 10
20.66077745979055
 20
-10.21705818037277
 30
0.0
 10
21.52574926795189
 20
-8.136714277231086
 30
0.0
 10
21.78137239792035
 20
-7.426219674916345
 30
0.0
 10
22.22386892832911
 20
-5.972986861985234
 30
0.0
 10
22.40737816123163
 20
-5.241476609267276
 30
0.0
 10
22.84856741737481
 20
-3.03276431616803
 30
0.0
 10
22.99793409395287
 20
-1.541514574970239
 30
0.0
 10
23.00100133521815
 20
0.7240493912386595
 30
0.0
 10
22.96432405356395
 20
1.485883963340164
 30
0.0
 10
22.81778338714284
 20
2.986099744991048
 30
0.0
 10
22.70813342744787
 20
3.728517065469586
 30
0.0
 10
22.41738921233002
 20
5.198252030171534
 30
0.0
 10
22.23629360645245
 20
5.925569388488672
 30
0.0
 10
21.91049603226422
 20
7.005101362769254
 30
0.0
 10
21.79285517976506
 20
7.363034622385828
 30
0.0
 10
21.53919476771611
 20
8.075017306176852
 30
0.0
 10
21.40275906912823
 20
8.430038582239687
 30
0.0
 10
20.67932204817147
 20
10.1815509592211
 30
0.0
 10
19.97218152390802
 20
11.50479091336253
 30
0.0
 10
18.72512830417652
 20
13.37653289115522
 30
0.0
 10
18.27816017894363
 20
13.981456120275
 30
0.0
 10
17.55949863156608
 20
14.85957844289677
 30
0.0
 10
17.31121004897763
 20
15.14811468212834
 30
0.0
 10
16.80320310412889
 20
15.7097338368328
 30
0.0
 10
16.5432025220181
 20
15.98324390634068
 30
0.0
 10
15.21375721226602
 20
17.31495765953674
 30
0.0
 10
14.05682446820862
 20
18.26667177857157
 30
0.0
 10
12.49397608806771
 20
19.31429942453384
 30
0.0
 10
12.17551983903436
 20
19.51666045778744
 30
0.0
 10
11.52661895727665
 20
19.90679216220016
 30
0.0
 10
11.19561217962755
 20
20.09480964855752
 30
0.0
 10
10.19526283141445
 20
20.6307790292058
 30
0.0
 10
9.515447591152384
 20
20.952765276802
 30
0.0
 10
7.438294861652667
 20
21.8155960718478
 30
0.0
 10
6.003612881917166
 20
22.25430649284557
 30
0.0
 10
3.774259709918231
 20
22.70086661166144
 30
0.0
 10
3.022280873080804
 20
22.81311980890668
 30
0.0
 10
1.516235762401922
 20
22.9624399009368
 30
0.0
 10
0.7598238450694277
 20
23.00000000000001
 30
0.0
 10
0.000000000000003
 20
23.0
 30
0.0
  0
SPLINE
  5
76
330
1B
100
AcDbEntity
 67
     1
  8
0
  6
Continuous
 62
     7
370
    25
100
AcDbSpline
210
0.0
220
0.0
230
1.0
 70
     8
 71
     3
 72
   113
 73
   109
 74
     0
 42
0.000000001
 43
0.00000001
 40
0.0
 40
0.0
 40
0.0
 40
0.0
 40
0.0055937541578256
 40
0.0104910296797069
 40
0.0155201932740202
 40
0.020576825619975
 40
0.0255803109607956
 40
0.0305670114131188
 40
0.0355764749183252
 40
0.0449035563067773
 40
0.0543436250162324
 40
0.0625742432664153
 40
0.0697470107187731
 40
0.0751868406111497
 40
0.0789056989359006
 40
0.0813142740521548
 40
0.0841347029620084
 40
0.0895311122635586
 40
0.0963633345757435
 40
0.1046161935992414
 40
0.1142556826927631
 40
0.1246464736727214
 40
0.135428849239134
 40
0.1598441808965721
 40
0.1860425097643763
 40
0.2140313723756293
 40
0.2438318683964727
 40
0.275477335315376
 40
0.3086035679984218
 40
0.3409720187873223
 40
0.3722763988867179
 40
0.4025629759508723
 40
0.4318749362851807
 40
0.4630404379219467
 40
0.493125530212174
 40
0.5046594389769025
 40
0.5160366139002236
 40
0.5268871013513268
 40
0.5360612525689068
 40
0.5433376170894423
 40
0.5489378232292228
 40
0.5528673982844335
 40
0.5547246754211219
 40
0.5553073369065024
 40
0.5556663393513172
 40
0.5557239515725929
 40
0.5557705925260615
 40
0.5558088010033074
 40
0.5558261512397439
 40
0.5558432339028824
 40
0.5558794602961834
 40
0.5559228142908056
 40
0.5560416505371215
 40
0.5564357655052019
 40
0.557054070885797
 40
0.5589784413512862
 40
0.5618234612964096
 40
0.567554609765971
 40
0.5749141432736334
 40
0.5838972667115783
 40
0.5944985938033173
 40
0.6048204671518731
 40
0.6163131170564236
 40
0.6289730672043526
 40
0.642796877420384
 40
0.6577811501164421
 40
0.6739225283612145
 40
0.6907523761826685
 40
0.7049616833210769
 40
0.7177726727968979
 40
0.7291778146266825
 40
0.7391785746233612
 40
0.7477872284849995
 40
0.7550297330399783
 40
0.7601577839189259
 40
0.7643743705747474
 40
0.7677632540024036
 40
0.7704773246050313
 40
0.7716673355910092
 40
0.7738966062251575
 40
0.7768013228409006
 40
0.7797882710006699
 40
0.7834088689763045
 40
0.790040467696926
 40
0.7980428720712749
 40
0.8067412986128869
 40
0.8160048925067473
 40
0.8258299409523033
 40
0.8362081494274222
 40
0.847124042623216
 40
0.863235214576631
 40
0.8789243053924901
 40
0.8934250950175358
 40
0.9067136577161761
 40
0.9187922018860168
 40
0.9244049243799668
 40
0.9300151396086885
 40
0.9359432450421626
 40
0.9434710756999587
 40
0.9525584747581654
 40
0.9609223586263704
 40
0.9695391770470395
 40
0.9780331829703779
 40
0.9829748743538049
 40
0.9877695486362423
 40
0.9924087819047627
 40
0.9968439207477873
 40
1.0
 40
1.0
 40
1.0
 40
1.0
 10
-193.8152113072227
 20
100.0
 30
0.0
 10
-193.7265738432674
 20
99.99999999125137
 30
0.0
 10
-193.560335170839
 20
99.9999999748434
 30
0.0
 10
-192.7826101479916
 20
99.99999984659512
 30
0.0
 10
-191.735804119122
 20
99.99999971586554
 30
0.0
 10
-190.7444632136758
 20
99.99999958930724
 30
0.0
 10
-189.9616751805272
 20
99.9999994887396
 30
0.0
 10
-189.4045320834769
 20
99.99999942505235
 30
0.0
 10
-188.9793421084779
 20
99.99999939940818
 30
0.0
 10
-188.9227648913523
 20
99.99999943035994
 30
0.0
 10
-189.5780261065248
 20
99.99999964357878
 30
0.0
 10
-189.7216967272906
 20
99.99999946285703
 30
0.0
 10
-189.4991153505119
 20
100.0000002335952
 30
0.0
 10
-189.1217239423547
 20
99.99999835396261
 30
0.0
 10
-188.7420401691307
 20
100.0000024795061
 30
0.0
 10
-187.95788176851
 20
99.99999267984538
 30
0.0
 10
-187.2397279090991
 20
100.0000434914514
 30
0.0
 10
-186.4022251311086
 20
99.99962514878702
 30
0.0
 10
-185.4675660800316
 20
100.0019329998093
 30
0.0
 10
-184.4752355679747
 20
99.99053743798721
 30
0.0
 10
-183.4271323780564
 20
99.95025507986945
 30
0.0
 10
-182.3557622240446
 20
99.88409257896352
 30
0.0
 10
-180.8691998414976
 20
99.75643884085528
 30
0.0
 10
-179.0778407128824
 20
99.53416502706179
 30
0.0
 10
-177.1233748214762
 20
99.19859505917226
 30
0.0
 10
-175.3728069451952
 20
98.81645959033442
 30
0.0
 10
-173.8412845756083
 20
98.41252131803105
 30
0.0
 10
-172.5401983397895
 20
98.01026778457761
 30
0.0
 10
-171.5111676184098
 20
97.64814037066489
 30
0.0
 10
-170.5787068725564
 20
97.27776618682257
 30
0.0
 10
-169.790518975299
 20
96.92916241718551
 30
0.0
 10
-169.1290023775169
 20
96.61018490657534
 30
0.0
 10
-168.5664488268947
 20
96.31858450754038
 30
0.0
 10
-168.1035202445653
 20
96.06273433771356
 30
0.0
 10
-167.8127324415641
 20
95.8920549660243
 30
0.0
 10
-167.6425829720253
 20
95.78773201930225
 30
0.0
 10
-167.5492310132715
 20
95.72867274777913
 30
0.0
 10
-167.4757571360633
 20
95.68043011231161
 30
0.0
 10
-167.3749966429531
 20
95.61945687760225
 30
0.0
 10
-167.256172365978
 20
95.55083771927862
 30
0.0
 10
-167.122414491012
 20
95.47608695741962
 30
0.0
 10
-166.976030708912
 20
95.39608835994393
 30
0.0
 10
-166.8438696290442
 20
95.32468534355152
 30
0.0
 10
-166.733467283022
 20
95.26530135491649
 30
0.0
 10
-166.6754209251633
 20
95.23411102771847
 30
0.0
 10
-166.6246137446685
 20
95.20680882651999
 30
0.0
 10
-166.6049769042994
 20
95.19625532016826
 30
0.0
 10
-166.5872188091247
 20
95.18670976864458
 30
0.0
 10
-166.5732173069527
 20
95.1791819851712
 30
0.0
 10
-166.5593080773522
 20
95.17170275528166
 30
0.0
 10
-166.5410471763082
 20
95.16188106631301
 30
0.0
 10
-166.5104688151155
 20
95.1454278870935
 30
0.0
 10
-166.4505391697733
 20
95.11315563357874
 30
0.0
 10
-166.380524781598
 20
95.07536925948364
 30
0.0
 10
-166.2486959059703
 20
95.00401761907442
 30
0.0
 10
-166.0965337457077
 20
94.9210047882839
 30
0.0
 10
-165.866897286366
 20
94.7944250483433
 30
0.0
 10
-165.6030346946038
 20
94.64599421789241
 30
0.0
 10
-165.307058988233
 20
94.47526319437833
 30
0.0
 10
-165.0075451112501
 20
94.29726254330816
 30
0.0
 10
-164.7232516294568
 20
94.12271251412731
 30
0.0
 10
-164.452558840299
 20
93.95105823198803
 30
0.0
 10
-164.1953349070244
 20
93.78266889873188
 30
0.0
 10
-163.9407391318883
 20
93.61043489218065
 30
0.0
 10
-163.6898299628318
 20
93.43491979501935
 30
0.0
 10
-163.4446301641688
 20
93.25768961415079
 30
0.0
 10
-163.2053804128777
 20
93.0789355129293
 30
0.0
 10
-163.0020701647233
 20
92.9230750538144
 30
0.0
 10
-162.6508645545064
 20
92.65188957979123
 30
0.0
 10
-162.2033153439175
 20
92.296860469061
 30
0.0
 10
-161.6503426936791
 20
91.8411787667326
 30
0.0
 10
-160.9992241477393
 20
91.28307225053173
 30
0.0
 10
-160.2637525744901
 20
90.61004837055002
 30
0.0
 10
-159.473079434729
 20
89.86773628691626
 30
0.0
 10
-158.6386714483654
 20
89.08876400912733
 30
0.0
 10
-157.7958441655307
 20
88.30190092722448
 30
0.0
 10
-156.8852191465662
 20
87.4523530181391
 30
0.0
 10
-156.0065866477585
 20
86.63291069771374
 30
0.0
 10
-155.111133823946
 20
85.79786956091793
 30
0.0
 10
-154.0665372014612
 20
84.82377042170553
 30
0.0
 10
-152.7568249756779
 20
83.60244282089383
 30
0.0
 10
-151.2115441645058
 20
82.16144552155791
 30
0.0
 10
-149.0649892841568
 20
80.15975057010859
 30
0.0
 10
-146.1035361905464
 20
77.39815094964037
 30
0.0
 10
-142.3190635220509
 20
73.8690730963394
 30
0.0
 10
-138.1074389527235
 20
69.94166952639205
 30
0.0
 10
-133.6002415050119
 20
65.73864044358432
 30
0.0
 10
-128.8205549351845
 20
61.28150842735323
 30
0.0
 10
-123.7728571001325
 20
56.574462889466
 30
0.0
 10
-117.7055384638196
 20
50.91655605108716
 30
0.0
 10
-110.7766365220376
 20
44.45547468478678
 30
0.0
 10
-103.2667723230839
 20
37.45156212335255
 30
0.0
 10
-96.21294029315519
 20
30.87659569165951
 30
0.0
 10
-89.75071038892985
 20
24.84117841510545
 30
0.0
 10
-84.71300837671484
 20
20.16913320030828
 30
0.0
 10
-80.95709136577237
 20
16.61836846636561
 30
0.0
 10
-78.0561744349581
 20
14.15416520706516
 30
0.0
 10
-74.67098143941237
 20
11.61585387970936
 30
0.0
 10
-70.47300321124644
 20
8.891111785947016
 30
0.0
 10
-65.57661290006821
 20
6.281340828442818
 30
0.0
 10
-60.24705121564338
 20
4.022699178811026
 30
0.0
 10
-54.86602212512408
 20
2.276311973683241
 30
0.0
 10
-50.09321177395388
 20
1.178066092856665
 30
0.0
 10
-46.09836595578658
 20
0.5439126719979648
 30
0.0
 10
-42.92718647712046
 20
0.2027361105454428
 30
0.0
 10
-39.8554070355074
 20
0.0150558890521998
 30
0.0
 10
-37.14227950415214
 20
-0.0024788354312244
 30
0.0
 10
-35.45869500690991
 20
-0.0007279067601659
 30
0.0
 10
-34.75873802577313
 20
0.000000048830287
 30
0.0
  0
SPLINE
  5
7A
330
1B
100
AcDbEntity
 67
     1
  8
0
  6
Continuous
 62
     7
370
    25
100
AcDbSpline
210
0.0
220
0.0
230
1.0
 70
     8
 71
     3
 72
   112
 73
   108
 74
     0
 42
0.000000001
 43
0.00000001
 40
0.0
 40
0.0
 40
0.0
 40
0.0
 40
0.0037431912904623
 40
0.0088665886251642
 40
0.0141329175787894
 40
0.0195074396206707
 40
0.0249506240163961
 40
0.030402312022943
 40
0.0357743039799596
 40
0.0477654839696918
 40
0.0600598567403029
 40
0.0719345603375519
 40
0.0846793286078009
 40
0.0969381027767619
 40
0.109265355190069
 40
0.1223774080799932
 40
0.1363194843571896
 40
0.1467681837140697
 40
0.157606212829367
 40
0.1688110334725546
 40
0.1803549997193398
 40
0.1918404229997497
 40
0.2020749383331076
 40
0.2109796987759742
 40
0.2175434316646089
 40
0.2229787226294404
 40
0.227454151637539
 40
0.2310786551548648
 40
0.2343950246695109
 40
0.2378907950895218
 40
0.2419151569613876
 40
0.2467091981909955
 40
0.2541893627293942
 40
0.2632206513629322
 40
0.27295581241281
 40
0.2831920012612167
 40
0.2939270187802446
 40
0.3051569265526566
 40
0.3168762458776723
 40
0.3396082527954931
 40
0.3639054576394531
 40
0.3896968723865536
 40
0.40107089888881
 40
0.4116849349491385
 40
0.4211735853112263
 40
0.4295393756829765
 40
0.4389502879891232
 40
0.4463715873520883
 40
0.4518063702155003
 40
0.4545836058372799
 40
0.456262314333765
 40
0.4565183273292497
 40
0.456715175381386
 40
0.4568633842235277
 40
0.4569265590656308
 40
0.4569880115945164
 40
0.4570527527533657
 40
0.4571251201927364
 40
0.4573038965565376
 40
0.4578371926941096
 40
0.459974635604186
 40
0.4629312013009722
 40
0.4688430544978852
 40
0.4774671819304912
 40
0.4881347257645
 40
0.5008493805462525
 40
0.5156061476705369
 40
0.5316828667247933
 40
0.5496149080750808
 40
0.5693819124848225
 40
0.59095923018654
 40
0.6137762189359691
 40
0.6357218151908148
 40
0.6566198356226057
 40
0.6837069589067492
 40
0.7089592532337493
 40
0.7324479682483579
 40
0.7542356041684559
 40
0.7745716378479856
 40
0.793275092568023
 40
0.8103853015955423
 40
0.8183533617971911
 40
0.8258555051298376
 40
0.8318246876775246
 40
0.8350781557574413
 40
0.8373087007374443
 40
0.8380713106335599
 40
0.83837866688021
 40
0.8386478432138494
 40
0.8388929277006874
 40
0.8391324157198908
 40
0.8393861359435537
 40
0.8396710518291173
 40
0.8403777203014408
 40
0.8418694680148486
 40
0.843941175511204
 40
0.8476514111298546
 40
0.852472835799807
 40
0.8606572227586491
 40
0.8708697747635468
 40
0.8831259541961686
 40
0.8974365567423098
 40
0.9138093086814315
 40
0.932251095380411
 40
0.9527639235896519
 40
0.9753473576430025
 40
1.0
 40
1.0
 40
1.0
 40
1.0
 10
34.75876412674875
 20
0.0000289355669286
 30
0.0
 10
35.56172203940041
 20
-0.0017850561262744
 30
0.0
 10
37.46370805677104
 20
-0.0060819025509001
 30
0.0
 10
40.496174782642
 20
0.0357915298153932
 30
0.0
 10
43.87076158890633
 20
0.2839701691981569
 30
0.0
 10
47.29606003871418
 20
0.7107015673822672
 30
0.0
 10
50.73267802109505
 20
1.329214157578737
 30
0.0
 10
54.13067139607212
 20
2.131219621957302
 30
0.0
 10
58.82832294947671
 20
3.510401678133129
 30
0.0
 10
64.7734498720464
 20
5.823722489847041
 30
0.0
 10
71.621792658558
 20
9.501276046077846
 30
0.0
 10
78.14394510565418
 20
14.03552708043358
 30
0.0
 10
83.94505126349388
 20
19.43161124430129
 30
0.0
 10
89.79782381323076
 20
24.89298726884264
 30
0.0
 10
95.71334932523621
 20
30.4083408184892
 30
0.0
 10
101.8915640473184
 20
36.16989798472737
 30
0.0
 10
107.775455062645
 20
41.65663801094448
 30
0.0
 10
113.3024712461451
 20
46.81067893316005
 30
0.0
 10
118.4000625967675
 20
51.56425464824152
 30
0.0
 10
123.6694858169968
 20
56.47807086383013
 30
0.0
 10
129.040474754416
 20
61.4865967451222
 30
0.0
 10
134.2592529314111
 20
66.35318376733602
 30
0.0
 10
139.0639006301414
 20
70.83358755646184
 30
0.0
 10
143.0965853447899
 20
74.59412418782613
 30
0.0
 10
146.3757906913577
 20
77.65203049826039
 30
0.0
 10
148.9615056364547
 20
80.06324746436981
 30
0.0
 10
151.0821212691945
 20
82.04075279964805
 30
0.0
 10
152.8815284247332
 20
83.7187266010025
 30
0.0
 10
154.4891066640803
 20
85.2178182274218
 30
0.0
 10
155.8757833706156
 20
86.51106174895841
 30
0.0
 10
157.0575159946262
 20
87.6135680167748
 30
0.0
 10
158.1798903606721
 20
88.66137322326642
 30
0.0
 10
159.1463681136217
 20
89.56499137549626
 30
0.0
 10
159.8398417612547
 20
90.21426301933778
 30
0.0
 10
160.5505891440549
 20
90.88406549121214
 30
0.0
 10
161.2179627971658
 20
91.47870601232603
 30
0.0
 10
161.8433653398488
 20
92.00907442609977
 30
0.0
 10
162.4183384083153
 20
92.47406406327613
 30
0.0
 10
163.0954939168284
 20
92.99812631876017
 30
0.0
 10
163.7837955891105
 20
93.49807004178669
 30
0.0
 10
164.3662988869335
 20
93.89488049731509
 30
0.0
 10
164.65706171462
 20
94.08183231676185
 30
0.0
 10
164.7577314581649
 20
94.14462042204367
 30
0.0
 10
164.8415741508358
 20
94.19631111762205
 30
0.0
 10
164.9493552141522
 20
94.26189751361628
 30
0.0
 10
165.0885367853542
 20
94.34533018131614
 30
0.0
 10
165.2638013224454
 20
94.4488349884596
 30
0.0
 10
165.4968717289943
 20
94.58358092702701
 30
0.0
 10
165.7341208752122
 20
94.71858250931736
 30
0.0
 10
165.9962241784588
 20
94.86465142119728
 30
0.0
 10
166.1781409494733
 20
94.96511374123179
 30
0.0
 10
166.3539805038474
 20
95.0608868424072
 30
0.0
 10
166.4195140961656
 20
95.09646035598276
 30
0.0
 10
166.4814899509687
 20
95.12999003477087
 30
0.0
 10
166.5317034812177
 20
95.15707831046052
 30
0.0
 10
166.5679880989927
 20
95.17661875388562
 30
0.0
 10
166.6041735312362
 20
95.19607259998897
 30
0.0
 10
166.6556296756191
 20
95.223689724703
 30
0.0
 10
166.757484372533
 20
95.27820066315304
 30
0.0
 10
166.9929903504656
 20
95.40346813286652
 30
0.0
 10
167.2444865932656
 20
95.53549307666817
 30
0.0
 10
167.6505206202113
 20
95.74613348496551
 30
0.0
 10
168.0609296862312
 20
95.95546102265048
 30
0.0
 10
168.444256939301
 20
96.15068584558749
 30
0.0
 10
168.7343936339825
 20
96.30116352377898
 30
0.0
 10
168.9259087960124
 20
96.40661919966402
 30
0.0
 10
169.0155721895269
 20
96.4660056016015
 30
0.0
 10
169.0122374756026
 20
96.48315870977116
 30
0.0
 10
168.9228002415248
 20
96.45992014691504
 30
0.0
 10
168.7520212353136
 20
96.39645682092747
 30
0.0
 10
168.5077435243817
 20
96.29353386776454
 30
0.0
 10
168.2087849126463
 20
96.1559733656418
 30
0.0
 10
168.0543109406438
 20
96.08482808402046
 30
0.0
 10
168.0183214051919
 20
96.07134622179109
 30
0.0
 10
168.1621794105839
 20
96.1472187560709
 30
0.0
 10
168.5569577324755
 20
96.34397400425762
 30
0.0
 10
169.1875614073519
 20
96.64223501403441
 30
0.0
 10
170.0604605641981
 20
97.02770336499242
 30
0.0
 10
171.183589878529
 20
97.48151651612937
 30
0.0
 10
172.5683494457377
 20
97.98020455115038
 30
0.0
 10
173.9655473984004
 20
98.41701562317787
 30
0.0
 10
175.2309900310794
 20
98.75936814116132
 30
0.0
 10
176.1487904246016
 20
98.98321874713716
 30
0.0
 10
177.0103255828114
 20
99.17295179375586
 30
0.0
 10
177.7928197729354
 20
99.32775592253854
 30
0.0
 10
178.3611483304645
 20
99.43138698295141
 30
0.0
 10
178.8087295525685
 20
99.50643497949267
 30
0.0
 10
179.0359615670957
 20
99.54298181523227
 30
0.0
 10
179.1943259099124
 20
99.56782567761657
 30
0.0
 10
179.3534597135291
 20
99.59215940561343
 30
0.0
 10
179.5114597965563
 20
99.6156903440154
 30
0.0
 10
179.6653984553948
 20
99.63801344419407
 30
0.0
 10
179.8797649498725
 20
99.66827682712231
 30
0.0
 10
180.2071265462718
 20
99.71237387009039
 30
0.0
 10
180.579930543056
 20
99.7588228690433
 30
0.0
 10
181.0321522500697
 20
99.81067310645986
 30
0.0
 10
181.4935133053377
 20
99.85750530657711
 30
0.0
 10
182.0316849982117
 20
99.9051380551304
 30
0.0
 10
182.5715141133762
 20
99.9437968262764
 30
0.0
 10
183.1030074891157
 20
99.97275603187438
 30
0.0
 10
183.5913835834544
 20
99.99072505308776
 30
0.0
 10
184.0406026546445
 20
99.99972105023161
 30
0.0
 10
184.4507987697325
 20
100.0000808678678
 30
0.0
 10
184.8434759149978
 20
99.99996506097287
 30
0.0
 10
185.2205921392141
 20
100.0000009343994
 30
0.0
 10
185.5863337011663
 20
99.99998974170472
 30
0.0
 10
185.8087404486806
 20
99.9999914741023
 30
0.0
 10
185.9248151615045
 20
99.99999237824554
 30
0.0
  0
SPLINE
  5
7B
330
1B
100
AcDbEntity
 67
     1
  8
0
  6
Continuous
 62
     7
370
    25
100
AcDbSpline
210
0.0
220
0.0
230
1.0
 70
     8
 71
     3
 72
    30
 73
    26
 74
     0
 42
0.000000001
 43
0.00000001
 40
0.0
 40
0.0
 40
0.0
 40
0.0
 40
0.0866508376369849
 40
0.1737061813333388
 40
0.2527513269683309
 40
0.3198397618969888
 40
0.3477797727909836
 40
0.3716424437064676
 40
0.3914018103987469
 40
0.407225903232252
 40
0.4195849601971476
 40
0.4247791531447763
 40
0.4295611811519739
 40
0.4341880737173095
 40
0.4389363332619391
 40
0.449697037072259
 40
0.4632344486279847
 40
0.4801321313856799
 40
0.5246124144082449
 40
0.5831709818051296
 40
0.654767021674832
 40
0.7380382375127651
 40
0.831458349198847
 40
0.9333481557656834
 40
1.0
 40
1.0
 40
1.0
 40
1.0
 10
16.04473936674788
 20
0.0000000056937441
 30
0.0
 10
16.68079236666033
 20
0.0000000271654088
 30
0.0
 10
17.9558676083248
 20
0.0000000702089567
 30
0.0
 10
19.60098586039303
 20
0.0000002789435558
 30
0.0
 10
21.3107507395235
 20
0.0000004212012406
 30
0.0
 10
22.82650407087457
 20
0.0000004213159058
 30
0.0
 10
24.08255303378828
 20
0.0000002881529876
 30
0.0
 10
24.9518848573329
 20
0.000000133151018
 30
0.0
 10
25.80998126465979
 20
0.0000000185586269
 30
0.0
 10
26.64974434900228
 20
-0.000000027311306
 30
0.0
 10
27.38042244203043
 20
0.0000000315522053
 30
0.0
 10
27.94987185926819
 20
0.0000001724980159
 30
0.0
 10
28.34636219752629
 20
0.0000003185552724
 30
0.0
 10
28.73346162809799
 20
0.0000005148638946
 30
0.0
 10
29.25184959590044
 20
0.0000008593432632
 30
0.0
 10
29.87086369727892
 20
0.0000014520223635
 30
0.0
 10
30.50022158866482
 20
0.0000023317741349
 30
0.0
 10
31.34623610755337
 20
0.0000039683640471
 30
0.0
 10
32.1814681532238
 20
0.0000066459267048
 30
0.0
 10
32.9815163227255
 20
0.0000105637479736
 30
0.0
 10
33.6495783904935
 20
0.000015210697972
 30
0.0
 10
34.18510834643332
 20
0.0000201773951367
 30
0.0
 10
34.56005700448893
 20
0.0000247036668899
 30
0.0
 10
34.75871397333881
 20
0.000027935643819
 30
0.0
 10
34.75259416099671
 20
0.0000283253626734
 30
0.0
 10
34.75017400682692
 20
0.0000284794817312
 30
0.0
  0
SPLINE
  5
7E
330
1B
100
AcDbEntity
 67
     1
  8
0
  6
Continuous
 62
     7
370
    25
100
AcDbSpline
210
0.0
220
0.0
230
1.0
 70
     8
 71
     3
 72
    27
 73
    23
 74
     0
 42
0.000000001
 43
0.00000001
 40
0.0
 40
0.0
 40
0.0
 40
0.0
 40
0.0417636911057391
 40
0.0879524792725968
 40
0.1350929276640495
 40
0.1836059917310346
 40
0.2336649247838232
 40
0.2852159745983476
 40
0.3203429165550756
 40
0.3560161685765258
 40
0.3921859448202686
 40
0.4287906248693986
 40
0.4657741895908558
 40
0.5031739000640171
 40
0.5456548112703641
 40
0.5888846385333633
 40
0.6329647070223883
 40
0.6779995660505561
 40
0.7239516123885079
 40
0.7706359553272709
 40
0.883447735072603
 40
1.0
 40
1.0
 40
1.0
 40
1.0
 10
-99.37074501839585
 20
120.0
 30
0.0
 10
-102.5943056610984
 20
120.0000295911835
 30
0.0
 10
-109.3829812571665
 20
120.0000919089025
 30
0.0
 10
-119.5889616150464
 20
120.0001904883748
 30
0.0
 10
-130.0010205493596
 20
120.0002844401384
 30
0.0
 10
-140.2551576904079
 20
120.0003746768824
 30
0.0
 10
-150.2402559081938
 20
120.00046594749
 30
0.0
 10
-158.7000503266142
 20
120.0005373649535
 30
0.0
 10
-165.7027374234542
 20
120.0005856082614
 30
0.0
 10
-171.3834612420603
 20
120.0006147826066
 30
0.0
 10
-176.6627015585364
 20
120.0006305454567
 30
0.0
 10
-181.4842386438504
 20
120.0006322137731
 30
0.0
 10
-185.7911263594447
 20
120.0006195821991
 30
0.0
 10
-189.6863284978155
 20
120.0005920061281
 30
0.0
 10
-193.0387924275232
 20
120.000548466525
 30
0.0
 10
-195.6819063663878
 20
120.0004898680946
 30
0.0
 10
-197.4704124504242
 20
120.0004128310889
 30
0.0
 10
-198.1520459331082
 20
120.0003167120711
 30
0.0
 10
-198.3010086908978
 20
120.0002206954176
 30
0.0
 10
-198.7473455299949
 20
120.0001042967016
 30
0.0
 10
-199.2783698048707
 20
120.0000094219417
 30
0.0
 10
-199.7568555417943
 20
120.000003174608
 30
0.0
 10
-200.0000000000003
 20
120.0000000000002
 30
0.0
  0
SPLINE
  5
81
330
1B
100
AcDbEntity
 67
     1
  8
0
  6
Continuous
 62
     7
370
    25
100
AcDbSpline
210
0.0
220
0.0
230
1.0
 70
    24
 71
     3
 72
    37
 73
    33
 74
     0
 42
0.000000001
 43
0.00000001
 40
0.5937499999999996
 40
0.5937499999999996
 40
0.5937499999999996
 40
0.5937499999999996
 40
0.6043869025565776
 40
0.6043869025565776
 40
0.6197851551098223
 40
0.6197851551098223
 40
0.6364424591954517
 40
0.6524702375148889
 40
0.668498015834326
 40
0.6806972684971684
 40
0.7005535724732002
 40
0.7005535724732002
 40
0.7112798522621412
 40
0.7112798522621412
 40
0.7187608823973336
 40
0.7187608823973336
 40
0.7500000000000002
 40
0.7812391176026667
 40
0.7812391176026667
 40
0.7887201477378586
 40
0.7887201477378586
 40
0.7994464275267998
 40
0.7994464275267998
 40
0.819302731502832
 40
0.8315019841656741
 40
0.8475297624851112
 40
0.8635575408045484
 40
0.8802148448901774
 40
0.8802148448901774
 40
0.8956130974434227
 40
0.8956130974434227
 40
0.9062499999999911
 40
0.9062499999999911
 40
0.9062499999999911
 40
0.9062499999999911
 10
200.0000000000002
 20
100.0000000000004
 30
0.0
 10
200.0000000000002
 20
100.0000000000004
 30
0.0
 10
200.0000000000002
 20
100.0000000000003
 30
0.0
 10
200.0000000000001
 20
99.99999999999962
 30
0.0
 10
198.8080864718468
 20
100.0
 30
0.0
 10
194.039903244397
 20
99.99999999999993
 30
0.0
 10
186.6589759895216
 20
100.0
 30
0.0
 10
168.6923294650227
 20
99.99999999999994
 30
0.0
 10
147.341426753238
 20
100.0
 30
0.0
 10
121.1660790566502
 20
99.99999999999997
 30
0.0
 10
102.0471619301132
 20
99.99999999999994
 30
0.0
 10
83.49218113899504
 20
100.0
 30
0.0
 10
76.98436227798992
 20
100.0
 30
0.0
 10
65.93767346658984
 20
99.99999999999997
 30
0.0
 10
61.3988035161949
 20
99.99999999999997
 30
0.0
 10
37.90662237719985
 20
99.99999999999997
 30
0.0
 10
-0.0000000000002567
 20
99.99999999999994
 30
0.0
 10
-37.90662237720039
 20
99.99999999999997
 30
0.0
 10
-61.39880351619506
 20
100.0
 30
0.0
 10
-65.93767346658966
 20
100.0
 30
0.0
 10
-76.98436227798952
 20
99.99999999999994
 30
0.0
 10
-83.49218113899484
 20
99.99999999999997
 30
0.0
 10
-102.0471619301133
 20
99.99999999999997
 30
0.0
 10
-121.1660790566504
 20
100.0
 30
0.0
 10
-147.3414267532381
 20
100.0
 30
0.0
 10
-168.6923294650226
 20
99.99999999999997
 30
0.0
 10
-186.6589759895214
 20
100.0000000000001
 30
0.0
 10
-194.0399032443969
 20
99.99999999999996
 30
0.0
 10
-198.8080864718467
 20
100.0
 30
0.0
 10
-200.0000000000001
 20
100.0
 30
0.0
 10
-200.0
 20
99.99999999999997
 30
0.0
 10
-199.9999999999999
 20
99.99999999999996
 30
0.0
 10
-199.9999999999999
 20
99.99999999999996
 30
0.0
  0
SPLINE
  5
82
330
1B
100
AcDbEntity
 67
     1
  8
0
  6
Continuous
 62
     7
370
    25
100
AcDbSpline
210
0.0
220
0.0
230
1.0
 70
    24
 71
     3
 72
    38
 73
    34
 74
     0
 42
0.000000001
 43
0.00000001
 40
0.5625000000012439
 40
0.5625000000012439
 40
0.5625000000012439
 40
0.5625000000012439
 40
0.5833333333333333
 40
0.6043869025565776
 40
0.6043869025565776
 40
0.6197851551098223
 40
0.6197851551098223
 40
0.6364424591954517
 40
0.6524702375148889
 40
0.668498015834326
 40
0.6806972684971684
 40
0.7005535724732002
 40
0.7005535724732002
 40
0.7112798522621412
 40
0.7112798522621412
 40
0.7187608823973336
 40
0.7187608823973336
 40
0.7500000000000002
 40
0.7812391176026667
 40
0.7812391176026667
 40
0.7887201477378586
 40
0.7887201477378586
 40
0.7994464275267998
 40
0.7994464275267998
 40
0.819302731502832
 40
0.8315019841656741
 40
0.8475297624851112
 40
0.8635575408045484
 40
0.8802148448901774
 40
0.8802148448901774
 40
0.8956130974434227
 40
0.8956130974434227
 40
0.9375000000000002
 40
0.9375000000000002
 40
0.9375000000000002
 40
0.9375000000000002
 10
200.0000000000001
 20
120.0
 30
0.0
 10
200.0000000000001
 20
120.0
 30
0.0
 10
200.0000000000001
 20
120.0000000000001
 30
0.0
 10
200.0000000000002
 20
120.0000000000001
 30
0.0
 10
200.0000000000001
 20
119.9999999999999
 30
0.0
 10
198.8080864718468
 20
120.0
 30
0.0
 10
194.039903244397
 20
120.0
 30
0.0
 10
186.6589759895216
 20
120.0000000000001
 30
0.0
 10
168.6923294650227
 20
119.9999999999999
 30
0.0
 10
147.341426753238
 20
120.0
 30
0.0
 10
121.1660790566502
 20
120.0
 30
0.0
 10
102.0471619301132
 20
120.0
 30
0.0
 10
83.49218113899498
 20
120.0
 30
0.0
 10
76.98436227798987
 20
120.0
 30
0.0
 10
65.93767346658976
 20
120.0
 30
0.0
 10
61.39880351619482
 20
120.0
 30
0.0
 10
37.90662237719976
 20
120.0
 30
0.0
 10
-0.0000000000003053
 20
120.0
 30
0.0
 10
-37.90662237720037
 20
120.0
 30
0.0
 10
-61.39880351619502
 20
120.0
 30
0.0
 10
-65.9376734665896
 20
120.0
 30
0.0
 10
-76.98436227798946
 20
120.0
 30
0.0
 10
-83.49218113899475
 20
120.0
 30
0.0
 10
-102.0471619301132
 20
120.0
 30
0.0
 10
-121.1660790566503
 20
120.0
 30
0.0
 10
-147.341426753238
 20
120.0000000000001
 30
0.0
 10
-168.6923294650224
 20
120.0
 30
0.0
 10
-186.6589759895214
 20
120.0000000000001
 30
0.0
 10
-194.0399032443967
 20
120.0
 30
0.0
 10
-198.8080864718466
 20
120.0
 30
0.0
 10
-200.0
 20
120.0
 30
0.0
 10
-200.0000000000002
 20
120.0000000000001
 30
0.0
 10
-200.0000000000003
 20
120.0000000000001
 30
0.0
 10
-200.0000000000003
 20
120.0000000000002
 30
0.0
  0
LWPOLYLINE
  5
83
330
1B
100
AcDbEntity
 67
     1
  8
0
  6
Continuous
 62
     7
370
    25
100
AcDbPolyline
 90
        2
 70
   128
 43
0.0
 10
200.0
 20
120.0
 10
200.0
 20
120.0
  0
LWPOLYLINE
  5
84
330
1B
100
AcDbEntity
 67
     1
  8
0
  6
Continuous
 62
     7
370
    25
100
AcDbPolyline
 90
        2
 70
   128
 43
0.0
 10
-200.0
 20
120.0
 10
-200.0
 20
120.0
  0
LINE
  5
85
330
1B
100
AcDbEntity
 67
     1
  8
0
  6
Continuous
 62
     7
370
    25
100
AcDbLine
 10
200.0
 20
100.0
 30
0.0
 11
200.0
 21
120.0
 31
0.0
  0
LINE
  5
86
330
1B
100
AcDbEntity
 67
     1
  8
0
  6
Continuous
 62
     7
370
    25
100
AcDbLine
 10
-200.0
 20
120.0
 30
0.0
 11
-200.0
 21
100.0
 31
0.0
  0
LINE
  5
87
330
1B
100
AcDbEntity
 67
     1
  8
0
  6
Continuous
 62
     7
370
    25
100
AcDbLine
 10
-34.7587380267
 20
0.0000000488
 30
0.0
 11
16.1082606685
 21
0.0
 31
0.0
  0
VIEWPORT
  5
121
330
1B
100
AcDbEntity
 67
     1
  8
0
100
AcDbViewport
 10
0.0
 20
0.0
 30
0.0
 40
205.6
 41
156.0
 68
     1
 69
     1
 12
0.0
 22
0.0
 13
0.0
 23
0.0
 14
10.0
 24
10.0
 15
10.0
 25
10.0
 16
0.0
 26
0.0
 36
1.0
 17
0.0
 27
0.0
 37
0.0
 42
50.0
 43
0.0
 44
0.0
 45
612.0
 50
0.0
 51
0.0
 72
   100
 90
   557152
  1

281
     0
 71
     1
 74
     0
110
0.0
120
0.0
130
0.0
111
1.0
121
0.0
131
0.0
112
0.0
122
1.0
132
0.0
 79
     0
146
0.0
170
     0
 61
     5
348
2F
292
     1
282
     1
141
0.0
142
0.0
 63
   256
361
122
  0
ENDSEC
  0
SECTION
  2
OBJECTS
  0
DICTIONARY
  5
C
330
0
100
AcDbDictionary
281
     1
  3
ACAD_DETAILVIEWSTYLE
350
13A
  3
ACAD_GROUP
350
D
  3
ACAD_LAYOUT
350
1A
  3
ACAD_MATERIAL
350
43
  3
ACAD_MLEADERSTYLE
350
6B
  3
ACAD_MLINESTYLE
350
17
  3
ACAD_PLOTSETTINGS
350
19
  3
ACAD_PLOTSTYLENAME
350
E
  3
ACAD_SCALELIST
350
47
  3
ACAD_SECTIONVIEWSTYLE
350
13B
  3
ACAD_TABLESTYLE
350
69
  3
ACAD_VISUALSTYLE
350
2A
  3
ACDB_RECOMPOSE_DATA
350
137
  3
AcDbVariableDictionary
350
133
  0
SUN
  5
6D
330
29
100
AcDbSun
 90
        1
290
     0
 63
     7
421
 16777215
 40
1.0
291
     1
 91
  2455826
 92
 54000000
292
     0
 70
     2
 71
   256
280
     1
  0
SUN
  5
124
330
123
100
AcDbSun
 90
        1
290
     0
 63
     7
421
 16777215
 40
1.0
291
     1
 91
  2455826
 92
 54000000
292
     0
 70
     2
 71
   256
280
     1
  0
SUN
  5
126
330
125
100
AcDbSun
 90
        1
290
     0
 63
     7
421
 16777215
 40
1.0
291
     1
 91
  2455826
 92
 54000000
292
     0
 70
     2
 71
   256
280
     1
  0
SUN
  5
128
330
127
100
AcDbSun
 90
        1
290
     0
 63
     7
421
 16777215
 40
1.0
291
     1
 91
  2455826
 92
 54000000
292
     0
 70
     2
 71
   256
280
     1
  0
SUN
  5
12A
330
129
100
AcDbSun
 90
        1
290
     0
 63
     7
421
 16777215
 40
1.0
291
     1
 91
  2455826
 92
 54000000
292
     0
 70
     2
 71
   256
280
     1
  0
SUN
  5
12C
330
12B
100
AcDbSun
 90
        1
290
     0
 63
     7
421
 16777215
 40
1.0
291
     1
 91
  2455826
 92
 54000000
292
     0
 70
     2
 71
   256
280
     1
  0
SUN
  5
12E
330
12D
100
AcDbSun
 90
        1
290
     0
 63
     7
421
 16777215
 40
1.0
291
     1
 91
  2455826
 92
 54000000
292
     0
 70
     2
 71
   256
280
     1
  0
SUN
  5
130
330
12F
100
AcDbSun
 90
        1
290
     0
 63
     7
421
 16777215
 40
1.0
291
     1
 91
  2455826
 92
 54000000
292
     0
 70
     2
 71
   256
280
     1
  0
SUN
  5
132
330
131
100
AcDbSun
 90
        1
290
     0
 63
     7
421
 16777215
 40
1.0
291
     1
 91
  2455826
 92
 54000000
292
     0
 70
     2
 71
   256
280
     1
  0
SUN
  5
122
330
121
100
AcDbSun
 90
        1
290
     0
 63
     7
421
 16777215
 40
1.0
291
     1
 91
  2455826
 92
 54000000
292
     0
 70
     2
 71
   256
280
     1
  0
DICTIONARY
  5
13A
102
{ACAD_REACTORS
330
C
102
}
330
C
100
AcDbDictionary
281
     1
  0
DICTIONARY
  5
D
102
{ACAD_REACTORS
330
C
102
}
330
C
100
AcDbDictionary
281
     1
  0
DICTIONARY
  5
1A
102
{ACAD_REACTORS
330
C
102
}
330
C
100
AcDbDictionary
281
     1
  3
_Dimetrisch
350
10E
  3
_Isometrisch
350
EB
  3
_Links
350
26
  3
_Normal auf
350
9E
  3
_Rechts
350
CD
  3
_Rückseite
350
B4
  3
_Trimetrisch
350
FD
  3
_Unten
350
E5
  3
_Vorderseite
350
1E
  3
Model
350
22
  0
DICTIONARY
  5
43
102
{ACAD_REACTORS
330
C
102
}
330
C
100
AcDbDictionary
281
     1
  3
ByBlock
350
45
  3
ByLayer
350
44
  3
Global
350
46
  0
DICTIONARY
  5
6B
102
{ACAD_REACTORS
330
C
102
}
330
C
100
AcDbDictionary
281
     1
  3
Standard
350
6C
  0
DICTIONARY
  5
17
102
{ACAD_REACTORS
330
C
102
}
330
C
100
AcDbDictionary
281
     1
  3
Standard
350
18
  0
DICTIONARY
  5
19
102
{ACAD_REACTORS
330
C
102
}
330
C
100
AcDbDictionary
281
     1
  0
ACDBDICTIONARYWDFLT
  5
E
102
{ACAD_REACTORS
330
C
102
}
330
C
100
AcDbDictionary
281
     1
  3
Normal
350
F
100
AcDbDictionaryWithDefault
340
F
  0
DICTIONARY
  5
47
102
{ACAD_REACTORS
330
C
102
}
330
C
100
AcDbDictionary
281
     1
  3
A0
350
48
  3
A1
350
49
  3
A2
350
4A
  3
A3
350
4B
  3
A4
350
4C
  3
A5
350
4D
  3
A6
350
4E
  3
A7
350
4F
  3
A8
350
50
  3
A9
350
51
  3
B0
350
52
  3
B1
350
53
  3
B2
350
54
  3
B3
350
55
  3
B4
350
56
  3
B5
350
57
  3
B6
350
58
  3
B7
350
59
  3
B8
350
5A
  3
B9
350
5B
  3
C0
350
5C
  3
C1
350
5D
  3
C2
350
5E
  3
C3
350
5F
  3
C4
350
60
  3
C5
350
61
  3
C6
350
62
  3
C7
350
63
  3
C8
350
64
  3
C9
350
65
  3
D0
350
66
  3
D1
350
67
  3
D2
350
68
  0
DICTIONARY
  5
13B
102
{ACAD_REACTORS
330
C
102
}
330
C
100
AcDbDictionary
281
     1
  0
DICTIONARY
  5
69
102
{ACAD_REACTORS
330
C
102
}
330
C
100
AcDbDictionary
281
     1
  3
Standard
350
6A
  0
DICTIONARY
  5
2A
102
{ACAD_REACTORS
330
C
102
}
330
C
100
AcDbDictionary
281
     1
  3
2dWireframe
350
2F
  3
Basic
350
32
  3
Brighten
350
36
  3
ColorChange
350
3A
  3
Conceptual
350
34
  3
Dim
350
35
  3
EdgeColorOff
350
3D
  3
Facepattern
350
39
  3
Flat
350
2B
  3
FlatWithEdges
350
2C
  3
Gouraud
350
2D
  3
GouraudWithEdges
350
2E
  3
Hidden
350
31
  3
JitterOff
350
3B
  3
Linepattern
350
38
  3
OverhangOff
350
3C
  3
Realistic
350
33
  3
Shaded
350
42
  3
Shaded with edges
350
41
  3
Shades of Gray
350
3E
  3
Sketchy
350
3F
  3
Thicken
350
37
  3
Wireframe
350
30
  3
X-Ray
350
40
  0
XRECORD
  5
137
102
{ACAD_REACTORS
330
C
102
}
330
C
100
AcDbXrecord
280
     1
 90
        1
330
6A
  0
DICTIONARY
  5
133
102
{ACAD_REACTORS
330
C
102
}
330
C
100
AcDbDictionary
281
     1
  3
CANNOSCALE
350
134
  3
CMLEADERSTYLE
350
139
  3
CTABLESTYLE
350
138
  0
LAYOUT
  5
10E
102
{ACAD_REACTORS
330
1A
102
}
330
1A
100
AcDbPlotSettings
  1

  2
none_device
  4
ISO_A4_(210.00_x_297.00_MM)
  6

 40
7.5
 41
20.0
 42
7.5
 43
20.0
 44
210.0
 45
297.0
 46
0.0
 47
0.0
 48
0.0
 49
0.0
140
0.0
141
0.0
142
1.0
143
1.5564202335
 70
   688
 72
     1
 73
     1
 74
     1
  7

 75
     0
 76
     0
 77
     2
 78
   300
147
0.6425
148
200.0
149
0.0000000079
100
AcDbLayout
  1
_Dimetrisch
 70
     1
 71
     9
 10
0.0
 20
0.0
 11
0.0
 21
0.0
 12
0.0
 22
0.0
 32
0.0
 14
0.0
 24
0.0
 34
0.0
 15
0.0
 25
0.0
 35
0.0
146
0.0
 13
0.0
 23
0.0
 33
0.0
 16
1.0
 26
0.0
 36
0.0
 17
0.0
 27
1.0
 37
0.0
 76
     0
330
10D
331
131
  0
LAYOUT
  5
EB
102
{ACAD_REACTORS
330
1A
102
}
330
1A
100
AcDbPlotSettings
  1

  2
none_device
  4
ISO_A4_(210.00_x_297.00_MM)
  6

 40
7.5
 41
20.0
 42
7.5
 43
20.0
 44
210.0
 45
297.0
 46
0.0
 47
0.0
 48
0.0
 49
0.0
140
0.0
141
0.0
142
1.0
143
1.5564202335
 70
   688
 72
     1
 73
     1
 74
     1
  7

 75
     0
 76
     0
 77
     2
 78
   300
147
0.6425
148
200.0
149
0.0000000079
100
AcDbLayout
  1
_Isometrisch
 70
     1
 71
     7
 10
0.0
 20
0.0
 11
0.0
 21
0.0
 12
0.0
 22
0.0
 32
0.0
 14
0.0
 24
0.0
 34
0.0
 15
0.0
 25
0.0
 35
0.0
146
0.0
 13
0.0
 23
0.0
 33
0.0
 16
1.0
 26
0.0
 36
0.0
 17
0.0
 27
1.0
 37
0.0
 76
     0
330
EA
331
12D
  0
LAYOUT
  5
26
102
{ACAD_REACTORS
330
1A
102
}
330
1A
100
AcDbPlotSettings
  1

  2
none_device
  4
ISO_A4_(210.00_x_297.00_MM)
  6

 40
7.5
 41
20.0
 42
7.5
 43
20.0
 44
210.0
 45
297.0
 46
0.0
 47
0.0
 48
0.0
 49
0.0
140
0.0
141
0.0
142
1.0
143
1.5564202335
 70
   688
 72
     1
 73
     1
 74
     1
  7

 75
     0
 76
     0
 77
     2
 78
   300
147
0.6425
148
200.0
149
0.0000000079
100
AcDbLayout
  1
_Links
 70
     1
 71
     2
 10
0.0
 20
0.0
 11
0.0
 21
0.0
 12
0.0
 22
0.0
 32
0.0
 14
0.0
 24
0.0
 34
0.0
 15
0.0
 25
0.0
 35
0.0
146
0.0
 13
0.0
 23
0.0
 33
0.0
 16
1.0
 26
0.0
 36
0.0
 17
0.0
 27
1.0
 37
0.0
 76
     0
330
23
331
123
  0
LAYOUT
  5
9E
102
{ACAD_REACTORS
330
1A
102
}
330
1A
100
AcDbPlotSettings
  1

  2
none_device
  4
ISO_A4_(210.00_x_297.00_MM)
  6

 40
7.5
 41
20.0
 42
7.5
 43
20.0
 44
210.0
 45
297.0
 46
0.0
 47
0.0
 48
0.0
 49
0.0
140
0.0
141
0.0
142
1.0
143
1.5564202335
 70
   688
 72
     1
 73
     1
 74
     1
  7

 75
     0
 76
     0
 77
     2
 78
   300
147
0.6425
148
200.0
149
0.0000000079
100
AcDbLayout
  1
_Normal auf
 70
     1
 71
     3
 10
0.0
 20
0.0
 11
0.0
 21
0.0
 12
0.0
 22
0.0
 32
0.0
 14
0.0
 24
0.0
 34
0.0
 15
0.0
 25
0.0
 35
0.0
146
0.0
 13
0.0
 23
0.0
 33
0.0
 16
1.0
 26
0.0
 36
0.0
 17
0.0
 27
1.0
 37
0.0
 76
     0
330
9D
331
125
  0
LAYOUT
  5
CD
102
{ACAD_REACTORS
330
1A
102
}
330
1A
100
AcDbPlotSettings
  1

  2
none_device
  4
ISO_A4_(210.00_x_297.00_MM)
  6

 40
7.5
 41
20.0
 42
7.5
 43
20.0
 44
210.0
 45
297.0
 46
0.0
 47
0.0
 48
0.0
 49
0.0
140
0.0
141
0.0
142
1.0
143
1.5564202335
 70
   688
 72
     1
 73
     1
 74
     1
  7

 75
     0
 76
     0
 77
     2
 78
   300
147
0.6425
148
200.0
149
0.0000000079
100
AcDbLayout
  1
_Rechts
 70
     1
 71
     5
 10
0.0
 20
0.0
 11
0.0
 21
0.0
 12
0.0
 22
0.0
 32
0.0
 14
0.0
 24
0.0
 34
0.0
 15
0.0
 25
0.0
 35
0.0
146
0.0
 13
0.0
 23
0.0
 33
0.0
 16
1.0
 26
0.0
 36
0.0
 17
0.0
 27
1.0
 37
0.0
 76
     0
330
CC
331
129
  0
LAYOUT
  5
B4
102
{ACAD_REACTORS
330
1A
102
}
330
1A
100
AcDbPlotSettings
  1

  2
none_device
  4
ISO_A4_(210.00_x_297.00_MM)
  6

 40
7.5
 41
20.0
 42
7.5
 43
20.0
 44
210.0
 45
297.0
 46
0.0
 47
0.0
 48
0.0
 49
0.0
140
0.0
141
0.0
142
1.0
143
1.5564202335
 70
   688
 72
     1
 73
     1
 74
     1
  7

 75
     0
 76
     0
 77
     2
 78
   300
147
0.6425
148
200.0
149
0.0000000079
100
AcDbLayout
  1
_Rückseite
 70
     1
 71
     4
 10
0.0
 20
0.0
 11
0.0
 21
0.0
 12
0.0
 22
0.0
 32
0.0
 14
0.0
 24
0.0
 34
0.0
 15
0.0
 25
0.0
 35
0.0
146
0.0
 13
0.0
 23
0.0
 33
0.0
 16
1.0
 26
0.0
 36
0.0
 17
0.0
 27
1.0
 37
0.0
 76
     0
330
B3
331
127
  0
LAYOUT
  5
FD
102
{ACAD_REACTORS
330
1A
102
}
330
1A
100
AcDbPlotSettings
  1

  2
none_device
  4
ISO_A4_(210.00_x_297.00_MM)
  6

 40
7.5
 41
20.0
 42
7.5
 43
20.0
 44
210.0
 45
297.0
 46
0.0
 47
0.0
 48
0.0
 49
0.0
140
0.0
141
0.0
142
1.0
143
1.5564202335
 70
   688
 72
     1
 73
     1
 74
     1
  7

 75
     0
 76
     0
 77
     2
 78
   300
147
0.6425
148
200.0
149
0.0000000079
100
AcDbLayout
  1
_Trimetrisch
 70
     1
 71
     8
 10
0.0
 20
0.0
 11
0.0
 21
0.0
 12
0.0
 22
0.0
 32
0.0
 14
0.0
 24
0.0
 34
0.0
 15
0.0
 25
0.0
 35
0.0
146
0.0
 13
0.0
 23
0.0
 33
0.0
 16
1.0
 26
0.0
 36
0.0
 17
0.0
 27
1.0
 37
0.0
 76
     0
330
FC
331
12F
  0
LAYOUT
  5
E5
102
{ACAD_REACTORS
330
1A
102
}
330
1A
100
AcDbPlotSettings
  1

  2
none_device
  4
ISO_A4_(210.00_x_297.00_MM)
  6

 40
7.5
 41
20.0
 42
7.5
 43
20.0
 44
210.0
 45
297.0
 46
0.0
 47
0.0
 48
0.0
 49
0.0
140
0.0
141
0.0
142
1.0
143
1.5564202335
 70
   688
 72
     1
 73
     1
 74
     1
  7

 75
     0
 76
     0
 77
     2
 78
   300
147
0.6425
148
200.0
149
0.0000000079
100
AcDbLayout
  1
_Unten
 70
     1
 71
     6
 10
0.0
 20
0.0
 11
0.0
 21
0.0
 12
0.0
 22
0.0
 32
0.0
 14
0.0
 24
0.0
 34
0.0
 15
0.0
 25
0.0
 35
0.0
146
0.0
 13
0.0
 23
0.0
 33
0.0
 16
1.0
 26
0.0
 36
0.0
 17
0.0
 27
1.0
 37
0.0
 76
     0
330
E4
331
12B
  0
LAYOUT
  5
1E
102
{ACAD_REACTORS
330
1A
102
}
330
1A
100
AcDbPlotSettings
  1

  2
none_device
  4
ISO_A4_(210.00_x_297.00_MM)
  6

 40
7.5
 41
20.0
 42
7.5
 43
20.0
 44
210.0
 45
297.0
 46
0.0
 47
0.0
 48
0.0
 49
0.0
140
0.0
141
0.0
142
1.0
143
1.5564202335
 70
   688
 72
     1
 73
     1
 74
     1
  7

 75
     0
 76
     0
 77
     2
 78
   300
147
0.6425
148
200.0
149
0.0000000079
100
AcDbLayout
  1
_Vorderseite
 70
     1
 71
     1
 10
-231.1284046693
 20
-11.6731517588
 11
231.1284046693
 21
315.1750972684
 12
0.0
 22
0.0
 32
0.0
 14
-200.0
 24
-0.0000000079
 34
0.0
 15
200.0
 25
120.0006304874
 35
0.0
146
0.0
 13
0.0
 23
0.0
 33
0.0
 16
1.0
 26
0.0
 36
0.0
 17
0.0
 27
1.0
 37
0.0
 76
     0
330
1B
331
121
  0
LAYOUT
  5
22
102
{ACAD_REACTORS
330
1A
102
}
330
1A
100
AcDbPlotSettings
  1

  2
none_device
  4
ANSI_A_(11.00_x_8.50_Inches)
  6

 40
6.35
 41
19.05
 42
6.35000508
 43
19.05000254
 44
279.4
 45
215.9
 46
133.34999746
 47
88.89999873
 48
0.0
 49
0.0
140
0.0
141
0.0
142
0.014025
143
1.0
 70
  1696
 72
     0
 73
     0
 74
     0
  7

 75
     0
 76
     0
 77
     2
 78
   300
147
0.0179189148
148
-1300.4909072572
149
0.0
100
AcDbLayout
  1
Model
 70
     1
 71
     0
 10
0.0
 20
0.0
 11
420.0
 21
297.0
 12
0.0
 22
0.0
 32
0.0
 14
-200.0
 24
-300.0
 34
0.0
 15
200.0
 25
300.0
 35
0.0
146
0.0
 13
0.0
 23
0.0
 33
0.0
 16
1.0
 26
0.0
 36
0.0
 17
0.0
 27
1.0
 37
0.0
 76
     0
330
1F
331
29
  0
MATERIAL
  5
45
102
{ACAD_REACTORS
330
43
102
}
330
43
100
AcDbMaterial
  1
ByBlock
 72
     1
 94
      127
  0
MATERIAL
  5
44
102
{ACAD_REACTORS
330
43
102
}
330
43
100
AcDbMaterial
  1
ByLayer
 72
     1
 94
      127
  0
MATERIAL
  5
46
102
{ACAD_REACTORS
330
43
102
}
330
43
100
AcDbMaterial
  1
Global
 72
     1
 94
      127
  0
MLEADERSTYLE
  5
6C
102
{ACAD_REACTORS
330
6B
102
}
330
6B
100
AcDbMLeaderStyle
179
     2
170
     2
171
     1
172
     0
 90
        2
 40
0.0
 41
0.0
173
     1
 91
-1056964608
340
14
 92
       -2
290
     1
 42
2.0
291
     1
 43
8.0
  3
Standard
341
0
 44
4.0
300

342
11
174
     1
178
     6
175
     1
176
     0
 93
-1056964608
 45
4.0
292
     0
297
     0
 46
4.0
343
0
 94
-1056964608
 47
1.0
 49
1.0
140
1.0
293
     1
141
0.0
294
     1
177
     0
142
1.0
295
     0
296
     0
143
3.75
271
     0
272
     9
273
     9
298
     0
  0
MLINESTYLE
  5
18
102
{ACAD_REACTORS
330
17
102
}
330
17
100
AcDbMlineStyle
  2
Standard
 70
     0
  3

 62
   256
 51
90.0
 52
90.0
 71
     2
 49
0.5
 62
   256
  6
BYLAYER
 49
-0.5
 62
   256
  6
BYLAYER
  0
ACDBPLACEHOLDER
  5
F
102
{ACAD_REACTORS
330
E
102
}
330
E
  0
SCALE
  5
48
102
{ACAD_REACTORS
330
47
102
}
330
47
100
AcDbScale
 70
     0
300
1:1
140
1.0
141
1.0
290
     1
  0
SCALE
  5
49
102
{ACAD_REACTORS
330
47
102
}
330
47
100
AcDbScale
 70
     0
300
1:2
140
1.0
141
2.0
290
     0
  0
SCALE
  5
4A
102
{ACAD_REACTORS
330
47
102
}
330
47
100
AcDbScale
 70
     0
300
1:4
140
1.0
141
4.0
290
     0
  0
SCALE
  5
4B
102
{ACAD_REACTORS
330
47
102
}
330
47
100
AcDbScale
 70
     0
300
1:5
140
1.0
141
5.0
290
     0
  0
SCALE
  5
4C
102
{ACAD_REACTORS
330
47
102
}
330
47
100
AcDbScale
 70
     0
300
1:8
140
1.0
141
8.0
290
     0
  0
SCALE
  5
4D
102
{ACAD_REACTORS
330
47
102
}
330
47
100
AcDbScale
 70
     0
300
1:10
140
1.0
141
10.0
290
     0
  0
SCALE
  5
4E
102
{ACAD_REACTORS
330
47
102
}
330
47
100
AcDbScale
 70
     0
300
1:16
140
1.0
141
16.0
290
     0
  0
SCALE
  5
4F
102
{ACAD_REACTORS
330
47
102
}
330
47
100
AcDbScale
 70
     0
300
1:20
140
1.0
141
20.0
290
     0
  0
SCALE
  5
50
102
{ACAD_REACTORS
330
47
102
}
330
47
100
AcDbScale
 70
     0
300
1:30
140
1.0
141
30.0
290
     0
  0
SCALE
  5
51
102
{ACAD_REACTORS
330
47
102
}
330
47
100
AcDbScale
 70
     0
300
1:40
140
1.0
141
40.0
290
     0
  0
SCALE
  5
52
102
{ACAD_REACTORS
330
47
102
}
330
47
100
AcDbScale
 70
     0
300
1:50
140
1.0
141
50.0
290
     0
  0
SCALE
  5
53
102
{ACAD_REACTORS
330
47
102
}
330
47
100
AcDbScale
 70
     0
300
1:100
140
1.0
141
100.0
290
     0
  0
SCALE
  5
54
102
{ACAD_REACTORS
330
47
102
}
330
47
100
AcDbScale
 70
     0
300
2:1
140
2.0
141
1.0
290
     0
  0
SCALE
  5
55
102
{ACAD_REACTORS
330
47
102
}
330
47
100
AcDbScale
 70
     0
300
4:1
140
4.0
141
1.0
290
     0
  0
SCALE
  5
56
102
{ACAD_REACTORS
330
47
102
}
330
47
100
AcDbScale
 70
     0
300
8:1
140
8.0
141
1.0
290
     0
  0
SCALE
  5
57
102
{ACAD_REACTORS
330
47
102
}
330
47
100
AcDbScale
 70
     0
300
10:1
140
10.0
141
1.0
290
     0
  0
SCALE
  5
58
102
{ACAD_REACTORS
330
47
102
}
330
47
100
AcDbScale
 70
     0
300
100:1
140
100.0
141
1.0
290
     0
  0
SCALE
  5
59
102
{ACAD_REACTORS
330
47
102
}
330
47
100
AcDbScale
 70
     0
300
1/128" = 1'-0"
140
0.0078125
141
12.0
290
     0
  0
SCALE
  5
5A
102
{ACAD_REACTORS
330
47
102
}
330
47
100
AcDbScale
 70
     0
300
1/64" = 1'-0"
140
0.015625
141
12.0
290
     0
  0
SCALE
  5
5B
102
{ACAD_REACTORS
330
47
102
}
330
47
100
AcDbScale
 70
     0
300
1/32" = 1'-0"
140
0.03125
141
12.0
290
     0
  0
SCALE
  5
5C
102
{ACAD_REACTORS
330
47
102
}
330
47
100
AcDbScale
 70
     0
300
1/16" = 1'-0"
140
0.0625
141
12.0
290
     0
  0
SCALE
  5
5D
102
{ACAD_REACTORS
330
47
102
}
330
47
100
AcDbScale
 70
     0
300
3/32" = 1'-0"
140
0.09375
141
12.0
290
     0
  0
SCALE
  5
5E
102
{ACAD_REACTORS
330
47
102
}
330
47
100
AcDbScale
 70
     0
300
1/8" = 1'-0"
140
0.125
141
12.0
290
     0
  0
SCALE
  5
5F
102
{ACAD_REACTORS
330
47
102
}
330
47
100
AcDbScale
 70
     0
300
3/16" = 1'-0"
140
0.1875
141
12.0
290
     0
  0
SCALE
  5
60
102
{ACAD_REACTORS
330
47
102
}
330
47
100
AcDbScale
 70
     0
300
1/4" = 1'-0"
140
0.25
141
12.0
290
     0
  0
SCALE
  5
61
102
{ACAD_REACTORS
330
47
102
}
330
47
100
AcDbScale
 70
     0
300
3/8" = 1'-0"
140
0.375
141
12.0
290
     0
  0
SCALE
  5
62
102
{ACAD_REACTORS
330
47
102
}
330
47
100
AcDbScale
 70
     0
300
1/2" = 1'-0"
140
0.5
141
12.0
290
     0
  0
SCALE
  5
63
102
{ACAD_REACTORS
330
47
102
}
330
47
100
AcDbScale
 70
     0
300
3/4" = 1'-0"
140
0.75
141
12.0
290
     0
  0
SCALE
  5
64
102
{ACAD_REACTORS
330
47
102
}
330
47
100
AcDbScale
 70
     0
300
1" = 1'-0"
140
1.0
141
12.0
290
     0
  0
SCALE
  5
65
102
{ACAD_REACTORS
330
47
102
}
330
47
100
AcDbScale
 70
     0
300
1-1/2" = 1'-0"
140
1.5
141
12.0
290
     0
  0
SCALE
  5
66
102
{ACAD_REACTORS
330
47
102
}
330
47
100
AcDbScale
 70
     0
300
3" = 1'-0"
140
3.0
141
12.0
290
     0
  0
SCALE
  5
67
102
{ACAD_REACTORS
330
47
102
}
330
47
100
AcDbScale
 70
     0
300
6" = 1'-0"
140
6.0
141
12.0
290
     0
  0
SCALE
  5
68
102
{ACAD_REACTORS
330
47
102
}
330
47
100
AcDbScale
 70
     0
300
1'-0" = 1'-0"
140
12.0
141
12.0
290
     0
  0
TABLESTYLE
  5
6A
102
{ACAD_REACTORS
330
69
102
}
102
{ACAD_XDICTIONARY
360
135
102
}
330
69
100
AcDbTableStyle
  3
Standard
 70
     0
 71
     0
 40
0.06
 41
0.06
280
     0
281
     0
  7
STANDARD
140
4.5
170
     2
 62
     0
 63
   257
283
     0
 90
        4
 91
        0
  1

274
    -2
284
     1
 64
     0
275
    -2
285
     1
 65
     0
276
    -2
286
     1
 66
     0
277
    -2
287
     1
 67
     0
278
    -2
288
     1
 68
     0
279
    -2
289
     1
 69
     0
  7
STANDARD
140
6.0
170
     5
 62
     0
 63
   257
283
     0
 90
        4
 91
        0
  1

274
    -2
284
     1
 64
     0
275
    -2
285
     1
 65
     0
276
    -2
286
     1
 66
     0
277
    -2
287
     1
 67
     0
278
    -2
288
     1
 68
     0
279
    -2
289
     1
 69
     0
  7
STANDARD
140
4.5
170
     5
 62
     0
 63
   257
283
     0
 90
        4
 91
        0
  1

274
    -2
284
     1
 64
     0
275
    -2
285
     1
 65
     0
276
    -2
286
     1
 66
     0
277
    -2
287
     1
 67
     0
278
    -2
288
     1
 68
     0
279
    -2
289
     1
 69
     0
  0
VISUALSTYLE
  5
2F
102
{ACAD_REACTORS
330
2A
102
}
330
2A
100
AcDbVisualStyle
  2
2dWireframe
 70
     4
177
     3
291
     0
 70
    58
 90
        0
176
     1
 90
        2
176
     1
 90
        0
176
     1
 90
        0
176
     1
 40
0.6
176
     1
 40
30.0
176
     1
 62
     7
420
 16777215
176
     1
 90
        1
176
     1
 90
        4
176
     1
 62
     7
176
     1
 62
   257
176
     1
 90
        1
176
     1
 90
        1
176
     1
 40
1.0
176
     1
 90
        0
176
     1
 62
   257
176
     1
 40
1.0
176
     1
 90
        1
176
     1
 90
        6
176
     1
 90
        2
176
     1
 62
     7
176
     1
 90
        5
176
     1
 90
        0
176
     1
 90
        0
176
     1
290
     0
176
     1
 90
        1
176
     1
 40
0.0
176
     1
 90
        0
176
     1
290
     1
176
     1
290
     1
176
     1
290
     0
176
     1
290
     0
176
     1
290
     0
176
     1
290
     0
176
     1
290
     0
176
     1
290
     0
176
     1
290
     0
176
     1
 90
       50
176
     1
 40
0.0
176
     1
 40
1.0
176
     1
 90
        0
176
     1
 62
    18
420
        0
176
     1
 90
       50
176
     1
 90
        3
176
     1
 62
     5
420
      255
176
     1
290
     0
176
     1
 90
       50
176
     1
 90
       50
176
     1
 90
       50
176
     1
290
     0
176
     1
 90
       50
176
     1
 62
   256
176
     0
 40
1.0
176
     0
 90
        2
176
     1
  1
strokes_ogs.tif
176
     1
290
     0
176
     1
 40
1.0
176
     1
 40
1.0
176
     1
  0
VISUALSTYLE
  5
32
102
{ACAD_REACTORS
330
2A
102
}
330
2A
100
AcDbVisualStyle
  2
Basic
 70
     7
177
     3
291
     1
 70
    58
 90
        1
176
     1
 90
        0
176
     1
 90
        1
176
     1
 90
        0
176
     1
 40
0.6
176
     1
 40
30.0
176
     1
 62
     7
420
 16777215
176
     1
 90
        0
176
     1
 90
        4
176
     1
 62
     7
176
     1
 62
   257
176
     1
 90
        1
176
     1
 90
        1
176
     1
 40
1.0
176
     1
 90
        8
176
     1
 62
     7
176
     1
 40
1.0
176
     1
 90
        1
176
     1
 90
        6
176
     1
 90
        2
176
     1
 62
     7
176
     1
 90
        5
176
     1
 90
        0
176
     1
 90
        0
176
     1
290
     0
176
     1
 90
        1
176
     1
 40
0.0
176
     1
 90
        0
176
     1
290
     0
176
     1
290
     1
176
     1
290
     1
176
     1
290
     0
176
     1
290
     0
176
     1
290
     0
176
     1
290
     0
176
     1
290
     0
176
     1
290
     0
176
     1
 90
       50
176
     1
 40
0.0
176
     1
 40
1.0
176
     1
 90
        0
176
     1
 62
    18
420
        0
176
     1
 90
       50
176
     1
 90
        3
176
     1
 62
     5
420
      255
176
     1
290
     0
176
     1
 90
       50
176
     1
 90
       50
176
     1
 90
       50
176
     1
290
     0
176
     1
 90
       50
176
     1
 62
   256
176
     0
 40
1.0
176
     0
 90
        2
176
     1
  1
strokes_ogs.tif
176
     1
290
     0
176
     1
 40
1.0
176
     1
 40
1.0
176
     1
  0
VISUALSTYLE
  5
36
102
{ACAD_REACTORS
330
2A
102
}
330
2A
100
AcDbVisualStyle
  2
Brighten
 70
    12
177
     3
291
     1
 70
    58
 90
        2
176
     1
 90
        2
176
     1
 90
        0
176
     1
 90
        0
176
     1
 40
0.6
176
     1
 40
30.0
176
     1
 62
     7
420
 16777215
176
     1
 90
        1
176
     1
 90
        4
176
     1
 62
     7
176
     1
 62
   257
176
     1
 90
        1
176
     1
 90
        1
176
     1
 40
1.0
176
     1
 90
        8
176
     1
 62
     7
176
     1
 40
1.0
176
     1
 90
        1
176
     1
 90
        6
176
     1
 90
        2
176
     1
 62
     7
176
     1
 90
        5
176
     1
 90
        0
176
     1
 90
        0
176
     1
290
     0
176
     1
 90
        1
176
     1
 40
50.0
176
     1
 90
        0
176
     1
290
     0
176
     1
290
     1
176
     1
290
     1
176
     1
290
     0
176
     1
290
     0
176
     1
290
     0
176
     1
290
     0
176
     1
290
     0
176
     1
290
     0
176
     1
 90
       50
176
     1
 40
0.0
176
     1
 40
1.0
176
     1
 90
        0
176
     1
 62
    18
420
        0
176
     1
 90
       50
176
     1
 90
        3
176
     1
 62
     5
420
      255
176
     1
290
     0
176
     1
 90
       50
176
     1
 90
       50
176
     1
 90
       50
176
     1
290
     0
176
     1
 90
       50
176
     1
 62
   256
176
     0
 40
1.0
176
     0
 90
        2
176
     1
  1
strokes_ogs.tif
176
     1
290
     0
176
     1
 40
1.0
176
     1
 40
1.0
176
     1
  0
VISUALSTYLE
  5
3A
102
{ACAD_REACTORS
330
2A
102
}
330
2A
100
AcDbVisualStyle
  2
ColorChange
 70
    16
177
     3
291
     1
 70
    58
 90
        2
176
     1
 90
        2
176
     1
 90
        3
176
     1
 90
        0
176
     1
 40
0.6
176
     1
 40
30.0
176
     1
 62
     8
420
  8421504
176
     1
 90
        1
176
     1
 90
        4
176
     1
 62
     7
176
     1
 62
   257
176
     1
 90
        1
176
     1
 90
        1
176
     1
 40
1.0
176
     1
 90
        8
176
     1
 62
     8
420
  8421504
176
     1
 40
1.0
176
     1
 90
        1
176
     1
 90
        6
176
     1
 90
        2
176
     1
 62
     7
176
     1
 90
        5
176
     1
 90
        0
176
     1
 90
        0
176
     1
290
     0
176
     1
 90
        1
176
     1
 40
0.0
176
     1
 90
        0
176
     1
290
     0
176
     1
290
     1
176
     1
290
     1
176
     1
290
     0
176
     1
290
     0
176
     1
290
     0
176
     1
290
     0
176
     1
290
     0
176
     1
290
     0
176
     1
 90
       50
176
     1
 40
0.0
176
     1
 40
1.0
176
     1
 90
        0
176
     1
 62
    18
420
        0
176
     1
 90
       50
176
     1
 90
        3
176
     1
 62
     5
420
      255
176
     1
290
     0
176
     1
 90
       50
176
     1
 90
       50
176
     1
 90
       50
176
     1
290
     0
176
     1
 90
       50
176
     1
 62
   256
176
     0
 40
1.0
176
     0
 90
        2
176
     1
  1
strokes_ogs.tif
176
     1
290
     0
176
     1
 40
1.0
176
     1
 40
1.0
176
     1
  0
VISUALSTYLE
  5
34
102
{ACAD_REACTORS
330
2A
102
}
330
2A
100
AcDbVisualStyle
  2
Conceptual
 70
     9
177
     3
291
     0
 70
    58
 90
        3
176
     1
 90
        2
176
     1
 90
        0
176
     1
 90
        0
176
     1
 40
0.6
176
     1
 40
30.0
176
     1
 62
     7
420
 16777215
176
     1
 90
        2
176
     1
 90
        2
176
     1
 62
     7
176
     1
 62
   257
176
     1
 90
        1
176
     1
 90
        1
176
     1
 40
179.0
176
     1
 90
        8
176
     1
 62
     7
176
     1
 40
1.0
176
     1
 90
        1
176
     1
 90
        6
176
     1
 90
        2
176
     1
 62
     7
176
     1
 90
        3
176
     1
 90
        0
176
     1
 90
        0
176
     1
290
     0
176
     1
 90
        1
176
     1
 40
0.0
176
     1
 90
        0
176
     1
290
     0
176
     1
290
     1
176
     1
290
     1
176
     1
290
     0
176
     1
290
     0
176
     1
290
     0
176
     1
290
     0
176
     1
290
     0
176
     1
290
     0
176
     1
 90
       50
176
     1
 40
0.0
176
     1
 40
1.0
176
     1
 90
        0
176
     1
 62
    18
420
        0
176
     1
 90
       50
176
     1
 90
        3
176
     1
 62
     5
420
      255
176
     1
290
     0
176
     1
 90
       50
176
     1
 90
       50
176
     1
 90
       50
176
     1
290
     0
176
     1
 90
       50
176
     1
 62
   256
176
     0
 40
1.0
176
     0
 90
        2
176
     1
  1
strokes_ogs.tif
176
     1
290
     0
176
     1
 40
1.0
176
     1
 40
1.0
176
     1
  0
VISUALSTYLE
  5
35
102
{ACAD_REACTORS
330
2A
102
}
330
2A
100
AcDbVisualStyle
  2
Dim
 70
    11
177
     3
291
     1
 70
    58
 90
        2
176
     1
 90
        2
176
     1
 90
        0
176
     1
 90
        0
176
     1
 40
0.6
176
     1
 40
30.0
176
     1
 62
     7
420
 16777215
176
     1
 90
        1
176
     1
 90
        4
176
     1
 62
     7
176
     1
 62
   257
176
     1
 90
        1
176
     1
 90
        1
176
     1
 40
1.0
176
     1
 90
        8
176
     1
 62
     7
176
     1
 40
1.0
176
     1
 90
        1
176
     1
 90
        6
176
     1
 90
        2
176
     1
 62
     7
176
     1
 90
        5
176
     1
 90
        0
176
     1
 90
        0
176
     1
290
     0
176
     1
 90
        1
176
     1
 40
-50.0
176
     1
 90
        0
176
     1
290
     0
176
     1
290
     1
176
     1
290
     1
176
     1
290
     0
176
     1
290
     0
176
     1
290
     0
176
     1
290
     0
176
     1
290
     0
176
     1
290
     0
176
     1
 90
       50
176
     1
 40
0.0
176
     1
 40
1.0
176
     1
 90
        0
176
     1
 62
    18
420
        0
176
     1
 90
       50
176
     1
 90
        3
176
     1
 62
     5
420
      255
176
     1
290
     0
176
     1
 90
       50
176
     1
 90
       50
176
     1
 90
       50
176
     1
290
     0
176
     1
 90
       50
176
     1
 62
   256
176
     0
 40
1.0
176
     0
 90
        2
176
     1
  1
strokes_ogs.tif
176
     1
290
     0
176
     1
 40
1.0
176
     1
 40
1.0
176
     1
  0
VISUALSTYLE
  5
3D
102
{ACAD_REACTORS
330
2A
102
}
330
2A
100
AcDbVisualStyle
  2
EdgeColorOff
 70
    22
177
     3
291
     1
 70
    58
 90
        2
176
     0
 90
        2
176
     0
 90
        0
176
     0
 90
        0
176
     0
 40
0.6
176
     0
 40
30.0
176
     0
 62
     7
420
 16777215
176
     0
 90
        1
176
     0
 90
        4
176
     0
 62
     7
176
     0
 62
   257
176
     0
 90
        1
176
     0
 90
        1
176
     0
 40
1.0
176
     0
 90
        8
176
     2
 62
     7
176
     0
 40
1.0
176
     0
 90
        1
176
     0
 90
        6
176
     0
 90
        2
176
     0
 62
     7
176
     0
 90
        5
176
     0
 90
        0
176
     0
 90
        0
176
     0
290
     0
176
     0
 90
        1
176
     0
 40
0.0
176
     0
 90
        0
176
     0
290
     0
176
     0
290
     1
176
     0
290
     1
176
     0
290
     0
176
     0
290
     0
176
     0
290
     0
176
     0
290
     0
176
     0
290
     0
176
     0
290
     0
176
     0
 90
       50
176
     0
 40
0.0
176
     0
 40
1.0
176
     0
 90
        0
176
     0
 62
    18
420
        0
176
     0
 90
       50
176
     0
 90
        3
176
     0
 62
     5
420
      255
176
     0
290
     0
176
     0
 90
       50
176
     0
 90
       50
176
     0
 90
       50
176
     0
290
     0
176
     0
 90
       50
176
     0
 62
   256
176
     0
 40
1.0
176
     0
 90
        2
176
     0
  1
strokes_ogs.tif
176
     0
290
     0
176
     0
 40
1.0
176
     0
 40
1.0
176
     0
  0
VISUALSTYLE
  5
39
102
{ACAD_REACTORS
330
2A
102
}
330
2A
100
AcDbVisualStyle
  2
Facepattern
 70
    15
177
     3
291
     1
 70
    58
 90
        2
176
     1
 90
        2
176
     1
 90
        0
176
     1
 90
        0
176
     1
 40
0.6
176
     1
 40
30.0
176
     1
 62
     7
420
 16777215
176
     1
 90
        1
176
     1
 90
        4
176
     1
 62
     7
176
     1
 62
   257
176
     1
 90
        1
176
     1
 90
        1
176
     1
 40
1.0
176
     1
 90
        8
176
     1
 62
     7
176
     1
 40
1.0
176
     1
 90
        1
176
     1
 90
        6
176
     1
 90
        2
176
     1
 62
     7
176
     1
 90
        5
176
     1
 90
        0
176
     1
 90
        0
176
     1
290
     0
176
     1
 90
        1
176
     1
 40
0.0
176
     1
 90
        0
176
     1
290
     0
176
     1
290
     1
176
     1
290
     1
176
     1
290
     0
176
     1
290
     0
176
     1
290
     0
176
     1
290
     0
176
     1
290
     0
176
     1
290
     0
176
     1
 90
       50
176
     1
 40
0.0
176
     1
 40
1.0
176
     1
 90
        0
176
     1
 62
    18
420
        0
176
     1
 90
       50
176
     1
 90
        3
176
     1
 62
     5
420
      255
176
     1
290
     0
176
     1
 90
       50
176
     1
 90
       50
176
     1
 90
       50
176
     1
290
     0
176
     1
 90
       50
176
     1
 62
   256
176
     0
 40
1.0
176
     0
 90
        2
176
     1
  1
strokes_ogs.tif
176
     1
290
     0
176
     1
 40
1.0
176
     1
 40
1.0
176
     1
  0
VISUALSTYLE
  5
2B
102
{ACAD_REACTORS
330
2A
102
}
330
2A
100
AcDbVisualStyle
  2
Flat
 70
     0
177
     3
291
     1
 70
    58
 90
        2
176
     1
 90
        1
176
     1
 90
        1
176
     1
 90
        2
176
     1
 40
0.6
176
     1
 40
30.0
176
     1
 62
     7
420
 16777215
176
     1
 90
        0
176
     1
 90
        0
176
     1
 62
     7
176
     1
 62
   257
176
     1
 90
        1
176
     1
 90
        1
176
     1
 40
1.0
176
     1
 90
        8
176
     1
 62
     7
176
     1
 40
1.0
176
     1
 90
        1
176
     1
 90
        6
176
     1
 90
        2
176
     1
 62
     7
176
     1
 90
        5
176
     1
 90
        0
176
     1
 90
        0
176
     1
290
     0
176
     1
 90
       13
176
     1
 40
0.0
176
     1
 90
        0
176
     1
290
     0
176
     1
290
     1
176
     1
290
     1
176
     1
290
     0
176
     1
290
     0
176
     1
290
     0
176
     1
290
     0
176
     1
290
     0
176
     1
290
     0
176
     1
 90
       50
176
     1
 40
0.0
176
     1
 40
1.0
176
     1
 90
        0
176
     1
 62
    18
420
        0
176
     1
 90
       50
176
     1
 90
        3
176
     1
 62
     5
420
      255
176
     1
290
     0
176
     1
 90
       50
176
     1
 90
       50
176
     1
 90
       50
176
     1
290
     0
176
     1
 90
       50
176
     1
 62
   256
176
     0
 40
1.0
176
     0
 90
        2
176
     1
  1
strokes_ogs.tif
176
     1
290
     0
176
     1
 40
1.0
176
     1
 40
1.0
176
     1
  0
VISUALSTYLE
  5
2C
102
{ACAD_REACTORS
330
2A
102
}
330
2A
100
AcDbVisualStyle
  2
FlatWithEdges
 70
     1
177
     3
291
     1
 70
    58
 90
        2
176
     1
 90
        1
176
     1
 90
        1
176
     1
 90
        2
176
     1
 40
0.6
176
     1
 40
30.0
176
     1
 62
     7
420
 16777215
176
     1
 90
        1
176
     1
 90
        0
176
     1
 62
     7
176
     1
 62
   257
176
     1
 90
        1
176
     1
 90
        1
176
     1
 40
1.0
176
     1
 90
        0
176
     1
 62
   257
176
     1
 40
1.0
176
     1
 90
        1
176
     1
 90
        6
176
     1
 90
        2
176
     1
 62
     7
176
     1
 90
        5
176
     1
 90
        0
176
     1
 90
        0
176
     1
290
     0
176
     1
 90
       13
176
     1
 40
0.0
176
     1
 90
        0
176
     1
290
     0
176
     1
290
     1
176
     1
290
     1
176
     1
290
     0
176
     1
290
     0
176
     1
290
     0
176
     1
290
     0
176
     1
290
     0
176
     1
290
     0
176
     1
 90
       50
176
     1
 40
0.0
176
     1
 40
1.0
176
     1
 90
        0
176
     1
 62
    18
420
        0
176
     1
 90
       50
176
     1
 90
        3
176
     1
 62
     5
420
      255
176
     1
290
     0
176
     1
 90
       50
176
     1
 90
       50
176
     1
 90
       50
176
     1
290
     0
176
     1
 90
       50
176
     1
 62
   256
176
     0
 40
1.0
176
     0
 90
        2
176
     1
  1
strokes_ogs.tif
176
     1
290
     0
176
     1
 40
1.0
176
     1
 40
1.0
176
     1
  0
VISUALSTYLE
  5
2D
102
{ACAD_REACTORS
330
2A
102
}
330
2A
100
AcDbVisualStyle
  2
Gouraud
 70
     2
177
     3
291
     1
 70
    58
 90
        2
176
     1
 90
        2
176
     1
 90
        1
176
     1
 90
        2
176
     1
 40
0.6
176
     1
 40
30.0
176
     1
 62
     7
420
 16777215
176
     1
 90
        0
176
     1
 90
        0
176
     1
 62
     7
176
     1
 62
   257
176
     1
 90
        1
176
     1
 90
        1
176
     1
 40
1.0
176
     1
 90
        0
176
     1
 62
     7
176
     1
 40
1.0
176
     1
 90
        1
176
     1
 90
        6
176
     1
 90
        2
176
     1
 62
     7
176
     1
 90
        5
176
     1
 90
        0
176
     1
 90
        0
176
     1
290
     0
176
     1
 90
       13
176
     1
 40
0.0
176
     1
 90
        0
176
     1
290
     0
176
     1
290
     1
176
     1
290
     1
176
     1
290
     0
176
     1
290
     0
176
     1
290
     0
176
     1
290
     0
176
     1
290
     0
176
     1
290
     0
176
     1
 90
       50
176
     1
 40
0.0
176
     1
 40
1.0
176
     1
 90
        0
176
     1
 62
    18
420
        0
176
     1
 90
       50
176
     1
 90
        3
176
     1
 62
     5
420
      255
176
     1
290
     0
176
     1
 90
       50
176
     1
 90
       50
176
     1
 90
       50
176
     1
290
     0
176
     1
 90
       50
176
     1
 62
   256
176
     0
 40
1.0
176
     0
 90
        2
176
     1
  1
strokes_ogs.tif
176
     1
290
     0
176
     1
 40
1.0
176
     1
 40
1.0
176
     1
  0
VISUALSTYLE
  5
2E
102
{ACAD_REACTORS
330
2A
102
}
330
2A
100
AcDbVisualStyle
  2
GouraudWithEdges
 70
     3
177
     3
291
     1
 70
    58
 90
        2
176
     1
 90
        2
176
     1
 90
        1
176
     1
 90
        2
176
     1
 40
0.6
176
     1
 40
30.0
176
     1
 62
     7
420
 16777215
176
     1
 90
        1
176
     1
 90
        0
176
     1
 62
     7
176
     1
 62
   257
176
     1
 90
        1
176
     1
 90
        1
176
     1
 40
1.0
176
     1
 90
        0
176
     1
 62
   257
176
     1
 40
1.0
176
     1
 90
        1
176
     1
 90
        6
176
     1
 90
        2
176
     1
 62
     7
176
     1
 90
        5
176
     1
 90
        0
176
     1
 90
        0
176
     1
290
     0
176
     1
 90
       13
176
     1
 40
0.0
176
     1
 90
        0
176
     1
290
     0
176
     1
290
     1
176
     1
290
     1
176
     1
290
     0
176
     1
290
     0
176
     1
290
     0
176
     1
290
     0
176
     1
290
     0
176
     1
290
     0
176
     1
 90
       50
176
     1
 40
0.0
176
     1
 40
1.0
176
     1
 90
        0
176
     1
 62
    18
420
        0
176
     1
 90
       50
176
     1
 90
        3
176
     1
 62
     5
420
      255
176
     1
290
     0
176
     1
 90
       50
176
     1
 90
       50
176
     1
 90
       50
176
     1
290
     0
176
     1
 90
       50
176
     1
 62
   256
176
     0
 40
1.0
176
     0
 90
        2
176
     1
  1
strokes_ogs.tif
176
     1
290
     0
176
     1
 40
1.0
176
     1
 40
1.0
176
     1
  0
VISUALSTYLE
  5
31
102
{ACAD_REACTORS
330
2A
102
}
330
2A
100
AcDbVisualStyle
  2
Hidden
 70
     6
177
     3
291
     0
 70
    58
 90
        1
176
     1
 90
        2
176
     1
 90
        2
176
     1
 90
        0
176
     1
 40
0.6
176
     1
 40
30.0
176
     1
 62
     7
420
 16777215
176
     1
 90
        2
176
     1
 90
        2
176
     1
 62
     7
176
     1
 62
   257
176
     1
 90
        2
176
     1
 90
        1
176
     1
 40
40.0
176
     1
 90
        0
176
     1
 62
   257
176
     1
 40
1.0
176
     1
 90
        1
176
     1
 90
        6
176
     1
 90
        2
176
     1
 62
     7
176
     1
 90
        3
176
     1
 90
        0
176
     1
 90
        0
176
     1
290
     0
176
     1
 90
        1
176
     1
 40
0.0
176
     1
 90
        0
176
     1
290
     0
176
     1
290
     1
176
     1
290
     1
176
     1
290
     0
176
     1
290
     0
176
     1
290
     0
176
     1
290
     0
176
     1
290
     0
176
     1
290
     0
176
     1
 90
       50
176
     1
 40
0.0
176
     1
 40
1.0
176
     1
 90
        0
176
     1
 62
    18
420
        0
176
     1
 90
       50
176
     1
 90
        3
176
     1
 62
     5
420
      255
176
     1
290
     0
176
     1
 90
       50
176
     1
 90
       50
176
     1
 90
       50
176
     1
290
     0
176
     1
 90
       50
176
     1
 62
   256
176
     0
 40
1.0
176
     0
 90
        2
176
     1
  1
strokes_ogs.tif
176
     1
290
     0
176
     1
 40
1.0
176
     1
 40
1.0
176
     1
  0
VISUALSTYLE
  5
3B
102
{ACAD_REACTORS
330
2A
102
}
330
2A
100
AcDbVisualStyle
  2
JitterOff
 70
    20
177
     3
291
     1
 70
    58
 90
        2
176
     0
 90
        2
176
     0
 90
        0
176
     0
 90
        0
176
     0
 40
0.6
176
     0
 40
30.0
176
     0
 62
     7
420
 16777215
176
     0
 90
        1
176
     0
 90
        4
176
     0
 62
     7
176
     0
 62
   257
176
     0
 90
        1
176
     0
 90
        1
176
     0
 40
1.0
176
     0
 90
       10
176
     2
 62
     7
176
     0
 40
1.0
176
     0
 90
        1
176
     0
 90
        6
176
     0
 90
        2
176
     0
 62
     7
176
     0
 90
        5
176
     0
 90
        0
176
     0
 90
        0
176
     0
290
     0
176
     0
 90
        1
176
     0
 40
0.0
176
     0
 90
        0
176
     0
290
     0
176
     0
290
     1
176
     0
290
     1
176
     0
290
     0
176
     0
290
     0
176
     0
290
     0
176
     0
290
     0
176
     0
290
     0
176
     0
290
     0
176
     0
 90
       50
176
     0
 40
0.0
176
     0
 40
1.0
176
     0
 90
        0
176
     0
 62
    18
420
        0
176
     0
 90
       50
176
     0
 90
        3
176
     0
 62
     5
420
      255
176
     0
290
     0
176
     0
 90
       50
176
     0
 90
       50
176
     0
 90
       50
176
     0
290
     0
176
     0
 90
       50
176
     0
 62
   256
176
     0
 40
1.0
176
     0
 90
        2
176
     0
  1
strokes_ogs.tif
176
     0
290
     0
176
     0
 40
1.0
176
     0
 40
1.0
176
     0
  0
VISUALSTYLE
  5
38
102
{ACAD_REACTORS
330
2A
102
}
330
2A
100
AcDbVisualStyle
  2
Linepattern
 70
    14
177
     3
291
     1
 70
    58
 90
        2
176
     1
 90
        2
176
     1
 90
        0
176
     1
 90
        0
176
     1
 40
0.6
176
     1
 40
30.0
176
     1
 62
     7
420
 16777215
176
     1
 90
        1
176
     1
 90
        4
176
     1
 62
     7
176
     1
 62
   257
176
     1
 90
        7
176
     1
 90
        7
176
     1
 40
1.0
176
     1
 90
        8
176
     1
 62
     7
176
     1
 40
1.0
176
     1
 90
        1
176
     1
 90
        6
176
     1
 90
        2
176
     1
 62
     7
176
     1
 90
        5
176
     1
 90
        0
176
     1
 90
        0
176
     1
290
     0
176
     1
 90
        1
176
     1
 40
0.0
176
     1
 90
        0
176
     1
290
     0
176
     1
290
     1
176
     1
290
     1
176
     1
290
     0
176
     1
290
     0
176
     1
290
     0
176
     1
290
     0
176
     1
290
     0
176
     1
290
     0
176
     1
 90
       50
176
     1
 40
0.0
176
     1
 40
1.0
176
     1
 90
        0
176
     1
 62
    18
420
        0
176
     1
 90
       50
176
     1
 90
        3
176
     1
 62
     5
420
      255
176
     1
290
     0
176
     1
 90
       50
176
     1
 90
       50
176
     1
 90
       50
176
     1
290
     0
176
     1
 90
       50
176
     1
 62
   256
176
     0
 40
1.0
176
     0
 90
        2
176
     1
  1
strokes_ogs.tif
176
     1
290
     0
176
     1
 40
1.0
176
     1
 40
1.0
176
     1
  0
VISUALSTYLE
  5
3C
102
{ACAD_REACTORS
330
2A
102
}
330
2A
100
AcDbVisualStyle
  2
OverhangOff
 70
    21
177
     3
291
     1
 70
    58
 90
        2
176
     0
 90
        2
176
     0
 90
        0
176
     0
 90
        0
176
     0
 40
0.6
176
     0
 40
30.0
176
     0
 62
     7
420
 16777215
176
     0
 90
        1
176
     0
 90
        4
176
     0
 62
     7
176
     0
 62
   257
176
     0
 90
        1
176
     0
 90
        1
176
     0
 40
1.0
176
     0
 90
        9
176
     2
 62
     7
176
     0
 40
1.0
176
     0
 90
        1
176
     0
 90
        6
176
     0
 90
        2
176
     0
 62
     7
176
     0
 90
        5
176
     0
 90
        0
176
     0
 90
        0
176
     0
290
     0
176
     0
 90
        1
176
     0
 40
0.0
176
     0
 90
        0
176
     0
290
     0
176
     0
290
     1
176
     0
290
     1
176
     0
290
     0
176
     0
290
     0
176
     0
290
     0
176
     0
290
     0
176
     0
290
     0
176
     0
290
     0
176
     0
 90
       50
176
     0
 40
0.0
176
     0
 40
1.0
176
     0
 90
        0
176
     0
 62
    18
420
        0
176
     0
 90
       50
176
     0
 90
        3
176
     0
 62
     5
420
      255
176
     0
290
     0
176
     0
 90
       50
176
     0
 90
       50
176
     0
 90
       50
176
     0
290
     0
176
     0
 90
       50
176
     0
 62
   256
176
     0
 40
1.0
176
     0
 90
        2
176
     0
  1
strokes_ogs.tif
176
     0
290
     0
176
     0
 40
1.0
176
     0
 40
1.0
176
     0
  0
VISUALSTYLE
  5
33
102
{ACAD_REACTORS
330
2A
102
}
330
2A
100
AcDbVisualStyle
  2
Realistic
 70
     8
177
     3
291
     0
 70
    58
 90
        2
176
     1
 90
        3
176
     1
 90
        0
176
     1
 90
        2
176
     1
 40
0.6
176
     1
 40
30.0
176
     1
 62
     7
420
 16777215
176
     1
 90
        0
176
     1
 90
        0
176
     1
 62
     7
176
     1
 62
   257
176
     1
 90
        1
176
     1
 90
        1
176
     1
 40
1.0
176
     1
 90
        8
176
     1
 62
   257
176
     1
 40
1.0
176
     1
 90
        1
176
     1
 90
        6
176
     1
 90
        2
176
     1
 62
     7
176
     1
 90
        3
176
     1
 90
        0
176
     1
 90
        0
176
     1
290
     0
176
     1
 90
       13
176
     1
 40
0.0
176
     1
 90
        0
176
     1
290
     0
176
     1
290
     1
176
     1
290
     1
176
     1
290
     0
176
     1
290
     0
176
     1
290
     0
176
     1
290
     0
176
     1
290
     0
176
     1
290
     0
176
     1
 90
       50
176
     1
 40
0.0
176
     1
 40
1.0
176
     1
 90
        0
176
     1
 62
    18
420
        0
176
     1
 90
       50
176
     1
 90
        3
176
     1
 62
     5
420
      255
176
     1
290
     0
176
     1
 90
       50
176
     1
 90
       50
176
     1
 90
       50
176
     1
290
     0
176
     1
 90
       50
176
     1
 62
   256
176
     0
 40
1.0
176
     0
 90
        2
176
     1
  1
strokes_ogs.tif
176
     1
290
     0
176
     1
 40
1.0
176
     1
 40
1.0
176
     1
  0
VISUALSTYLE
  5
42
102
{ACAD_REACTORS
330
2A
102
}
330
2A
100
AcDbVisualStyle
  2
Shaded
 70
    27
177
     3
291
     0
 70
    58
 90
        2
176
     1
 90
        2
176
     1
 90
        1
176
     1
 90
        2
176
     1
 40
0.6
176
     1
 40
30.0
176
     1
 62
     7
420
 16777215
176
     1
 90
        0
176
     1
 90
        4
176
     1
 62
     7
176
     1
 62
   257
176
     1
 90
        1
176
     1
 90
        1
176
     1
 40
1.0
176
     1
 90
        8
176
     1
 62
   257
176
     1
 40
1.0
176
     1
 90
        1
176
     1
 90
        6
176
     1
 90
        2
176
     1
 62
     8
420
  7895160
176
     1
 90
        3
176
     1
 90
        0
176
     1
 90
        0
176
     1
290
     0
176
     1
 90
        5
176
     1
 40
0.0
176
     1
 90
        0
176
     1
290
     0
176
     1
290
     1
176
     1
290
     1
176
     1
290
     0
176
     1
290
     0
176
     1
290
     0
176
     1
290
     0
176
     1
290
     0
176
     1
290
     0
176
     1
 90
       50
176
     1
 40
0.0
176
     1
 40
1.0
176
     1
 90
        0
176
     1
 62
    18
420
        0
176
     1
 90
       50
176
     1
 90
        3
176
     1
 62
     5
420
      255
176
     1
290
     0
176
     1
 90
       50
176
     1
 90
       50
176
     1
 90
       50
176
     1
290
     0
176
     1
 90
       50
176
     1
 62
   256
176
     0
 40
1.0
176
     0
 90
        2
176
     1
  1
strokes_ogs.tif
176
     1
290
     0
176
     1
 40
1.0
176
     1
 40
1.0
176
     1
  0
VISUALSTYLE
  5
41
102
{ACAD_REACTORS
330
2A
102
}
330
2A
100
AcDbVisualStyle
  2
Shaded with edges
 70
    26
177
     3
291
     0
 70
    58
 90
        2
176
     1
 90
        2
176
     1
 90
        1
176
     1
 90
        2
176
     1
 40
0.6
176
     1
 40
30.0
176
     1
 62
     7
420
 16777215
176
     1
 90
        1
176
     1
 90
       10
176
     1
 62
     7
176
     1
 62
   257
176
     1
 90
        2
176
     1
 90
        1
176
     1
 40
1.0
176
     1
 90
        8
176
     1
 62
   257
176
     1
 40
1.0
176
     1
 90
        1
176
     1
 90
        6
176
     1
 90
        2
176
     1
 62
     7
176
     1
 90
        3
176
     1
 90
        0
176
     1
 90
        0
176
     1
290
     0
176
     1
 90
        5
176
     1
 40
0.0
176
     1
 90
        0
176
     1
290
     0
176
     1
290
     1
176
     1
290
     1
176
     1
290
     0
176
     1
290
     0
176
     1
290
     0
176
     1
290
     0
176
     1
290
     0
176
     1
290
     0
176
     1
 90
       50
176
     1
 40
0.0
176
     1
 40
1.0
176
     1
 90
        0
176
     1
 62
    18
420
        0
176
     1
 90
       50
176
     1
 90
        3
176
     1
 62
     5
420
      255
176
     1
290
     0
176
     1
 90
       50
176
     1
 90
       50
176
     1
 90
       50
176
     1
290
     0
176
     1
 90
       50
176
     1
 62
   256
176
     0
 40
1.0
176
     0
 90
        2
176
     1
  1
strokes_ogs.tif
176
     1
290
     0
176
     1
 40
1.0
176
     1
 40
1.0
176
     1
  0
VISUALSTYLE
  5
3E
102
{ACAD_REACTORS
330
2A
102
}
330
2A
100
AcDbVisualStyle
  2
Shades of Gray
 70
    23
177
     3
291
     0
 70
    58
 90
        2
176
     1
 90
        2
176
     1
 90
        3
176
     1
 90
        0
176
     1
 40
0.6
176
     1
 40
30.0
176
     1
 62
     7
420
 16777215
176
     1
 90
        2
176
     1
 90
        2
176
     1
 62
     7
176
     1
 62
     7
176
     1
 90
        1
176
     1
 90
        1
176
     1
 40
40.0
176
     1
 90
        8
176
     1
 62
     7
176
     1
 40
1.0
176
     1
 90
        1
176
     1
 90
        6
176
     1
 90
        2
176
     1
 62
     7
176
     1
 90
        3
176
     1
 90
        0
176
     1
 90
        0
176
     1
290
     0
176
     1
 90
        1
176
     1
 40
0.0
176
     1
 90
        0
176
     1
290
     0
176
     1
290
     1
176
     1
290
     1
176
     1
290
     0
176
     1
290
     0
176
     1
290
     0
176
     1
290
     0
176
     1
290
     0
176
     1
290
     0
176
     1
 90
       50
176
     1
 40
0.0
176
     1
 40
1.0
176
     1
 90
        0
176
     1
 62
    18
420
        0
176
     1
 90
       50
176
     1
 90
        3
176
     1
 62
     5
420
      255
176
     1
290
     0
176
     1
 90
       50
176
     1
 90
       50
176
     1
 90
       50
176
     1
290
     0
176
     1
 90
       50
176
     1
 62
   256
176
     0
 40
1.0
176
     0
 90
        2
176
     1
  1
strokes_ogs.tif
176
     1
290
     0
176
     1
 40
1.0
176
     1
 40
1.0
176
     1
  0
VISUALSTYLE
  5
3F
102
{ACAD_REACTORS
330
2A
102
}
330
2A
100
AcDbVisualStyle
  2
Sketchy
 70
    24
177
     3
291
     0
 70
    58
 90
        1
176
     1
 90
        2
176
     1
 90
        2
176
     1
 90
        0
176
     1
 40
0.6
176
     1
 40
30.0
176
     1
 62
     7
420
 16777215
176
     1
 90
        2
176
     1
 90
        2
176
     1
 62
     7
176
     1
 62
     7
176
     1
 90
        1
176
     1
 90
        1
176
     1
 40
40.0
176
     1
 90
       11
176
     1
 62
     7
176
     1
 40
1.0
176
     1
 90
        1
176
     1
 90
        6
176
     1
 90
        2
176
     1
 62
     7
176
     1
 90
        6
176
     1
 90
        0
176
     1
 90
        0
176
     1
290
     0
176
     1
 90
        1
176
     1
 40
0.0
176
     1
 90
        0
176
     1
290
     0
176
     1
290
     1
176
     1
290
     1
176
     1
290
     0
176
     1
290
     0
176
     1
290
     0
176
     1
290
     0
176
     1
290
     0
176
     1
290
     0
176
     1
 90
       50
176
     1
 40
0.0
176
     1
 40
1.0
176
     1
 90
        0
176
     1
 62
    18
420
        0
176
     1
 90
       50
176
     1
 90
        3
176
     1
 62
     5
420
      255
176
     1
290
     0
176
     1
 90
       50
176
     1
 90
       50
176
     1
 90
       50
176
     1
290
     0
176
     1
 90
       50
176
     1
 62
   256
176
     0
 40
1.0
176
     0
 90
        2
176
     1
  1
strokes_ogs.tif
176
     1
290
     0
176
     1
 40
1.0
176
     1
 40
1.0
176
     1
  0
VISUALSTYLE
  5
37
102
{ACAD_REACTORS
330
2A
102
}
330
2A
100
AcDbVisualStyle
  2
Thicken
 70
    13
177
     3
291
     1
 70
    58
 90
        2
176
     1
 90
        2
176
     1
 90
        0
176
     1
 90
        0
176
     1
 40
0.6
176
     1
 40
30.0
176
     1
 62
     7
420
 16777215
176
     1
 90
        1
176
     1
 90
        4
176
     1
 62
     7
176
     1
 62
   257
176
     1
 90
        1
176
     1
 90
        1
176
     1
 40
1.0
176
     1
 90
       12
176
     1
 62
     7
176
     1
 40
1.0
176
     1
 90
        1
176
     1
 90
        6
176
     1
 90
        2
176
     1
 62
     7
176
     1
 90
        5
176
     1
 90
        0
176
     1
 90
        0
176
     1
290
     0
176
     1
 90
        1
176
     1
 40
0.0
176
     1
 90
        0
176
     1
290
     0
176
     1
290
     1
176
     1
290
     1
176
     1
290
     0
176
     1
290
     0
176
     1
290
     0
176
     1
290
     0
176
     1
290
     0
176
     1
290
     0
176
     1
 90
       50
176
     1
 40
0.0
176
     1
 40
1.0
176
     1
 90
        0
176
     1
 62
    18
420
        0
176
     1
 90
       50
176
     1
 90
        3
176
     1
 62
     5
420
      255
176
     1
290
     0
176
     1
 90
       50
176
     1
 90
       50
176
     1
 90
       50
176
     1
290
     0
176
     1
 90
       50
176
     1
 62
   256
176
     0
 40
1.0
176
     0
 90
        2
176
     1
  1
strokes_ogs.tif
176
     1
290
     0
176
     1
 40
1.0
176
     1
 40
1.0
176
     1
  0
VISUALSTYLE
  5
30
102
{ACAD_REACTORS
330
2A
102
}
330
2A
100
AcDbVisualStyle
  2
Wireframe
 70
     5
177
     3
291
     0
 70
    58
 90
        0
176
     1
 90
        2
176
     1
 90
        0
176
     1
 90
        0
176
     1
 40
0.6
176
     1
 40
30.0
176
     1
 62
     7
420
 16777215
176
     1
 90
        1
176
     1
 90
        4
176
     1
 62
     7
176
     1
 62
   257
176
     1
 90
        1
176
     1
 90
        1
176
     1
 40
1.0
176
     1
 90
        0
176
     1
 62
   257
176
     1
 40
1.0
176
     1
 90
        1
176
     1
 90
        6
176
     1
 90
        2
176
     1
 62
     7
176
     1
 90
        3
176
     1
 90
        0
176
     1
 90
        0
176
     1
290
     0
176
     1
 90
        1
176
     1
 40
0.0
176
     1
 90
        0
176
     1
290
     0
176
     1
290
     1
176
     1
290
     1
176
     1
290
     0
176
     1
290
     0
176
     1
290
     0
176
     1
290
     0
176
     1
290
     0
176
     1
290
     0
176
     1
 90
       50
176
     1
 40
0.0
176
     1
 40
1.0
176
     1
 90
        0
176
     1
 62
    18
420
        0
176
     1
 90
       50
176
     1
 90
        3
176
     1
 62
     5
420
      255
176
     1
290
     0
176
     1
 90
       50
176
     1
 90
       50
176
     1
 90
       50
176
     1
290
     0
176
     1
 90
       50
176
     1
 62
   256
176
     0
 40
1.0
176
     0
 90
        2
176
     1
  1
strokes_ogs.tif
176
     1
290
     0
176
     1
 40
1.0
176
     1
 40
1.0
176
     1
  0
VISUALSTYLE
  5
40
102
{ACAD_REACTORS
330
2A
102
}
330
2A
100
AcDbVisualStyle
  2
X-Ray
 70
    25
177
     3
291
     0
 70
    58
 90
        2
176
     1
 90
        2
176
     1
 90
        1
176
     1
 90
        1
176
     1
 40
0.5
176
     1
 40
30.0
176
     1
 62
     7
420
 16777215
176
     1
 90
        1
176
     1
 90
        0
176
     1
 62
     7
176
     1
 62
   257
176
     1
 90
        1
176
     1
 90
        1
176
     1
 40
1.0
176
     1
 90
        8
176
     1
 62
     7
176
     1
 40
1.0
176
     1
 90
        1
176
     1
 90
        6
176
     1
 90
        2
176
     1
 62
     7
176
     1
 90
        3
176
     1
 90
        0
176
     1
 90
        0
176
     1
290
     0
176
     1
 90
       13
176
     1
 40
0.0
176
     1
 90
        0
176
     1
290
     0
176
     1
290
     1
176
     1
290
     1
176
     1
290
     0
176
     1
290
     0
176
     1
290
     0
176
     1
290
     0
176
     1
290
     0
176
     1
290
     0
176
     1
 90
       50
176
     1
 40
0.0
176
     1
 40
1.0
176
     1
 90
        0
176
     1
 62
    18
420
        0
176
     1
 90
       50
176
     1
 90
        3
176
     1
 62
     5
420
      255
176
     1
290
     0
176
     1
 90
       50
176
     1
 90
       50
176
     1
 90
       50
176
     1
290
     0
176
     1
 90
       50
176
     1
 62
   256
176
     0
 40
1.0
176
     0
 90
        2
176
     1
  1
strokes_ogs.tif
176
     1
290
     0
176
     1
 40
1.0
176
     1
 40
1.0
176
     1
  0
DICTIONARYVAR
  5
134
102
{ACAD_REACTORS
330
133
102
}
330
133
100
DictionaryVariables
280
     0
  1
1:1
  0
DICTIONARYVAR
  5
139
102
{ACAD_REACTORS
330
133
102
}
330
133
100
DictionaryVariables
280
     0
  1
Standard
  0
DICTIONARYVAR
  5
138
102
{ACAD_REACTORS
330
133
102
}
330
133
100
DictionaryVariables
280
     0
  1
Standard
  0
DICTIONARY
  5
135
330
6A
100
AcDbDictionary
280
     1
281
     1
  3
ACAD_ROUNDTRIP_2008_TABLESTYLE_CELLSTYLEMAP
360
136
  0
CELLSTYLEMAP
  5
136
102
{ACAD_REACTORS
330
135
102
}
330
135
100
AcDbCellStyleMap
 90
        3
300
CELLSTYLE
  1
TABLEFORMAT_BEGIN
 90
        5
170
     1
 91
        0
 92
    32768
 62
   257
 93
        1
300
CONTENTFORMAT
  1
CONTENTFORMAT_BEGIN
 90
        0
 91
        0
 92
        4
 93
        0
300

 40
0.0
140
1.0
 94
        5
 62
     0
340
11
144
6.0
309
CONTENTFORMAT_END
171
     1
301
MARGIN
  1
CELLMARGIN_BEGIN
 40
1.5
 40
1.5
 40
1.5
 40
1.5
 40
1.5
 40
1.5
309
CELLMARGIN_END
 94
        6
 95
        1
302
GRIDFORMAT
  1
GRIDFORMAT_BEGIN
 90
        0
 91
        1
 62
     0
 92
       -2
340
14
 93
        0
 40
0.045
309
GRIDFORMAT_END
 95
        2
302
GRIDFORMAT
  1
GRIDFORMAT_BEGIN
 90
        0
 91
        1
 62
     0
 92
       -2
340
14
 93
        0
 40
0.045
309
GRIDFORMAT_END
 95
        4
302
GRIDFORMAT
  1
GRIDFORMAT_BEGIN
 90
        0
 91
        1
 62
     0
 92
       -2
340
14
 93
        0
 40
0.045
309
GRIDFORMAT_END
 95
        8
302
GRIDFORMAT
  1
GRIDFORMAT_BEGIN
 90
        0
 91
        1
 62
     0
 92
       -2
340
14
 93
        0
 40
0.045
309
GRIDFORMAT_END
 95
       16
302
GRIDFORMAT
  1
GRIDFORMAT_BEGIN
 90
        0
 91
        1
 62
     0
 92
       -2
340
14
 93
        0
 40
0.045
309
GRIDFORMAT_END
 95
       32
302
GRIDFORMAT
  1
GRIDFORMAT_BEGIN
 90
        0
 91
        1
 62
     0
 92
       -2
340
14
 93
        0
 40
0.045
309
GRIDFORMAT_END
309
TABLEFORMAT_END
  1
CELLSTYLE_BEGIN
 90
        1
 91
        1
300
_TITLE
309
CELLSTYLE_END
300
CELLSTYLE
  1
TABLEFORMAT_BEGIN
 90
        5
170
     1
 91
        0
 92
        0
 62
   257
 93
        1
300
CONTENTFORMAT
  1
CONTENTFORMAT_BEGIN
 90
        0
 91
        0
 92
        4
 93
        0
300

 40
0.0
140
1.0
 94
        5
 62
     0
340
11
144
4.5
309
CONTENTFORMAT_END
171
     1
301
MARGIN
  1
CELLMARGIN_BEGIN
 40
1.5
 40
1.5
 40
1.5
 40
1.5
 40
1.5
 40
1.5
309
CELLMARGIN_END
 94
        6
 95
        1
302
GRIDFORMAT
  1
GRIDFORMAT_BEGIN
 90
        0
 91
        1
 62
     0
 92
       -2
340
14
 93
        0
 40
0.045
309
GRIDFORMAT_END
 95
        2
302
GRIDFORMAT
  1
GRIDFORMAT_BEGIN
 90
        0
 91
        1
 62
     0
 92
       -2
340
14
 93
        0
 40
0.045
309
GRIDFORMAT_END
 95
        4
302
GRIDFORMAT
  1
GRIDFORMAT_BEGIN
 90
        0
 91
        1
 62
     0
 92
       -2
340
14
 93
        0
 40
0.045
309
GRIDFORMAT_END
 95
        8
302
GRIDFORMAT
  1
GRIDFORMAT_BEGIN
 90
        0
 91
        1
 62
     0
 92
       -2
340
14
 93
        0
 40
0.045
309
GRIDFORMAT_END
 95
       16
302
GRIDFORMAT
  1
GRIDFORMAT_BEGIN
 90
        0
 91
        1
 62
     0
 92
       -2
340
14
 93
        0
 40
0.045
309
GRIDFORMAT_END
 95
       32
302
GRIDFORMAT
  1
GRIDFORMAT_BEGIN
 90
        0
 91
        1
 62
     0
 92
       -2
340
14
 93
        0
 40
0.045
309
GRIDFORMAT_END
309
TABLEFORMAT_END
  1
CELLSTYLE_BEGIN
 90
        2
 91
        1
300
_HEADER
309
CELLSTYLE_END
300
CELLSTYLE
  1
TABLEFORMAT_BEGIN
 90
        5
170
     1
 91
        0
 92
        0
 62
   257
 93
        1
300
CONTENTFORMAT
  1
CONTENTFORMAT_BEGIN
 90
        0
 91
        0
 92
        4
 93
        0
300

 40
0.0
140
1.0
 94
        2
 62
     0
340
11
144
4.5
309
CONTENTFORMAT_END
171
     1
301
MARGIN
  1
CELLMARGIN_BEGIN
 40
1.5
 40
1.5
 40
1.5
 40
1.5
 40
1.5
 40
1.5
309
CELLMARGIN_END
 94
        6
 95
        1
302
GRIDFORMAT
  1
GRIDFORMAT_BEGIN
 90
        0
 91
        1
 62
     0
 92
       -2
340
14
 93
        0
 40
0.045
309
GRIDFORMAT_END
 95
        2
302
GRIDFORMAT
  1
GRIDFORMAT_BEGIN
 90
        0
 91
        1
 62
     0
 92
       -2
340
14
 93
        0
 40
0.045
309
GRIDFORMAT_END
 95
        4
302
GRIDFORMAT
  1
GRIDFORMAT_BEGIN
 90
        0
 91
        1
 62
     0
 92
       -2
340
14
 93
        0
 40
0.045
309
GRIDFORMAT_END
 95
        8
302
GRIDFORMAT
  1
GRIDFORMAT_BEGIN
 90
        0
 91
        1
 62
     0
 92
       -2
340
14
 93
        0
 40
0.045
309
GRIDFORMAT_END
 95
       16
302
GRIDFORMAT
  1
GRIDFORMAT_BEGIN
 90
        0
 91
        1
 62
     0
 92
       -2
340
14
 93
        0
 40
0.045
309
GRIDFORMAT_END
 95
       32
302
GRIDFORMAT
  1
GRIDFORMAT_BEGIN
 90
        0
 91
        1
 62
     0
 92
       -2
340
14
 93
        0
 40
0.045
309
GRIDFORMAT_END
309
TABLEFORMAT_END
  1
CELLSTYLE_BEGIN
 90
        3
 91
        2
300
_DATA
309
CELLSTYLE_END
  0
ENDSEC
  0
EOF
