  0
SECTION
  2
HEADER
  9
$ACADVER
  1
AC1015
  9
$ACADMAINTVER
 70
     6
  9
$DWGCODEPAGE
  3
ANSI_1252
  9
$INSBASE
 10
0.0
 20
0.0
 30
0.0
  9
$EXTMIN
 10
-350.0
 20
-200.0
 30
0.0
  9
$EXTMAX
 10
350.0
 20
200.0
 30
0.0
  9
$LIMMIN
 10
0.0
 20
0.0
  9
$LIMMAX
 10
420.0
 20
297.0
  9
$ORTHOMODE
 70
     0
  9
$REGENMODE
 70
     1
  9
$FILLMODE
 70
     1
  9
$QTEXTMODE
 70
     0
  9
$MIRRTEXT
 70
     1
  9
$LTSCALE
 40
1.0
  9
$ATTMODE
 70
     1
  9
$TEXTSIZE
 40
3.5
  9
$TRACEWID
 40
1.0
  9
$TEXTSTYLE
  7
STANDARD
  9
$CLAYER
  8
0
  9
$CELTYPE
  6
ByLayer
  9
$CECOLOR
 62
   256
  9
$CELTSCALE
 40
1.0
  9
$DISPSILH
 70
     0
  9
$DIMSCALE
 40
1.0
  9
$DIMASZ
 40
8.0
  9
$DIMEXO
 40
1.0
  9
$DIMDLI
 40
3.75
  9
$DIMRND
 40
0.0
  9
$DIMDLE
 40
0.0
  9
$DIMEXE
 40
1.0
  9
$DIMTP
 40
0.0
  9
$DIMTM
 40
0.0
  9
$DIMTXT
 40
16.9333333333
  9
$DIMCEN
 40
2.5
  9
$DIMTSZ
 40
0.0
  9
$DIMTOL
 70
     0
  9
$DIMLIM
 70
     0
  9
$DIMTIH
 70
     1
  9
$DIMTOH
 70
     1
  9
$DIMSE1
 70
     0
  9
$DIMSE2
 70
     0
  9
$DIMTAD
 70
     1
  9
$DIMZIN
 70
     0
  9
$DIMBLK
  1

  9
$DIMASO
 70
     1
  9
$DIMSHO
 70
     1
  9
$DIMPOST
  1

  9
$DIMAPOST
  1

  9
$DIMALT
 70
     0
  9
$DIMALTD
 70
     3
  9
$DIMALTF
 40
0.0393700787
  9
$DIMLFAC
 40
1.0
  9
$DIMTOFL
 70
     1
  9
$DIMTVP
 40
0.0
  9
$DIMTIX
 70
     0
  9
$DIMSOXD
 70
     0
  9
$DIMSAH
 70
     0
  9
$DIMBLK1
  1

  9
$DIMBLK2
  1

  9
$DIMSTYLE
  2
ISO-25
  9
$DIMCLRD
 70
     0
  9
$DIMCLRE
 70
     0
  9
$DIMCLRT
 70
     0
  9
$DIMTFAC
 40
1.0
  9
$DIMGAP
 40
1.524
  9
$DIMJUST
 70
     0
  9
$DIMSD1
 70
     0
  9
$DIMSD2
 70
     0
  9
$DIMTOLJ
 70
     0
  9
$DIMTZIN
 70
     0
  9
$DIMALTZ
 70
     0
  9
$DIMALTTZ
 70
     0
  9
$DIMUPT
 70
     0
  9
$DIMDEC
 70
     2
  9
$DIMTDEC
 70
     2
  9
$DIMALTU
 70
     2
  9
$DIMALTTD
 70
     3
  9
$DIMTXSTY
  7
STANDARD
  9
$DIMAUNIT
 70
     0
  9
$DIMADEC
 70
     2
  9
$DIMALTRND
 40
0.0
  9
$DIMAZIN
 70
     0
  9
$DIMDSEP
 70
    44
  9
$DIMATFIT
 70
     3
  9
$DIMFRAC
 70
     0
  9
$DIMLDRBLK
  1

  9
$DIMLUNIT
 70
     2
  9
$DIMLWD
 70
    -2
  9
$DIMLWE
 70
    -2
  9
$DIMTMOVE
 70
     0
  9
$LUNITS
 70
     2
  9
$LUPREC
 70
     2
  9
$SKETCHINC
 40
1.0
  9
$FILLETRAD
 40
10.0
  9
$AUNITS
 70
     0
  9
$AUPREC
 70
     2
  9
$MENU
  1
.
  9
$ELEVATION
 40
0.0
  9
$PELEVATION
 40
0.0
  9
$THICKNESS
 40
0.0
  9
$LIMCHECK
 70
     0
  9
$CHAMFERA
 40
0.0
  9
$CHAMFERB
 40
0.0
  9
$CHAMFERC
 40
0.0
  9
$CHAMFERD
 40
0.0
  9
$SKPOLY
 70
     0
  9
$TDCREATE
 40
2458382.471459688
  9
$TDUCREATE
 40
2458382.388126354
  9
$TDUPDATE
 40
2458382.471499549
  9
$TDUUPDATE
 40
2458382.388166215
  9
$TDINDWG
 40
0.0000000116
  9
$TDUSRTIMER
 40
0.0000000116
  9
$USRTIMER
 70
     1
  9
$ANGBASE
 50
0.0
  9
$ANGDIR
 70
     0
  9
$PDMODE
 70
     0
  9
$PDSIZE
 40
-1.0
  9
$PLINEWID
 40
0.0
  9
$SPLFRAME
 70
     0
  9
$SPLINETYPE
 70
     6
  9
$SPLINESEGS
 70
     8
  9
$HANDSEED
  5
1C8
  9
$SURFTAB1
 70
     6
  9
$SURFTAB2
 70
     6
  9
$SURFTYPE
 70
     6
  9
$SURFU
 70
     6
  9
$SURFV
 70
     6
  9
$UCSBASE
  2

  9
$UCSNAME
  2

  9
$UCSORG
 10
0.0
 20
0.0
 30
0.0
  9
$UCSXDIR
 10
1.0
 20
0.0
 30
0.0
  9
$UCSYDIR
 10
0.0
 20
1.0
 30
0.0
  9
$UCSORTHOREF
  2

  9
$UCSORTHOVIEW
 70
     0
  9
$UCSORGTOP
 10
0.0
 20
0.0
 30
0.0
  9
$UCSORGBOTTOM
 10
0.0
 20
0.0
 30
0.0
  9
$UCSORGLEFT
 10
0.0
 20
0.0
 30
0.0
  9
$UCSORGRIGHT
 10
0.0
 20
0.0
 30
0.0
  9
$UCSORGFRONT
 10
0.0
 20
0.0
 30
0.0
  9
$UCSORGBACK
 10
0.0
 20
0.0
 30
0.0
  9
$PUCSBASE
  2

  9
$PUCSNAME
  2

  9
$PUCSORG
 10
0.0
 20
0.0
 30
0.0
  9
$PUCSXDIR
 10
1.0
 20
0.0
 30
0.0
  9
$PUCSYDIR
 10
0.0
 20
1.0
 30
0.0
  9
$PUCSORTHOREF
  2

  9
$PUCSORTHOVIEW
 70
     0
  9
$PUCSORGTOP
 10
0.0
 20
0.0
 30
0.0
  9
$PUCSORGBOTTOM
 10
0.0
 20
0.0
 30
0.0
  9
$PUCSORGLEFT
 10
0.0
 20
0.0
 30
0.0
  9
$PUCSORGRIGHT
 10
0.0
 20
0.0
 30
0.0
  9
$PUCSORGFRONT
 10
0.0
 20
0.0
 30
0.0
  9
$PUCSORGBACK
 10
0.0
 20
0.0
 30
0.0
  9
$USERI1
 70
     0
  9
$USERI2
 70
     0
  9
$USERI3
 70
     0
  9
$USERI4
 70
     0
  9
$USERI5
 70
     0
  9
$USERR1
 40
0.0
  9
$USERR2
 40
0.0
  9
$USERR3
 40
0.0
  9
$USERR4
 40
0.0
  9
$USERR5
 40
0.0
  9
$WORLDVIEW
 70
     1
  9
$SHADEDGE
 70
     3
  9
$SHADEDIF
 70
    70
  9
$TILEMODE
 70
     1
  9
$MAXACTVP
 70
    64
  9
$PINSBASE
 10
0.0
 20
0.0
 30
0.0
  9
$PLIMCHECK
 70
     0
  9
$PEXTMIN
 10
-350.0
 20
0.0
 30
0.0
  9
$PEXTMAX
 10
350.0
 20
120.0
 30
0.0
  9
$PLIMMIN
 10
-404.4747081712
 20
-20.4280155642
  9
$PLIMMAX
 10
404.4747081712
 20
551.5564202335
  9
$UNITMODE
 70
     0
  9
$VISRETAIN
 70
     1
  9
$PLINEGEN
 70
     0
  9
$PSLTSCALE
 70
     1
  9
$TREEDEPTH
 70
  3020
  9
$CMLSTYLE
  2
Standard
  9
$CMLJUST
 70
     0
  9
$CMLSCALE
 40
20.0
  9
$PROXYGRAPHICS
 70
     1
  9
$MEASUREMENT
 70
     1
  9
$CELWEIGHT
370
    -1
  9
$ENDCAPS
280
     0
  9
$JOINSTYLE
280
     0
  9
$LWDISPLAY
290
     1
  9
$INSUNITS
 70
     4
  9
$HYPERLINKBASE
  1

  9
$STYLESHEET
  1

  9
$XEDIT
290
     1
  9
$CEPSNTYPE
380
     0
  9
$PSTYLEMODE
290
     1
  9
$FINGERPRINTGUID
  2
{3D990DCA-E6F6-468F-872D-652EA021F306}
  9
$VERSIONGUID
  2
{FAEB1C32-E019-11D5-929B-00C0DF256EC4}
  9
$EXTNAMES
290
     1
  9
$PSVPSCALE
 40
0.0
  9
$OLESTARTUP
290
     0
  0
ENDSEC
  0
SECTION
  2
CLASSES
  0
CLASS
  1
ACDBDICTIONARYWDFLT
  2
AcDbDictionaryWithDefault
  3
ObjectDBX Classes
 90
        0
280
     0
281
     0
  0
CLASS
  1
VISUALSTYLE
  2
AcDbVisualStyle
  3
ObjectDBX Classes
 90
     4095
280
     0
281
     0
  0
CLASS
  1
MATERIAL
  2
AcDbMaterial
  3
ObjectDBX Classes
 90
     1153
280
     0
281
     0
  0
CLASS
  1
SCALE
  2
AcDbScale
  3
ObjectDBX Classes
 90
     1153
280
     0
281
     0
  0
CLASS
  1
TABLESTYLE
  2
AcDbTableStyle
  3
ObjectDBX Classes
 90
     4095
280
     0
281
     0
  0
CLASS
  1
MLEADERSTYLE
  2
AcDbMLeaderStyle
  3
ACDB_MLEADERSTYLE_CLASS
 90
     4095
280
     0
281
     0
  0
CLASS
  1
SUN
  2
AcDbSun
  3
SCENEOE
 90
     1153
280
     0
281
     0
  0
CLASS
  1
ACDBPLACEHOLDER
  2
AcDbPlaceHolder
  3
ObjectDBX Classes
 90
        0
280
     0
281
     0
  0
CLASS
  1
LAYOUT
  2
AcDbLayout
  3
ObjectDBX Classes
 90
        0
280
     0
281
     0
  0
ENDSEC
  0
SECTION
  2
TABLES
  0
TABLE
  2
VPORT
  5
8
330
0
100
AcDbSymbolTable
 70
     1
  0
VPORT
  5
29
330
8
100
AcDbSymbolTableRecord
100
AcDbViewportTableRecord
  2
*Active
 70
     0
 10
0.0
 20
0.0
 11
1.0
 21
1.0
 12
0.0
 22
0.0
 13
0.0
 23
0.0
 14
10.0
 24
10.0
 15
10.0
 25
10.0
 16
0.0
 26
0.0
 36
1.0
 17
0.0
 27
0.0
 37
0.0
 40
408.0
 41
1.75
 42
50.0
 43
0.0
 44
0.0
 50
0.0
 51
0.0
 71
     0
 72
   100
 73
     1
 74
     3
 75
     0
 76
     0
 77
     0
 78
     0
281
     0
 65
     1
110
0.0
120
0.0
130
0.0
111
1.0
121
0.0
131
0.0
112
0.0
122
1.0
132
0.0
 79
     0
146
0.0
  0
ENDTAB
  0
TABLE
  2
LTYPE
  5
5
330
0
100
AcDbSymbolTable
 70
     6
  0
LTYPE
  5
14
330
5
100
AcDbSymbolTableRecord
100
AcDbLinetypeTableRecord
  2
ByBlock
 70
     0
  3

 72
    65
 73
     0
 40
0.0
  0
LTYPE
  5
15
330
5
100
AcDbSymbolTableRecord
100
AcDbLinetypeTableRecord
  2
ByLayer
 70
     0
  3

 72
    65
 73
     0
 40
0.0
  0
LTYPE
  5
16
330
5
100
AcDbSymbolTableRecord
100
AcDbLinetypeTableRecord
  2
Continuous
 70
     0
  3
Solid line
 72
    65
 73
     0
 40
0.0
  0
LTYPE
  5
6E
330
5
100
AcDbSymbolTableRecord
100
AcDbLinetypeTableRecord
  2
HIDDEN
 70
     0
  3
Hidden __ __ __ __ __ __ __ __ __ __ __ __ __ __
 72
    65
 73
     2
 40
1.905
 49
1.27
 74
     0
 49
-0.635
 74
     0
  0
LTYPE
  5
6F
330
5
100
AcDbSymbolTableRecord
100
AcDbLinetypeTableRecord
  2
PHANTOM
 70
     0
  3
Phantom ______  __  __  ______  __  __  ______
 72
    65
 73
     6
 40
12.7
 49
6.35
 74
     0
 49
-1.27
 74
     0
 49
1.27
 74
     0
 49
-1.27
 74
     0
 49
1.27
 74
     0
 49
-1.27
 74
     0
  0
LTYPE
  5
70
330
5
100
AcDbSymbolTableRecord
100
AcDbLinetypeTableRecord
  2
CENTER
 70
     0
  3
Center ____ _ ____ _ ____ _ ____ _ ____ _ ____
 72
    65
 73
     4
 40
10.16
 49
6.35
 74
     0
 49
-1.27
 74
     0
 49
1.27
 74
     0
 49
-1.27
 74
     0
  0
LTYPE
  5
71
330
5
100
AcDbSymbolTableRecord
100
AcDbLinetypeTableRecord
  2
CENTERX2
 70
     0
  3
Center (2x) ________  __  ________  __  _____
 72
    65
 73
     4
 40
20.32
 49
12.7
 74
     0
 49
-2.54
 74
     0
 49
2.54
 74
     0
 49
-2.54
 74
     0
  0
LTYPE
  5
72
330
5
100
AcDbSymbolTableRecord
100
AcDbLinetypeTableRecord
  2
DOT2
 70
     0
  3
Dot (.5x) ........................................
 72
    65
 73
     2
 40
0.635
 49
0.0
 74
     0
 49
-0.635
 74
     0
  0
ENDTAB
  0
TABLE
  2
LAYER
  5
2
330
0
100
AcDbSymbolTable
 70
     1
  0
LAYER
  5
10
330
2
100
AcDbSymbolTableRecord
100
AcDbLayerTableRecord
  2
0
 70
     0
 62
     7
  6
Continuous
370
    -3
390
F
  0
ENDTAB
  0
TABLE
  2
STYLE
  5
3
330
0
100
AcDbSymbolTable
 70
     1
  0
STYLE
  5
11
330
3
100
AcDbSymbolTableRecord
100
AcDbTextStyleTableRecord
  2
STANDARD
 70
     0
 40
0.0
 41
1.0
 50
0.0
 71
     0
 42
3.5
  3
GOTHIC.TTF
  4

1001
ACAD
1000
CENTURY GOTHIC
1071
       34
  0
ENDTAB
  0
TABLE
  2
VIEW
  5
6
330
0
100
AcDbSymbolTable
 70
     0
  0
ENDTAB
  0
TABLE
  2
UCS
  5
7
330
0
100
AcDbSymbolTable
 70
     0
  0
ENDTAB
  0
TABLE
  2
APPID
  5
9
330
0
100
AcDbSymbolTable
 70
     1
  0
APPID
  5
12
330
9
100
AcDbSymbolTableRecord
100
AcDbRegAppTableRecord
  2
ACAD
 70
     0
  0
ENDTAB
  0
TABLE
  2
DIMSTYLE
  5
A
330
0
100
AcDbSymbolTable
 70
     1
100
AcDbDimStyleTable
  0
DIMSTYLE
105
27
330
A
100
AcDbSymbolTableRecord
100
AcDbDimStyleTableRecord
  2
ISO-25
 70
     0
 41
2.5
 42
0.625
 43
3.75
 44
1.25
 73
     0
 74
     0
 77
     1
 78
     8
140
2.5
141
2.5
143
0.0393700787
147
0.625
171
     3
172
     1
178
     0
271
     2
272
     2
274
     3
278
    44
283
     0
284
     8
340
11
  0
ENDTAB
  0
TABLE
  2
BLOCK_RECORD
  5
1
330
0
100
AcDbSymbolTable
 70
     8
  0
BLOCK_RECORD
  5
1F
330
1
100
AcDbSymbolTableRecord
100
AcDbBlockTableRecord
  2
*Model_Space
340
22
  0
BLOCK_RECORD
  5
1B
330
1
100
AcDbSymbolTableRecord
100
AcDbBlockTableRecord
  2
*Paper_Space
340
1E
  0
BLOCK_RECORD
  5
23
330
1
100
AcDbSymbolTableRecord
100
AcDbBlockTableRecord
  2
*Paper_Space0
340
26
  0
BLOCK_RECORD
  5
BD
330
1
100
AcDbSymbolTableRecord
100
AcDbBlockTableRecord
  2
*Paper_Space1
340
BE
  0
BLOCK_RECORD
  5
C9
330
1
100
AcDbSymbolTableRecord
100
AcDbBlockTableRecord
  2
*Paper_Space2
340
CA
  0
BLOCK_RECORD
  5
D5
330
1
100
AcDbSymbolTableRecord
100
AcDbBlockTableRecord
  2
*Paper_Space3
340
D6
  0
BLOCK_RECORD
  5
E2
330
1
100
AcDbSymbolTableRecord
100
AcDbBlockTableRecord
  2
*Paper_Space4
340
E3
  0
BLOCK_RECORD
  5
EE
330
1
100
AcDbSymbolTableRecord
100
AcDbBlockTableRecord
  2
*Paper_Space5
340
EF
  0
BLOCK_RECORD
  5
13E
330
1
100
AcDbSymbolTableRecord
100
AcDbBlockTableRecord
  2
*Paper_Space6
340
13F
  0
BLOCK_RECORD
  5
17C
330
1
100
AcDbSymbolTableRecord
100
AcDbBlockTableRecord
  2
*Paper_Space7
340
17D
  0
ENDTAB
  0
ENDSEC
  0
SECTION
  2
BLOCKS
  0
BLOCK
  5
20
330
1F
100
AcDbEntity
  8
0
100
AcDbBlockBegin
  2
*Model_Space
 70
     0
 10
0.0
 20
0.0
 30
0.0
  3
*Model_Space
  1

  0
ENDBLK
  5
21
330
1F
100
AcDbEntity
  8
0
100
AcDbBlockEnd
  0
BLOCK
  5
1C
330
1B
100
AcDbEntity
 67
     1
  8
0
100
AcDbBlockBegin
  2
*Paper_Space
 70
     0
 10
0.0
 20
0.0
 30
0.0
  3
*Paper_Space
  1

  0
ENDBLK
  5
1D
330
1B
100
AcDbEntity
 67
     1
  8
0
100
AcDbBlockEnd
  0
BLOCK
  5
24
330
23
100
AcDbEntity
  8
0
100
AcDbBlockBegin
  2
*Paper_Space0
 70
     0
 10
0.0
 20
0.0
 30
0.0
  3
*Paper_Space0
  1

  0
LINE
  5
B9
330
23
100
AcDbEntity
  8
0
  6
Continuous
 62
     7
370
    25
100
AcDbLine
 10
-200.0
 20
120.0
 30
0.0
 11
200.0
 21
120.0
 31
0.0
  0
LINE
  5
BA
330
23
100
AcDbEntity
  8
0
  6
Continuous
 62
     7
370
    25
100
AcDbLine
 10
-200.0
 20
0.0
 30
0.0
 11
-200.0
 21
120.0
 31
0.0
  0
LINE
  5
BB
330
23
100
AcDbEntity
  8
0
  6
Continuous
 62
     7
370
    25
100
AcDbLine
 10
-200.0
 20
0.0
 30
0.0
 11
200.0
 21
0.0
 31
0.0
  0
LINE
  5
BC
330
23
100
AcDbEntity
  8
0
  6
Continuous
 62
     7
370
    25
100
AcDbLine
 10
200.0
 20
120.0
 30
0.0
 11
200.0
 21
0.0
 31
0.0
  0
VIEWPORT
  5
1B8
330
23
100
AcDbEntity
  8
0
100
AcDbViewport
 10
0.0
 20
0.0
 30
0.0
 40
205.6
 41
156.0
 68
     1
 69
     1
 12
0.0
 22
0.0
 13
0.0
 23
0.0
 14
10.0
 24
10.0
 15
10.0
 25
10.0
 16
0.0
 26
0.0
 36
1.0
 17
0.0
 27
0.0
 37
0.0
 42
50.0
 43
0.0
 44
0.0
 45
541.7509727626
 50
0.0
 51
0.0
 72
   100
 90
   557152
  1

281
     0
 71
     1
 74
     0
110
0.0
120
0.0
130
0.0
111
1.0
121
0.0
131
0.0
112
0.0
122
1.0
132
0.0
 79
     0
146
0.0
  0
ENDBLK
  5
25
330
23
100
AcDbEntity
  8
0
100
AcDbBlockEnd
  0
BLOCK
  5
BF
330
BD
100
AcDbEntity
  8
0
100
AcDbBlockBegin
  2
*Paper_Space1
 70
     0
 10
0.0
 20
0.0
 30
0.0
  3
*Paper_Space1
  1

  0
LINE
  5
C5
330
BD
100
AcDbEntity
  8
0
  6
Continuous
 62
     7
370
    25
100
AcDbLine
 10
-350.0
 20
120.0
 30
0.0
 11
-350.0
 21
0.0
 31
0.0
  0
LINE
  5
C6
330
BD
100
AcDbEntity
  8
0
  6
Continuous
 62
     7
370
    25
100
AcDbLine
 10
-350.0
 20
120.0
 30
0.0
 11
350.0
 21
120.0
 31
0.0
  0
LINE
  5
C7
330
BD
100
AcDbEntity
  8
0
  6
Continuous
 62
     7
370
    25
100
AcDbLine
 10
350.0
 20
0.0
 30
0.0
 11
350.0
 21
120.0
 31
0.0
  0
LINE
  5
C8
330
BD
100
AcDbEntity
  8
0
  6
Continuous
 62
     7
370
    25
100
AcDbLine
 10
-350.0
 20
0.0
 30
0.0
 11
350.0
 21
0.0
 31
0.0
  0
VIEWPORT
  5
1BA
330
BD
100
AcDbEntity
  8
0
100
AcDbViewport
 10
0.0
 20
0.0
 30
0.0
 40
205.6
 41
156.0
 68
     1
 69
     1
 12
0.0
 22
0.0
 13
0.0
 23
0.0
 14
10.0
 24
10.0
 15
10.0
 25
10.0
 16
0.0
 26
0.0
 36
1.0
 17
0.0
 27
0.0
 37
0.0
 42
50.0
 43
0.0
 44
0.0
 45
541.7509727626
 50
0.0
 51
0.0
 72
   100
 90
   557152
  1

281
     0
 71
     1
 74
     0
110
0.0
120
0.0
130
0.0
111
1.0
121
0.0
131
0.0
112
0.0
122
1.0
132
0.0
 79
     0
146
0.0
  0
ENDBLK
  5
C0
330
BD
100
AcDbEntity
  8
0
100
AcDbBlockEnd
  0
BLOCK
  5
CB
330
C9
100
AcDbEntity
  8
0
100
AcDbBlockBegin
  2
*Paper_Space2
 70
     0
 10
0.0
 20
0.0
 30
0.0
  3
*Paper_Space2
  1

  0
LINE
  5
D1
330
C9
100
AcDbEntity
  8
0
  6
Continuous
 62
     7
370
    25
100
AcDbLine
 10
-200.0
 20
120.0
 30
0.0
 11
200.0
 21
120.0
 31
0.0
  0
LINE
  5
D2
330
C9
100
AcDbEntity
  8
0
  6
Continuous
 62
     7
370
    25
100
AcDbLine
 10
200.0
 20
0.0
 30
0.0
 11
200.0
 21
120.0
 31
0.0
  0
LINE
  5
D3
330
C9
100
AcDbEntity
  8
0
  6
Continuous
 62
     7
370
    25
100
AcDbLine
 10
-200.0
 20
0.0
 30
0.0
 11
200.0
 21
0.0
 31
0.0
  0
LINE
  5
D4
330
C9
100
AcDbEntity
  8
0
  6
Continuous
 62
     7
370
    25
100
AcDbLine
 10
-200.0
 20
0.0
 30
0.0
 11
-200.0
 21
120.0
 31
0.0
  0
VIEWPORT
  5
1BC
330
C9
100
AcDbEntity
  8
0
100
AcDbViewport
 10
0.0
 20
0.0
 30
0.0
 40
205.6
 41
156.0
 68
     1
 69
     1
 12
0.0
 22
0.0
 13
0.0
 23
0.0
 14
10.0
 24
10.0
 15
10.0
 25
10.0
 16
0.0
 26
0.0
 36
1.0
 17
0.0
 27
0.0
 37
0.0
 42
50.0
 43
0.0
 44
0.0
 45
541.7509727626
 50
0.0
 51
0.0
 72
   100
 90
   557152
  1

281
     0
 71
     1
 74
     0
110
0.0
120
0.0
130
0.0
111
1.0
121
0.0
131
0.0
112
0.0
122
1.0
132
0.0
 79
     0
146
0.0
  0
ENDBLK
  5
CC
330
C9
100
AcDbEntity
  8
0
100
AcDbBlockEnd
  0
BLOCK
  5
D7
330
D5
100
AcDbEntity
  8
0
100
AcDbBlockBegin
  2
*Paper_Space3
 70
     0
 10
0.0
 20
0.0
 30
0.0
  3
*Paper_Space3
  1

  0
CIRCLE
  5
DB
330
D5
100
AcDbEntity
  8
0
  6
Continuous
 62
     7
370
    25
100
AcDbCircle
 10
0.0
 20
0.0
 30
0.0
 40
22.99999999999968
  0
LINE
  5
DE
330
D5
100
AcDbEntity
  8
0
  6
Continuous
 62
     7
370
    25
100
AcDbLine
 10
350.0
 20
200.0
 30
0.0
 11
350.0
 21
-200.0
 31
0.0
  0
LINE
  5
DF
330
D5
100
AcDbEntity
  8
0
  6
Continuous
 62
     7
370
    25
100
AcDbLine
 10
-350.0
 20
200.0
 30
0.0
 11
350.0
 21
200.0
 31
0.0
  0
LINE
  5
E0
330
D5
100
AcDbEntity
  8
0
  6
Continuous
 62
     7
370
    25
100
AcDbLine
 10
-350.0
 20
-200.0
 30
0.0
 11
-350.0
 21
200.0
 31
0.0
  0
LINE
  5
E1
330
D5
100
AcDbEntity
  8
0
  6
Continuous
 62
     7
370
    25
100
AcDbLine
 10
350.0
 20
-200.0
 30
0.0
 11
-350.0
 21
-200.0
 31
0.0
  0
VIEWPORT
  5
1BE
330
D5
100
AcDbEntity
  8
0
100
AcDbViewport
 10
0.0
 20
0.0
 30
0.0
 40
205.6
 41
156.0
 68
     1
 69
     1
 12
0.0
 22
0.0
 13
0.0
 23
0.0
 14
10.0
 24
10.0
 15
10.0
 25
10.0
 16
0.0
 26
0.0
 36
1.0
 17
0.0
 27
0.0
 37
0.0
 42
50.0
 43
0.0
 44
0.0
 45
541.7509727626
 50
0.0
 51
0.0
 72
   100
 90
   557152
  1

281
     0
 71
     1
 74
     0
110
0.0
120
0.0
130
0.0
111
1.0
121
0.0
131
0.0
112
0.0
122
1.0
132
0.0
 79
     0
146
0.0
  0
ENDBLK
  5
D8
330
D5
100
AcDbEntity
  8
0
100
AcDbBlockEnd
  0
BLOCK
  5
E4
330
E2
100
AcDbEntity
  8
0
100
AcDbBlockBegin
  2
*Paper_Space4
 70
     0
 10
0.0
 20
0.0
 30
0.0
  3
*Paper_Space4
  1

  0
LINE
  5
EA
330
E2
100
AcDbEntity
  8
0
  6
Continuous
 62
     7
370
    25
100
AcDbLine
 10
-350.0
 20
120.0
 30
0.0
 11
350.0
 21
120.0
 31
0.0
  0
LINE
  5
EB
330
E2
100
AcDbEntity
  8
0
  6
Continuous
 62
     7
370
    25
100
AcDbLine
 10
-350.0
 20
0.0
 30
0.0
 11
350.0
 21
0.0
 31
0.0
  0
LINE
  5
EC
330
E2
100
AcDbEntity
  8
0
  6
Continuous
 62
     7
370
    25
100
AcDbLine
 10
-350.0
 20
0.0
 30
0.0
 11
-350.0
 21
120.0
 31
0.0
  0
LINE
  5
ED
330
E2
100
AcDbEntity
  8
0
  6
Continuous
 62
     7
370
    25
100
AcDbLine
 10
350.0
 20
0.0
 30
0.0
 11
350.0
 21
120.0
 31
0.0
  0
VIEWPORT
  5
1C0
330
E2
100
AcDbEntity
  8
0
100
AcDbViewport
 10
0.0
 20
0.0
 30
0.0
 40
205.6
 41
156.0
 68
     1
 69
     1
 12
0.0
 22
0.0
 13
0.0
 23
0.0
 14
10.0
 24
10.0
 15
10.0
 25
10.0
 16
0.0
 26
0.0
 36
1.0
 17
0.0
 27
0.0
 37
0.0
 42
50.0
 43
0.0
 44
0.0
 45
541.7509727626
 50
0.0
 51
0.0
 72
   100
 90
   557152
  1

281
     0
 71
     1
 74
     0
110
0.0
120
0.0
130
0.0
111
1.0
121
0.0
131
0.0
112
0.0
122
1.0
132
0.0
 79
     0
146
0.0
  0
ENDBLK
  5
E5
330
E2
100
AcDbEntity
  8
0
100
AcDbBlockEnd
  0
BLOCK
  5
F0
330
EE
100
AcDbEntity
  8
0
100
AcDbBlockBegin
  2
*Paper_Space5
 70
     0
 10
0.0
 20
0.0
 30
0.0
  3
*Paper_Space5
  1

  0
SPLINE
  5
F3
330
EE
100
AcDbEntity
  8
0
  6
Continuous
 62
     7
370
    25
100
AcDbSpline
210
0.0
220
0.0
230
1.0
 70
     8
 71
     3
 72
    34
 73
    30
 74
     0
 42
0.000000001
 43
0.00000001
 40
0.0
 40
0.0
 40
0.0
 40
0.0
 40
0.0624999999999999
 40
0.0624999999999999
 40
0.1249999999999998
 40
0.1249999999999998
 40
0.1874999999999998
 40
0.1874999999999998
 40
0.2499999999999997
 40
0.2499999999999997
 40
0.3749999999999995
 40
0.3749999999999995
 40
0.4374999999999979
 40
0.4374999999999979
 40
0.4999999999999963
 40
0.4999999999999963
 40
0.6249999999999892
 40
0.6249999999999892
 40
0.687499999999991
 40
0.687499999999991
 40
0.7499999999999928
 40
0.7499999999999928
 40
0.8124999999999946
 40
0.8124999999999946
 40
0.8749999999999964
 40
0.8749999999999964
 40
0.9374999999999982
 40
0.9374999999999982
 40
1.0
 40
1.0
 40
1.0
 40
1.0
 10
-375.171207987249
 20
155.3726324421567
 30
0.0
 10
-375.3922004993284
 20
155.5001901061097
 30
0.0
 10
-375.6051551545087
 20
155.6311084002801
 30
0.0
 10
-376.0041179748286
 20
155.9042113236414
 30
0.0
 10
-376.1919479996365
 20
156.0456342327959
 30
0.0
 10
-376.5442236812765
 20
156.3382570618942
 30
0.0
 10
-376.7086728044428
 20
156.4894555325625
 30
0.0
 10
-377.0133678682193
 20
156.8019718312941
 30
0.0
 10
-377.1541997589212
 20
156.9641849687172
 30
0.0
 10
-377.5306866371376
 20
157.4569102294413
 30
0.0
 10
-377.7231934656446
 20
157.7950553578445
 30
0.0
 10
-377.9211017854367
 20
158.3172817795319
 30
0.0
 10
-377.9718089839466
 20
158.4938785742672
 30
0.0
 10
-378.0404797116728
 20
158.8524814148082
 30
0.0
 10
-378.0579474537731
 20
159.0328924486347
 30
0.0
 10
-378.0586965980269
 20
159.5689790380183
 30
0.0
 10
-377.9915928716678
 20
159.922969731495
 30
0.0
 10
-377.7948454822471
 20
160.4491224574095
 30
0.0
 10
-377.7125816079289
 20
160.6243601652567
 30
0.0
 10
-377.519739753147
 20
160.9657961149666
 30
0.0
 10
-377.4089743596426
 20
161.132831149614
 30
0.0
 10
-377.1599489458401
 20
161.4598419762917
 30
0.0
 10
-377.0216847279355
 20
161.6198166905871
 30
0.0
 10
-376.71788280761
 20
161.9327636548177
 30
0.0
 10
-376.5515575742375
 20
162.0863373242287
 30
0.0
 10
-376.1960382969849
 20
162.3822946879068
 30
0.0
 10
-376.0068022338439
 20
162.5248900955987
 30
0.0
 10
-375.6058184545568
 20
162.7995213155724
 30
0.0
 10
-375.3923359029725
 20
162.930743364406
 30
0.0
 10
-375.1712079872415
 20
163.058379183828
 30
0.0
  0
SPLINE
  5
F5
330
EE
100
AcDbEntity
  8
0
  6
Continuous
 62
     7
370
    25
100
AcDbSpline
210
0.0
220
0.0
230
1.0
 70
     8
 71
     3
 72
    34
 73
    30
 74
     0
 42
0.000000001
 43
0.00000001
 40
0.0
 40
0.0
 40
0.0
 40
0.0
 40
0.0624999999999998
 40
0.0624999999999998
 40
0.1249999999999997
 40
0.1249999999999997
 40
0.1874999999999995
 40
0.1874999999999995
 40
0.2499999999999993
 40
0.2499999999999993
 40
0.3749999999999949
 40
0.3749999999999949
 40
0.4374999999999958
 40
0.4374999999999958
 40
0.4999999999999966
 40
0.4999999999999966
 40
0.6250000000000023
 40
0.6250000000000023
 40
0.6875000000000019
 40
0.6875000000000019
 40
0.7500000000000016
 40
0.7500000000000016
 40
0.8125000000000011
 40
0.8125000000000011
 40
0.8750000000000008
 40
0.8750000000000008
 40
0.9375000000000003
 40
0.9375000000000003
 40
1.0
 40
1.0
 40
1.0
 40
1.0
 10
112.722790472184
 20
-118.5968309272357
 30
0.0
 10
112.5018301713671
 20
-118.7244071903633
 30
0.0
 10
112.2750484636921
 20
-118.8473433024878
 30
0.0
 10
111.8019690626163
 20
-119.0776596442921
 30
0.0
 10
111.556990852804
 20
-119.1860916133964
 30
0.0
 10
111.0500983178632
 20
-119.3894560429139
 30
0.0
 10
110.7881865032256
 20
-119.4843905043995
 30
0.0
 10
110.2468337326373
 20
-119.6602872270707
 30
0.0
 10
109.9658418870225
 20
-119.7415877501506
 30
0.0
 10
109.1123242075705
 20
-119.958929007207
 30
0.0
 10
108.5265761886161
 20
-120.070060837989
 30
0.0
 10
107.6219554614992
 20
-120.1843108835302
 30
0.0
 10
107.3160476900409
 20
-120.2135835272939
 30
0.0
 10
106.694862034062
 20
-120.2532262962482
 30
0.0
 10
106.3823470877581
 20
-120.2633102097162
 30
0.0
 10
105.4537172396955
 20
-120.2637426817039
 30
0.0
 10
104.8405209206508
 20
-120.2250045235055
 30
0.0
 10
103.9290988968842
 20
-120.1114246689867
 30
0.0
 10
103.6255453874693
 20
-120.0639347433845
 30
0.0
 10
103.03409687991
 20
-119.9526095058983
 30
0.0
 10
102.7447523574047
 20
-119.8886660028343
 30
0.0
 10
102.1782916050784
 20
-119.7449066859768
 30
0.0
 10
101.9011772421518
 20
-119.6650884489563
 30
0.0
 10
101.3590784554801
 20
-119.4897073269259
 30
0.0
 10
101.0930522297149
 20
-119.3936898099448
 30
0.0
 10
100.580383484811
 20
-119.1884528922448
 30
0.0
 10
100.3333742276109
 20
-119.0792092343594
 30
0.0
 10
99.85764745192111
 20
-118.8477262175825
 30
0.0
 10
99.63033956881692
 20
-118.7244853574002
 30
0.0
 10
99.40924388379074
 20
-118.5968309272365
 30
0.0
  0
SPLINE
  5
F7
330
EE
100
AcDbEntity
  8
0
  6
Continuous
 62
     7
370
    25
100
AcDbSpline
210
0.0
220
0.0
230
1.0
 70
     8
 71
     3
 72
    34
 73
    30
 74
     0
 42
0.000000001
 43
0.00000001
 40
0.0
 40
0.0
 40
0.0
 40
0.0
 40
0.0624999999999962
 40
0.0624999999999962
 40
0.1249999999999925
 40
0.1249999999999925
 40
0.1874999999999887
 40
0.1874999999999887
 40
0.249999999999985
 40
0.249999999999985
 40
0.3749999999999775
 40
0.3749999999999775
 40
0.4374999999999799
 40
0.4374999999999799
 40
0.4999999999999823
 40
0.4999999999999823
 40
0.6249999999999912
 40
0.6249999999999912
 40
0.6874999999999927
 40
0.6874999999999927
 40
0.7499999999999941
 40
0.7499999999999941
 40
0.8124999999999957
 40
0.8124999999999957
 40
0.8749999999999971
 40
0.8749999999999971
 40
0.9374999999999986
 40
0.9374999999999986
 40
1.0
 40
1.0
 40
1.0
 40
1.0
 10
375.1712079872491
 20
40.59716241042351
 30
0.0
 10
375.3922004993286
 20
40.46960474647046
 30
0.0
 10
375.6051551545087
 20
40.33868645230035
 30
0.0
 10
376.0041179748286
 20
40.06558352893919
 30
0.0
 10
376.1919479996363
 20
39.92416061978497
 30
0.0
 10
376.5442236812763
 20
39.63153779068704
 30
0.0
 10
376.7086728044426
 20
39.48033932001885
 30
0.0
 10
377.0133678682192
 20
39.16782302128787
 30
0.0
 10
377.1541997589221
 20
39.0056098838638
 30
0.0
 10
377.5306866371388
 20
38.5128846231402
 30
0.0
 10
377.723193465646
 20
38.17473949473739
 30
0.0
 10
377.9211017854387
 20
37.65251307305076
 30
0.0
 10
377.9718089839488
 20
37.47591627831598
 30
0.0
 10
378.0404797116755
 20
37.11731343777571
 30
0.0
 10
378.0579474537764
 20
36.93690240394785
 30
0.0
 10
378.0586965980309
 20
36.40081581456447
 30
0.0
 10
377.9915928716725
 20
36.04682512108798
 30
0.0
 10
377.794845482253
 20
35.52067239517402
 30
0.0
 10
377.712581607935
 20
35.3454346873262
 30
0.0
 10
377.5197397531537
 20
35.00399873761645
 30
0.0
 10
377.4089743596497
 20
34.83696370296896
 30
0.0
 10
377.159948945848
 20
34.50995287629112
 30
0.0
 10
377.0216847279436
 20
34.34997816199598
 30
0.0
 10
376.7178828076192
 20
34.03703119776551
 30
0.0
 10
376.5515575742471
 20
33.88345752835407
 30
0.0
 10
376.1960382969948
 20
33.58750016467581
 30
0.0
 10
376.0068022338541
 20
33.44490475698382
 30
0.0
 10
375.6058184545674
 20
33.17027353700993
 30
0.0
 10
375.3923359029819
 20
33.03905148817303
 30
0.0
 10
375.1712079872516
 20
32.91141566875073
 30
0.0
  0
SPLINE
  5
F9
330
EE
100
AcDbEntity
  8
0
  6
Continuous
 62
     7
370
    25
100
AcDbSpline
210
0.0
220
0.0
230
1.0
 70
     8
 71
     3
 72
    34
 73
    30
 74
     0
 42
0.000000001
 43
0.00000001
 40
0.0
 40
0.0
 40
0.0
 40
0.0
 40
0.0624999999999977
 40
0.0624999999999977
 40
0.1249999999999953
 40
0.1249999999999953
 40
0.187499999999993
 40
0.187499999999993
 40
0.2499999999999907
 40
0.2499999999999907
 40
0.374999999999986
 40
0.374999999999986
 40
0.437499999999983
 40
0.437499999999983
 40
0.49999999999998
 40
0.49999999999998
 40
0.624999999999978
 40
0.624999999999978
 40
0.6874999999999817
 40
0.6874999999999817
 40
0.7499999999999853
 40
0.7499999999999853
 40
0.812499999999989
 40
0.812499999999989
 40
0.8749999999999927
 40
0.8749999999999927
 40
0.9374999999999963
 40
0.9374999999999963
 40
1.0
 40
1.0
 40
1.0
 40
1.0
 10
-112.7227904721815
 20
314.566625779813
 30
0.0
 10
-112.5018301713644
 20
314.6942020429404
 30
0.0
 10
-112.2750484636849
 20
314.8171381550665
 30
0.0
 10
-111.8019690626089
 20
315.0474544968708
 30
0.0
 10
-111.5569908527964
 20
315.155886465975
 30
0.0
 10
-111.0500983178553
 20
315.3592508954925
 30
0.0
 10
-110.7881865032175
 20
315.4541853569782
 30
0.0
 10
-110.2468337326287
 20
315.6300820796494
 30
0.0
 10
-109.9658418870144
 20
315.7113826027289
 30
0.0
 10
-109.1123242075627
 20
315.9287238597852
 30
0.0
 10
-108.5265761886083
 20
316.0398556905672
 30
0.0
 10
-107.6219554614907
 20
316.1541057361084
 30
0.0
 10
-107.316047690032
 20
316.183378379872
 30
0.0
 10
-106.6948620340522
 20
316.2230211488263
 30
0.0
 10
-106.3823470877492
 20
316.2331050622942
 30
0.0
 10
-105.4537172396878
 20
316.2335375342818
 30
0.0
 10
-104.8405209206432
 20
316.1947993760838
 30
0.0
 10
-103.9290988968762
 20
316.0812195215651
 30
0.0
 10
-103.6255453874605
 20
316.0337295959628
 30
0.0
 10
-103.034096879902
 20
315.9224043584767
 30
0.0
 10
-102.744752357397
 20
315.8584608554129
 30
0.0
 10
-102.1782916050709
 20
315.7147015385555
 30
0.0
 10
-101.9011772421443
 20
315.6348833015348
 30
0.0
 10
-101.3590784554725
 20
315.4595021795045
 30
0.0
 10
-101.0930522297074
 20
315.3634846625234
 30
0.0
 10
-100.5803834848037
 20
315.1582477448237
 30
0.0
 10
-100.3333742276036
 20
315.0490040869383
 30
0.0
 10
-99.85764745191375
 20
314.8175210701617
 30
0.0
 10
-99.63033956880685
 20
314.6942802099804
 30
0.0
 10
-99.40924388378069
 20
314.5666257798167
 30
0.0
  0
SPLINE
  5
103
330
EE
100
AcDbEntity
  8
0
  6
Continuous
 62
     7
370
    25
100
AcDbSpline
210
0.0
220
0.0
230
1.0
 70
     8
 71
     3
 72
     9
 73
     5
 74
     0
 42
0.000000001
 43
0.00000001
 40
0.0
 40
0.0
 40
0.0
 40
0.0
 40
0.5
 40
1.0
 40
1.0
 40
1.0
 40
1.0
 10
104.687896354711
 20
-115.4364707656173
 30
0.0
 10
105.144339459436
 20
-115.4929256143571
 30
0.0
 10
106.0660171779856
 20
-115.549650744088
 30
0.0
 10
106.9876948965289
 20
-115.492925614358
 30
0.0
 10
107.444138001254
 20
-115.4364707656183
 30
0.0
  0
SPLINE
  5
106
330
EE
100
AcDbEntity
  8
0
  6
Continuous
 62
     7
370
    25
100
AcDbSpline
210
0.0
220
0.0
230
1.0
 70
     8
 71
     3
 72
     9
 73
     5
 74
     0
 42
0.000000001
 43
0.00000001
 40
0.0
 40
0.0
 40
0.0
 40
0.0
 40
0.5
 40
1.0
 40
1.0
 40
1.0
 40
1.0
 10
223.5507709138346
 20
-48.40953829355459
 30
0.0
 10
223.5596075864807
 20
-48.19739284413626
 30
0.0
 10
223.5684865652304
 20
-47.71691902711899
 30
0.0
 10
223.559607586482
 20
-47.13324640129817
 30
0.0
 10
223.5507709138358
 20
-46.81839385946885
 30
0.0
  0
SPLINE
  5
107
330
EE
100
AcDbEntity
  8
0
  6
Continuous
 62
     7
370
    25
100
AcDbSpline
210
0.0
220
0.0
230
1.0
 70
     8
 71
     3
 72
    52
 73
    48
 74
     0
 42
0.000000001
 43
0.00000001
 40
0.0
 40
0.0
 40
0.0
 40
0.0
 40
0.0080998207681289
 40
0.0160915948344147
 40
0.0239764005158106
 40
0.031755286741853
 40
0.0394292733823724
 40
0.0469993515857402
 40
0.054466484127307
 40
0.0618316057676871
 40
0.0690956236205216
 40
0.0762594175293439
 40
0.0833238404531497
 40
0.0902897188602699
 40
0.0971578531301313
 40
0.1039290179624851
 40
0.1106039627936586
 40
0.1171834122194097
 40
0.123668066423923
 40
0.1568071611617766
 40
0.188567894906598
 40
0.2190057038292556
 40
0.248169236763815
 40
0.3137773803267424
 40
0.3774159004689862
 40
0.4394017168025915
 40
0.5000118735983928
 40
0.5597632349218623
 40
0.621248858029481
 40
0.6847794098006242
 40
0.7506851105765859
 40
0.7643642200830211
 40
0.7782718187625628
 40
0.7924128151442682
 40
0.8067922727402018
 40
0.8214154102089201
 40
0.8362876013712821
 40
0.8514143750831504
 40
0.8668014149701786
 40
0.8824545590304438
 40
0.8983797991112202
 40
0.9145832802666325
 40
0.9310713000033528
 40
0.9478503074218133
 40
0.9649269022607203
 40
0.9823078338528115
 40
1.0
 40
1.0
 40
1.0
 40
1.0
 10
-99.44185369219194
 20
314.5478033325794
 30
0.0
 10
-99.44655679861259
 20
314.0361646090228
 30
0.0
 10
-99.45590027486351
 20
313.0197121125103
 30
0.0
 10
-99.47027977485543
 20
311.5034309371192
 30
0.0
 10
-99.48480278267066
 20
310.0062643831845
 30
0.0
 10
-99.49949714113725
 20
308.527995277873
 30
0.0
 10
-99.51435034623456
 20
307.0685722222798
 30
0.0
 10
-99.52936054715674
 20
305.6279014715751
 30
0.0
 10
-99.54452315646168
 20
304.2059015808458
 30
0.0
 10
-99.55983436631726
 20
302.802489058529
 30
0.0
 10
-99.57529022696419
 20
301.4175821338554
 30
0.0
 10
-99.59088688729494
 20
300.0510997665411
 30
0.0
 10
-99.60662054085664
 20
298.7029619143963
 30
0.0
 10
-99.62248741078514
 20
297.3730894377411
 30
0.0
 10
-99.6384838647201
 20
296.0614042197906
 30
0.0
 10
-99.65460598324776
 20
294.7678287894913
 30
0.0
 10
-99.67085114349514
 20
293.4922876855455
 30
0.0
 10
-99.68721223665058
 20
292.2347024801519
 30
0.0
 10
-99.72636647150837
 20
289.2905327005961
 30
0.0
 10
-99.790455887004
 20
284.7392852875148
 30
0.0
 10
-99.88422022803687
 20
278.6625625266291
 30
0.0
 10
-99.98220947606373
 20
272.8462650643698
 30
0.0
 10
-100.1279066771481
 20
264.8926482935826
 30
0.0
 10
-100.3375009927608
 20
254.8767698320131
 30
0.0
 10
-100.6321829029386
 20
242.9282149199337
 30
0.0
 10
-100.9574466350849
 20
231.4812481152702
 30
0.0
 10
-101.3106985148077
 20
220.5039882439853
 30
0.0
 10
-101.6942803710146
 20
209.8252520254872
 30
0.0
 10
-102.1075029628164
 20
199.2862714233381
 30
0.0
 10
-102.5506539855308
 20
188.7593039311519
 30
0.0
 10
-102.8889420001947
 20
181.1655273572169
 30
0.0
 10
-103.1097342033511
 20
176.3291437931814
 30
0.0
 10
-103.208049839983
 20
174.1895819731377
 30
0.0
 10
-103.3077125823678
 20
172.0338835914898
 30
0.0
 10
-103.4086424921166
 20
169.8622677430778
 30
0.0
 10
-103.5107665980331
 20
167.6749804862033
 30
0.0
 10
-103.6140068506442
 20
165.4722627139069
 30
0.0
 10
-103.7182833657505
 20
163.2543588571548
 30
0.0
 10
-103.8235134416151
 20
161.0215147570435
 30
0.0
 10
-103.9296118315774
 20
158.773977027241
 30
0.0
 10
-104.0364903066181
 20
156.5119976944584
 30
0.0
 10
-104.1440588065239
 20
154.2358156024985
 30
0.0
 10
-104.252220812147
 20
151.9457276512659
 30
0.0
 10
-104.3608907677109
 20
149.6418156493777
 30
0.0
 10
-104.469927038484
 20
147.3249927385029
 30
0.0
 10
-104.5793885248089
 20
144.9929932308633
 30
0.0
 10
-104.6515137345281
 20
143.4487358538809
 30
0.0
 10
-104.6878963547129
 20
142.6697553859824
 30
0.0
  0
SPLINE
  5
109
330
EE
100
AcDbEntity
  8
0
  6
Continuous
 62
     7
370
    25
100
AcDbSpline
210
0.0
220
0.0
230
1.0
 70
     8
 71
     3
 72
    24
 73
    20
 74
     0
 42
0.000000001
 43
0.00000001
 40
-0.0052892276097257
 40
-0.0052892276097257
 40
-0.0052892276097257
 40
-0.0052892276097257
 40
0.3222081239160869
 40
0.3222081239160869
 40
0.6397813132744504
 40
0.6397813132744504
 40
0.8382645566234276
 40
0.8382645566234276
 40
0.9623165837165383
 40
0.9623165837165383
 40
1.086368610809649
 40
1.086368610809649
 40
1.284851854158626
 40
1.284851854158626
 40
1.60242504351699
 40
1.60242504351699
 40
1.924633167433077
 40
1.924633167433077
 40
1.929922395042802
 40
1.929922395042802
 40
1.929922395042802
 40
1.929922395042802
 10
104.6878963547155
 20
-115.4364707656051
 30
0.0
 10
104.7651134278182
 20
-114.9095686526165
 30
0.0
 10
104.8424768265517
 20
-114.3692846746328
 30
0.0
 10
104.9950812395321
 20
-113.2793900698137
 30
0.0
 10
105.07031552843
 20
-112.7305581418624
 30
0.0
 10
105.1926936037171
 20
-111.8192651787861
 30
0.0
 10
105.2397915066941
 20
-111.4640945419193
 30
0.0
 10
105.316361227512
 20
-110.8794689852094
 30
0.0
 10
105.3458194604344
 20
-110.6528182817457
 30
0.0
 10
105.4047503138591
 20
-110.1959532271282
 30
0.0
 10
105.4342270951768
 20
-109.9657065942919
 30
0.0
 10
105.5108916947149
 20
-109.3623901907463
 30
0.0
 10
105.5580944938055
 20
-108.986515326181
 30
0.0
 10
105.6808670379036
 20
-107.9974422394981
 30
0.0
 10
105.7564639428326
 20
-107.377164949831
 30
0.0
 10
105.9087916725663
 20
-106.1046933878036
 30
0.0
 10
105.9855229178705
 20
-105.4521654058841
 30
0.0
 10
106.0634984999821
 20
-104.7773353403295
 30
0.0
 10
106.0647578380733
 20
-104.7664334267366
 30
0.0
 10
106.0660171779795
 20
-104.7555284049314
 30
0.0
  0
SPLINE
  5
10A
330
EE
100
AcDbEntity
  8
0
  6
Continuous
 62
     7
370
    25
100
AcDbSpline
210
0.0
220
0.0
230
1.0
 70
     8
 71
     3
 72
    24
 73
    20
 74
     0
 42
0.000000001
 43
0.00000001
 40
-0.0052892276097257
 40
-0.0052892276097257
 40
-0.0052892276097257
 40
-0.0052892276097257
 40
0.0
 40
0.0
 40
0.3222081239160867
 40
0.3222081239160867
 40
0.6397813132744503
 40
0.6397813132744503
 40
0.8382645566234276
 40
0.8382645566234276
 40
0.9623165837165384
 40
0.9623165837165384
 40
1.086368610809649
 40
1.086368610809649
 40
1.284851854158626
 40
1.284851854158626
 40
1.60242504351699
 40
1.60242504351699
 40
1.929922395042802
 40
1.929922395042802
 40
1.929922395042802
 40
1.929922395042802
 10
106.0660171779795
 20
-104.7555284049314
 30
0.0
 10
106.0672765178883
 20
-104.7664334267366
 30
0.0
 10
106.0685358595718
 20
-104.7773353404686
 30
0.0
 10
106.1465113861059
 20
-105.4521654038849
 30
0.0
 10
106.2232426834028
 20
-106.1046933878036
 30
0.0
 10
106.3755704131352
 20
-107.3771649498317
 30
0.0
 10
106.4511673180454
 20
-107.9974422394982
 30
0.0
 10
106.5739398621459
 20
-108.9865153261811
 30
0.0
 10
106.6211426612466
 20
-109.3623901907448
 30
0.0
 10
106.6978072607873
 20
-109.9657065942919
 30
0.0
 10
106.7272840421024
 20
-110.1959532271281
 30
0.0
 10
106.7862148955271
 20
-110.6528182817455
 30
0.0
 10
106.815673128452
 20
-110.8794689852095
 30
0.0
 10
106.8922428492712
 20
-111.4640945419201
 30
0.0
 10
106.9393407522432
 20
-111.8192651787853
 30
0.0
 10
107.0617188275315
 20
-112.7305581418624
 30
0.0
 10
107.1369531164293
 20
-113.2793900698123
 30
0.0
 10
107.2895575294123
 20
-114.3692846746314
 30
0.0
 10
107.3669209281483
 20
-114.9095686526168
 30
0.0
 10
107.444138001251
 20
-115.4364707656054
 30
0.0
  0
SPLINE
  5
10B
330
EE
100
AcDbEntity
  8
0
  6
Continuous
 62
     7
370
    25
100
AcDbSpline
210
0.0
220
0.0
230
1.0
 70
     8
 71
     3
 72
    24
 73
    20
 74
     0
 42
0.000000001
 43
0.00000001
 40
-0.0052739378905732
 40
-0.0052739378905732
 40
-0.0052739378905732
 40
-0.0052739378905732
 40
0.3222234153633262
 40
0.3222234153633262
 40
0.6397966063974106
 40
0.6397966063974106
 40
0.8382798507937134
 40
0.8382798507937134
 40
0.9623318785414026
 40
0.9623318785414026
 40
1.086383906289092
 40
1.086383906289092
 40
1.284867150685394
 40
1.284867150685394
 40
1.602440341719479
 40
1.602440341719479
 40
1.924663757082805
 40
1.924663757082805
 40
1.929937694973378
 40
1.929937694973378
 40
1.929937694973378
 40
1.929937694973378
 10
223.5507709138093
 20
-48.40953829355725
 30
0.0
 10
222.39251481116
 20
-48.50670672559545
 30
0.0
 10
221.2320651012375
 20
-48.59167579284163
 30
0.0
 10
218.9430040849882
 20
-48.73513405128805
 30
0.0
 10
217.8144935778524
 20
-48.79434758871588
 30
0.0
 10
215.9788308623192
 20
-48.87211746539744
 30
0.0
 10
215.2723660816546
 20
-48.89759334373078
 30
0.0
 10
214.1238272732422
 20
-48.93180638538749
 30
0.0
 10
213.6819618817278
 20
-48.94323783674717
 30
0.0
 10
212.7979932318482
 20
-48.96265389653292
 30
0.0
 10
212.3558387677951
 20
-48.9706395621772
 30
0.0
 10
211.2058631123972
 20
-48.98692886893826
 30
0.0
 10
210.4978174917625
 20
-48.99254845672773
 30
0.0
 10
208.6562211139777
 20
-48.99572668634551
 30
0.0
 10
207.5222636976944
 20
-48.98642570499816
 30
0.0
 10
205.2372879180778
 20
-48.9450700855424
 30
0.0
 10
204.0862628718306
 20
-48.91268424552091
 30
0.0
 10
202.916629550604
 20
-48.86805368141941
 30
0.0
 10
202.8977940572439
 20
-48.86733187136466
 30
0.0
 10
202.8789585647781
 20
-48.86660697147473
 30
0.0
  0
SPLINE
  5
10D
330
EE
100
AcDbEntity
  8
0
  6
Continuous
 62
     7
370
    25
100
AcDbSpline
210
0.0
220
0.0
230
1.0
 70
     8
 71
     3
 72
    24
 73
    20
 74
     0
 42
0.000000001
 43
0.00000001
 40
-0.0052739378989303
 40
-0.0052739378989303
 40
-0.0052739378989303
 40
-0.0052739378989303
 40
0.0
 40
0.0
 40
0.3222234153558124
 40
0.3222234153558124
 40
0.6397966063907145
 40
0.6397966063907145
 40
0.8382798507875282
 40
0.8382798507875282
 40
0.9623318785355368
 40
0.9623318785355368
 40
1.086383906283545
 40
1.086383906283545
 40
1.284867150680359
 40
1.284867150680359
 40
1.602440341715262
 40
1.602440341715262
 40
1.929937694970004
 40
1.929937694970004
 40
1.929937694970004
 40
1.929937694970004
 10
-202.8789585647781
 20
73.59460980193076
 30
0.0
 10
-202.8977940572753
 20
73.59388490203868
 30
0.0
 10
-202.9166295505852
 20
73.5931630921812
 30
0.0
 10
-204.0862628721609
 20
73.548532525062
 30
0.0
 10
-205.2372879180652
 20
73.51614668787045
 30
0.0
 10
-207.522263697658
 20
73.47479106841148
 30
0.0
 10
-208.6562211139324
 20
73.46549008705871
 30
0.0
 10
-210.4978174917198
 20
73.46866831667619
 30
0.0
 10
-211.2058631123734
 20
73.4742879044683
 30
0.0
 10
-212.3558387677738
 20
73.49057721122793
 30
0.0
 10
-212.7979932318206
 20
73.4985628768708
 30
0.0
 10
-213.6819618817027
 20
73.51797893665655
 30
0.0
 10
-214.1238272732133
 20
73.52941038801694
 30
0.0
 10
-215.2723660816283
 20
73.56362342967363
 30
0.0
 10
-215.9788308622978
 20
73.58909930800445
 30
0.0
 10
-217.8144935778335
 20
73.66686918468753
 30
0.0
 10
-218.9430040849731
 20
73.72608272211538
 30
0.0
 10
-221.2320651012299
 20
73.86954098056107
 30
0.0
 10
-222.3925148111575
 20
73.95451004780989
 30
0.0
 10
-223.5507709138105
 20
74.05167847984772
 30
0.0
  0
LWPOLYLINE
  5
111
330
EE
100
AcDbEntity
  8
0
  6
Continuous
 62
     7
370
    25
100
AcDbPolyline
 90
       62
 70
   128
 43
0.0
 10
-23.3834524388
 20
-1.1349783439
 10
-25.6638271286
 20
0.3245464871
 10
-27.6721588665
 20
1.9116925354
 10
-29.3871588363
 20
3.609635658
 10
-30.7906476117
 20
5.4003772355
 10
-31.8677478627
 20
7.2649349616
 10
-32.6070420586
 20
9.1835440607
 10
-33.0006934969
 20
11.1358667989
 10
-33.0445293746
 20
13.1012080695
 10
-32.7380850204
 20
15.0587347663
 10
-32.0846088207
 20
16.9876966191
 10
-31.0910277858
 20
18.8676461525
 10
-29.7678741218
 20
20.6786554338
 10
-28.1291735868
 20
22.4015273141
 10
-26.192296814
 20
24.0179989228
 10
-23.9777751791
 20
25.5109352587
 10
-21.5090831623
 20
26.8645108254
 10
-18.8123895132
 20
28.0643773849
 10
-15.9162798553
 20
29.0978160534
 10
-12.8514536714
 20
29.9538721239
 10
-9.6503988815
 20
30.623471189
 10
-6.3470474627
 20
31.099515332
 10
-2.9764157619
 20
31.3769583667
 10
0.4257666865
 20
31.4528593279
 10
3.823435902
 20
31.3264136464
 10
7.1805757459
 20
30.998961678
 10
10.4615997005
 20
30.4739744949
 10
13.6317280957
 20
29.757017092
 10
16.657356782
 20
28.855689396
 10
19.5064133425
 20
27.7795457048
 10
22.1486970689
 20
26.5399934092
 10
24.5561990965
 20
25.1501720718
 10
26.7033993048
 20
23.6248141447
 10
28.5675368374
 20
21.9800888013
 10
30.1288513728
 20
20.2334305394
 10
31.3707925884
 20
18.4033543711
 10
32.2801955985
 20
16.509259559
 10
32.8474205049
 20
14.5712239794
 10
33.0664545824
 20
12.6097912915
 10
32.9349760154
 20
10.6457531698
 10
32.4543785093
 20
8.699928907
 10
31.6297565174
 20
6.7929447242
 10
30.4698512378
 20
4.9450151283
 10
28.9869579551
 20
3.1757286327
 10
27.1967957069
 20
1.5038401143
 10
25.1183406585
 20
-0.0529279926
 10
22.7736249504
 20
-1.4780735588
 10
20.1875031524
 20
-2.7564896868
 10
17.3873887989
 20
-3.8746248475
 10
14.4029637987
 20
-4.8206265302
 10
11.2658637992
 20
-5.5844668816
 10
8.0093428408
 20
-6.158049004
 10
4.6679208558
 20
-6.5352927843
 10
1.2770177485
 20
-6.7121993444
 10
-2.1274220647
 20
-6.6868934309
 10
-5.5093106747
 20
-6.4596432926
 10
-8.832799221
 20
-6.0328578378
 10
-12.0626578982
 20
-5.4110610982
 10
-15.1646494009
 20
-4.6008442741
 10
-18.1058918474
 20
-3.6107958653
 10
-20.8552073361
 20
-2.4514106312
 10
-23.3834524388
 20
-1.1349783439
  0
SPLINE
  5
112
330
EE
100
AcDbEntity
  8
0
  6
Continuous
 62
     7
370
    25
100
AcDbSpline
210
0.0
220
0.0
230
1.0
 70
     8
 71
     3
 72
    24
 73
    20
 74
     0
 42
0.000000001
 43
0.00000001
 40
-0.0052739378905732
 40
-0.0052739378905732
 40
-0.0052739378905732
 40
-0.0052739378905732
 40
0.0
 40
0.0
 40
0.3222234153633262
 40
0.3222234153633262
 40
0.6397966063974105
 40
0.6397966063974105
 40
0.8382798507937133
 40
0.8382798507937133
 40
0.9623318785414025
 40
0.9623318785414025
 40
1.086383906289092
 40
1.086383906289092
 40
1.284867150685394
 40
1.284867150685394
 40
1.602440341719479
 40
1.602440341719479
 40
1.929937694973378
 40
1.929937694973378
 40
1.929937694973378
 40
1.929937694973378
 10
202.8789585647794
 20
-48.86660697147257
 30
0.0
 10
202.8977940572452
 20
-48.8658820715827
 30
0.0
 10
202.9166295505726
 20
-48.86515408179235
 30
0.0
 10
204.086262872318
 20
-48.81975598667528
 30
0.0
 10
205.2372879180766
 20
-48.76354547798206
 30
0.0
 10
207.5222636976957
 20
-48.62902263877541
 30
0.0
 10
208.6562211139777
 20
-48.55104099579791
 30
0.0
 10
210.4978174917638
 20
-48.40611197157892
 30
0.0
 10
211.2058631123973
 20
-48.34599291226878
 30
0.0
 10
212.3558387677952
 20
-48.24118803016841
 30
0.0
 10
212.7979932318483
 20
-48.19916898599646
 30
0.0
 10
213.6819618817291
 20
-48.1117123609529
 30
0.0
 10
214.1238272732436
 20
-48.06626978147235
 30
0.0
 10
215.2723660816548
 20
-47.94365176102283
 30
0.0
 10
215.9788308623205
 20
-47.86379809110498
 30
0.0
 10
217.8144935778513
 20
-47.64473414386213
 30
0.0
 10
218.9430040849896
 20
-47.49865723993898
 30
0.0
 10
221.232065101239
 20
-47.17900607524166
 30
0.0
 10
222.392514811159
 20
-47.00471522692106
 30
0.0
 10
223.5507709138097
 20
-46.81839385948236
 30
0.0
  0
SPLINE
  5
113
330
EE
100
AcDbEntity
  8
0
  6
Continuous
 62
     7
370
    25
100
AcDbSpline
210
0.0
220
0.0
230
1.0
 70
     8
 71
     3
 72
    24
 73
    20
 74
     0
 42
0.000000001
 43
0.00000001
 40
0.0
 40
0.0
 40
0.0
 40
0.0
 40
0.327497353257923
 40
0.327497353257923
 40
0.6450705442959087
 40
0.6450705442959087
 40
0.8435537886946498
 40
0.8435537886946498
 40
0.967605816443863
 40
0.967605816443863
 40
1.091657844193076
 40
1.091657844193076
 40
1.290141088591817
 40
1.290141088591817
 40
1.607714279629803
 40
1.607714279629803
 40
1.929937694982136
 40
1.929937694982136
 40
1.935211632887726
 40
1.935211632887726
 40
1.935211632887726
 40
1.935211632887726
 10
-104.6878963547117
 20
142.6697553859804
 30
0.0
 10
-104.7651134282226
 20
141.8593634707246
 30
0.0
 10
-104.8424767422202
 20
141.0598201549003
 30
0.0
 10
-104.9950808099724
 20
139.5068186464146
 30
0.0
 10
-105.070314843783
 20
138.7526981770028
 30
0.0
 10
-105.1926923581527
 20
137.5445757358154
 30
0.0
 10
-105.2397900101975
 20
137.084077524783
 30
0.0
 10
-105.3163592640913
 20
136.3426246527712
 30
0.0
 10
-105.3458169568567
 20
136.0591041764321
 30
0.0
 10
-105.4047482001843
 20
135.4953635945666
 30
0.0
 10
-105.4342251644529
 20
135.2151109007115
 30
0.0
 10
-105.5108902081476
 20
134.4906969912147
 30
0.0
 10
-105.5580932495274
 20
134.049081631265
 30
0.0
 10
-105.6808663413817
 20
132.9118970448179
 30
0.0
 10
-105.7564635024669
 20
132.2229370315546
 30
0.0
 10
-105.9087952211084
 20
130.8572649817099
 30
0.0
 10
-105.9855302208968
 20
130.1808800300514
 30
0.0
 10
-106.0635057791594
 20
129.5052813225166
 30
0.0
 10
-106.0647614784734
 20
129.4944047337672
 30
0.0
 10
-106.0660171779733
 20
129.4835312353852
 30
0.0
  0
SPLINE
  5
114
330
EE
100
AcDbEntity
  8
0
  6
Continuous
 62
     7
370
    25
100
AcDbSpline
210
0.0
220
0.0
230
1.0
 70
     8
 71
     3
 72
     9
 73
     5
 74
     0
 42
0.000000001
 43
0.00000001
 40
0.0
 40
0.0
 40
0.0
 40
0.0
 40
0.5
 40
1.0
 40
1.0
 40
1.0
 40
1.0
 10
-223.5507709138333
 20
75.64282291393394
 30
0.0
 10
-223.5596075864794
 20
75.3279703721047
 30
0.0
 10
-223.5684865652304
 20
74.74429774628561
 30
0.0
 10
-223.5596075864806
 20
74.26382392926803
 30
0.0
 10
-223.5507709138346
 20
74.05167847984944
 30
0.0
  0
LWPOLYLINE
  5
115
330
EE
100
AcDbEntity
  8
0
  6
Continuous
 62
     7
370
    25
100
AcDbPolyline
 90
       33
 70
   128
 43
0.0
 10
21.5097023318
 20
-2.1362019088
 10
22.0867547706
 20
-1.1388254852
 10
22.7168318337
 20
0.4884347011
 10
22.9886508884
 20
2.148451632
 10
22.8979251859
 20
3.8150458489
 10
22.4460855246
 20
5.4619341655
 10
21.6402576859
 20
7.063144169
 10
20.4931500563
 20
8.5934238214
 10
19.0228532083
 20
10.0286396982
 10
17.2525546015
 20
11.3461575879
 10
15.2101729024
 20
12.5251994461
 10
12.9279176906
 20
13.5471710786
 10
10.441781494
 20
14.395955382
 10
7.7909721656
 20
15.0581665211
 10
5.0172945521
 20
15.5233610304
 10
2.1644912063
 20
15.7842025147
 10
-0.7224474588
 20
15.8365773479
 10
-3.5979926959
 20
15.6796595477
 10
-6.4167954389
 20
15.3159238015
 10
-9.1344014846
 20
14.7511064393
 10
-11.7079525623
 20
13.9941149683
 10
-14.096862234
 20
13.0568875962
 10
-16.2634559673
 20
11.9542049586
 10
-18.1735652846
 20
10.7034570193
 10
-19.7970666211
 20
9.3243688205
 10
-21.1083563907
 20
7.8386894069
 10
-22.0867547706
 20
6.2698488304
 10
-22.7168318337
 20
4.6425886441
 10
-22.9886508884
 20
2.9825717132
 10
-22.8979251859
 20
1.3159774963
 10
-22.4460855246
 20
-0.3309108203
 10
-21.6402576859
 20
-1.9321208238
 10
-21.5097023318
 20
-2.1362019088
  0
SPLINE
  5
116
330
EE
100
AcDbEntity
  8
0
  6
Continuous
 62
     7
370
    25
100
AcDbSpline
210
0.0
220
0.0
230
1.0
 70
     8
 71
     3
 72
    43
 73
    39
 74
     0
 42
0.000000001
 43
0.00000001
 40
0.0
 40
0.0
 40
0.0
 40
0.0
 40
0.0092250844099046
 40
0.0185057912515862
 40
0.0278414032463884
 40
0.0372312210254907
 40
0.0466745641454484
 40
0.0561707721303692
 40
0.0657192055409755
 40
0.0753192470707464
 40
0.0849703026692904
 40
0.0946718026930462
 40
0.1044232030833439
 40
0.1142239865717917
 40
0.1240736639128891
 40
0.1554072333218753
 40
0.1867227568150989
 40
0.2180307267603321
 40
0.2493437437212966
 40
0.37434536966709
 40
0.4999264039798726
 40
0.5587190889311795
 40
0.6201055202345684
 40
0.6843524299710637
 40
0.7518003137948753
 40
0.7802260654512224
 40
0.8104141986344983
 40
0.8424219271961217
 40
0.8763170430127024
 40
0.8879596073372684
 40
0.9001101495400611
 40
0.9127750780615772
 40
0.9259613620966848
 40
0.9396765611803019
 40
0.953928854629704
 40
0.968727070695117
 40
0.9840807152684689
 40
1.0
 40
1.0
 40
1.0
 40
1.0
 10
-107.4441380012509
 20
142.6697553859816
 30
0.0
 10
-107.4630644863245
 20
143.0751933639848
 30
0.0
 10
-107.501031573273
 20
143.8885138988448
 30
0.0
 10
-107.5588060761323
 20
145.1221616056391
 30
0.0
 10
-107.6173893549901
 20
146.3706114803505
 30
0.0
 10
-107.6768194317917
 20
147.6346807943288
 30
0.0
 10
-107.7370726488518
 20
148.9142742664179
 30
0.0
 10
-107.7981413927039
 20
150.2095448236825
 30
0.0
 10
-107.8600130830152
 20
151.5205798432488
 30
0.0
 10
-107.9226758828568
 20
152.8474859675856
 30
0.0
 10
-107.9861170582746
 20
154.1903660945139
 30
0.0
 10
-108.050323811487
 20
155.5493259266723
 30
0.0
 10
-108.1152816130224
 20
156.9244709371601
 30
0.0
 10
-108.180980102983
 20
158.3159119332379
 30
0.0
 10
-108.2955675860985
 20
160.7450323383873
 30
0.0
 10
-108.4606615862742
 20
164.2482173188667
 30
0.0
 10
-108.6781238752168
 20
168.885398720339
 30
0.0
 10
-108.8980693651606
 20
173.6193962731928
 30
0.0
 10
-109.3407178341213
 20
183.2687591169245
 30
0.0
 10
-110.009181702208
 20
198.5113829795229
 30
0.0
 10
-110.6896976182198
 20
216.4374634694746
 30
0.0
 10
-111.1665287175557
 20
231.223318984968
 30
0.0
 10
-111.489838141519
 20
242.5505376438505
 30
0.0
 10
-111.7886971940445
 20
254.607443941894
 30
0.0
 10
-112.0010243618939
 20
264.7294811654104
 30
0.0
 10
-112.1478239415477
 20
272.7358911719089
 30
0.0
 10
-112.2452271526741
 20
278.5040353459219
 30
0.0
 10
-112.3399593771796
 20
284.6279042331722
 30
0.0
 10
-112.4096858881612
 20
289.5713717136527
 30
0.0
 10
-112.4581450172703
 20
293.2467136051235
 30
0.0
 10
-112.4875589081439
 20
295.5685663576086
 30
0.0
 10
-112.5170205678606
 20
297.9873975162908
 30
0.0
 10
-112.5464529602931
 20
300.5040391338628
 30
0.0
 10
-112.5757896753101
 20
303.1193321565113
 30
0.0
 10
-112.6049672396499
 20
305.83418969883
 30
0.0
 10
-112.6338832792226
 20
308.6494012119609
 30
0.0
 10
-112.6625826538638
 20
311.5663898557178
 30
0.0
 10
-112.6808710649992
 20
313.5420872200866
 30
0.0
 10
-112.6901806637678
 20
314.5478033325778
 30
0.0
  0
LWPOLYLINE
  5
119
330
EE
100
AcDbEntity
  8
0
  6
Continuous
 62
     7
370
    25
100
AcDbPolyline
 90
       19
 70
   128
 43
0.0
 10
-22.8924123343
 20
1.2827558363
 10
-22.4460855246
 20
2.8964224929
 10
-21.6402576859
 20
4.4976324964
 10
-20.4931500563
 20
6.0279121488
 10
-19.0228532083
 20
7.4631280256
 10
-17.2525546015
 20
8.7806459153
 10
-15.2101729024
 20
9.9596877735
 10
-12.9279176906
 20
10.981659406
 10
-10.441781494
 20
11.8304437094
 10
-7.7909721656
 20
12.4926548485
 10
-5.0172945521
 20
12.9578493578
 10
-2.1644912063
 20
13.2186908421
 10
0.7224474588
 20
13.2710656753
 10
3.5979926959
 20
13.1141478751
 10
6.4167954389
 20
12.7504121289
 10
9.1344014846
 20
12.1855947667
 10
11.7079525623
 20
11.4286032957
 10
14.096862234
 20
10.4913759236
 10
16.2634559673
 20
9.388693286
  0
SPLINE
  5
11A
330
EE
100
AcDbEntity
  8
0
  6
Continuous
 62
     7
370
    25
100
AcDbSpline
210
0.0
220
0.0
230
1.0
 70
     8
 71
     3
 72
    24
 73
    20
 74
     0
 42
0.000000001
 43
0.00000001
 40
-0.0052739378989303
 40
-0.0052739378989303
 40
-0.0052739378989303
 40
-0.0052739378989303
 40
0.3222234153558122
 40
0.3222234153558122
 40
0.6397966063907145
 40
0.6397966063907145
 40
0.8382798507875283
 40
0.8382798507875283
 40
0.9623318785355369
 40
0.9623318785355369
 40
1.086383906283545
 40
1.086383906283545
 40
1.284867150680359
 40
1.284867150680359
 40
1.602440341715261
 40
1.602440341715261
 40
1.924663757071074
 40
1.924663757071074
 40
1.929937694970004
 40
1.929937694970004
 40
1.929937694970004
 40
1.929937694970004
 10
-223.5507709138118
 20
75.64282291393327
 30
0.0
 10
-222.3925148111574
 20
75.45650154649405
 30
0.0
 10
-221.2320651012287
 20
75.28221069817484
 30
0.0
 10
-218.9430040849731
 20
74.96255953347601
 30
0.0
 10
-217.8144935778323
 20
74.81648262954717
 30
0.0
 10
-215.9788308622966
 20
74.5974186823046
 30
0.0
 10
-215.2723660816283
 20
74.51756501238607
 30
0.0
 10
-214.1238272732146
 20
74.39494699193577
 30
0.0
 10
-213.6819618817015
 20
74.34950441245114
 30
0.0
 10
-212.7979932318206
 20
74.26204778740711
 30
0.0
 10
-212.3558387677763
 20
74.22002874324194
 30
0.0
 10
-211.2058631123746
 20
74.11522386114012
 30
0.0
 10
-210.4978174917223
 20
74.05510480182849
 30
0.0
 10
-208.6562211139324
 20
73.91017577760938
 30
0.0
 10
-207.522263697658
 20
73.83219413463758
 30
0.0
 10
-205.2372879180652
 20
73.69767129543283
 30
0.0
 10
-204.0862628719976
 20
73.64146078390974
 30
0.0
 10
-202.9166295505939
 20
73.59606269180829
 30
0.0
 10
-202.897794057274
 20
73.59533470182213
 30
0.0
 10
-202.8789585647769
 20
73.59460980193148
 30
0.0
  0
SPLINE
  5
11B
330
EE
100
AcDbEntity
  8
0
  6
Continuous
 62
     7
370
    25
100
AcDbSpline
210
0.0
220
0.0
230
1.0
 70
     8
 71
     3
 72
    24
 73
    20
 74
     0
 42
0.000000001
 43
0.00000001
 40
0.0
 40
0.0
 40
0.0
 40
0.0
 40
0.0052739379055904
 40
0.0052739379055904
 40
0.3274973532579226
 40
0.3274973532579226
 40
0.6450705442959086
 40
0.6450705442959086
 40
0.8435537886946498
 40
0.8435537886946498
 40
0.967605816443863
 40
0.967605816443863
 40
1.091657844193076
 40
1.091657844193076
 40
1.290141088591817
 40
1.290141088591817
 40
1.607714279629803
 40
1.607714279629803
 40
1.935211632887726
 40
1.935211632887726
 40
1.935211632887726
 40
1.935211632887726
 10
-106.0660171779795
 20
129.4835312353859
 30
0.0
 10
-106.0672728749269
 20
129.4944047337687
 30
0.0
 10
-106.068528572138
 20
129.5052813225339
 30
0.0
 10
-106.1465039648248
 20
130.1808800297015
 30
0.0
 10
-106.2232388151049
 20
130.857264978585
 30
0.0
 10
-106.3755702241056
 20
132.2229370168918
 30
0.0
 10
-106.4511672316094
 20
132.9118970217244
 30
0.0
 10
-106.5739400743008
 20
134.0490815903315
 30
0.0
 10
-106.6211430199435
 20
134.4906969424259
 30
0.0
 10
-106.6978079082874
 20
135.2151108376081
 30
0.0
 10
-106.7272848128592
 20
135.4953635255833
 30
0.0
 10
-106.7862159369054
 20
136.0591040949697
 30
0.0
 10
-106.8156735700853
 20
136.3426245647055
 30
0.0
 10
-106.8922426692051
 20
137.0840774186328
 30
0.0
 10
-106.9393402261593
 20
137.544575617636
 30
0.0
 10
-107.0617174937591
 20
138.7526980253149
 30
0.0
 10
-107.1369513761866
 20
139.5068184719124
 30
0.0
 10
-107.2895551376872
 20
141.059819930003
 30
0.0
 10
-107.3669182968576
 20
141.8593632181198
 30
0.0
 10
-107.4441352163475
 20
142.6697551037829
 30
0.0
  0
SPLINE
  5
11C
330
EE
100
AcDbEntity
  8
0
  6
Continuous
 62
     7
370
    25
100
AcDbSpline
210
0.0
220
0.0
230
1.0
 70
     8
 71
     3
 72
     9
 73
     5
 74
     0
 42
0.000000001
 43
0.00000001
 40
0.0
 40
0.0
 40
0.0
 40
0.0
 40
0.5
 40
1.0
 40
1.0
 40
1.0
 40
1.0
 10
-104.6878963547097
 20
142.6697553859966
 30
0.0
 10
-105.1443394594347
 20
142.6235031423256
 30
0.0
 10
-106.0660171779793
 20
142.5770294632496
 30
0.0
 10
-106.987694896524
 20
142.6235031423257
 30
0.0
 10
-107.4441380012503
 20
142.6697553859975
 30
0.0
  0
SPLINE
  5
11F
330
EE
100
AcDbEntity
  8
0
  6
Continuous
 62
    60
370
    25
100
AcDbSpline
210
0.0
220
0.0
230
1.0
 70
     8
 71
     3
 72
     9
 73
     5
 74
     0
 42
0.000000001
 43
0.00000001
 40
0.0
 40
0.0
 40
0.0
 40
0.0
 40
0.7214175659710709
 40
0.9999999999999999
 40
0.9999999999999999
 40
0.9999999999999999
 40
0.9999999999999999
 10
-223.5507709138093
 20
74.05167847984632
 30
0.0
 10
-226.8236837441719
 20
74.39026912351243
 30
0.0
 10
-231.3604638071262
 20
74.85960984882506
 30
0.0
 10
-235.852852934215
 20
75.52157085017394
 30
0.0
 10
-237.1043536318446
 20
75.7059815571619
 30
0.0
  0
SPLINE
  5
121
330
EE
100
AcDbEntity
  8
0
  6
Continuous
 62
    60
370
    25
100
AcDbSpline
210
0.0
220
0.0
230
1.0
 70
     8
 71
     3
 72
     9
 73
     5
 74
     0
 42
0.000000001
 43
0.00000001
 40
0.0
 40
0.0
 40
0.0
 40
0.0
 40
0.5156035542457681
 40
1.0
 40
1.0
 40
1.0
 40
1.0
 10
223.5507709138106
 20
-46.81839385947026
 30
0.0
 10
226.8214868950369
 20
-46.346009728459
 30
0.0
 10
233.1649574826491
 20
-45.42983270228964
 30
0.0
 10
239.4463175512364
 20
-44.22861747694997
 30
0.0
 10
242.4889860429627
 20
-43.64675309120957
 30
0.0
  0
SPLINE
  5
122
330
EE
100
AcDbEntity
  8
0
  6
Continuous
 62
    60
370
    25
100
AcDbSpline
210
0.0
220
0.0
230
1.0
 70
     8
 71
     3
 72
    10
 73
     6
 74
     0
 42
0.000000001
 43
0.00000001
 40
0.0
 40
0.0
 40
0.0
 40
0.0
 40
0.0849101240978232
 40
0.5247345310465178
 40
1.0
 40
1.0
 40
1.0
 40
1.0
 10
366.238308458268
 20
27.79221011805728
 30
0.0
 10
366.5137638576932
 20
28.1431419547611
 30
0.0
 10
368.2160456689303
 20
30.31185922750834
 30
0.0
 10
371.2292599684329
 20
34.55818146115641
 30
0.0
 10
373.8022714986159
 20
38.52046607364635
 30
0.0
 10
375.1386031133763
 20
40.57833722277874
 30
0.0
  0
SPLINE
  5
123
330
EE
100
AcDbEntity
  8
0
  6
Continuous
 62
    60
370
    25
100
AcDbSpline
210
0.0
220
0.0
230
1.0
 70
     8
 71
     3
 72
    10
 73
     6
 74
     0
 42
0.000000001
 43
0.00000001
 40
0.0
 40
0.0
 40
0.0
 40
0.0
 40
0.3747787541416139
 40
0.7195999116597707
 40
1.0
 40
1.0
 40
1.0
 40
1.0
 10
-375.138603113375
 20
163.0395539961854
 30
0.0
 10
-374.0938812704833
 20
161.4165378463354
 30
0.0
 10
-372.0879464688273
 20
158.3002398567938
 30
0.0
 10
-369.1149808730328
 20
154.0477179554412
 30
0.0
 10
-367.1486861724264
 20
151.439593039863
 30
0.0
 10
-366.2668396078617
 20
150.2698975735381
 30
0.0
  0
SPLINE
  5
124
330
EE
100
AcDbEntity
  8
0
  6
Continuous
 62
    60
370
    25
100
AcDbSpline
210
0.0
220
0.0
230
1.0
 70
     8
 71
     3
 72
     9
 73
     5
 74
     0
 42
0.000000001
 43
0.00000001
 40
0.0
 40
0.0
 40
0.0
 40
0.0
 40
0.1983055147885961
 40
1.0
 40
1.0
 40
1.0
 40
1.0
 10
-242.7014716812591
 20
78.93712903018113
 30
0.0
 10
-241.4499591349589
 20
78.66119998185253
 30
0.0
 10
-235.1389266473633
 20
77.26976591799014
 30
0.0
 10
-228.707117132118
 20
76.36675876699263
 30
0.0
 10
-223.5507709138156
 20
75.64282291393145
 30
0.0
  0
LINE
  5
125
330
EE
100
AcDbEntity
  8
0
  6
Continuous
 62
     7
370
    25
100
AcDbLine
 10
-375.1386031134
 20
163.0395539962
 30
0.0
 11
-112.6901806638
 21
314.5478033326
 31
0.0
  0
LINE
  5
126
330
EE
100
AcDbEntity
  8
0
  6
Continuous
 62
     7
370
    25
100
AcDbLine
 10
99.4418536922
 20
-118.57800848
 30
0.0
 11
-375.1386031134
 21
155.3914576298
 31
0.0
  0
LINE
  5
127
330
EE
100
AcDbEntity
  8
0
  6
Continuous
 62
     7
370
    25
100
AcDbLine
 10
375.1386031134
 20
32.9302408564
 30
0.0
 11
112.6901806638
 21
-118.57800848
 31
0.0
  0
LINE
  5
128
330
EE
100
AcDbEntity
  8
0
  6
Continuous
 62
     7
370
    25
100
AcDbLine
 10
-99.4418536922
 20
314.5478033326
 30
0.0
 11
375.1386031134
 21
40.5783372228
 31
0.0
  0
LINE
  5
129
330
EE
100
AcDbEntity
  8
0
  6
Continuous
 62
     7
370
    25
100
AcDbLine
 10
388.9087296526
 20
36.7542890396
 30
0.0
 11
-106.066017178
 21
322.4971281775
 31
0.0
  0
LINE
  5
12A
330
EE
100
AcDbEntity
  8
0
  6
Continuous
 62
     7
370
    25
100
AcDbLine
 10
106.066017178
 20
-126.527333325
 30
0.0
 11
388.9087296526
 21
36.7542890396
 31
0.0
  0
LINE
  5
12B
330
EE
100
AcDbEntity
  8
0
  6
Continuous
 62
     7
370
    25
100
AcDbLine
 10
-388.9087296526
 20
159.215505813
 30
0.0
 11
106.066017178
 21
-126.527333325
 31
0.0
  0
LINE
  5
12C
330
EE
100
AcDbEntity
  8
0
  6
Continuous
 62
     7
370
    25
100
AcDbLine
 10
-106.066017178
 20
322.4971281775
 30
0.0
 11
-388.9087296526
 21
159.215505813
 31
0.0
  0
LINE
  5
12D
330
EE
100
AcDbEntity
  8
0
  6
Continuous
 62
     7
370
    25
100
AcDbLine
 10
106.066017178
 20
-224.5122307512
 30
0.0
 11
106.066017178
 21
-126.527333325
 31
0.0
  0
LINE
  5
12E
330
EE
100
AcDbEntity
  8
0
  6
Continuous
 62
     7
370
    25
100
AcDbLine
 10
388.9087296526
 20
36.7542890396
 30
0.0
 11
388.9087296526
 21
-61.2306083867
 31
0.0
  0
LINE
  5
12F
330
EE
100
AcDbEntity
  8
0
  6
Continuous
 62
     7
370
    25
100
AcDbLine
 10
106.066017178
 20
-224.5122307512
 30
0.0
 11
388.9087296526
 21
-61.2306083867
 31
0.0
  0
LINE
  5
130
330
EE
100
AcDbEntity
  8
0
  6
Continuous
 62
     7
370
    25
100
AcDbLine
 10
-388.9087296526
 20
61.2306083867
 30
0.0
 11
-388.9087296526
 21
159.215505813
 31
0.0
  0
LINE
  5
131
330
EE
100
AcDbEntity
  8
0
  6
Continuous
 62
     7
370
    25
100
AcDbLine
 10
-388.9087296526
 20
61.2306083867
 30
0.0
 11
106.066017178
 21
-224.5122307512
 31
0.0
  0
LINE
  5
132
330
EE
100
AcDbEntity
  8
0
  6
Continuous
 62
     7
370
    25
100
AcDbLine
 10
104.6878963547
 20
-115.4364707656
 30
0.0
 11
-223.5507709138
 21
74.0516784798
 31
0.0
  0
LINE
  5
133
330
EE
100
AcDbEntity
  8
0
  6
Continuous
 62
     7
370
    25
100
AcDbLine
 10
223.5507709138
 20
-48.4095382936
 30
0.0
 11
107.4441380013
 21
-115.4364707656
 31
0.0
  0
LINE
  5
134
330
EE
100
AcDbEntity
  8
0
  6
Continuous
 62
     7
370
    25
100
AcDbLine
 10
-104.6878963547
 20
142.669755386
 30
0.0
 11
223.5507709138
 21
-46.8183938595
 31
0.0
  0
LINE
  5
135
330
EE
100
AcDbEntity
  8
0
  6
Continuous
 62
     7
370
    25
100
AcDbLine
 10
106.066017178
 20
-104.7555284049
 30
0.0
 11
202.8789585648
 21
-48.8666069715
 31
0.0
  0
LINE
  5
136
330
EE
100
AcDbEntity
  8
0
  6
Continuous
 62
     7
370
    25
100
AcDbLine
 10
-202.8789585648
 20
73.5946098019
 30
0.0
 11
106.066017178
 21
-104.7555284049
 31
0.0
  0
LINE
  5
137
330
EE
100
AcDbEntity
  8
0
  6
Continuous
 62
     7
370
    25
100
AcDbLine
 10
-106.066017178
 20
129.4835312354
 30
0.0
 11
-202.8789585648
 21
73.5946098019
 31
0.0
  0
LINE
  5
138
330
EE
100
AcDbEntity
  8
0
  6
Continuous
 62
     7
370
    25
100
AcDbLine
 10
202.8789585648
 20
-48.8666069715
 30
0.0
 11
-106.066017178
 21
129.4835312354
 31
0.0
  0
LINE
  5
139
330
EE
100
AcDbEntity
  8
0
  6
Continuous
 62
     7
370
    25
100
AcDbLine
 10
-223.5507709138
 20
75.6428229139
 30
0.0
 11
-107.4441380012
 21
142.669755386
 31
0.0
  0
LINE
  5
13A
330
EE
100
AcDbEntity
  8
0
  6
Continuous
 62
    60
370
    25
100
AcDbLine
 10
104.3298892017
 20
-120.1146834692
 30
0.0
 11
104.6878963547
 21
-115.4364707656
 31
0.0
  0
LINE
  5
13B
330
EE
100
AcDbEntity
  8
0
  6
Continuous
 62
    60
370
    25
100
AcDbLine
 10
107.4441380013
 20
-115.4364707656
 30
0.0
 11
107.7969791624
 21
-120.0872121467
 31
0.0
  0
LINE
  5
13C
330
EE
100
AcDbEntity
  8
0
  6
Continuous
 62
    60
370
    25
100
AcDbLine
 10
237.1157838549
 20
-46.7486366889
 30
0.0
 11
223.5507709138
 21
-48.4095382936
 31
0.0
  0
ARC
  5
13D
330
EE
100
AcDbEntity
  8
0
  6
Continuous
 62
     7
370
    25
100
AcDbCircle
 10
11.0095502293
 20
-1.6714160076
 30
0.0
 40
12.24457198473112
100
AcDbArc
 50
13.9611422706
 51
64.5907863893
  0
VIEWPORT
  5
1C2
330
EE
100
AcDbEntity
  8
0
100
AcDbViewport
 10
0.0
 20
0.0
 30
0.0
 40
205.6
 41
156.0
 68
     1
 69
     1
 12
0.0
 22
0.0
 13
0.0
 23
0.0
 14
10.0
 24
10.0
 15
10.0
 25
10.0
 16
0.0
 26
0.0
 36
1.0
 17
0.0
 27
0.0
 37
0.0
 42
50.0
 43
0.0
 44
0.0
 45
541.7509727626
 50
0.0
 51
0.0
 72
   100
 90
   557152
  1

281
     0
 71
     1
 74
     0
110
0.0
120
0.0
130
0.0
111
1.0
121
0.0
131
0.0
112
0.0
122
1.0
132
0.0
 79
     0
146
0.0
  0
ENDBLK
  5
F1
330
EE
100
AcDbEntity
  8
0
100
AcDbBlockEnd
  0
BLOCK
  5
140
330
13E
100
AcDbEntity
  8
0
100
AcDbBlockBegin
  2
*Paper_Space6
 70
     0
 10
0.0
 20
0.0
 30
0.0
  3
*Paper_Space6
  1

  0
SPLINE
  5
143
330
13E
100
AcDbEntity
  8
0
  6
Continuous
 62
     7
370
    25
100
AcDbSpline
210
0.0
220
0.0
230
1.0
 70
     8
 71
     3
 72
    34
 73
    30
 74
     0
 42
0.000000001
 43
0.00000001
 40
0.0
 40
0.0
 40
0.0
 40
0.0
 40
0.0624999999999999
 40
0.0624999999999999
 40
0.1249999999999998
 40
0.1249999999999998
 40
0.1874999999999998
 40
0.1874999999999998
 40
0.2499999999999997
 40
0.2499999999999997
 40
0.3749999999999995
 40
0.3749999999999995
 40
0.4374999999999979
 40
0.4374999999999979
 40
0.4999999999999963
 40
0.4999999999999963
 40
0.6249999999999892
 40
0.6249999999999892
 40
0.687499999999991
 40
0.687499999999991
 40
0.7499999999999928
 40
0.7499999999999928
 40
0.8124999999999946
 40
0.8124999999999946
 40
0.8749999999999964
 40
0.8749999999999964
 40
0.9374999999999982
 40
0.9374999999999982
 40
1.0
 40
1.0
 40
1.0
 40
1.0
 10
-387.794604399648
 20
94.70069781809295
 30
0.0
 10
-388.0710026170331
 20
94.77580366525143
 30
0.0
 10
-388.3414411118475
 20
94.85499677683062
 30
0.0
 10
-388.8623384468348
 20
95.02708533773612
 30
0.0
 10
-389.1141481170018
 20
95.1190543682057
 30
0.0
 10
-389.6004289618413
 20
95.31488342153506
 30
0.0
 10
-389.8349027066503
 20
95.41874168175767
 30
0.0
 10
-390.2859045852463
 20
95.63876556325258
 30
0.0
 10
-390.5034506182087
 20
95.75560517172694
 30
0.0
 10
-391.1152466458403
 20
96.11831061937316
 30
0.0
 10
-391.4721791839247
 20
96.37724663167742
 30
0.0
 10
-391.9284590968155
 20
96.79226474018202
 30
0.0
 10
-392.0672611946599
 20
96.93507501854546
 30
0.0
 10
-392.3163503867792
 20
97.23028747970973
 30
0.0
 10
-392.4253477126275
 20
97.38140555926711
 30
0.0
 10
-392.7003570741339
 20
97.83823120057636
 30
0.0
 10
-392.8173700136435
 20
98.15016769758681
 30
0.0
 10
-392.8986120827524
 20
98.628571075903
 30
0.0
 10
-392.9096806848618
 20
98.79045169758034
 30
0.0
 10
-392.9001419890978
 20
99.11081544849961
 30
0.0
 10
-392.8797837930064
 20
99.27004033874205
 30
0.0
 10
-392.8091876158056
 20
99.58665582639387
 30
0.0
 10
-392.7589450729476
 20
99.74404614376162
 30
0.0
 10
-392.6288205285785
 20
100.0570072390806
 30
0.0
 10
-392.5484938563618
 20
100.2132104502986
 30
0.0
 10
-392.3602666189728
 20
100.5195579807161
 30
0.0
 10
-392.2524342344998
 20
100.6698891486576
 30
0.0
 10
-392.0098593338768
 20
100.964975569914
 30
0.0
 10
-391.8730430184332
 20
101.1093011215838
 30
0.0
 10
-391.7270875360065
 20
101.251732991891
 30
0.0
  0
SPLINE
  5
145
330
13E
100
AcDbEntity
  8
0
  6
Continuous
 62
     7
370
    25
100
AcDbSpline
210
0.0
220
0.0
230
1.0
 70
     8
 71
     3
 72
    34
 73
    30
 74
     0
 42
0.000000001
 43
0.00000001
 40
0.0
 40
0.0
 40
0.0
 40
0.0
 40
0.0624999999999998
 40
0.0624999999999998
 40
0.1249999999999997
 40
0.1249999999999997
 40
0.1874999999999995
 40
0.1874999999999995
 40
0.2499999999999993
 40
0.2499999999999993
 40
0.3749999999999949
 40
0.3749999999999949
 40
0.4374999999999958
 40
0.4374999999999958
 40
0.4999999999999966
 40
0.4999999999999966
 40
0.6250000000000023
 40
0.6250000000000023
 40
0.6875000000000019
 40
0.6875000000000019
 40
0.7500000000000016
 40
0.7500000000000016
 40
0.8125000000000011
 40
0.8125000000000011
 40
0.8750000000000008
 40
0.8750000000000008
 40
0.9375000000000003
 40
0.9375000000000003
 40
1.0
 40
1.0
 40
1.0
 40
1.0
 10
218.5093084028836
 20
-64.59744364013117
 30
0.0
 10
218.3634825841223
 20
-64.73979924782677
 30
0.0
 10
218.2097209247816
 20
-64.87908537481707
 30
0.0
 10
217.8755930833021
 20
-65.14736734277362
 30
0.0
 10
217.6970256435742
 20
-65.27705891408745
 30
0.0
 10
217.316803164426
 20
-65.52751207115432
 30
0.0
 10
217.1151515473495
 20
-65.6482749806257
 30
0.0
 10
216.6879522904055
 20
-65.88055812638783
 30
0.0
 10
216.4610960340199
 20
-65.99260261965023
 30
0.0
 10
215.7568656681226
 20
-66.3077008772264
 30
0.0
 10
215.2541144573948
 20
-66.49153472948882
 30
0.0
 10
214.448313615614
 20
-66.72653626335378
 30
0.0
 10
214.1710326001527
 20
-66.79802463032806
 30
0.0
 10
213.5978468885242
 20
-66.9263150512017
 30
0.0
 10
213.3044354096203
 20
-66.98245282577514
 30
0.0
 10
212.4174608870276
 20
-67.12409312098438
 30
0.0
 10
211.8118037167325
 20
-67.18435924051991
 30
0.0
 10
210.8829337742069
 20
-67.22620199815066
 30
0.0
 10
210.5686257013066
 20
-67.23190274894696
 30
0.0
 10
209.9466061403943
 20
-67.2269899553307
 30
0.0
 10
209.6374544465731
 20
-67.21650470782787
 30
0.0
 10
209.0227125298183
 20
-67.18014498528466
 30
0.0
 10
208.7171228506148
 20
-67.15426816076955
 30
0.0
 10
208.1094763177935
 20
-67.08724906145075
 30
0.0
 10
207.8061915291351
 20
-67.04587776428478
 30
0.0
 10
207.2113859215696
 20
-66.94893356469753
 30
0.0
 10
206.9195023164911
 20
-66.89339577795042
 30
0.0
 10
206.3465613254059
 20
-66.76846046159285
 30
0.0
 10
206.066338251641
 20
-66.69799484412994
 30
0.0
 10
205.7897919534053
 20
-66.62282221278515
 30
0.0
  0
SPLINE
  5
147
330
13E
100
AcDbEntity
  8
0
  6
Continuous
 62
     7
370
    25
100
AcDbSpline
210
0.0
220
0.0
230
1.0
 70
     8
 71
     3
 72
    34
 73
    30
 74
     0
 42
0.000000001
 43
0.00000001
 40
0.0
 40
0.0
 40
0.0
 40
0.0
 40
0.0624999999999962
 40
0.0624999999999962
 40
0.1249999999999925
 40
0.1249999999999925
 40
0.1874999999999887
 40
0.1874999999999887
 40
0.249999999999985
 40
0.249999999999985
 40
0.3749999999999775
 40
0.3749999999999775
 40
0.4374999999999799
 40
0.4374999999999799
 40
0.4999999999999823
 40
0.4999999999999823
 40
0.6249999999999912
 40
0.6249999999999912
 40
0.6874999999999927
 40
0.6874999999999927
 40
0.7499999999999941
 40
0.7499999999999941
 40
0.8124999999999957
 40
0.8124999999999957
 40
0.8749999999999971
 40
0.8749999999999971
 40
0.9374999999999986
 40
0.9374999999999986
 40
1.0
 40
1.0
 40
1.0
 40
1.0
 10
387.7946043996472
 20
111.0194543504191
 30
0.0
 10
388.0710026170325
 20
110.9443485032607
 30
0.0
 10
388.3414411118467
 20
110.8651553916818
 30
0.0
 10
388.8623384468339
 20
110.6930668307764
 30
0.0
 10
389.1141481170006
 20
110.6010978003069
 30
0.0
 10
389.60042896184
 20
110.4052687469779
 30
0.0
 10
389.8349027066489
 20
110.3014104867555
 30
0.0
 10
390.2859045852445
 20
110.081386605261
 30
0.0
 10
390.5034506182084
 20
109.964546996786
 30
0.0
 10
391.11524664584
 20
109.6018415491402
 30
0.0
 10
391.4721791839243
 20
109.3429055368363
 30
0.0
 10
391.9284590968153
 20
108.9278874283325
 30
0.0
 10
392.0672611946597
 20
108.7850771499695
 30
0.0
 10
392.3163503867793
 20
108.4898646888059
 30
0.0
 10
392.4253477126287
 20
108.3387466092475
 30
0.0
 10
392.7003570741358
 20
107.8819209679386
 30
0.0
 10
392.8173700136458
 20
107.5699844709283
 30
0.0
 10
392.8986120827557
 20
107.0915810926129
 30
0.0
 10
392.9096806848654
 20
106.9297004709351
 30
0.0
 10
392.9001419891021
 20
106.609336720016
 30
0.0
 10
392.879783793011
 20
106.4501118297734
 30
0.0
 10
392.809187615811
 20
106.1334963421217
 30
0.0
 10
392.7589450729532
 20
105.9761060247542
 30
0.0
 10
392.628820528585
 20
105.6631449294354
 30
0.0
 10
392.5484938563688
 20
105.506941718217
 30
0.0
 10
392.3602666189803
 20
105.2005941877996
 30
0.0
 10
392.2524342345075
 20
105.0502630198581
 30
0.0
 10
392.0098593338851
 20
104.7551765986016
 30
0.0
 10
391.8730430184422
 20
104.6108510469287
 30
0.0
 10
391.7270875360161
 20
104.4684191766213
 30
0.0
  0
SPLINE
  5
149
330
13E
100
AcDbEntity
  8
0
  6
Continuous
 62
     7
370
    25
100
AcDbSpline
210
0.0
220
0.0
230
1.0
 70
     8
 71
     3
 72
    34
 73
    30
 74
     0
 42
0.000000001
 43
0.00000001
 40
0.0
 40
0.0
 40
0.0
 40
0.0
 40
0.0624999999999977
 40
0.0624999999999977
 40
0.1249999999999953
 40
0.1249999999999953
 40
0.187499999999993
 40
0.187499999999993
 40
0.2499999999999907
 40
0.2499999999999907
 40
0.374999999999986
 40
0.374999999999986
 40
0.437499999999983
 40
0.437499999999983
 40
0.49999999999998
 40
0.49999999999998
 40
0.624999999999978
 40
0.624999999999978
 40
0.6874999999999817
 40
0.6874999999999817
 40
0.7499999999999853
 40
0.7499999999999853
 40
0.812499999999989
 40
0.812499999999989
 40
0.8749999999999927
 40
0.8749999999999927
 40
0.9374999999999963
 40
0.9374999999999963
 40
1.0
 40
1.0
 40
1.0
 40
1.0
 10
-218.5093084028804
 20
270.3175958086411
 30
0.0
 10
-218.363482584119
 20
270.4599514163366
 30
0.0
 10
-218.2097209247748
 20
270.599237543329
 30
0.0
 10
-217.8755930832951
 20
270.8675195112856
 30
0.0
 10
-217.6970256435669
 20
270.9972110825994
 30
0.0
 10
-217.3168031644185
 20
271.2476642396663
 30
0.0
 10
-217.1151515473418
 20
271.3684271491378
 30
0.0
 10
-216.6879522903973
 20
271.6007102949
 30
0.0
 10
-216.461096034012
 20
271.7127547881619
 30
0.0
 10
-215.7568656681149
 20
272.027853045738
 30
0.0
 10
-215.254114457387
 20
272.2116868980004
 30
0.0
 10
-214.4483136156055
 20
272.4466884318655
 30
0.0
 10
-214.1710326001439
 20
272.5181767988398
 30
0.0
 10
-213.5978468885146
 20
272.6464672197135
 30
0.0
 10
-213.3044354096114
 20
272.7026049942867
 30
0.0
 10
-212.4174608870198
 20
272.8442452894958
 30
0.0
 10
-211.811803716725
 20
272.9045114090316
 30
0.0
 10
-210.882933774199
 20
272.9463541666624
 30
0.0
 10
-210.5686257012979
 20
272.9520549174587
 30
0.0
 10
-209.9466061403864
 20
272.9471421238425
 30
0.0
 10
-209.6374544465656
 20
272.9366568763398
 30
0.0
 10
-209.0227125298111
 20
272.9002971537967
 30
0.0
 10
-208.7171228506075
 20
272.8744203292813
 30
0.0
 10
-208.109476317786
 20
272.8074012299626
 30
0.0
 10
-207.8061915291279
 20
272.7660299327967
 30
0.0
 10
-207.2113859215627
 20
272.6690857332096
 30
0.0
 10
-206.9195023164842
 20
272.6135479464626
 30
0.0
 10
-206.346561325399
 20
272.4886126301052
 30
0.0
 10
-206.0663382516321
 20
272.4181470126436
 30
0.0
 10
-205.7897919533965
 20
272.3429743812987
 30
0.0
  0
SPLINE
  5
153
330
13E
100
AcDbEntity
  8
0
  6
Continuous
 62
     7
370
    25
100
AcDbSpline
210
0.0
220
0.0
230
1.0
 70
     8
 71
     3
 72
    24
 73
    20
 74
     0
 42
0.000000001
 43
0.00000001
 40
-0.0052739378905732
 40
-0.0052739378905732
 40
-0.0052739378905732
 40
-0.0052739378905732
 40
0.3222234153633262
 40
0.3222234153633262
 40
0.6397966063974106
 40
0.6397966063974106
 40
0.8382798507937134
 40
0.8382798507937134
 40
0.9623318785414026
 40
0.9623318785414026
 40
1.086383906289092
 40
1.086383906289092
 40
1.284867150685394
 40
1.284867150685394
 40
1.602440341719479
 40
1.602440341719479
 40
1.924663757082805
 40
1.924663757082805
 40
1.929937694973378
 40
1.929937694973378
 40
1.929937694973378
 40
1.929937694973378
 10
245.3125433543312
 20
-4.566013230021287
 30
0.0
 10
244.1831589116348
 20
-4.853019812936676
 30
0.0
 10
243.0516355413533
 20
-5.127570435203316
 30
0.0
 10
240.8196335737217
 20
-5.643788893326326
 30
0.0
 10
239.7192532629571
 20
-5.886201014564246
 30
0.0
 10
237.9293478109424
 20
-6.26104331622674
 30
0.0
 10
237.240492962028
 20
-6.400627513095787
 30
0.0
 10
236.1205835921681
 20
-6.619994294298458
 30
0.0
 10
235.6897325068155
 20
-6.702571894694503
 30
0.0
 10
234.8277983985282
 20
-6.864146750506721
 30
0.0
 10
234.3966654463019
 20
-6.943153294621022
 30
0.0
 10
233.2753550455064
 20
-7.143934058255377
 30
0.0
 10
232.5849587619583
 20
-7.262926528205364
 30
0.0
 10
230.7892675551184
 20
-7.560413681051724
 30
0.0
 10
229.6835761094196
 20
-7.731772398445441
 30
0.0
 10
227.4555575463982
 20
-8.053329158738014
 30
0.0
 10
226.3332239116693
 20
-8.203180588825445
 30
0.0
 10
225.1927458496068
 20
-8.343150290233686
 30
0.0
 10
225.1743798654269
 20
-8.345401084688335
 30
0.0
 10
225.1560138821935
 20
-8.347648635403402
 30
0.0
  0
LWPOLYLINE
  5
155
330
13E
100
AcDbEntity
  8
0
  6
Continuous
 62
     7
370
    25
100
AcDbPolyline
 90
       62
 70
   128
 43
0.0
 10
-15.4332410901
 20
-2.0841516862
 10
-18.3586482677
 20
-1.1870202783
 10
-21.0894492065
 20
-0.139723785
 10
-23.5966967373
 20
1.0466361903
 10
-25.8538134126
 20
2.3594839367
 10
-27.836873234
 20
3.7849029416
 10
-29.5248552741
 20
5.3077834089
 10
-30.8998665033
 20
6.9119824267
 10
-31.9473314607
 20
8.5804950865
 10
-32.656146757
 20
10.2956347389
 10
-33.0187987738
 20
12.039220477
 10
-33.0314433095
 20
13.7927698581
 10
-32.6939463288
 20
15.5376948227
 10
-32.0098853838
 20
17.255498732
 10
-30.9865116905
 20
18.9279724371
 10
-29.6346732648
 20
20.5373873009
 10
-27.9686999303
 20
22.0666831253
 10
-26.0062514187
 20
23.4996489942
 10
-23.7681301724
 20
24.8210951128
 10
-21.2780608335
 20
26.0170138236
 10
-18.5624387564
 20
27.0747280908
 10
-15.6500502108
 20
27.9830258799
 10
-12.5717672395
 20
28.7322790085
 10
-9.3602204081
 20
29.314545207
 10
-6.0494529118
 20
29.7236523088
 10
-2.6745597097
 20
29.955263677
 10
0.7286844907
 20
30.0069241732
 10
4.1242044542
 20
29.8780861836
 10
7.4760068245
 20
29.5701154227
 10
10.7485616626
 20
29.0862764574
 10
13.9071790732
 20
28.4316981009
 10
16.918376926
 20
27.6133190467
 10
19.7502357745
 20
26.6398143163
 10
22.3727372105
 20
25.5215033021
 10
24.7580820664
 20
24.2702403791
 10
26.8809850933
 20
22.8992892455
 10
28.718942991
 20
21.4231823243
 10
30.2524729486
 20
19.8575667162
 10
31.465319167
 20
18.219038336
 10
32.3446251746
 20
16.5249659922
 10
32.8810701089
 20
14.7933072732
 10
33.0689675202
 20
13.042418192
 10
32.9063256492
 20
11.2908586086
 10
32.3948685402
 20
9.5571954902
 10
31.5400177657
 20
7.8598060972
 10
30.3508349568
 20
6.2166831795
 10
28.8399257468
 20
4.6452442486
 10
27.0233061494
 20
3.1621469483
 10
24.9202327843
 20
1.7831124788
 10
22.5529987522
 20
0.5227589485
 10
19.9466973227
 20
-0.6055535815
 10
17.1289559395
 20
-1.5898647177
 10
14.1296433622
 20
-2.4197405173
 10
10.9805530502
 20
-3.0863840903
 10
7.7150661442
 20
-3.582728849
 10
4.3677976178
 20
-3.9035134154
 10
0.9742293501
 20
-4.0453373935
 10
-2.4296659911
 20
-4.0066974137
 10
-5.8078062684
 20
-3.7880030694
 10
-9.1243823544
 20
-3.3915725751
 10
-12.3442377176
 20
-2.8216081926
 10
-15.4332410901
 20
-2.0841516862
  0
SPLINE
  5
156
330
13E
100
AcDbEntity
  8
0
  6
Continuous
 62
     7
370
    25
100
AcDbSpline
210
0.0
220
0.0
230
1.0
 70
     8
 71
     3
 72
     9
 73
     5
 74
     0
 42
0.000000001
 43
0.00000001
 40
0.0
 40
0.0
 40
0.0
 40
0.0
 40
0.5
 40
1.0
 40
1.0
 40
1.0
 40
1.0
 10
245.3125433543556
 20
-4.566013230014557
 30
0.0
 10
245.1861640591743
 20
-4.393981106883084
 30
0.0
 10
244.9224067052081
 20
-3.993278289215522
 30
0.0
 10
244.6416837267186
 20
-3.486943572155711
 30
0.0
 10
244.4984196439513
 20
-3.209782859090161
 30
0.0
  0
SPLINE
  5
157
330
13E
100
AcDbEntity
  8
0
  6
Continuous
 62
     7
370
    25
100
AcDbSpline
210
0.0
220
0.0
230
1.0
 70
     8
 71
     3
 72
    52
 73
    48
 74
     0
 42
0.000000001
 43
0.00000001
 40
0.0
 40
0.0
 40
0.0
 40
0.0
 40
0.0080998207681289
 40
0.0160915948344147
 40
0.0239764005158106
 40
0.031755286741853
 40
0.0394292733823724
 40
0.0469993515857402
 40
0.054466484127307
 40
0.0618316057676871
 40
0.0690956236205216
 40
0.0762594175293439
 40
0.0833238404531497
 40
0.0902897188602699
 40
0.0971578531301313
 40
0.1039290179624851
 40
0.1106039627936586
 40
0.1171834122194097
 40
0.123668066423923
 40
0.1568071611617766
 40
0.188567894906598
 40
0.2190057038292556
 40
0.248169236763815
 40
0.3137773803267424
 40
0.3774159004689862
 40
0.4394017168025915
 40
0.5000118735983928
 40
0.5597632349218623
 40
0.621248858029481
 40
0.6847794098006242
 40
0.7506851105765859
 40
0.7643642200830211
 40
0.7782718187625628
 40
0.7924128151442682
 40
0.8067922727402018
 40
0.8214154102089201
 40
0.8362876013712821
 40
0.8514143750831504
 40
0.8668014149701786
 40
0.8824545590304438
 40
0.8983797991112202
 40
0.9145832802666325
 40
0.9310713000033528
 40
0.9478503074218133
 40
0.9649269022607203
 40
0.9823078338528115
 40
1.0
 40
1.0
 40
1.0
 40
1.0
 10
-205.8113160833449
 20
272.3219699480355
 30
0.0
 10
-205.7453854767944
 20
271.8113282705366
 30
0.0
 10
-205.6144037380413
 20
270.7968565661491
 30
0.0
 10
-205.4161498004061
 20
269.2847304618936
 30
0.0
 10
-205.218347737578
 20
267.7925267486408
 30
0.0
 10
-205.0208449312238
 20
266.3200823533256
 30
0.0
 10
-204.8237655600259
 20
264.8672927064155
 30
0.0
 10
-204.6271602102212
 20
263.4340394826168
 30
0.0
 10
-204.4310978772292
 20
262.020209574119
 30
0.0
 10
-204.2356418120066
 20
260.6256901095301
 30
0.0
 10
-204.0408558639337
 20
259.2503697622836
 30
0.0
 10
-203.846802813995
 20
257.8941384061725
 30
0.0
 10
-203.6535448242197
 20
256.5568872111945
 30
0.0
 10
-203.4611432812986
 20
255.2385086002837
 30
0.0
 10
-203.2696589831656
 20
253.9388963285762
 30
0.0
 10
-203.079151563265
 20
252.6579452161837
 30
0.0
 10
-202.8896815709506
 20
251.3955521202517
 30
0.0
 10
-202.7013028830949
 20
250.1516123870314
 30
0.0
 10
-202.2566883810811
 20
247.2409597243382
 30
0.0
 10
-201.5519198892986
 20
242.7490321217028
 30
0.0
 10
-200.5719589470959
 20
236.7683195229523
 30
0.0
 10
-199.5979925254665
 20
231.0595913694575
 30
0.0
 10
-198.2186280103483
 20
223.2739275202964
 30
0.0
 10
-196.3865551607152
 20
213.5118759367711
 30
0.0
 10
-194.03951367055
 20
201.9380752922448
 30
0.0
 10
-191.6340613780635
 20
190.9199725938122
 30
0.0
 10
-189.1746991488492
 20
180.4218026584907
 30
0.0
 10
-186.6309582330929
 20
170.2761264959624
 30
0.0
 10
-183.959282026973
 20
160.3329311648935
 30
0.0
 10
-181.1141332444742
 20
150.4757484919572
 30
0.0
 10
-178.9224892410541
 20
143.4228831968423
 30
0.0
 10
-177.4702130370522
 20
138.9539312572531
 30
0.0
 10
-176.8187227754945
 20
136.980535168453
 30
0.0
 10
-176.1529991638526
 20
134.9959823092662
 30
0.0
 10
-175.4726967596245
 20
133.0006186411615
 30
0.0
 10
-174.7774820041773
 20
130.994815353975
 30
0.0
 10
-174.0670106503505
 20
128.9789412396324
 30
0.0
 10
-173.3409338844864
 20
126.953370168598
 30
0.0
 10
-172.5988965169146
 20
124.9184793415785
 30
0.0
 10
-171.840537529251
 20
122.8746484681064
 30
0.0
 10
-171.0654892886411
 20
120.8222648463514
 30
0.0
 10
-170.2733797473258
 20
118.7617032425348
 30
0.0
 10
-169.4638237837959
 20
116.6934030132252
 30
0.0
 10
-168.6364559777865
 20
114.6175724944225
 30
0.0
 10
-167.7908046714869
 20
112.5353215648603
 30
0.0
 10
-166.9267742014845
 20
110.444321463613
 30
0.0
 10
-166.3427166955197
 20
109.0641651262136
 30
0.0
 10
-166.0480965136397
 20
108.3679632847943
 30
0.0
  0
SPLINE
  5
159
330
13E
100
AcDbEntity
  8
0
  6
Continuous
 62
     7
370
    25
100
AcDbSpline
210
0.0
220
0.0
230
1.0
 70
     8
 71
     3
 72
    43
 73
    39
 74
     0
 42
0.000000001
 43
0.00000001
 40
0.0
 40
0.0
 40
0.0
 40
0.0
 40
0.0092250844099046
 40
0.0185057912515862
 40
0.0278414032463884
 40
0.0372312210254907
 40
0.0466745641454484
 40
0.0561707721303692
 40
0.0657192055409755
 40
0.0753192470707464
 40
0.0849703026692904
 40
0.0946718026930462
 40
0.1044232030833439
 40
0.1142239865717917
 40
0.1240736639128891
 40
0.1554072333218753
 40
0.1867227568150989
 40
0.2180307267603321
 40
0.2493437437212966
 40
0.37434536966709
 40
0.4999264039798726
 40
0.5587190889311795
 40
0.6201055202345684
 40
0.6843524299710637
 40
0.7518003137948753
 40
0.7802260654512224
 40
0.8104141986344983
 40
0.8424219271961217
 40
0.8763170430127024
 40
0.8879596073372684
 40
0.9001101495400611
 40
0.9127750780615772
 40
0.9259613620966848
 40
0.9396765611803019
 40
0.953928854629704
 40
0.968727070695117
 40
0.9840807152684689
 40
1.0
 40
1.0
 40
1.0
 40
1.0
 10
-168.6813588625645
 20
107.9486585762482
 30
0.0
 10
-168.8712049304271
 20
108.3051248127968
 30
0.0
 10
-169.2520417386008
 20
109.0202065907721
 30
0.0
 10
-169.8250081697732
 20
110.1066943050352
 30
0.0
 10
-170.4013205814621
 20
111.2076048726998
 30
0.0
 10
-170.9808966906481
 20
112.3238362016279
 30
0.0
 10
-171.5636487153737
 20
113.4553170147386
 30
0.0
 10
-172.1494889415271
 20
114.6022400391703
 30
0.0
 10
-172.738328212428
 20
115.7647286721903
 30
0.0
 10
-173.3300763730167
 20
116.9429270810156
 30
0.0
 10
-173.9246420292466
 20
118.1369757857327
 30
0.0
 10
-174.521933081928
 20
119.347018509019
 30
0.0
 10
-175.1218548347512
 20
120.5731993597151
 30
0.0
 10
-175.7243170943465
 20
121.8156672115253
 30
0.0
 10
-176.7680139020927
 20
123.9878017478474
 30
0.0
 10
-178.2491808376551
 20
127.1296008393546
 30
0.0
 10
-180.1606056330163
 20
131.3071635973627
 30
0.0
 10
-182.0610786647098
 20
135.5911220936964
 30
0.0
 10
-185.8304811599452
 20
144.3621966972368
 30
0.0
 10
-191.3786216654403
 20
158.3674800248171
 30
0.0
 10
-197.0963820339035
 20
175.1269047711274
 30
0.0
 10
-201.322820005503
 20
189.1211142853457
 30
0.0
 10
-204.3263156097207
 20
199.9231737335315
 30
0.0
 10
-207.2711813944276
 20
211.508552546652
 30
0.0
 10
-209.5302595410146
 20
221.308634235904
 30
0.0
 10
-211.1998996251861
 20
229.1010428008314
 30
0.0
 10
-212.3529342793759
 20
234.7324312987952
 30
0.0
 10
-213.5225597334015
 20
240.7302646897511
 30
0.0
 10
-214.4216080775363
 20
245.5879399508051
 30
0.0
 10
-215.0674499422054
 20
249.2074759788063
 30
0.0
 10
-215.467998103695
 20
251.4966903221514
 30
0.0
 10
-215.8773360765092
 20
253.884327494403
 30
0.0
 10
-216.2947457062278
 20
256.3715213288037
 30
0.0
 10
-216.7194707875817
 20
258.959431974169
 30
0.0
 10
-217.1508092755188
 20
261.6492750796436
 30
0.0
 10
-217.5877041275055
 20
264.4422650124944
 30
0.0
 10
-218.030371685227
 20
267.3398219883857
 30
0.0
 10
-218.3207219631022
 20
269.3057633160838
 30
0.0
 10
-218.4685229158146
 20
270.3065131804792
 30
0.0
  0
SPLINE
  5
15A
330
13E
100
AcDbEntity
  8
0
  6
Continuous
 62
     7
370
    25
100
AcDbSpline
210
0.0
220
0.0
230
1.0
 70
     8
 71
     3
 72
    24
 73
    20
 74
     0
 42
0.000000001
 43
0.00000001
 40
-0.0052739378905732
 40
-0.0052739378905732
 40
-0.0052739378905732
 40
-0.0052739378905732
 40
0.0
 40
0.0
 40
0.3222234153633262
 40
0.3222234153633262
 40
0.6397966063974105
 40
0.6397966063974105
 40
0.8382798507937133
 40
0.8382798507937133
 40
0.9623318785414025
 40
0.9623318785414025
 40
1.086383906289092
 40
1.086383906289092
 40
1.284867150685394
 40
1.284867150685394
 40
1.602440341719479
 40
1.602440341719479
 40
1.929937694973378
 40
1.929937694973378
 40
1.929937694973378
 40
1.929937694973378
 10
225.1560138821936
 20
-8.347648635401356
 30
0.0
 10
225.1736380620113
 20
-8.344165331067071
 30
0.0
 10
225.1912622427109
 20
-8.340678782942534
 30
0.0
 10
226.2856763122614
 20
-8.123972111969628
 30
0.0
 10
227.3626788083824
 20
-7.898604558903302
 30
0.0
 10
229.5007075374984
 20
-7.42713575912518
 30
0.0
 10
230.5617400242435
 20
-7.1813806868644
 30
0.0
 10
232.2849031309439
 20
-6.763070603916427
 30
0.0
 10
232.9474142577325
 20
-6.597624878754677
 30
0.0
 10
234.0234348488287
 20
-6.321396840188329
 30
0.0
 10
234.4371543093498
 20
-6.213381552055836
 30
0.0
 10
235.2642748355026
 20
-5.993811533088776
 30
0.0
 10
235.6777238137758
 20
-5.882244154066226
 30
0.0
 10
236.7523999616771
 20
-5.587524366177973
 30
0.0
 10
237.413431912495
 20
-5.401590629398441
 30
0.0
 10
239.1310429514297
 20
-4.906314691655533
 30
0.0
 10
240.1869788203757
 20
-4.589863574812552
 30
0.0
 10
242.3288300640936
 20
-3.923465054163612
 30
0.0
 10
243.4146511220805
 20
-3.572779978177773
 30
0.0
 10
244.4984196439308
 20
-3.209782859106586
 30
0.0
  0
SPLINE
  5
15B
330
13E
100
AcDbEntity
  8
0
  6
Continuous
 62
     7
370
    25
100
AcDbSpline
210
0.0
220
0.0
230
1.0
 70
     8
 71
     3
 72
    24
 73
    20
 74
     0
 42
0.000000001
 43
0.00000001
 40
0.0
 40
0.0
 40
0.0
 40
0.0
 40
0.327497353257923
 40
0.327497353257923
 40
0.6450705442959087
 40
0.6450705442959087
 40
0.8435537886946498
 40
0.8435537886946498
 40
0.967605816443863
 40
0.967605816443863
 40
1.091657844193076
 40
1.091657844193076
 40
1.290141088591817
 40
1.290141088591817
 40
1.607714279629803
 40
1.607714279629803
 40
1.929937694982136
 40
1.929937694982136
 40
1.935211632887726
 40
1.935211632887726
 40
1.935211632887726
 40
1.935211632887726
 10
-166.0480965136375
 20
108.3679632847927
 30
0.0
 10
-165.7797488727629
 20
107.6374899650301
 30
0.0
 10
-165.5108930115268
 20
106.9186327296066
 30
0.0
 10
-164.9805576892066
 20
105.5259911583244
 30
0.0
 10
-164.7191015815309
 20
104.8515011305253
 30
0.0
 10
-164.2938106998089
 20
103.7738303675697
 30
0.0
 10
-164.1301351907223
 20
103.3637588145251
 30
0.0
 10
-163.8640388766283
 20
102.7046458007383
 30
0.0
 10
-163.7616664089786
 20
102.4528892054298
 30
0.0
 10
-163.5568663641028
 20
101.9528652866347
 30
0.0
 10
-163.4544269234087
 20
101.7045690690968
 30
0.0
 10
-163.1879977170507
 20
101.0634919407956
 30
0.0
 10
-163.0239559550492
 20
100.6734068513371
 30
0.0
 10
-162.5972903477703
 20
99.6708193891776
 30
0.0
 10
-162.3345722866998
 20
99.06529728256325
 30
0.0
 10
-161.8051834421268
 20
97.86888154211427
 30
0.0
 10
-161.5385111073034
 20
97.27833196131625
 30
0.0
 10
-161.2675275674773
 20
96.69053947722054
 30
0.0
 10
-161.2631637135883
 20
96.68107705251697
 30
0.0
 10
-161.2587998600571
 20
96.67161787184227
 30
0.0
  0
LWPOLYLINE
  5
15C
330
13E
100
AcDbEntity
  8
0
  6
Continuous
 62
     7
370
    25
100
AcDbPolyline
 90
       30
 70
   128
 43
0.0
 10
22.6227088591
 20
0.5563359856
 10
22.8646037039
 20
1.4096994644
 10
22.9966357045
 20
2.8957618015
 10
22.7659970224
 20
4.378628942
 10
22.1763249676
 20
5.8349151853
 10
21.2369190205
 20
7.2416540274
 10
19.9625941741
 20
8.5766603564
 10
18.3734472926
 20
9.818880325
 10
16.4945401715
 20
10.9487233822
 10
14.3555042985
 20
11.9483712281
 10
11.9900735471
 20
12.802058819
 10
9.4355521734
 20
13.4963229916
 10
6.7322265054
 20
14.0202147852
 10
3.9227296038
 20
14.3654721132
 10
1.051368913
 20
14.5266500613
 10
-1.8365724936
 20
14.501206757
 10
-4.6955500549
 20
14.2895434565
 10
-7.4804759868
 20
13.8949982163
 10
-10.1474303438
 20
13.3237932507
 10
-12.6543536625
 20
12.5849368031
 10
-14.9617102646
 20
11.6900810812
 10
-17.0331117581
 20
10.6533384941
 10
-18.8358909041
 20
9.4910590918
 10
-20.3416167986
 20
8.2215727149
 10
-21.5265432446
 20
6.8648999218
 10
-22.3719832443
 20
5.4424362529
 10
-22.8646037039
 20
3.97661481
 10
-22.9966357045
 20
2.4905524729
 10
-22.7659970224
 20
1.0076853323
 10
-22.6227088591
 20
0.5563359856
  0
LWPOLYLINE
  5
15D
330
13E
100
AcDbEntity
  8
0
  6
Continuous
 62
     7
370
    25
100
AcDbPolyline
 90
        9
 70
   128
 43
0.0
 10
10.7339939454
 20
10.4767071565
 10
13.1988338063
 20
9.7012009905
 10
15.4555201736
 20
8.7727010896
 10
17.468463755
 20
7.705850452
 10
19.2059192278
 20
6.5174739496
 10
20.6404858813
 20
5.2263129896
 10
21.7495397425
 20
3.8527299517
 10
22.5155903694
 20
2.4183870609
 10
22.8509140468
 20
1.3465785686
  0
LWPOLYLINE
  5
15E
330
13E
100
AcDbEntity
  8
0
  6
Continuous
 62
     7
370
    25
100
AcDbPolyline
 90
       17
 70
   128
 43
0.0
 10
-22.8509140468
 20
1.3465785686
 10
-22.6630137549
 20
2.0203551035
 10
-21.9926607367
 20
3.4673529792
 10
-20.9754703209
 20
4.8596686271
 10
-19.627484208
 20
6.1753443977
 10
-17.9699609442
 20
7.3936312982
 10
-16.0290406616
 20
8.4953162164
 10
-13.8353328325
 20
9.463024923
 10
-11.4234335398
 20
10.2814960737
 10
-8.8313798762
 20
10.9378218893
 10
-6.1000500763
 20
11.4216517199
 10
-3.2725188427
 20
11.7253552798
 10
-0.393378032
 20
11.8441429826
 10
2.4919665852
 20
11.7761414753
 10
5.3380114008
 20
11.5224231821
 10
8.0998725878
 20
11.0869893922
 10
10.7339939454
 20
10.4767071565
  0
SPLINE
  5
15F
330
13E
100
AcDbEntity
  8
0
  6
Continuous
 62
     7
370
    25
100
AcDbSpline
210
0.0
220
0.0
230
1.0
 70
     8
 71
     3
 72
    24
 73
    20
 74
     0
 42
0.000000001
 43
0.00000001
 40
0.0
 40
0.0
 40
0.0
 40
0.0
 40
0.0052739379055904
 40
0.0052739379055904
 40
0.3274973532579226
 40
0.3274973532579226
 40
0.6450705442959086
 40
0.6450705442959086
 40
0.8435537886946498
 40
0.8435537886946498
 40
0.967605816443863
 40
0.967605816443863
 40
1.091657844193076
 40
1.091657844193076
 40
1.290141088591817
 40
1.290141088591817
 40
1.607714279629803
 40
1.607714279629803
 40
1.935211632887726
 40
1.935211632887726
 40
1.935211632887726
 40
1.935211632887726
 10
-161.2587998600635
 20
96.67161787184193
 30
0.0
 10
-161.2655630553639
 20
96.68069499590163
 30
0.0
 10
-161.2723262511048
 20
96.68977536399112
 30
0.0
 10
-161.6923024482146
 20
97.25384316159816
 30
0.0
 10
-162.1055970426455
 20
97.82104550105325
 30
0.0
 10
-162.9260554110202
 20
98.97111308561962
 30
0.0
 10
-163.3332215876715
 20
99.55363414244454
 30
0.0
 10
-163.9944772449483
 20
100.5188668905257
 30
0.0
 10
-164.2487127430852
 20
100.894590068755
 30
0.0
 10
-164.661630534323
 20
101.5123412290669
 30
0.0
 10
-164.8203934123855
 20
101.7516688381844
 30
0.0
 10
-165.1377969861125
 20
102.233762441504
 30
0.0
 10
-165.2964560680264
 20
102.4765562911053
 30
0.0
 10
-165.7088579362785
 20
103.1123724775694
 30
0.0
 10
-165.9625258084479
 20
103.50811418034
 30
0.0
 10
-166.6216508890274
 20
104.5485505695949
 30
0.0
 10
-167.0268612655049
 20
105.2001500161593
 30
0.0
 10
-167.8487865129982
 20
106.5463605244172
 30
0.0
 10
-168.2654651904466
 20
107.241679322502
 30
0.0
 10
-168.6813562178446
 20
107.94865869753
 30
0.0
  0
SPLINE
  5
160
330
13E
100
AcDbEntity
  8
0
  6
Continuous
 62
     7
370
    25
100
AcDbSpline
210
0.0
220
0.0
230
1.0
 70
     8
 71
     3
 72
     9
 73
     5
 74
     0
 42
0.000000001
 43
0.00000001
 40
0.0
 40
0.0
 40
0.0
 40
0.0
 40
0.5
 40
1.0
 40
1.0
 40
1.0
 40
1.0
 10
-166.0480965136426
 20
108.3679632848074
 30
0.0
 10
-166.4867839517851
 20
108.2489645254124
 30
0.0
 10
-167.369960441142
 20
108.0589527443635
 30
0.0
 10
-168.2478916813163
 20
107.9685364231577
 30
0.0
 10
-168.6813588625707
 20
107.9486585762623
 30
0.0
  0
SPLINE
  5
161
330
13E
100
AcDbEntity
  8
0
  6
Continuous
 62
    60
370
    25
100
AcDbSpline
210
0.0
220
0.0
230
1.0
 70
     8
 71
     3
 72
    12
 73
     8
 74
     0
 42
0.000000001
 43
0.00000001
 40
0.0
 40
0.0
 40
0.0
 40
0.0
 40
0.0247566858370705
 40
0.2203895788862559
 40
0.4814459957797583
 40
0.7443963874258298
 40
1.0
 40
1.0
 40
1.0
 40
1.0
 10
302.1266330754767
 20
17.06651916178281
 30
0.0
 10
301.683088823196
 20
16.82585325586418
 30
0.0
 10
297.7345582476225
 20
14.68339129602198
 30
0.0
 10
288.8096794488956
 20
10.57546501321348
 30
0.0
 10
275.2902976439557
 20
4.936708641339827
 30
0.0
 10
260.3447877115281
 20
-0.2976595995936512
 30
0.0
 10
250.2757393230157
 20
-3.156730954665128
 30
0.0
 10
245.3125433543374
 20
-4.5660132300233
 30
0.0
  0
SPLINE
  5
165
330
13E
100
AcDbEntity
  8
0
  6
Continuous
 62
    60
370
    25
100
AcDbSpline
210
0.0
220
0.0
230
1.0
 70
     8
 71
     3
 72
    19
 73
    15
 74
     0
 42
0.000000001
 43
0.00000001
 40
0.0
 40
0.0
 40
0.0
 40
0.0
 40
0.124421118440119
 40
0.2424775577952538
 40
0.3545811952530844
 40
0.3970797561554985
 40
0.4387409248048775
 40
0.4795859700731184
 40
0.5196354565612757
 40
0.5589092442171766
 40
0.5974264888615639
 40
0.7553581403757895
 40
0.9075988137783613
 40
1.0
 40
1.0
 40
1.0
 40
1.0
 10
244.4984196439265
 20
-3.209782859095733
 30
0.0
 10
247.5903143443427
 20
-2.224448224168444
 30
0.0
 10
253.6159399400318
 20
-0.3041830884452715
 30
0.0
 10
262.3521741281963
 20
2.860470652004454
 30
0.0
 10
269.0165066260799
 20
5.494651958306424
 30
0.0
 10
273.7795661513489
 20
7.501718017380157
 30
0.0
 10
276.8010249957839
 20
8.817838998813214
 30
0.0
 10
279.7506012386458
 20
10.14521837388469
 30
0.0
 10
282.6297864961327
 20
11.48257815255076
 30
0.0
 10
285.4398798245894
 20
12.82903693659702
 30
0.0
 10
291.0341941488139
 20
15.59003394726871
 30
0.0
 10
299.1924177515037
 20
19.9506968372943
 30
0.0
 10
308.4176751189701
 20
25.39011611773172
 30
0.0
 10
313.7974241867209
 20
29.05613907808721
 30
0.0
 10
315.8293544385532
 20
30.4407952884878
 30
0.0
  0
SPLINE
  5
166
330
13E
100
AcDbEntity
  8
0
  6
Continuous
 62
    60
370
    25
100
AcDbSpline
210
0.0
220
0.0
230
1.0
 70
     8
 71
     3
 72
    11
 73
     7
 74
     0
 42
0.000000001
 43
0.00000001
 40
0.0
 40
0.0
 40
0.0
 40
0.0
 40
0.2473900570474319
 40
0.4787216693566834
 40
0.7292663848736884
 40
1.0
 40
1.0
 40
1.0
 40
1.0
 10
372.1407999502218
 20
85.40249241504053
 30
0.0
 10
373.5691903928777
 20
87.45780746523569
 30
0.0
 10
376.3332523982891
 20
91.43502410694863
 30
0.0
 10
380.2381178332194
 20
97.6259594329043
 30
0.0
 10
384.0741390650236
 20
104.0878603710187
 30
0.0
 10
386.5086744215038
 20
108.6362005511362
 30
0.0
 10
387.7730863862199
 20
110.9984483320247
 30
0.0
  0
SPLINE
  5
167
330
13E
100
AcDbEntity
  8
0
  6
Continuous
 62
    60
370
    25
100
AcDbSpline
210
0.0
220
0.0
230
1.0
 70
     8
 71
     3
 72
     9
 73
     5
 74
     0
 42
0.000000001
 43
0.00000001
 40
0.0
 40
0.0
 40
0.0
 40
0.0
 40
0.6835758111227414
 40
1.0
 40
1.0
 40
1.0
 40
1.0
 10
-391.6863053611614
 20
101.2406472772227
 30
0.0
 10
-390.6896020663755
 20
99.69329344944221
 30
0.0
 10
-389.231529269521
 20
97.4296764480755
 30
0.0
 10
-387.6499503844558
 20
95.24386894066137
 30
0.0
 10
-387.1495005686036
 20
94.552226573086
 30
0.0
  0
LINE
  5
169
330
13E
100
AcDbEntity
  8
0
  6
Continuous
 62
     7
370
    25
100
AcDbLine
 10
-391.6863053612
 20
101.2406472772
 30
0.0
 11
-218.4685229158
 21
270.3065131805
 31
0.0
  0
LINE
  5
16A
330
13E
100
AcDbEntity
  8
0
  6
Continuous
 62
     7
370
    25
100
AcDbLine
 10
205.8113160833
 20
-66.6018177795
 30
0.0
 11
-387.7730863862
 21
94.7217038365
 31
0.0
  0
LINE
  5
16B
330
13E
100
AcDbEntity
  8
0
  6
Continuous
 62
     7
370
    25
100
AcDbLine
 10
391.6863053612
 20
104.4795048913
 30
0.0
 11
218.4685229158
 21
-64.586361012
 31
0.0
  0
LINE
  5
16C
330
13E
100
AcDbEntity
  8
0
  6
Continuous
 62
     7
370
    25
100
AcDbLine
 10
-205.8113160833
 20
272.321969948
 30
0.0
 11
387.7730863862
 21
110.998448332
 31
0.0
  0
LINE
  5
16D
330
13E
100
AcDbEntity
  8
0
  6
Continuous
 62
     7
370
    25
100
AcDbLine
 10
402.8854203731
 20
109.8338143057
 30
0.0
 11
-216.2072648011
 21
278.0899405845
 31
0.0
  0
LINE
  5
16E
330
13E
100
AcDbEntity
  8
0
  6
Continuous
 62
     7
370
    25
100
AcDbLine
 10
216.2072648011
 20
-72.369788416
 30
0.0
 11
402.8854203731
 21
109.8338143057
 31
0.0
  0
LINE
  5
16F
330
13E
100
AcDbEntity
  8
0
  6
Continuous
 62
     7
370
    25
100
AcDbLine
 10
-402.8854203731
 20
95.8863378628
 30
0.0
 11
216.2072648011
 21
-72.369788416
 31
0.0
  0
LINE
  5
170
330
13E
100
AcDbEntity
  8
0
  6
Continuous
 62
     7
370
    25
100
AcDbLine
 10
-216.2072648011
 20
278.0899405845
 30
0.0
 11
-402.8854203731
 21
95.8863378628
 31
0.0
  0
LINE
  5
171
330
13E
100
AcDbEntity
  8
0
  6
Continuous
 62
     7
370
    25
100
AcDbLine
 10
216.2072648011
 20
-175.2298645002
 30
0.0
 11
216.2072648011
 21
-72.369788416
 31
0.0
  0
LINE
  5
172
330
13E
100
AcDbEntity
  8
0
  6
Continuous
 62
     7
370
    25
100
AcDbLine
 10
402.8854203731
 20
109.8338143057
 30
0.0
 11
402.8854203731
 21
6.9737382215
 31
0.0
  0
LINE
  5
173
330
13E
100
AcDbEntity
  8
0
  6
Continuous
 62
     7
370
    25
100
AcDbLine
 10
216.2072648011
 20
-175.2298645002
 30
0.0
 11
402.8854203731
 21
6.9737382215
 31
0.0
  0
LINE
  5
174
330
13E
100
AcDbEntity
  8
0
  6
Continuous
 62
     7
370
    25
100
AcDbLine
 10
-402.8854203731
 20
-6.9737382215
 30
0.0
 11
-402.8854203731
 21
95.8863378628
 31
0.0
  0
LINE
  5
175
330
13E
100
AcDbEntity
  8
0
  6
Continuous
 62
     7
370
    25
100
AcDbLine
 10
-402.8854203731
 20
-6.9737382215
 30
0.0
 11
216.2072648011
 21
-175.2298645002
 31
0.0
  0
LINE
  5
176
330
13E
100
AcDbEntity
  8
0
  6
Continuous
 62
     7
370
    25
100
AcDbLine
 10
225.1560138822
 20
-8.3476486354
 30
0.0
 11
-161.2587998601
 21
96.6716178718
 31
0.0
  0
LINE
  5
177
330
13E
100
AcDbEntity
  8
0
  6
Continuous
 62
     7
370
    25
100
AcDbLine
 10
-166.0480965136
 20
108.3679632848
 30
0.0
 11
244.4984196439
 21
-3.2097828591
 31
0.0
  0
LINE
  5
178
330
13E
100
AcDbEntity
  8
0
  6
Continuous
 62
    60
370
    25
100
AcDbLine
 10
245.3125433543
 20
-4.56601323
 30
0.0
 11
186.9932185561
 21
-61.4874620947
 31
0.0
  0
LINE
  5
179
330
13E
100
AcDbEntity
  8
0
  6
Continuous
 62
    60
370
    25
100
AcDbLine
 10
174.2574934813
 20
-58.0261649129
 30
0.0
 11
225.1560138822
 21
-8.3476486354
 31
0.0
  0
LINE
  5
17A
330
13E
100
AcDbEntity
  8
0
  6
Continuous
 62
    60
370
    25
100
AcDbLine
 10
-161.2587998601
 20
96.6716178718
 30
0.0
 11
-212.1573202609
 21
46.9931015943
 31
0.0
  0
LINE
  5
17B
330
13E
100
AcDbEntity
  8
0
  6
Continuous
 62
    60
370
    25
100
AcDbLine
 10
-227.0006836608
 20
51.0272097116
 30
0.0
 11
-168.6813588626
 21
107.9486585762
 31
0.0
  0
VIEWPORT
  5
1C4
330
13E
100
AcDbEntity
  8
0
100
AcDbViewport
 10
0.0
 20
0.0
 30
0.0
 40
205.6
 41
156.0
 68
     1
 69
     1
 12
0.0
 22
0.0
 13
0.0
 23
0.0
 14
10.0
 24
10.0
 15
10.0
 25
10.0
 16
0.0
 26
0.0
 36
1.0
 17
0.0
 27
0.0
 37
0.0
 42
50.0
 43
0.0
 44
0.0
 45
541.7509727626
 50
0.0
 51
0.0
 72
   100
 90
   557152
  1

281
     0
 71
     1
 74
     0
110
0.0
120
0.0
130
0.0
111
1.0
121
0.0
131
0.0
112
0.0
122
1.0
132
0.0
 79
     0
146
0.0
  0
ENDBLK
  5
141
330
13E
100
AcDbEntity
  8
0
100
AcDbBlockEnd
  0
BLOCK
  5
17E
330
17C
100
AcDbEntity
  8
0
100
AcDbBlockBegin
  2
*Paper_Space7
 70
     0
 10
0.0
 20
0.0
 30
0.0
  3
*Paper_Space7
  1

  0
SPLINE
  5
181
330
17C
100
AcDbEntity
  8
0
  6
Continuous
 62
     7
370
    25
100
AcDbSpline
210
0.0
220
0.0
230
1.0
 70
     8
 71
     3
 72
    34
 73
    30
 74
     0
 42
0.000000001
 43
0.00000001
 40
0.0
 40
0.0
 40
0.0
 40
0.0
 40
0.0624999999999999
 40
0.0624999999999999
 40
0.1249999999999998
 40
0.1249999999999998
 40
0.1874999999999998
 40
0.1874999999999998
 40
0.2499999999999997
 40
0.2499999999999997
 40
0.3749999999999995
 40
0.3749999999999995
 40
0.4374999999999979
 40
0.4374999999999979
 40
0.4999999999999963
 40
0.4999999999999963
 40
0.6249999999999892
 40
0.6249999999999892
 40
0.687499999999991
 40
0.687499999999991
 40
0.7499999999999928
 40
0.7499999999999928
 40
0.8124999999999946
 40
0.8124999999999946
 40
0.8749999999999964
 40
0.8749999999999964
 40
0.9374999999999982
 40
0.9374999999999982
 40
1.0
 40
1.0
 40
1.0
 40
1.0
 10
-382.8459542447086
 20
91.88565783252334
 30
0.0
 10
-383.1382866042413
 20
91.9224801303139
 30
0.0
 10
-383.4256881064802
 20
91.96217340625132
 30
0.0
 10
-383.9839606727284
 20
92.05118476048371
 30
0.0
 10
-384.2559493642533
 20
92.09985210322097
 30
0.0
 10
-384.7855815079129
 20
92.20553926501773
 30
0.0
 10
-385.0432270864849
 20
92.26255784596476
 30
0.0
 10
-385.5436706989735
 20
92.38523995004563
 30
0.0
 10
-385.7876408845108
 20
92.45129429223944
 30
0.0
 10
-386.4819547215552
 20
92.65897007358737
 30
0.0
 10
-386.8984116159462
 20
92.81052617429508
 30
0.0
 10
-387.4509879261896
 20
93.05821903034567
 30
0.0
 10
-387.6230664120931
 20
93.14420338057081
 30
0.0
 10
-387.9412347840084
 20
93.32350950087535
 30
0.0
 10
-388.0857360123803
 20
93.4160598497842
 30
0.0
 10
-388.468492250526
 20
93.69808655900567
 30
0.0
 10
-388.6596235327845
 20
93.89358633295558
 30
0.0
 10
-388.8552940109034
 20
94.19747093752532
 30
0.0
 10
-388.9052089983343
 20
94.30097647619701
 30
0.0
 10
-388.9727899220473
 20
94.50711346523612
 30
0.0
 10
-388.9908814322795
 20
94.61021100241595
 30
0.0
 10
-388.9969736279933
 20
94.81646174403485
 30
0.0
 10
-388.9849697195068
 20
94.9196149569726
 30
0.0
 10
-388.931113101563
 20
95.12597660236908
 30
0.0
 10
-388.888971243346
 20
95.22960955407724
 30
0.0
 10
-388.7758688381505
 20
95.4341228078474
 30
0.0
 10
-388.7050208831743
 20
95.53512029235317
 30
0.0
 10
-388.5352810882792
 20
95.73464538267659
 30
0.0
 10
-388.4342280776348
 20
95.83298265004605
 30
0.0
 10
-388.3236508569116
 20
95.9304811019832
 30
0.0
  0
SPLINE
  5
183
330
17C
100
AcDbEntity
  8
0
  6
Continuous
 62
     7
370
    25
100
AcDbSpline
210
0.0
220
0.0
230
1.0
 70
     8
 71
     3
 72
    34
 73
    30
 74
     0
 42
0.000000001
 43
0.00000001
 40
0.0
 40
0.0
 40
0.0
 40
0.0
 40
0.0624999999999998
 40
0.0624999999999998
 40
0.1249999999999997
 40
0.1249999999999997
 40
0.1874999999999995
 40
0.1874999999999995
 40
0.2499999999999993
 40
0.2499999999999993
 40
0.3749999999999949
 40
0.3749999999999949
 40
0.4374999999999958
 40
0.4374999999999958
 40
0.4999999999999966
 40
0.4999999999999966
 40
0.6250000000000023
 40
0.6250000000000023
 40
0.6875000000000019
 40
0.6875000000000019
 40
0.7500000000000016
 40
0.7500000000000016
 40
0.8125000000000011
 40
0.8125000000000011
 40
0.8750000000000008
 40
0.8750000000000008
 40
0.9375000000000003
 40
0.9375000000000003
 40
1.0
 40
1.0
 40
1.0
 40
1.0
 10
257.0994422066364
 20
14.61481472999997
 30
0.0
 10
256.9889753102122
 20
14.5173706088105
 30
0.0
 10
256.8698954885591
 20
14.4215701049271
 30
0.0
 10
256.6028614288225
 20
14.23547924490755
 30
0.0
 10
256.4568594015649
 20
14.14481634548177
 30
0.0
 10
256.1397979170425
 20
13.96827229319234
 30
0.0
 10
255.9687421741152
 20
13.88239043151628
 30
0.0
 10
255.6006958606252
 20
13.71557588981817
 30
0.0
 10
255.4025328326649
 20
13.63425249248906
 30
0.0
 10
254.7795054824196
 20
13.4028145405665
 30
0.0
 10
254.3248371747806
 20
13.26399557233293
 30
0.0
 10
253.581758596685
 20
13.07980346470153
 30
0.0
 10
253.3238055424115
 20
13.0224439681535
 30
0.0
 10
252.7858871737426
 20
12.91638784200881
 30
0.0
 10
252.5082361202417
 20
12.86822076450956
 30
0.0
 10
251.6621559751959
 20
12.74063534910312
 30
0.0
 10
251.0756566416852
 20
12.6769249209384
 30
0.0
 10
250.1640028106517
 20
12.61170142834765
 30
0.0
 10
249.8534861883812
 20
12.5950630994243
 30
0.0
 10
249.2350752084911
 20
12.57253612571139
 30
0.0
 10
248.9257825907692
 20
12.56650562294751
 30
0.0
 10
248.3070303539411
 20
12.56447489273095
 30
0.0
 10
247.9975707093386
 20
12.56847619660128
 30
0.0
 10
247.3784857619596
 20
12.58642840504621
 30
0.0
 10
247.0675869013673
 20
12.60047569254978
 30
0.0
 10
246.4540471296083
 20
12.63817649749433
 30
0.0
 10
246.1510546712123
 20
12.66179248426039
 30
0.0
 10
245.5524793911543
 20
12.71837241975846
 30
0.0
 10
245.257467586078
 20
12.75205676025544
 30
0.0
 10
244.9649722247233
 20
12.78891583401934
 30
0.0
  0
SPLINE
  5
185
330
17C
100
AcDbEntity
  8
0
  6
Continuous
 62
     7
370
    25
100
AcDbSpline
210
0.0
220
0.0
230
1.0
 70
     8
 71
     3
 72
    34
 73
    30
 74
     0
 42
0.000000001
 43
0.00000001
 40
0.0
 40
0.0
 40
0.0
 40
0.0
 40
0.0624999999999962
 40
0.0624999999999962
 40
0.1249999999999925
 40
0.1249999999999925
 40
0.1874999999999887
 40
0.1874999999999887
 40
0.249999999999985
 40
0.249999999999985
 40
0.3749999999999775
 40
0.3749999999999775
 40
0.4374999999999799
 40
0.4374999999999799
 40
0.4999999999999823
 40
0.4999999999999823
 40
0.6249999999999912
 40
0.6249999999999912
 40
0.6874999999999927
 40
0.6874999999999927
 40
0.7499999999999941
 40
0.7499999999999941
 40
0.8124999999999957
 40
0.8124999999999957
 40
0.8749999999999971
 40
0.8749999999999971
 40
0.9374999999999986
 40
0.9374999999999986
 40
1.0
 40
1.0
 40
1.0
 40
1.0
 10
382.8459542447075
 20
134.3885121539009
 30
0.0
 10
383.1382866042404
 20
134.3516898561104
 30
0.0
 10
383.425688106479
 20
134.3119965801732
 30
0.0
 10
383.9839606727271
 20
134.2229852259409
 30
0.0
 10
384.2559493642515
 20
134.1743178832037
 30
0.0
 10
384.785581507911
 20
134.0686307214071
 30
0.0
 10
385.0432270864829
 20
134.0116121404602
 30
0.0
 10
385.5436706989711
 20
133.8889300363796
 30
0.0
 10
385.7876408845099
 20
133.8228756941853
 30
0.0
 10
386.4819547215542
 20
133.6151999128377
 30
0.0
 10
386.8984116159451
 20
133.4636438121303
 30
0.0
 10
387.4509879261886
 20
133.2159509560801
 30
0.0
 10
387.6230664120919
 20
133.1299666058553
 30
0.0
 10
387.9412347840074
 20
132.9506604855513
 30
0.0
 10
388.0857360123807
 20
132.8581101366418
 30
0.0
 10
388.4684922505268
 20
132.5760834274206
 30
0.0
 10
388.6596235327857
 20
132.3805836534708
 30
0.0
 10
388.8552940109055
 20
132.0766990489016
 30
0.0
 10
388.9052089983368
 20
131.9731935102297
 30
0.0
 10
388.9727899220504
 20
131.7670565211907
 30
0.0
 10
388.9908814322831
 20
131.6639589840107
 30
0.0
 10
388.9969736279976
 20
131.4577082423919
 30
0.0
 10
388.984969719511
 20
131.3545550294543
 30
0.0
 10
388.9311131015683
 20
131.1481933840581
 30
0.0
 10
388.8889712433518
 20
131.0445604323496
 30
0.0
 10
388.7758688381567
 20
130.8400471785795
 30
0.0
 10
388.7050208831808
 20
130.7390496940738
 30
0.0
 10
388.5352810882863
 20
130.5395246037503
 30
0.0
 10
388.4342280776433
 20
130.4411873363789
 30
0.0
 10
388.3236508569208
 20
130.3436888844417
 30
0.0
  0
SPLINE
  5
187
330
17C
100
AcDbEntity
  8
0
  6
Continuous
 62
     7
370
    25
100
AcDbSpline
210
0.0
220
0.0
230
1.0
 70
     8
 71
     3
 72
    34
 73
    30
 74
     0
 42
0.000000001
 43
0.00000001
 40
0.0
 40
0.0
 40
0.0
 40
0.0
 40
0.0624999999999977
 40
0.0624999999999977
 40
0.1249999999999953
 40
0.1249999999999953
 40
0.187499999999993
 40
0.187499999999993
 40
0.2499999999999907
 40
0.2499999999999907
 40
0.374999999999986
 40
0.374999999999986
 40
0.437499999999983
 40
0.437499999999983
 40
0.49999999999998
 40
0.49999999999998
 40
0.624999999999978
 40
0.624999999999978
 40
0.6874999999999817
 40
0.6874999999999817
 40
0.7499999999999853
 40
0.7499999999999853
 40
0.812499999999989
 40
0.812499999999989
 40
0.8749999999999927
 40
0.8749999999999927
 40
0.9374999999999963
 40
0.9374999999999963
 40
1.0
 40
1.0
 40
1.0
 40
1.0
 10
-257.099442206633
 20
211.6593552564231
 30
0.0
 10
-256.9889753102087
 20
211.7567993776125
 30
0.0
 10
-256.8698954885526
 20
211.8525998814974
 30
0.0
 10
-256.6028614288158
 20
212.038690741517
 30
0.0
 10
-256.4568594015579
 20
212.1293536409428
 30
0.0
 10
-256.1397979170353
 20
212.3058976932322
 30
0.0
 10
-255.9687421741078
 20
212.3917795549084
 30
0.0
 10
-255.6006958606173
 20
212.5585940966066
 30
0.0
 10
-255.4025328326572
 20
212.6399174939353
 30
0.0
 10
-254.7795054824121
 20
212.8713554458577
 30
0.0
 10
-254.3248371747731
 20
213.0101744140914
 30
0.0
 10
-253.5817585966769
 20
213.1943665217229
 30
0.0
 10
-253.323805542403
 20
213.251726018271
 30
0.0
 10
-252.7858871737333
 20
213.3577821444158
 30
0.0
 10
-252.5082361202331
 20
213.4059492219147
 30
0.0
 10
-251.6621559751884
 20
213.5335346373211
 30
0.0
 10
-251.075656641678
 20
213.597245065486
 30
0.0
 10
-250.1640028106441
 20
213.6624685580768
 30
0.0
 10
-249.8534861883727
 20
213.6791068870002
 30
0.0
 10
-249.2350752084835
 20
213.7016338607131
 30
0.0
 10
-248.925782590762
 20
213.7076643634771
 30
0.0
 10
-248.3070303539342
 20
213.7096950936937
 30
0.0
 10
-247.9975707093316
 20
213.7056937898232
 30
0.0
 10
-247.3784857619525
 20
213.6877415813782
 30
0.0
 10
-247.0675869013604
 20
213.6736942938747
 30
0.0
 10
-246.4540471296017
 20
213.6359934889302
 30
0.0
 10
-246.1510546712057
 20
213.6123775021643
 30
0.0
 10
-245.5524793911478
 20
213.5557975666664
 30
0.0
 10
-245.2574675860699
 20
213.5221132261703
 30
0.0
 10
-244.9649722247151
 20
213.4852541524063
 30
0.0
  0
SPLINE
  5
191
330
17C
100
AcDbEntity
  8
0
  6
Continuous
 62
     7
370
    25
100
AcDbSpline
210
0.0
220
0.0
230
1.0
 70
     8
 71
     3
 72
    43
 73
    39
 74
     0
 42
0.000000001
 43
0.00000001
 40
0.0
 40
0.0
 40
0.0
 40
0.0
 40
0.0092250844099046
 40
0.0185057912515862
 40
0.0278414032463884
 40
0.0372312210254907
 40
0.0466745641454484
 40
0.0561707721303692
 40
0.0657192055409755
 40
0.0753192470707464
 40
0.0849703026692904
 40
0.0946718026930462
 40
0.1044232030833439
 40
0.1142239865717917
 40
0.1240736639128891
 40
0.1554072333218753
 40
0.1867227568150989
 40
0.2180307267603321
 40
0.2493437437212966
 40
0.37434536966709
 40
0.4999264039798726
 40
0.5587190889311795
 40
0.6201055202345684
 40
0.6843524299710637
 40
0.7518003137948753
 40
0.7802260654512224
 40
0.8104141986344983
 40
0.8424219271961217
 40
0.8763170430127024
 40
0.8879596073372684
 40
0.9001101495400611
 40
0.9127750780615772
 40
0.9259613620966848
 40
0.9396765611803019
 40
0.953928854629704
 40
0.968727070695117
 40
0.9840807152684689
 40
1.0
 40
1.0
 40
1.0
 40
1.0
 10
-189.9058953401268
 20
68.90430791702686
 30
0.0
 10
-190.1624019570931
 20
69.15890509590024
 30
0.0
 10
-190.6769617917037
 20
69.66963454141242
 30
0.0
 10
-191.4508396730364
 20
70.45026116288477
 30
0.0
 10
-192.2290391324288
 20
71.24470778404013
 30
0.0
 10
-193.0114296105152
 20
72.05405850442277
 30
0.0
 10
-193.79789875345
 20
72.87828659987025
 30
0.0
 10
-194.5883275737915
 20
73.71766847769105
 30
0.0
 10
-195.3825971575354
 20
74.57240148394641
 30
0.0
 10
-196.1805868882545
 20
75.44270720556536
 30
0.0
 10
-196.9821747998571
 20
76.32880349790001
 30
0.0
 10
-197.7872379707985
 20
77.23091225469341
 30
0.0
 10
-198.5956505880921
 20
78.14925649986048
 30
0.0
 10
-199.4072913625581
 20
79.08406420662494
 30
0.0
 10
-200.8130420748624
 20
80.72579763903707
 30
0.0
 10
-202.8069808247762
 20
83.12276751906967
 30
0.0
 10
-205.3782806568805
 20
86.35495979294214
 30
0.0
 10
-207.9332840614266
 20
89.71496235145271
 30
0.0
 10
-212.9981963589812
 20
96.68597695949221
 30
0.0
 10
-220.446081458812
 20
108.164715661063
 30
0.0
 10
-228.1251821471443
 20
122.5460550380223
 30
0.0
 10
-233.8123811351907
 20
134.9219980252603
 30
0.0
 10
-237.8604787999158
 20
144.6472764376292
 30
0.0
 10
-241.8371620867715
 20
155.2617482953551
 30
0.0
 10
-244.8948741231194
 20
164.3946941319956
 30
0.0
 10
-247.15901558855
 20
171.7408415698107
 30
0.0
 10
-248.7242730817483
 20
177.0858568819952
 30
0.0
 10
-250.3137605653557
 20
182.8184629827763
 30
0.0
 10
-251.5368375801236
 20
187.4945154751605
 30
0.0
 10
-252.4161326399896
 20
190.9952654948409
 30
0.0
 10
-252.9617358844831
 20
193.2147339302236
 30
0.0
 10
-253.519562740263
 20
195.5354321589813
 30
0.0
 10
-254.0886451692086
 20
197.9591230362977
 30
0.0
 10
-254.6679576748254
 20
200.487637425961
 30
0.0
 10
-255.2565489707573
 20
203.122826049704
 30
0.0
 10
-255.8529895948983
 20
205.8667925036459
 30
0.0
 10
-256.4575620854791
 20
208.7209608170658
 30
0.0
 10
-256.8543321909726
 20
210.6645500735623
 30
0.0
 10
-257.056305476581
 20
211.6539217590117
 30
0.0
  0
SPLINE
  5
192
330
17C
100
AcDbEntity
  8
0
  6
Continuous
 62
     7
370
    25
100
AcDbSpline
210
0.0
220
0.0
230
1.0
 70
     8
 71
     3
 72
     9
 73
     5
 74
     0
 42
0.000000001
 43
0.00000001
 40
0.0
 40
0.0
 40
0.0
 40
0.0
 40
0.5
 40
1.0
 40
1.0
 40
1.0
 40
1.0
 10
247.9592117831102
 20
13.73848979030437
 30
0.0
 10
247.7794679012881
 20
13.81908011932949
 30
0.0
 10
247.4083474598999
 20
14.0407365151523
 30
0.0
 10
247.0210417443062
 20
14.37911474430172
 30
0.0
 10
246.8251897070423
 20
14.57587075644583
 30
0.0
  0
SPLINE
  5
193
330
17C
100
AcDbEntity
  8
0
  6
Continuous
 62
     7
370
    25
100
AcDbSpline
210
0.0
220
0.0
230
1.0
 70
     8
 71
     3
 72
    52
 73
    48
 74
     0
 42
0.000000001
 43
0.00000001
 40
0.0
 40
0.0
 40
0.0
 40
0.0
 40
0.0080998207681289
 40
0.0160915948344147
 40
0.0239764005158106
 40
0.031755286741853
 40
0.0394292733823724
 40
0.0469993515857402
 40
0.054466484127307
 40
0.0618316057676871
 40
0.0690956236205216
 40
0.0762594175293439
 40
0.0833238404531497
 40
0.0902897188602699
 40
0.0971578531301313
 40
0.1039290179624851
 40
0.1106039627936586
 40
0.1171834122194097
 40
0.123668066423923
 40
0.1568071611617766
 40
0.188567894906598
 40
0.2190057038292556
 40
0.248169236763815
 40
0.3137773803267424
 40
0.3774159004689862
 40
0.4394017168025915
 40
0.5000118735983928
 40
0.5597632349218623
 40
0.621248858029481
 40
0.6847794098006242
 40
0.7506851105765859
 40
0.7643642200830211
 40
0.7782718187625628
 40
0.7924128151442682
 40
0.8067922727402018
 40
0.8214154102089201
 40
0.8362876013712821
 40
0.8514143750831504
 40
0.8668014149701786
 40
0.8824545590304438
 40
0.8983797991112202
 40
0.9145832802666325
 40
0.9310713000033528
 40
0.9478503074218133
 40
0.9649269022607203
 40
0.9823078338528115
 40
1.0
 40
1.0
 40
1.0
 40
1.0
 10
-244.9812791205464
 20
213.4708760491692
 30
0.0
 10
-244.8874697821491
 20
212.9659601747674
 30
0.0
 10
-244.7011024650953
 20
211.9628636978296
 30
0.0
 10
-244.4189174496476
 20
210.4704802158872
 30
0.0
 10
-244.1373016871829
 20
208.9997609554364
 30
0.0
 10
-243.8560309143429
 20
207.5506714383126
 30
0.0
 10
-243.5752833475899
 20
206.1229868591586
 30
0.0
 10
-243.2951302264357
 20
204.7165349346215
 30
0.0
 10
-243.0156695808028
 20
203.3311321396657
 30
0.0
 10
-242.7369911120182
 20
201.9666004486061
 30
0.0
 10
-242.4591854144921
 20
200.6227629406775
 30
0.0
 10
-242.1823415530576
 20
199.2994449528625
 30
0.0
 10
-241.9065477116578
 20
197.9964737809796
 30
0.0
 10
-241.6318909818307
 20
196.7136787457619
 30
0.0
 10
-241.3584575744169
 20
195.450891221787
 30
0.0
 10
-241.086332198572
 20
194.2079444618848
 30
0.0
 10
-240.815600295555
 20
192.9846742580131
 30
0.0
 10
-240.546339893452
 20
191.7809165231948
 30
0.0
 10
-239.9106012052389
 20
188.9680610878761
 30
0.0
 10
-238.902028205485
 20
184.6449410118364
 30
0.0
 10
-237.4976856843952
 20
178.9291570008849
 30
0.0
 10
-236.0999214423017
 20
173.5110857593688
 30
0.0
 10
-234.1174574732718
 20
166.1724810214007
 30
0.0
 10
-231.4776047665961
 20
157.074882593364
 30
0.0
 10
-228.0847525410361
 20
146.4663320236526
 30
0.0
 10
-224.5977134117595
 20
136.5403549186825
 30
0.0
 10
-221.0238444460616
 20
127.2519251838352
 30
0.0
 10
-217.3197225913411
 20
118.4432328556018
 30
0.0
 10
-213.4249653253657
 20
109.9837354777356
 30
0.0
 10
-209.2760214871552
 20
101.7821585482884
 30
0.0
 10
-206.0813418838404
 20
96.05614111483807
 30
0.0
 10
-203.9658257241022
 20
92.48416353800307
 30
0.0
 10
-203.0171132054639
 20
90.91570031413308
 30
0.0
 10
-202.0480096385057
 20
89.34748079513133
 30
0.0
 10
-201.0580673659427
 20
87.78009936188539
 30
0.0
 10
-200.0468523622833
 20
86.21417415292065
 30
0.0
 10
-199.0139178431651
 20
84.65032520736354
 30
0.0
 10
-197.9588114327751
 20
83.08918035637672
 30
0.0
 10
-196.8810730554511
 20
81.53137397023205
 30
0.0
 10
-195.7802355837139
 20
79.97754583249778
 30
0.0
 10
-194.6558239271953
 20
78.42834700983501
 30
0.0
 10
-193.5073576137548
 20
76.88441687192173
 30
0.0
 10
-192.3343406688939
 20
75.34647118552279
 30
0.0
 10
-191.1362999632227
 20
73.81496452963795
 30
0.0
 10
-189.9126379018282
 20
72.29138373497828
 30
0.0
 10
-188.6631965320153
 20
70.77329126471068
 30
0.0
 10
-187.8193963992085
 20
69.78223876652577
 30
0.0
 10
-187.3937524411067
 20
69.28231527562646
 30
0.0
  0
SPLINE
  5
195
330
17C
100
AcDbEntity
  8
0
  6
Continuous
 62
     7
370
    25
100
AcDbSpline
210
0.0
220
0.0
230
1.0
 70
     8
 71
     3
 72
     9
 73
     5
 74
     0
 42
0.000000001
 43
0.00000001
 40
0.0
 40
0.0
 40
0.0
 40
0.0
 40
0.5
 40
1.0
 40
1.0
 40
1.0
 40
1.0
 10
-187.3937524411121
 20
69.28231527563601
 30
0.0
 10
-187.8134076943641
 20
69.16310589301756
 30
0.0
 10
-188.6571127797512
 20
68.9798204466772
 30
0.0
 10
-189.49351156968
 20
68.91029717408365
 30
0.0
 10
-189.9058953401359
 20
68.90430791703683
 30
0.0
  0
SPLINE
  5
19B
330
17C
100
AcDbEntity
  8
0
  6
Continuous
 62
    60
370
    25
100
AcDbSpline
210
0.0
220
0.0
230
1.0
 70
     8
 71
     3
 72
     9
 73
     5
 74
     0
 42
0.000000001
 43
0.00000001
 40
0.0
 40
0.0
 40
0.0
 40
0.0
 40
0.5146853680398457
 40
1.0
 40
1.0
 40
1.0
 40
1.0
 10
246.8251897070184
 20
14.57587075643995
 30
0.0
 10
249.7619535272416
 20
15.53087847326592
 30
0.0
 10
255.4678935103574
 20
17.38639599159579
 30
0.0
 10
261.1115787653612
 20
19.55819541019986
 30
0.0
 10
263.8505417977923
 20
20.61220144573098
 30
0.0
  0
SPLINE
  5
19C
330
17C
100
AcDbEntity
  8
0
  6
Continuous
 62
    60
370
    25
100
AcDbSpline
210
0.0
220
0.0
230
1.0
 70
     8
 71
     3
 72
    10
 73
     6
 74
     0
 42
0.000000001
 43
0.00000001
 40
0.0
 40
0.0
 40
0.0
 40
0.0
 40
0.0851865278405475
 40
0.5248780854206462
 40
1.0
 40
1.0
 40
1.0
 40
1.0
 10
374.7928603140603
 20
118.4541296704223
 30
0.0
 10
375.0421529831758
 20
118.8963327231542
 30
0.0
 10
376.5781735511194
 20
121.6209735503933
 30
0.0
 10
379.2989215431951
 20
126.915421428288
 30
0.0
 10
381.6227428268919
 20
131.8245201941467
 30
0.0
 10
382.8296537995122
 20
134.3741332852047
 30
0.0
  0
LINE
  5
1A0
330
17C
100
AcDbEntity
  8
0
  6
Continuous
 62
     7
370
    25
100
AcDbLine
 10
-388.2805166713
 20
95.9250454856
 30
0.0
 11
-257.0563054766
 21
211.653921759
 31
0.0
  0
LINE
  5
1A1
330
17C
100
AcDbEntity
  8
0
  6
Continuous
 62
     7
370
    25
100
AcDbLine
 10
244.9812791205
 20
12.8032939373
 30
0.0
 11
-382.8296537995
 21
91.9000367012
 31
0.0
  0
LINE
  5
1A2
330
17C
100
AcDbEntity
  8
0
  6
Continuous
 62
     7
370
    25
100
AcDbLine
 10
388.2805166713
 20
130.3491245008
 30
0.0
 11
257.0563054766
 21
14.6202482274
 31
0.0
  0
LINE
  5
1A3
330
17C
100
AcDbEntity
  8
0
  6
Continuous
 62
     7
370
    25
100
AcDbLine
 10
-244.9812791205
 20
213.4708760492
 30
0.0
 11
382.8296537995
 21
134.3741332852
 31
0.0
  0
LINE
  5
1A4
330
17C
100
AcDbEntity
  8
0
  6
Continuous
 62
     7
370
    25
100
AcDbLine
 10
398.1056994559
 20
134.2501458767
 30
0.0
 11
-256.684343251
 21
216.7459369766
 31
0.0
  0
LINE
  5
1A5
330
17C
100
AcDbEntity
  8
0
  6
Continuous
 62
     7
370
    25
100
AcDbLine
 10
256.684343251
 20
9.5282330098
 30
0.0
 11
398.1056994559
 21
134.2501458767
 31
0.0
  0
LINE
  5
1A6
330
17C
100
AcDbEntity
  8
0
  6
Continuous
 62
     7
370
    25
100
AcDbLine
 10
-398.1056994559
 20
92.0240241097
 30
0.0
 11
256.684343251
 21
9.5282330098
 31
0.0
  0
LINE
  5
1A7
330
17C
100
AcDbEntity
  8
0
  6
Continuous
 62
     7
370
    25
100
AcDbLine
 10
-256.684343251
 20
216.7459369766
 30
0.0
 11
-398.1056994559
 21
92.0240241097
 31
0.0
  0
LINE
  5
1A8
330
17C
100
AcDbEntity
  8
0
  6
Continuous
 62
     7
370
    25
100
AcDbLine
 10
256.684343251
 20
-103.6088519834
 30
0.0
 11
256.684343251
 21
9.5282330098
 31
0.0
  0
LINE
  5
1A9
330
17C
100
AcDbEntity
  8
0
  6
Continuous
 62
     7
370
    25
100
AcDbLine
 10
398.1056994559
 20
134.2501458767
 30
0.0
 11
398.1056994559
 21
21.1130608835
 31
0.0
  0
LINE
  5
1AA
330
17C
100
AcDbEntity
  8
0
  6
Continuous
 62
     7
370
    25
100
AcDbLine
 10
256.684343251
 20
-103.6088519834
 30
0.0
 11
398.1056994559
 21
21.1130608835
 31
0.0
  0
LINE
  5
1AB
330
17C
100
AcDbEntity
  8
0
  6
Continuous
 62
     7
370
    25
100
AcDbLine
 10
-398.1056994559
 20
-21.1130608835
 30
0.0
 11
-398.1056994559
 21
92.0240241097
 31
0.0
  0
LINE
  5
1AC
330
17C
100
AcDbEntity
  8
0
  6
Continuous
 62
     7
370
    25
100
AcDbLine
 10
-398.1056994559
 20
-21.1130608835
 30
0.0
 11
256.684343251
 21
-103.6088519834
 31
0.0
  0
LINE
  5
1AD
330
17C
100
AcDbEntity
  8
0
  6
Continuous
 62
     7
370
    25
100
AcDbLine
 10
-187.3937524411
 20
69.2823152756
 30
0.0
 11
246.825189707
 21
14.5758707564
 31
0.0
  0
LINE
  5
1AE
330
17C
100
AcDbEntity
  8
0
  6
Continuous
 62
    60
370
    25
100
AcDbLine
 10
260.5389514439
 20
17.6916532721
 30
0.0
 11
247.9592117831
 21
13.7384897903
 31
0.0
  0
LINE
  5
1AF
330
17C
100
AcDbEntity
  8
0
  6
Continuous
 62
    60
370
    25
100
AcDbLine
 10
247.9592117831
 20
13.7384897903
 30
0.0
 11
246.7083910463
 21
12.6353695889
 31
0.0
  0
LINE
  5
1B0
330
17C
100
AcDbEntity
  8
0
  6
Continuous
 62
    60
370
    25
100
AcDbLine
 10
244.3457340746
 20
12.8833650867
 30
0.0
 11
247.9592117831
 21
13.7384897903
 31
0.0
  0
LINE
  5
1B1
330
17C
100
AcDbEntity
  8
0
  6
Continuous
 62
    60
370
    25
100
AcDbLine
 10
-388.2805166713
 20
95.9250454856
 30
0.0
 11
-386.4707716494
 21
92.7310223323
 31
0.0
  0
LINE
  5
1B2
330
17C
100
AcDbEntity
  8
0
  6
Continuous
 62
    60
370
    25
100
AcDbLine
 10
-191.2059977932
 20
67.7577253271
 30
0.0
 11
-189.9058953401
 21
68.904307917
 31
0.0
  0
LINE
  5
1B3
330
17C
100
AcDbEntity
  8
0
  6
Continuous
 62
    60
370
    25
100
AcDbLine
 10
246.825189707
 20
14.5758707564
 30
0.0
 11
242.0871362854
 21
13.1679216609
 31
0.0
  0
LINE
  5
1B4
330
17C
100
AcDbEntity
  8
0
  6
Continuous
 62
    60
370
    25
100
AcDbLine
 10
-185.5142251834
 20
67.0406293825
 30
0.0
 11
-187.3937524411
 21
69.2823152756
 31
0.0
  0
LINE
  5
1B5
330
17C
100
AcDbEntity
  8
0
  6
Continuous
 62
    60
370
    25
100
AcDbLine
 10
-189.905892824
 20
68.9043079536
 30
0.0
 11
-188.0885050684
 21
67.3649581624
 31
0.0
  0
VIEWPORT
  5
1C6
330
17C
100
AcDbEntity
  8
0
100
AcDbViewport
 10
0.0
 20
0.0
 30
0.0
 40
205.6
 41
156.0
 68
     1
 69
     1
 12
0.0
 22
0.0
 13
0.0
 23
0.0
 14
10.0
 24
10.0
 15
10.0
 25
10.0
 16
0.0
 26
0.0
 36
1.0
 17
0.0
 27
0.0
 37
0.0
 42
50.0
 43
0.0
 44
0.0
 45
541.7509727626
 50
0.0
 51
0.0
 72
   100
 90
   557152
  1

281
     0
 71
     1
 74
     0
110
0.0
120
0.0
130
0.0
111
1.0
121
0.0
131
0.0
112
0.0
122
1.0
132
0.0
 79
     0
146
0.0
  0
ENDBLK
  5
17F
330
17C
100
AcDbEntity
  8
0
100
AcDbBlockEnd
  0
ENDSEC
  0
SECTION
  2
ENTITIES
  0
SPLINE
  5
73
330
1F
100
AcDbEntity
  8
0
  6
Continuous
 62
     7
370
    25
100
AcDbSpline
210
0.0
220
0.0
230
1.0
 70
     8
 71
     3
 72
    34
 73
    30
 74
     0
 42
0.000000001
 43
0.00000001
 40
0.0
 40
0.0
 40
0.0
 40
0.0
 40
0.0624999999999998
 40
0.0624999999999998
 40
0.1249999999999997
 40
0.1249999999999997
 40
0.1874999999999995
 40
0.1874999999999995
 40
0.2499999999999993
 40
0.2499999999999993
 40
0.3749999999999949
 40
0.3749999999999949
 40
0.4374999999999958
 40
0.4374999999999958
 40
0.4999999999999966
 40
0.4999999999999966
 40
0.6250000000000023
 40
0.6250000000000023
 40
0.6875000000000019
 40
0.6875000000000019
 40
0.7500000000000016
 40
0.7500000000000016
 40
0.8125000000000011
 40
0.8125000000000011
 40
0.8750000000000008
 40
0.8750000000000008
 40
0.9375000000000003
 40
0.9375000000000003
 40
1.0
 40
1.0
 40
1.0
 40
1.0
 10
344.993154877268
 20
-185.5790558029655
 30
0.0
 10
344.9931776558354
 20
-185.8915636356943
 30
0.0
 10
344.9834004611621
 20
-186.2025042077131
 30
0.0
 10
344.9309921341772
 20
-186.819131185809
 30
0.0
 10
344.8905822697096
 20
-187.1251728281438
 30
0.0
 10
344.7812516531232
 20
-187.7326965091364
 30
0.0
 10
344.7123351272584
 20
-188.0341792236777
 30
0.0
 10
344.5449928658153
 20
-188.6324253924289
 30
0.0
 10
344.4458848150525
 20
-188.9306998206507
 30
0.0
 10
344.1085731110761
 20
-189.8004443946806
 30
0.0
 10
343.830509603804
 20
-190.3507536799469
 30
0.0
 10
343.3307884736325
 20
-191.130359450868
 30
0.0
 10
343.1503344193461
 20
-191.3825243158132
 30
0.0
 10
342.7596473689026
 20
-191.8703264448068
 30
0.0
 10
342.5510174907697
 20
-192.1036594421811
 30
0.0
 10
341.8949067532382
 20
-192.7608296302042
 30
0.0
 10
341.4138619760101
 20
-193.1469754037665
 30
0.0
 10
340.6302678640713
 20
-193.6523266788838
 30
0.0
 10
340.3574537735172
 20
-193.8088020782502
 30
0.0
 10
339.8028767345646
 20
-194.0906595401334
 30
0.0
 10
339.5199562967093
 20
-194.2169340502033
 30
0.0
 10
338.9433204919729
 20
-194.441394723959
 30
0.0
 10
338.649603477029
 20
-194.5395765993942
 30
0.0
 10
338.0514613429165
 20
-194.7080779215388
 30
0.0
 10
337.7457426899616
 20
-194.7785771650079
 30
0.0
 10
337.1318410429233
 20
-194.8896986100177
 30
0.0
 10
336.8233690138103
 20
-194.9305504224687
 30
0.0
 10
336.2034410251445
 20
-194.9834016919674
 30
0.0
 10
335.8917551118449
 20
-194.9931776697881
 30
0.0
 10
335.579055802973
 20
-194.9931548772623
 30
0.0
  0
SPLINE
  5
74
330
1F
100
AcDbEntity
  8
0
  6
Continuous
 62
     7
370
    25
100
AcDbSpline
210
0.0
220
0.0
230
1.0
 70
     8
 71
     3
 72
    52
 73
    48
 74
     0
 42
0.000000001
 43
0.00000001
 40
0.0
 40
0.0
 40
0.0
 40
0.0
 40
0.0080998590626115
 40
0.0160916664437961
 40
0.0239765005068583
 40
0.0317554102253001
 40
0.0394294155105898
 40
0.0469995075504624
 40
0.0544666491574191
 40
0.061831775127067
 40
0.0690957926059454
 40
0.0762595814684462
 40
0.0833239947024528
 40
0.0902898588032609
 40
0.097157974175415
 40
0.103929115541985
 40
0.1106040323608905
 40
0.1171834492478068
 40
0.1236680664052301
 40
0.1568072756904149
 40
0.1885680465569046
 40
0.2190058169121385
 40
0.2481692367565738
 40
0.3137773711916397
 40
0.3774158883137622
 40
0.4394017076610163
 40
0.5000118736034098
 40
0.5597631531645972
 40
0.6212487472808639
 40
0.6847793250703096
 40
0.7506851105979542
 40
0.7643641900592724
 40
0.7782717623842949
 40
0.7924127361518808
 40
0.80679217492906
 40
0.8214152974346585
 40
0.8362874775552381
 40
0.851414244217922
 40
0.8668012811252946
 40
0.8824544263581395
 40
0.8983796718523142
 40
0.914583162756487
 40
0.9310711966779193
 40
0.9478502228237474
 40
0.9649268410455585
 40
0.9823078007952057
 40
1.0
 40
1.0
 40
1.0
 40
1.0
 10
335.5790592258273
 20
-194.9470410668079
 30
0.0
 10
335.4137940588074
 20
-194.7751246715369
 30
0.0
 10
335.0854683531494
 20
-194.4335852364016
 30
0.0
 10
334.5881399141668
 20
-193.9159210296158
 30
0.0
 10
334.0916667513424
 20
-193.3989091592723
 30
0.0
 10
333.5956395197068
 20
-192.8821009048585
 30
0.0
 10
333.100375262201
 20
-192.3658309929309
 30
0.0
 10
332.6059980125389
 20
-191.8502260748743
 30
0.0
 10
332.1126801988321
 20
-191.3354650666524
 30
0.0
 10
331.6205792652644
 20
-190.8217107977595
 30
0.0
 10
331.1298543126675
 20
-190.3091279550434
 30
0.0
 10
330.640661728128
 20
-189.7978783720862
 30
0.0
 10
330.1531563462419
 20
-189.288122266818
 30
0.0
 10
329.6674910985392
 20
-188.7800179122571
 30
0.0
 10
329.1838172786102
 20
-188.2737217390855
 30
0.0
 10
328.7022838455889
 20
-187.769388249587
 30
0.0
 10
328.2230399028253
 20
-187.2671702562627
 30
0.0
 10
327.7462256665933
 20
-186.7672180300756
 30
0.0
 10
326.6199833636253
 20
-185.585603145268
 30
0.0
 10
324.8315502107314
 20
-183.7065336370313
 30
0.0
 10
322.3374377224872
 20
-181.0798181639425
 30
0.0
 10
319.8510063700294
 20
-178.4548092844301
 30
0.0
 10
316.3187018552057
 20
-174.7164580810897
 30
0.0
 10
311.6016854877545
 20
-169.7030307675168
 30
0.0
 10
305.5174261247423
 20
-163.2020282689081
 30
0.0
 10
299.2450149927678
 20
-156.4696247334122
 30
0.0
 10
292.7993281762813
 20
-149.5243645901614
 30
0.0
 10
286.103724272908
 20
-142.2862943389044
 30
0.0
 10
279.0550189491562
 20
-134.6532042052469
 30
0.0
 10
271.543738172196
 20
-126.5152129440835
 30
0.0
 10
265.7625881076383
 20
-120.2556512285769
 30
0.0
 10
261.9370814450189
 20
-116.1178972622085
 30
0.0
 10
260.2221211373474
 20
-114.2638979422682
 30
0.0
 10
258.4709582763198
 20
-112.3717909241863
 30
0.0
 10
256.682892186079
 20
-110.4409885808465
 30
0.0
 10
254.8572396296331
 20
-108.4709108738505
 30
0.0
 10
252.9932998061526
 20
-106.4609673820296
 30
0.0
 10
251.0903638812653
 20
-104.4105622456738
 30
0.0
 10
249.1477122082129
 20
-102.3190927773188
 30
0.0
 10
247.1646152072638
 20
-100.1859499557055
 30
0.0
 10
245.1403321758256
 20
-98.01051785450274
 30
0.0
 10
243.0741147352045
 20
-95.79217546107445
 30
0.0
 10
240.9651934137623
 20
-93.53028980428132
 30
0.0
 10
238.8128285807285
 20
-91.22424224932733
 30
0.0
 10
236.6161148842994
 20
-88.87332774846908
 30
0.0
 10
234.3747302317444
 20
-86.47714091226699
 30
0.0
 10
232.862574685648
 20
-84.86298473649163
 30
0.0
 10
232.0997874732124
 20
-84.0487446320698
 30
0.0
  0
SPLINE
  5
75
330
1F
100
AcDbEntity
  8
0
  6
Continuous
 62
     7
370
    25
100
AcDbSpline
210
0.0
220
0.0
230
1.0
 70
     8
 71
     3
 72
     9
 73
     5
 74
     0
 42
0.000000001
 43
0.00000001
 40
0.0
 40
0.0
 40
0.0
 40
0.0
 40
0.5
 40
1.0
 40
1.0
 40
1.0
 40
1.0
 10
232.0997874732247
 20
-84.0487446320847
 30
0.0
 10
232.4287899589528
 20
-83.73223908865899
 30
0.0
 10
233.0867929098916
 20
-83.08679290988802
 30
0.0
 10
233.7322390886591
 20
-82.42878995895437
 30
0.0
 10
234.048744632085
 20
-82.09978747322633
 30
0.0
  0
SPLINE
  5
76
330
1F
100
AcDbEntity
  8
0
  6
Continuous
 62
     7
370
    25
100
AcDbSpline
210
0.0
220
0.0
230
1.0
 70
     8
 71
     3
 72
    43
 73
    39
 74
     0
 42
0.000000001
 43
0.00000001
 40
0.0
 40
0.0
 40
0.0
 40
0.0
 40
0.0092250712281669
 40
0.0185057671947644
 40
0.0278413705910975
 40
0.0372311820182995
 40
0.0466745210029075
 40
0.0561707270390846
 40
0.0657191606577146
 40
0.0753192045225887
 40
0.0849702645538222
 40
0.0946717710785983
 40
0.1044231800092786
 40
0.1142239740488332
 40
0.1240736639235077
 40
0.1554071407556072
 40
0.1867226350722964
 40
0.2180306366630022
 40
0.2493437437406684
 40
0.3743452015717119
 40
0.4999264039883166
 40
0.5587189343547649
 40
0.6201053146731748
 40
0.6843522754583029
 40
0.7518003137914464
 40
0.7802260424697406
 40
0.8104141678149082
 40
0.8424219039127233
 40
0.8763170429966399
 40
0.8879596574275693
 40
0.9001102375092979
 40
0.912775191585177
 40
0.9259614887341603
 40
0.9396766883546919
 40
0.9539289696051765
 40
0.9687271605527183
 40
0.984080766879996
 40
1.0
 40
1.0
 40
1.0
 40
1.0
 10
234.0487446320693
 20
-82.09978747320974
 30
0.0
 10
234.4733186110388
 20
-82.49759539895366
 30
0.0
 10
235.3250266377231
 20
-83.29560992696857
 30
0.0
 10
236.6053836507681
 20
-84.4942615560801
 30
0.0
 10
237.8924731545138
 20
-85.69850187663731
 30
0.0
 10
239.186038089616
 20
-86.90802005758638
 30
0.0
 10
240.4859056870959
 20
-88.12267678586
 30
0.0
 10
241.7918779902409
 20
-89.3422848708662
 30
0.0
 10
243.1037614365524
 20
-90.56666854041457
 30
0.0
 10
244.4213588987973
 20
-91.79564740628476
 30
0.0
 10
245.7444717009281
 20
-93.0290408000107
 30
0.0
 10
247.0728995795411
 20
-94.2666665561654
 30
0.0
 10
248.4064387900963
 20
-95.50834147677249
 30
0.0
 10
249.7448897790073
 20
-96.75388065969807
 30
0.0
 10
252.0623766793168
 20
-98.9093165721881
 30
0.0
 10
255.3473348252133
 20
-101.9607968855282
 30
0.0
 10
259.5795596233808
 20
-105.8854839177394
 30
0.0
 10
263.7816513656704
 20
-109.7765255193317
 30
0.0
 10
272.1059544763135
 20
-117.4748291823076
 30
0.0
 10
284.3316511205825
 20
-128.7551750430944
 30
0.0
 10
296.9443543159955
 20
-140.4054837801098
 30
0.0
 10
306.3087615898575
 20
-149.0955497617338
 30
0.0
 10
312.9880897931122
 20
-155.3176498116378
 30
0.0
 10
319.5657050826015
 20
-161.4726142301892
 30
0.0
 10
324.6383123406408
 20
-166.2449450343373
 30
0.0
 10
328.4033765696374
 20
-169.8024029547113
 30
0.0
 10
331.0097648073335
 20
-172.2710422651884
 30
0.0
 10
333.6600917926423
 20
-174.7873976381331
 30
0.0
 10
335.7021862143222
 20
-176.730883837902
 30
0.0
 10
337.1717247698145
 20
-178.1318907491296
 30
0.0
 10
338.084138450436
 20
-179.0027067951984
 30
0.0
 10
339.0175178612214
 20
-179.8944210586734
 30
0.0
 10
339.9702655471148
 20
-180.8055450265887
 30
0.0
 10
340.9406761756406
 20
-181.7344672827244
 30
0.0
 10
341.9271694328236
 20
-182.6796972753039
 30
0.0
 10
342.9273766341758
 20
-183.6390110960276
 30
0.0
 10
343.9417448493455
 20
-184.6127923707987
 30
0.0
 10
344.6079259576416
 20
-185.2531098346589
 30
0.0
 10
344.9470410668079
 20
-185.5790592258289
 30
0.0
  0
SPLINE
  5
77
330
1F
100
AcDbEntity
  8
0
  6
Continuous
 62
     7
370
    25
100
AcDbSpline
210
0.0
220
0.0
230
1.0
 70
     8
 71
     3
 72
    34
 73
    30
 74
     0
 42
0.000000001
 43
0.00000001
 40
0.0
 40
0.0
 40
0.0
 40
0.0
 40
0.0624999999999977
 40
0.0624999999999977
 40
0.1249999999999953
 40
0.1249999999999953
 40
0.187499999999993
 40
0.187499999999993
 40
0.2499999999999907
 40
0.2499999999999907
 40
0.374999999999986
 40
0.374999999999986
 40
0.437499999999983
 40
0.437499999999983
 40
0.49999999999998
 40
0.49999999999998
 40
0.624999999999978
 40
0.624999999999978
 40
0.6874999999999817
 40
0.6874999999999817
 40
0.7499999999999853
 40
0.7499999999999853
 40
0.812499999999989
 40
0.812499999999989
 40
0.8749999999999927
 40
0.8749999999999927
 40
0.9374999999999963
 40
0.9374999999999963
 40
1.0
 40
1.0
 40
1.0
 40
1.0
 10
-344.9931548772662
 20
185.5790558029638
 30
0.0
 10
-344.9931776558334
 20
185.8915636356925
 30
0.0
 10
-344.9834004611589
 20
186.2025042077164
 30
0.0
 10
-344.9309921341738
 20
186.8191311858125
 30
0.0
 10
-344.8905822697059
 20
187.1251728281473
 30
0.0
 10
-344.7812516531193
 20
187.7326965091401
 30
0.0
 10
-344.7123351272544
 20
188.0341792236817
 30
0.0
 10
-344.544992865811
 20
188.6324253924331
 30
0.0
 10
-344.4458848150481
 20
188.9306998206542
 30
0.0
 10
-344.1085731110717
 20
189.8004443946838
 30
0.0
 10
-343.8305096037996
 20
190.3507536799501
 30
0.0
 10
-343.3307884736276
 20
191.1303594508716
 30
0.0
 10
-343.1503344193408
 20
191.3825243158171
 30
0.0
 10
-342.7596473688968
 20
191.8703264448112
 30
0.0
 10
-342.5510174907643
 20
192.1036594421848
 30
0.0
 10
-341.8949067532336
 20
192.760829630207
 30
0.0
 10
-341.413861976006
 20
193.1469754037695
 30
0.0
 10
-340.6302678640669
 20
193.6523266788872
 30
0.0
 10
-340.3574537735121
 20
193.808802078254
 30
0.0
 10
-339.8028767345602
 20
194.0906595401368
 30
0.0
 10
-339.5199562967052
 20
194.2169340502067
 30
0.0
 10
-338.9433204919692
 20
194.4413947239623
 30
0.0
 10
-338.6496034770252
 20
194.5395765993975
 30
0.0
 10
-338.0514613429127
 20
194.7080779215423
 30
0.0
 10
-337.7457426899579
 20
194.7785771650114
 30
0.0
 10
-337.1318410429201
 20
194.8896986100212
 30
0.0
 10
-336.8233690138071
 20
194.9305504224723
 30
0.0
 10
-336.2034410251414
 20
194.9834016919712
 30
0.0
 10
-335.8917551118415
 20
194.9931776697953
 30
0.0
 10
-335.5790558029694
 20
194.9931548772694
 30
0.0
  0
SPLINE
  5
78
330
1F
100
AcDbEntity
  8
0
  6
Continuous
 62
     7
370
    25
100
AcDbSpline
210
0.0
220
0.0
230
1.0
 70
     8
 71
     3
 72
    52
 73
    48
 74
     0
 42
0.000000001
 43
0.00000001
 40
0.0
 40
0.0
 40
0.0
 40
0.0
 40
0.0080998207681289
 40
0.0160915948344147
 40
0.0239764005158106
 40
0.031755286741853
 40
0.0394292733823724
 40
0.0469993515857402
 40
0.054466484127307
 40
0.0618316057676871
 40
0.0690956236205216
 40
0.0762594175293439
 40
0.0833238404531497
 40
0.0902897188602699
 40
0.0971578531301313
 40
0.1039290179624851
 40
0.1106039627936586
 40
0.1171834122194097
 40
0.123668066423923
 40
0.1568071611617766
 40
0.188567894906598
 40
0.2190057038292556
 40
0.248169236763815
 40
0.3137773803267424
 40
0.3774159004689862
 40
0.4394017168025915
 40
0.5000118735983928
 40
0.5597632349218623
 40
0.621248858029481
 40
0.6847794098006242
 40
0.7506851105765859
 40
0.7643642200830211
 40
0.7782718187625628
 40
0.7924128151442682
 40
0.8067922727402018
 40
0.8214154102089201
 40
0.8362876013712821
 40
0.8514143750831504
 40
0.8668014149701786
 40
0.8824545590304438
 40
0.8983797991112202
 40
0.9145832802666325
 40
0.9310713000033528
 40
0.9478503074218133
 40
0.9649269022607203
 40
0.9823078338528115
 40
1.0
 40
1.0
 40
1.0
 40
1.0
 10
-335.5790592258309
 20
194.9470410668094
 30
0.0
 10
-335.4137948433691
 20
194.7751254874622
 30
0.0
 10
-335.0854706051835
 20
194.4335875784429
 30
0.0
 10
-334.5881442897594
 20
193.91592557911
 30
0.0
 10
-334.0916729880049
 20
193.3989156427367
 30
0.0
 10
-333.5956473499375
 20
192.8821090436355
 30
0.0
 10
-333.1003844074365
 20
192.3658404970412
 30
0.0
 10
-332.6060081848313
 20
191.8502366447179
 30
0.0
 10
-332.1126911007079
 20
191.3354763928746
 30
0.0
 10
-331.620590590004
 20
190.8217225615365
 30
0.0
 10
-331.1298657444899
 20
190.3091398282774
 30
0.0
 10
-330.6406729423965
 20
189.7978900176165
 30
0.0
 10
-330.1531670096638
 20
189.2881333386312
 30
0.0
 10
-329.6675008693728
 20
188.7800280556949
 30
0.0
 10
-329.1838258068429
 20
188.2737305910603
 30
0.0
 10
-328.7022907732314
 20
187.7693954387727
 30
0.0
 10
-328.2230448637718
 20
187.2671754033684
 30
0.0
 10
-327.7462282880643
 20
186.7672207478252
 30
0.0
 10
-326.6199870466796
 20
185.5856070564803
 30
0.0
 10
-324.8315568446104
 20
183.7065407338126
 30
0.0
 10
-322.3374477690621
 20
181.0798288555087
 30
0.0
 10
-319.8510137668319
 20
178.4548171297521
 30
0.0
 10
-316.3187049779146
 20
174.7164613830615
 30
0.0
 10
-311.6016848115741
 20
169.7030300929852
 30
0.0
 10
-305.5174250879755
 20
163.2020272154272
 30
0.0
 10
-299.245014202955
 20
156.4696239490574
 30
0.0
 10
-292.7993249614304
 20
149.524361108295
 30
0.0
 10
-286.1037171170012
 20
142.2862866005378
 30
0.0
 10
-279.0550081117957
 20
134.6531926017273
 30
0.0
 10
-271.5437301976187
 20
126.5152045010481
 30
0.0
 10
-265.7625833880663
 20
120.2556461931698
 30
0.0
 10
-261.9370779343543
 20
116.1178934112878
 30
0.0
 10
-260.2221143742637
 20
114.263890544479
 30
0.0
 10
-258.4709486923925
 20
112.3717804606639
 30
0.0
 10
-256.6828802263469
 20
110.4409755474025
 30
0.0
 10
-254.8572257546642
 20
108.4708957800874
 30
0.0
 10
-252.9932844920084
 20
106.4609507520062
 30
0.0
 10
-251.0903476200457
 20
104.4105446181433
 30
0.0
 10
-249.1476955084433
 20
102.3190747060836
 30
0.0
 10
-247.1645985943312
 20
100.1859320099408
 30
0.0
 10
-245.1403161924072
 20
98.01050061908849
 30
0.0
 10
-243.0740999416934
 20
95.7921595369238
 30
0.0
 10
-240.9651803887322
 20
93.53027580867693
 30
0.0
 10
-238.8128179212557
 20
91.22423081621943
 30
0.0
 10
-236.6161072069129
 20
88.87331952895876
 30
0.0
 10
-234.3747261707061
 20
86.4771365742338
 30
0.0
 10
-232.8625732615536
 20
84.8629832153075
 30
0.0
 10
-232.0997874732109
 20
84.04874463206473
 30
0.0
  0
SPLINE
  5
79
330
1F
100
AcDbEntity
  8
0
  6
Continuous
 62
     7
370
    25
100
AcDbSpline
210
0.0
220
0.0
230
1.0
 70
     8
 71
     3
 72
     9
 73
     5
 74
     0
 42
0.000000001
 43
0.00000001
 40
0.0
 40
0.0
 40
0.0
 40
0.0
 40
0.5
 40
1.0
 40
1.0
 40
1.0
 40
1.0
 10
-232.0997874732228
 20
84.04874463208118
 30
0.0
 10
-232.4287899589509
 20
83.73223908865545
 30
0.0
 10
-233.0867929098845
 20
83.08679290988621
 30
0.0
 10
-233.7322390886539
 20
82.42878995895252
 30
0.0
 10
-234.0487446320814
 20
82.09978747322442
 30
0.0
  0
SPLINE
  5
7A
330
1F
100
AcDbEntity
  8
0
  6
Continuous
 62
     7
370
    25
100
AcDbSpline
210
0.0
220
0.0
230
1.0
 70
     8
 71
     3
 72
    43
 73
    39
 74
     0
 42
0.000000001
 43
0.00000001
 40
0.0
 40
0.0
 40
0.0
 40
0.0
 40
0.0092250844099046
 40
0.0185057912515862
 40
0.0278414032463884
 40
0.0372312210254907
 40
0.0466745641454484
 40
0.0561707721303692
 40
0.0657192055409755
 40
0.0753192470707464
 40
0.0849703026692904
 40
0.0946718026930462
 40
0.1044232030833439
 40
0.1142239865717917
 40
0.1240736639128891
 40
0.1554072333218753
 40
0.1867227568150989
 40
0.2180307267603321
 40
0.2493437437212966
 40
0.37434536966709
 40
0.4999264039798726
 40
0.5587190889311795
 40
0.6201055202345684
 40
0.6843524299710637
 40
0.7518003137948753
 40
0.7802260654512224
 40
0.8104141986344983
 40
0.8424219271961217
 40
0.8763170430127024
 40
0.8879596073372684
 40
0.9001101495400611
 40
0.9127750780615772
 40
0.9259613620966848
 40
0.9396765611803019
 40
0.953928854629704
 40
0.968727070695117
 40
0.9840807152684689
 40
1.0
 40
1.0
 40
1.0
 40
1.0
 10
-234.0487446320653
 20
82.09978747320748
 30
0.0
 10
-234.4733192177877
 20
82.49759596705073
 30
0.0
 10
-235.3250283518169
 20
83.2956115317936
 30
0.0
 10
-236.6053868669501
 20
84.49426456142382
 30
0.0
 10
-237.8924775575609
 20
85.69850598454558
 30
0.0
 10
-239.1860433685279
 20
86.908024974887
 30
0.0
 10
-240.485911535204
 20
88.12268222482002
 30
0.0
 10
-241.7918841052997
 20
89.34229054912304
 30
0.0
 10
-243.1037675208235
 20
90.56667418108155
 30
0.0
 10
-244.4213646591443
 20
91.79565273801022
 30
0.0
 10
-245.7444768488897
 20
93.02904555706677
 30
0.0
 10
-247.072903831471
 20
94.26667047845913
 30
0.0
 10
-248.4064418670607
 20
95.50834431013556
 30
0.0
 10
-249.7448914075891
 20
96.75388215513415
 30
0.0
 10
-252.0623814477154
 20
98.90932102256042
 30
0.0
 10
-255.3473445122394
 20
101.9608059129694
 30
0.0
 10
-259.5795732970847
 20
105.8854965794874
 30
0.0
 10
-263.7816608121452
 20
109.7765341996866
 30
0.0
 10
-272.1059658053132
 20
117.4748397246867
 30
0.0
 10
-284.3316583696939
 20
128.7551816208627
 30
0.0
 10
-296.9443670452882
 20
140.4054954586224
 30
0.0
 10
-306.3087751229598
 20
149.0955625286518
 30
0.0
 10
-312.9881078935964
 20
155.3176667270764
 30
0.0
 10
-319.5657167188102
 20
161.4726250269707
 30
0.0
 10
-324.6383176914939
 20
166.2449500392216
 30
0.0
 10
-328.4033781449099
 20
169.8024045361404
 30
0.0
 10
-331.0097669590337
 20
172.2710444080706
 30
0.0
 10
-333.6600932180854
 20
174.7873990704329
 30
0.0
 10
-335.7021854853181
 20
176.7308831601783
 30
0.0
 10
-337.1717212673436
 20
178.1318873845969
 30
0.0
 10
-338.0841322022794
 20
179.0027007961371
 30
0.0
 10
-339.0175098763213
 20
179.8944133914376
 30
0.0
 10
-339.9702567943166
 20
180.8055366208818
 30
0.0
 10
-340.9406675807485
 20
181.7344590270611
 30
0.0
 10
-341.9271618757122
 20
182.6796900148185
 30
0.0
 10
-342.9273709430929
 20
183.6390056268654
 30
0.0
 10
-343.9417418111882
 20
184.6127894501114
 30
0.0
 10
-344.6079248499187
 20
185.2531087697802
 30
0.0
 10
-344.9470410668063
 20
185.5790592258289
 30
0.0
  0
SPLINE
  5
7B
330
1F
100
AcDbEntity
  8
0
  6
Continuous
 62
     7
370
    25
100
AcDbSpline
210
0.0
220
0.0
230
1.0
 70
     8
 71
     3
 72
    34
 73
    30
 74
     0
 42
0.000000001
 43
0.00000001
 40
0.0
 40
0.0
 40
0.0
 40
0.0
 40
0.0624999999999999
 40
0.0624999999999999
 40
0.1249999999999998
 40
0.1249999999999998
 40
0.1874999999999998
 40
0.1874999999999998
 40
0.2499999999999997
 40
0.2499999999999997
 40
0.3749999999999995
 40
0.3749999999999995
 40
0.4374999999999979
 40
0.4374999999999979
 40
0.4999999999999963
 40
0.4999999999999963
 40
0.6249999999999892
 40
0.6249999999999892
 40
0.687499999999991
 40
0.687499999999991
 40
0.7499999999999928
 40
0.7499999999999928
 40
0.8124999999999946
 40
0.8124999999999946
 40
0.8749999999999964
 40
0.8749999999999964
 40
0.9374999999999982
 40
0.9374999999999982
 40
1.0
 40
1.0
 40
1.0
 40
1.0
 10
-335.5790558027811
 20
-194.9931547446857
 30
0.0
 10
-335.8915636306
 20
-194.9931775246324
 30
0.0
 10
-336.2025041959388
 20
-194.98340032082
 30
0.0
 10
-336.8191311620612
 20
-194.9309919860765
 30
0.0
 10
-337.1251727983685
 20
-194.8905821182735
 30
0.0
 10
-337.7326964672212
 20
-194.7812514960904
 30
0.0
 10
-338.0341791756499
 20
-194.7123349679637
 30
0.0
 10
-338.6324253320881
 20
-194.5449927031066
 30
0.0
 10
-338.9306997537514
 20
-194.4458846512884
 30
0.0
 10
-339.8004443079726
 20
-194.1085729462964
 30
0.0
 10
-340.3507535815905
 20
-193.8305094404024
 30
0.0
 10
-341.1303593371015
 20
-193.330788314848
 30
0.0
 10
-341.3825241972591
 20
-193.150334262533
 30
0.0
 10
-341.8703263173876
 20
-192.7596472168928
 30
0.0
 10
-342.1036593084987
 20
-192.5510173435641
 30
0.0
 10
-342.7608294828103
 20
-191.8949066192165
 30
0.0
 10
-343.1469752501651
 20
-191.4138618519589
 30
0.0
 10
-343.6523265195148
 20
-190.6302677561289
 30
0.0
 10
-343.8088019173027
 20
-190.3574536715868
 30
0.0
 10
-344.0906593771149
 20
-189.8028766453488
 30
0.0
 10
-344.2169338868364
 20
-189.5199562138918
 30
0.0
 10
-344.4413945611473
 20
-188.943320422006
 30
0.0
 10
-344.5395764374872
 20
-188.6496034135144
 30
0.0
 10
-344.7080777626535
 20
-188.0514612923487
 30
0.0
 10
-344.7785770082414
 20
-187.7457426459607
 30
0.0
 10
-344.8896984586495
 20
-187.1318410119768
 30
0.0
 10
-344.9305502743949
 20
-186.8233689892473
 30
0.0
 10
-344.9834015516186
 20
-186.2034410130642
 30
0.0
 10
-344.9931775385836
 20
-185.8917551063187
 30
0.0
 10
-344.993154744679
 20
-185.5790558027772
 30
0.0
  0
SPLINE
  5
7C
330
1F
100
AcDbEntity
  8
0
  6
Continuous
 62
     7
370
    25
100
AcDbSpline
210
0.0
220
0.0
230
1.0
 70
     8
 71
     3
 72
    47
 73
    43
 74
     0
 42
0.000000001
 43
0.00000001
 40
0.0
 40
0.0
 40
0.0
 40
0.0
 40
0.0080298648899834
 40
0.0159170539878133
 40
0.0236629112104176
 40
0.0312687346838603
 40
0.0387357775919067
 40
0.0460652490373303
 40
0.0532583149147872
 40
0.0603160987941208
 40
0.0672396828129164
 40
0.0740301085771376
 40
0.0806883780686726
 40
0.0872154545586058
 40
0.0936122635250513
 40
0.0998796935743809
 40
0.1060185973646923
 40
0.1120297925303777
 40
0.1179140626066652
 40
0.1236721579530286
 40
0.1575637818847766
 40
0.1895685227544853
 40
0.2197541588048488
 40
0.2481778938410319
 40
0.3156193787710223
 40
0.3798603504683751
 40
0.4412412706138841
 40
0.5000288490824919
 40
0.5839277920353794
 40
0.6673060528931526
 40
0.7506791372770361
 40
0.781988699910938
 40
0.8132936536340715
 40
0.8446066155068713
 40
0.875938096274122
 40
0.8941895184148037
 40
0.9122709300666014
 40
0.9301789720461199
 40
0.9479099767064334
 40
0.9654599938648575
 40
0.9828248156107106
 40
1.0
 40
1.0
 40
1.0
 40
1.0
 10
-344.9470410668064
 20
-185.579059225829
 30
0.0
 10
-344.7766222111718
 20
-185.4152340701252
 30
0.0
 10
-344.4388125265951
 20
-185.0904946276032
 30
0.0
 10
-343.928044138532
 20
-184.5997954503904
 30
0.0
 10
-343.4203597524144
 20
-184.1122823622369
 30
0.0
 10
-342.9153936134202
 20
-183.6276206193518
 30
0.0
 10
-342.4135399387624
 20
-183.1461793720256
 30
0.0
 10
-341.9149900987971
 20
-182.6681397752162
 30
0.0
 10
-341.4199836428294
 20
-182.1937275257164
 30
0.0
 10
-340.9287428683955
 20
-181.7231522546294
 30
0.0
 10
-340.4414898714277
 20
-181.2566233243629
 30
0.0
 10
-339.9584421046175
 20
-180.7943457181296
 30
0.0
 10
-339.4798135339216
 20
-180.3365211108641
 30
0.0
 10
-339.0058143384949
 20
-179.883347606247
 30
0.0
 10
-338.5366509852628
 20
-179.4350197647308
 30
0.0
 10
-338.0725262225175
 20
-178.9917287591511
 30
0.0
 10
-337.6136390348135
 20
-178.5536617608413
 30
0.0
 10
-337.1601848241954
 20
-178.1210041894274
 30
0.0
 10
-336.7123547505226
 20
-177.693931585396
 30
0.0
 10
-335.5472736594905
 20
-176.583475574016
 30
0.0
 10
-333.6601394022718
 20
-174.7874340327715
 30
0.0
 10
-331.0098269593313
 20
-172.2711034415344
 30
0.0
 10
-328.4034211781808
 20
-169.8024446546723
 30
0.0
 10
-324.6383478422686
 20
-166.2449786790132
 30
0.0
 10
-319.5657573228375
 20
-161.4726630134816
 30
0.0
 10
-312.9881211894392
 20
-155.3176783040359
 30
0.0
 10
-306.3089474543926
 20
-149.0957267676754
 30
0.0
 10
-298.5318545557917
 20
-141.8786496865932
 30
0.0
 10
-289.4542874216515
 20
-133.4854967062807
 30
0.0
 10
-278.900581211774
 20
-123.7449410109465
 30
0.0
 10
-270.2595904379667
 20
-115.7673291623294
 30
0.0
 10
-263.7817211899918
 20
-109.7765876147103
 30
0.0
 10
-259.5796988461708
 20
-105.8856124549178
 30
0.0
 10
-255.3474165792119
 20
-101.9608770501724
 30
0.0
 10
-251.6816750053711
 20
-98.55566085131503
 30
0.0
 10
-248.6036442994699
 20
-95.69218090964583
 30
0.0
 10
-246.1298247334612
 20
-93.38842289591516
 30
0.0
 10
-243.6741476324421
 20
-91.09907752395759
 30
0.0
 10
-241.2379004952258
 20
-88.8253467358579
 30
0.0
 10
-238.8222808506971
 20
-86.56824965825415
 30
0.0
 10
-236.4287618529126
 20
-84.32939752813404
 30
0.0
 10
-234.8391745657712
 20
-82.8402655304582
 30
0.0
 10
-234.0487446320675
 20
-82.09978747321634
 30
0.0
  0
SPLINE
  5
7D
330
1F
100
AcDbEntity
  8
0
  6
Continuous
 62
     7
370
    25
100
AcDbSpline
210
0.0
220
0.0
230
1.0
 70
     8
 71
     3
 72
     9
 73
     5
 74
     0
 42
0.000000001
 43
0.00000001
 40
0.0
 40
0.0
 40
0.0
 40
0.0
 40
0.5
 40
1.0
 40
1.0
 40
1.0
 40
1.0
 10
-234.0487446320777
 20
-82.09978747322815
 30
0.0
 10
-233.7322390886521
 20
-82.42878995895619
 30
0.0
 10
-233.0867929098883
 20
-83.08679290988955
 30
0.0
 10
-232.4287899589513
 20
-83.73223908865872
 30
0.0
 10
-232.0997874732232
 20
-84.04874463208444
 30
0.0
  0
SPLINE
  5
7E
330
1F
100
AcDbEntity
  8
0
  6
Continuous
 62
     7
370
    25
100
AcDbSpline
210
0.0
220
0.0
230
1.0
 70
     8
 71
     3
 72
    59
 73
    55
 74
     0
 42
0.000000001
 43
0.00000001
 40
0.0
 40
0.0
 40
0.0
 40
0.0
 40
0.0091707139968563
 40
0.0182576222260566
 40
0.02726168773199
 40
0.0361838631063937
 40
0.0450250904439353
 40
0.0537863012991032
 40
0.0624684166444678
 40
0.071072346830404
 40
0.0795989915463535
 40
0.0880492397837059
 40
0.0964239698003746
 40
0.1047240490871506
 40
0.1129503343359058
 40
0.1211036714097264
 40
0.1291848953150532
 40
0.1371948301758883
 40
0.1451342892101622
 40
0.1530040747083077
 40
0.1608049780141334
 40
0.1685377795080308
 40
0.1762032485926188
 40
0.1838021436808457
 40
0.1913352121866387
 40
0.1988031905181411
 40
0.2062068040735953
 40
0.213546767239916
 40
0.2208237833940117
 40
0.2280385449068874
 40
0.2351917331505729
 40
0.2422840185079162
 40
0.2493160603852697
 40
0.315221283239117
 40
0.3787516862577824
 40
0.440237469175013
 40
0.4999892865889248
 40
0.560598986034359
 40
0.6225845857074539
 40
0.6862231250599752
 40
0.751831525727491
 40
0.7809945541286839
 40
0.8114322169155692
 40
0.8431931686685509
 40
0.8763328540512754
 40
0.8886612881971501
 40
0.9013301321217065
 40
0.9143443251004671
 40
0.9277091267363361
 40
0.9414301269231715
 40
0.9555132554770712
 40
0.9699647913991603
 40
0.9847913717352871
 40
1.0
 40
1.0
 40
1.0
 40
1.0
 10
-232.099787473207
 20
-84.04874463207128
 30
0.0
 10
-232.4953036832255
 20
-84.47086891168078
 30
0.0
 10
-233.2827217129748
 20
-85.31125992509571
 30
0.0
 10
-234.4566109267857
 20
-86.56511022105995
 30
0.0
 10
-235.6183977916731
 20
-87.80673516604594
 30
0.0
 10
-236.7680643732211
 20
-89.03615856232324
 30
0.0
 10
-237.905754816384
 20
-90.25348772203625
 30
0.0
 10
-239.0315694524068
 20
-91.458807300913
 30
0.0
 10
-240.1456192198103
 20
-92.65220735767335
 30
0.0
 10
-241.2480112847403
 20
-93.83377593779022
 30
0.0
 10
-242.3388528458027
 20
-95.0036010337235
 30
0.0
 10
-243.4182501324204
 20
-96.1617700667998
 30
0.0
 10
-244.4863086736338
 20
-97.30837002418403
 30
0.0
 10
-245.5431332310575
 20
-98.44348742268687
 30
0.0
 10
-246.5888278205866
 20
-99.5672083183478
 30
0.0
 10
-247.6234957106168
 20
-100.679618303916
 30
0.0
 10
-248.6472394264487
 20
-101.7808025095308
 30
0.0
 10
-249.6601607530284
 20
-102.8708456025559
 30
0.0
 10
-250.6623607381051
 20
-103.9498317876366
 30
0.0
 10
-251.6539396952506
 20
-105.0178448066993
 30
0.0
 10
-252.6349972068863
 20
-106.0749679389602
 30
0.0
 10
-253.6056321273028
 20
-107.1212840009477
 30
0.0
 10
-254.5659425855666
 20
-108.1568753464675
 30
0.0
 10
-255.5160259887751
 20
-109.1818238667693
 30
0.0
 10
-256.4559790239067
 20
-110.1962109899778
 30
0.0
 10
-257.3858976647646
 20
-111.2001176832232
 30
0.0
 10
-258.3058771600576
 20
-112.1936244448338
 30
0.0
 10
-259.2160120908667
 20
-113.176811333126
 30
0.0
 10
-260.1163961723996
 20
-114.149757860378
 30
0.0
 10
-261.0071229977394
 20
-115.112543383475
 30
0.0
 10
-261.8882833108984
 20
-116.0652456646745
 30
0.0
 10
-262.7599750672672
 20
-117.007946174405
 30
0.0
 10
-266.0310337335584
 20
-120.5463408725795
 30
0.0
 10
-271.5437373660155
 20
-126.5152010919974
 30
0.0
 10
-279.0549699876092
 20
-134.6531545887111
 30
0.0
 10
-286.1037103334866
 20
-142.2862780538604
 30
0.0
 10
-292.7993250584654
 20
-149.5243614046774
 30
0.0
 10
-299.2450097176983
 20
-156.4696195890444
 30
0.0
 10
-305.5174031350765
 20
-163.2020038020395
 30
0.0
 10
-311.6016702080386
 20
-169.7030140066895
 30
0.0
 10
-316.3186857896119
 20
-174.7164414078936
 30
0.0
 10
-319.8509870037946
 20
-178.4547885594122
 30
0.0
 10
-322.3374095484493
 20
-181.0797903492393
 30
0.0
 10
-324.8315510342377
 20
-183.7065257980311
 30
0.0
 10
-326.7663731369523
 20
-185.7394342187704
 30
0.0
 10
-328.1777612537483
 20
-187.2198366176699
 30
0.0
 10
-329.0845514374362
 20
-188.1698951520069
 30
0.0
 10
-329.999077336191
 20
-189.1270711210512
 30
0.0
 10
-330.9203557579488
 20
-190.0903307999373
 30
0.0
 10
-331.8473153979909
 20
-191.0585688383485
 30
0.0
 10
-332.7790340954251
 20
-192.0308353207534
 30
0.0
 10
-333.7139214286464
 20
-193.0054623189683
 30
0.0
 10
-334.6528609147661
 20
-193.9834503161834
 30
0.0
 10
-335.2677194547521
 20
-194.623131899486
 30
0.0
 10
-335.5790592258292
 20
-194.9470410668078
 30
0.0
  0
SPLINE
  5
7F
330
1F
100
AcDbEntity
  8
0
  6
Continuous
 62
     7
370
    25
100
AcDbSpline
210
0.0
220
0.0
230
1.0
 70
     8
 71
     3
 72
    34
 73
    30
 74
     0
 42
0.000000001
 43
0.00000001
 40
0.0
 40
0.0
 40
0.0
 40
0.0
 40
0.0624999999999962
 40
0.0624999999999962
 40
0.1249999999999925
 40
0.1249999999999925
 40
0.1874999999999887
 40
0.1874999999999887
 40
0.249999999999985
 40
0.249999999999985
 40
0.3749999999999775
 40
0.3749999999999775
 40
0.4374999999999799
 40
0.4374999999999799
 40
0.4999999999999823
 40
0.4999999999999823
 40
0.6249999999999912
 40
0.6249999999999912
 40
0.6874999999999927
 40
0.6874999999999927
 40
0.7499999999999941
 40
0.7499999999999941
 40
0.8124999999999957
 40
0.8124999999999957
 40
0.8749999999999971
 40
0.8749999999999971
 40
0.9374999999999986
 40
0.9374999999999986
 40
1.0
 40
1.0
 40
1.0
 40
1.0
 10
335.5790558027776
 20
194.9931547446857
 30
0.0
 10
335.8915636305966
 20
194.9931775246325
 30
0.0
 10
336.202504195935
 20
194.9834003208204
 30
0.0
 10
336.8191311620572
 20
194.9309919860771
 30
0.0
 10
337.125172798364
 20
194.8905821182742
 30
0.0
 10
337.7326964672163
 20
194.7812514960915
 30
0.0
 10
338.0341791756449
 20
194.712334967965
 30
0.0
 10
338.6324253320824
 20
194.5449927031085
 30
0.0
 10
338.9306997537473
 20
194.4458846512901
 30
0.0
 10
339.8004443079682
 20
194.1085729462989
 30
0.0
 10
340.3507535815857
 20
193.8305094404056
 30
0.0
 10
341.1303593370963
 20
193.3307883148525
 30
0.0
 10
341.3825241972535
 20
193.1503342625383
 30
0.0
 10
341.8703263173816
 20
192.7596472168993
 30
0.0
 10
342.1036593084947
 20
192.5510173435692
 30
0.0
 10
342.7608294828065
 20
191.8949066192224
 30
0.0
 10
343.1469752501614
 20
191.4138618519656
 30
0.0
 10
343.6523265195114
 20
190.6302677561372
 30
0.0
 10
343.8088019173002
 20
190.3574536715943
 30
0.0
 10
344.0906593771127
 20
189.8028766453568
 30
0.0
 10
344.2169338868346
 20
189.5199562139001
 30
0.0
 10
344.441394561146
 20
188.9433204220147
 30
0.0
 10
344.5395764374858
 20
188.6496034135237
 30
0.0
 10
344.7080777626528
 20
188.0514612923589
 30
0.0
 10
344.7785770082414
 20
187.7457426459706
 30
0.0
 10
344.8896984586499
 20
187.1318410119868
 30
0.0
 10
344.9305502743956
 20
186.8233689892574
 30
0.0
 10
344.9834015516199
 20
186.2034410130743
 30
0.0
 10
344.9931775385881
 20
185.891755106324
 30
0.0
 10
344.9931547446843
 20
185.5790558027826
 30
0.0
  0
SPLINE
  5
80
330
1F
100
AcDbEntity
  8
0
  6
Continuous
 62
     7
370
    25
100
AcDbSpline
210
0.0
220
0.0
230
1.0
 70
     8
 71
     3
 72
    47
 73
    43
 74
     0
 42
0.000000001
 43
0.00000001
 40
0.0
 40
0.0
 40
0.0
 40
0.0
 40
0.0080298707647706
 40
0.0159170650166414
 40
0.0236629266794673
 40
0.0312687538858378
 40
0.0387357998256574
 40
0.0460652736074665
 40
0.0532583411313265
 40
0.0603161259721371
 40
0.0672397102722026
 40
0.0740301356418838
 40
0.0806884040671525
 40
0.0872154788228797
 40
0.093612285390678
 40
0.0998797123801451
 40
0.1060186124523408
 40
0.1120298032443686
 40
0.1179140682939301
 40
0.1236721579627447
 40
0.1575636488443128
 40
0.1895683466334207
 40
0.2197540274995909
 40
0.2481778938851794
 40
0.3156193102439659
 40
0.3798602592760593
 40
0.4412412020191346
 40
0.5000288490597969
 40
0.5839278754579991
 40
0.6673061383663618
 40
0.7506791372557832
 40
0.7819888417933533
 40
0.813293845337487
 40
0.8446067612599858
 40
0.8759380962596028
 40
0.8941895694448042
 40
0.9122710158599274
 40
0.9301790758887672
 40
0.9479100814432195
 40
0.9654600818934435
 40
0.9828248688778738
 40
1.0
 40
1.0
 40
1.0
 40
1.0
 10
344.9470410668081
 20
185.5790592258307
 30
0.0
 10
344.7766220860283
 20
185.4152339498162
 30
0.0
 10
344.4388121664662
 20
185.0904942813854
 30
0.0
 10
343.928043437138
 20
184.5997947762166
 30
0.0
 10
343.420358748932
 20
184.1122813978449
 30
0.0
 10
342.9153923477518
 20
183.6276194031607
 30
0.0
 10
342.4135384524672
 20
183.146177944025
 30
0.0
 10
341.9149884348175
 20
182.6681381767065
 30
0.0
 10
341.4199818455033
 20
182.1937257993192
 30
0.0
 10
340.9287409834007
 20
181.7231504442353
 30
0.0
 10
340.4414879457426
 20
181.2566214750952
 30
0.0
 10
339.9584401864759
 20
180.794343876301
 30
0.0
 10
339.4798116727728
 20
180.3365193239389
 30
0.0
 10
339.0058125849595
 20
179.8833459227994
 30
0.0
 10
338.5366493910904
 20
179.4350182344053
 30
0.0
 10
338.0725248405432
 20
178.9917274326209
 30
0.0
 10
337.6136379189168
 20
178.5536606897743
 30
0.0
 10
337.1601840292565
 20
178.1210034264228
 30
0.0
 10
336.7123543323781
 20
177.693931184029
 30
0.0
 10
335.5472769137778
 20
176.5834786797796
 30
0.0
 10
333.6601476210165
 20
174.7874418868426
 30
0.0
 10
331.0098393542393
 20
172.2711152849256
 30
0.0
 10
328.4034302661382
 20
169.802453364127
 30
0.0
 10
324.6383540595002
 20
166.2449844876817
 30
0.0
 10
319.5657625472725
 20
161.4726676145166
 30
0.0
 10
312.9881293016439
 20
155.3176855997853
 30
0.0
 10
306.3089535325129
 20
149.0957322679866
 30
0.0
 10
298.5318541134369
 20
141.8786493157613
 30
0.0
 10
289.4542805194687
 20
133.4854903581693
 30
0.0
 10
278.9005739356014
 20
123.7449341645298
 30
0.0
 10
270.2595804635733
 20
115.7673199312584
 30
0.0
 10
263.7817063388481
 20
109.7765739130419
 30
0.0
 10
259.579677340509
 20
105.8855924818085
 30
0.0
 10
255.3474013472664
 20
101.9608628072249
 30
0.0
 10
251.6816660725736
 20
98.55565252132035
 30
0.0
 10
248.6036380341862
 20
95.69217515723403
 30
0.0
 10
246.1298136992033
 20
93.38841271245795
 30
0.0
 10
243.6741341176804
 20
91.09906500960378
 30
0.0
 10
241.2378868633459
 20
88.82533407234891
 30
0.0
 10
238.8222695332672
 20
86.56823911233805
 30
0.0
 10
236.4287553486278
 20
84.32939144453056
 30
0.0
 10
234.8391721137879
 20
82.84026323662664
 30
0.0
 10
234.0487446320641
 20
82.09978747320694
 30
0.0
  0
SPLINE
  5
81
330
1F
100
AcDbEntity
  8
0
  6
Continuous
 62
     7
370
    25
100
AcDbSpline
210
0.0
220
0.0
230
1.0
 70
     8
 71
     3
 72
     9
 73
     5
 74
     0
 42
0.000000001
 43
0.00000001
 40
0.0
 40
0.0
 40
0.0
 40
0.0
 40
0.5
 40
1.0
 40
1.0
 40
1.0
 40
1.0
 10
234.0487446320798
 20
82.09978747322441
 30
0.0
 10
233.7322390886541
 20
82.4287899589524
 30
0.0
 10
233.0867929098849
 20
83.08679290988937
 30
0.0
 10
232.4287899589513
 20
83.73223908865701
 30
0.0
 10
232.0997874732232
 20
84.04874463208269
 30
0.0
  0
SPLINE
  5
82
330
1F
100
AcDbEntity
  8
0
  6
Continuous
 62
     7
370
    25
100
AcDbSpline
210
0.0
220
0.0
230
1.0
 70
     8
 71
     3
 72
    59
 73
    55
 74
     0
 42
0.000000001
 43
0.00000001
 40
0.0
 40
0.0
 40
0.0
 40
0.0
 40
0.0091707145784769
 40
0.0182576233458413
 40
0.0272616893470689
 40
0.0361838651744695
 40
0.0450250929232689
 40
0.0537863041484987
 40
0.0624684198232581
 40
0.0710723502984357
 40
0.0795989952639748
 40
0.0880492437117487
 40
0.0964239739001427
 40
0.1047240533204032
 40
0.1129503386648466
 40
0.1211036757969867
 40
0.129184899723679
 40
0.1371948345693265
 40
0.1451342935522464
 40
0.1530040789632456
 40
0.1608049821464907
 40
0.1685377834827231
 40
0.1762032523748907
 40
0.1838021472362646
 40
0.1913352154810779
 40
0.1988031935177689
 40
0.2062068067448594
 40
0.2135467695495356
 40
0.2208237853089603
 40
0.2280385463943834
 40
0.2351917341780675
 40
0.2422840190430796
 40
0.2493160603959818
 40
0.3152213406788956
 40
0.378751761306152
 40
0.4402375245645318
 40
0.4999892865828015
 40
0.5605991370666782
 40
0.6225847864955344
 40
0.6862232759358697
 40
0.7518315256959958
 40
0.7809948402293287
 40
0.8114326005931045
 40
0.8431934584291502
 40
0.8763328540230234
 40
0.8886613887626589
 40
0.9013303087470507
 40
0.9143445530418904
 40
0.9277093810070197
 40
0.9414303822577554
 40
0.9555134862939458
 40
0.9699649717605594
 40
0.9847914753052073
 40
1.0
 40
1.0
 40
1.0
 40
1.0
 10
232.0997874732054
 20
84.04874463206627
 30
0.0
 10
232.4953037082796
 20
84.47086893842629
 30
0.0
 10
233.2827217862662
 20
85.31126000334217
 30
0.0
 10
234.4566110693913
 20
86.56511037348565
 30
0.0
 10
235.6183979978741
 20
87.8067353866563
 30
0.0
 10
236.768064637372
 20
89.03615884519736
 30
0.0
 10
237.9057551329332
 20
90.25348806133485
 30
0.0
 10
239.03156981589
 20
91.45880769087465
 30
0.0
 10
240.1456196248508
 20
92.65220779261475
 30
0.0
 10
241.2480117260472
 20
93.83377641210537
 30
0.0
 10
242.3388533181719
 20
95.0036015418826
 30
0.0
 10
243.4182506307303
 20
96.16177060334884
 30
0.0
 10
244.4863091928473
 20
97.30837058374345
 30
0.0
 10
245.5431337662189
 20
98.44348799995188
 30
0.0
 10
246.5888283668219
 20
99.5672089080861
 30
0.0
 10
247.6234962631319
 20
100.6796189009686
 30
0.0
 10
248.6472399805288
 20
101.7808031088096
 30
0.0
 10
249.6601613040369
 20
102.8708461990445
 30
0.0
 10
250.6623612814823
 20
103.9498323763887
 30
0.0
 10
251.6539402265133
 20
105.0178453828376
 30
0.0
 10
252.6349977216256
 20
106.0749684976767
 30
0.0
 10
253.6056326211855
 20
107.1212845375016
 30
0.0
 10
254.5659430543311
 20
108.156875856186
 30
0.0
 10
255.5160264282327
 20
109.181824345045
 30
0.0
 10
256.4559794299402
 20
110.1962114322697
 30
0.0
 10
257.3858980333264
 20
111.2001180850543
 30
0.0
 10
258.3058774871693
 20
112.193624801792
 30
0.0
 10
259.216012372619
 20
113.1768116408619
 30
0.0
 10
260.1163964049503
 20
114.1497581146042
 30
0.0
 10
261.0071231773089
 20
115.1125435799699
 30
0.0
 10
261.8882834337896
 20
116.0652457992613
 30
0.0
 10
262.7599751297829
 20
117.0079462430261
 30
0.0
 10
266.0310361038296
 20
120.5463434330228
 30
0.0
 10
271.5437426786677
 20
126.5152068760929
 30
0.0
 10
279.0549772080674
 20
134.6531625282941
 30
0.0
 10
286.1037150684664
 20
142.2862833611642
 30
0.0
 10
292.7993325871674
 20
149.5243695154374
 30
0.0
 10
299.2450221149488
 20
156.4696328327798
 30
0.0
 10
305.5174195237483
 20
163.2020214923058
 30
0.0
 10
311.6016806053137
 20
169.7030254036593
 30
0.0
 10
316.3186985383697
 20
174.716454970775
 30
0.0
 10
319.8510058396192
 20
178.4548083784079
 30
0.0
 10
322.3374351182189
 20
181.0798173648977
 30
0.0
 10
324.8315679369933
 20
183.7065437285269
 30
0.0
 10
326.7663826477032
 20
185.7394442532102
 30
0.0
 10
328.1777680341251
 20
187.2198436409943
 30
0.0
 10
329.084563504524
 20
188.1699076711413
 30
0.0
 10
329.9990927432047
 20
189.12708711185
 30
0.0
 10
330.9203726354344
 20
190.0903483239455
 30
0.0
 10
331.8473319649867
 20
191.0585860457109
 30
0.0
 10
332.7790486604987
 20
192.0308504538267
 30
0.0
 10
333.7139323994302
 20
193.0054737212251
 30
0.0
 10
334.6528667756059
 20
193.9834564101694
 30
0.0
 10
335.2677215912287
 20
194.6231341210541
 30
0.0
 10
335.5790592258254
 20
194.9470410668089
 30
0.0
  0
SPLINE
  5
8F
330
1F
100
AcDbEntity
  8
0
  6
Continuous
 62
     7
370
    25
100
AcDbSpline
210
0.0
220
0.0
230
1.0
 70
     8
 71
     3
 72
    24
 73
    20
 74
     0
 42
0.000000001
 43
0.00000001
 40
-0.0052739378905732
 40
-0.0052739378905732
 40
-0.0052739378905732
 40
-0.0052739378905732
 40
0.3222234153633262
 40
0.3222234153633262
 40
0.6397966063974106
 40
0.6397966063974106
 40
0.8382798507937134
 40
0.8382798507937134
 40
0.9623318785414026
 40
0.9623318785414026
 40
1.086383906289092
 40
1.086383906289092
 40
1.284867150685394
 40
1.284867150685394
 40
1.602440341719479
 40
1.602440341719479
 40
1.924663757082805
 40
1.924663757082805
 40
1.929937694973378
 40
1.929937694973378
 40
1.929937694973378
 40
1.929937694973378
 10
234.0487446320614
 20
82.09978747320702
 30
0.0
 10
233.1751331712253
 20
81.335377444975
 30
0.0
 10
232.2998671881704
 20
80.56951970980552
 30
0.0
 10
230.5733492498883
 20
79.05881651380841
 30
0.0
 10
229.7221733221706
 20
78.31403757705414
 30
0.0
 10
228.3376297977702
 20
77.10256199320486
 30
0.0
 10
227.8047806915557
 20
76.63631902526458
 30
0.0
 10
226.9384984730118
 20
75.87832208403978
 30
0.0
 10
226.6052227239852
 20
75.58670580364347
 30
0.0
 10
225.9384918155201
 20
75.00331625873625
 30
0.0
 10
225.604998034334
 20
74.71150920019466
 30
0.0
 10
224.737632077928
 20
73.95256398833806
 30
0.0
 10
224.2035906275346
 20
73.48527771925094
 30
0.0
 10
222.8145716547987
 20
72.26988611810637
 30
0.0
 10
221.9592874109315
 20
71.52151240471215
 30
0.0
 10
220.23585075108
 20
70.01350532733585
 30
0.0
 10
219.3676932919493
 20
69.2538675554326
 30
0.0
 10
218.4855005982298
 20
68.48194894326997
 30
0.0
 10
218.4712939792979
 20
68.46951815203806
 30
0.0
 10
218.4570873612186
 20
68.45708736121824
 30
0.0
  0
SPLINE
  5
90
330
1F
100
AcDbEntity
  8
0
  6
Continuous
 62
     7
370
    25
100
AcDbSpline
210
0.0
220
0.0
230
1.0
 70
     8
 71
     3
 72
    24
 73
    20
 74
     0
 42
0.000000001
 43
0.00000001
 40
-0.0052892276097257
 40
-0.0052892276097257
 40
-0.0052892276097257
 40
-0.0052892276097257
 40
0.0
 40
0.0
 40
0.3222081239160867
 40
0.3222081239160867
 40
0.6397813132744503
 40
0.6397813132744503
 40
0.8382645566234276
 40
0.8382645566234276
 40
0.9623165837165384
 40
0.9623165837165384
 40
1.086368610809649
 40
1.086368610809649
 40
1.284851854158626
 40
1.284851854158626
 40
1.60242504351699
 40
1.60242504351699
 40
1.929922395042802
 40
1.929922395042802
 40
1.929922395042802
 40
1.929922395042802
 10
218.4570873612186
 20
-68.45708736122359
 30
0.0
 10
218.4713351658294
 20
-68.46955419025579
 30
0.0
 10
218.485582971554
 20
-68.48202101789181
 30
0.0
 10
219.367775642243
 20
-69.25393964142313
 30
0.0
 10
220.2358908981568
 20
-70.01354045604114
 30
0.0
 10
221.9592824286787
 20
-71.52150804525004
 30
0.0
 10
222.8145637742527
 20
-72.26987922262663
 30
0.0
 10
224.2035765498818
 20
-73.48526540130163
 30
0.0
 10
224.7376152592358
 20
-73.95254927198548
 30
0.0
 10
225.6049761906231
 20
-74.71149008694854
 30
0.0
 10
225.9384679018899
 20
-75.00329533430428
 30
0.0
 10
226.6051943991281
 20
-75.58668101938704
 30
0.0
 10
226.9384762593498
 20
-75.87830264708285
 30
0.0
 10
227.8047637605463
 20
-76.63630421062973
 30
0.0
 10
228.33761570572
 20
-77.10254966266118
 30
0.0
 10
229.7221655761907
 20
-78.31403079932198
 30
0.0
 10
230.5733443899198
 20
-79.05881226133627
 30
0.0
 10
232.2998662340536
 20
-80.56951887495157
 30
0.0
 10
233.1751331758367
 20
-81.33537744901088
 30
0.0
 10
234.0487446320631
 20
-82.09978747320878
 30
0.0
  0
SPLINE
  5
92
330
1F
100
AcDbEntity
  8
0
  6
Continuous
 62
     7
370
    25
100
AcDbSpline
210
0.0
220
0.0
230
1.0
 70
     8
 71
     3
 72
    24
 73
    20
 74
     0
 42
0.000000001
 43
0.00000001
 40
-0.0052739378905732
 40
-0.0052739378905732
 40
-0.0052739378905732
 40
-0.0052739378905732
 40
0.0
 40
0.0
 40
0.3222234153633262
 40
0.3222234153633262
 40
0.6397966063974105
 40
0.6397966063974105
 40
0.8382798507937133
 40
0.8382798507937133
 40
0.9623318785414025
 40
0.9623318785414025
 40
1.086383906289092
 40
1.086383906289092
 40
1.284867150685394
 40
1.284867150685394
 40
1.602440341719479
 40
1.602440341719479
 40
1.929937694973378
 40
1.929937694973378
 40
1.929937694973378
 40
1.929937694973378
 10
218.4570873612168
 20
68.4570873612218
 30
0.0
 10
218.4695181520367
 20
68.47129397930107
 30
0.0
 10
218.4819489436061
 20
68.4855005978493
 30
0.0
 10
219.2538675506092
 20
69.36769329746198
 30
0.0
 10
220.0135053273484
 20
70.2358507510657
 30
0.0
 10
221.5215124047226
 20
71.95928741092287
 30
0.0
 10
222.2698861181068
 20
72.81457165479821
 30
0.0
 10
223.4852777192527
 20
74.20359062753474
 30
0.0
 10
223.9525639883437
 20
74.73763207792231
 30
0.0
 10
224.7115092002011
 20
75.60499803432764
 30
0.0
 10
225.0033162587358
 20
75.93849181552052
 30
0.0
 10
225.5867058036454
 20
76.60522272398512
 30
0.0
 10
225.8783220840456
 20
76.93849847300795
 30
0.0
 10
226.6363190252711
 20
77.80478069154934
 30
0.0
 10
227.1025619932119
 20
78.33762979776508
 30
0.0
 10
228.3140375770605
 20
79.72217332216265
 30
0.0
 10
229.0588165138173
 20
80.57334924988139
 30
0.0
 10
230.5695197098159
 20
82.29986718816217
 30
0.0
 10
231.3353774449826
 20
83.17513317121633
 30
0.0
 10
232.0997874732154
 20
84.04874463205353
 30
0.0
  0
SPLINE
  5
94
330
1F
100
AcDbEntity
  8
0
  6
Continuous
 62
     7
370
    25
100
AcDbSpline
210
0.0
220
0.0
230
1.0
 70
     8
 71
     3
 72
    24
 73
    20
 74
     0
 42
0.000000001
 43
0.00000001
 40
0.0
 40
0.0
 40
0.0
 40
0.0
 40
0.327497353257923
 40
0.327497353257923
 40
0.6450705442959087
 40
0.6450705442959087
 40
0.8435537886946498
 40
0.8435537886946498
 40
0.967605816443863
 40
0.967605816443863
 40
1.091657844193076
 40
1.091657844193076
 40
1.290141088591817
 40
1.290141088591817
 40
1.607714279629803
 40
1.607714279629803
 40
1.929937694982136
 40
1.929937694982136
 40
1.935211632887726
 40
1.935211632887726
 40
1.935211632887726
 40
1.935211632887726
 10
-232.0997874732074
 20
84.0487446320628
 30
0.0
 10
-231.3353774449665
 20
83.17513317121606
 30
0.0
 10
-230.5695197097863
 20
82.29986718815053
 30
0.0
 10
-229.0588165137715
 20
80.57334924984704
 30
0.0
 10
-228.3140375770118
 20
79.72217332212051
 30
0.0
 10
-227.1025619931466
 20
78.3376297977041
 30
0.0
 10
-226.6363190251992
 20
77.80478069147901
 30
0.0
 10
-225.8783220839638
 20
76.93849847292623
 30
0.0
 10
-225.5867058035639
 20
76.60522272390136
 30
0.0
 10
-225.0033162586513
 20
75.93849181542734
 30
0.0
 10
-224.7115092001009
 20
75.60499803423059
 30
0.0
 10
-223.9525639882372
 20
74.73763207781391
 30
0.0
 10
-223.4852777191376
 20
74.20359062740988
 30
0.0
 10
-222.2698861179788
 20
72.81457165465622
 30
0.0
 10
-221.5215124045846
 20
71.95928741077839
 30
0.0
 10
-220.0135053272261
 20
70.23585075093752
 30
0.0
 10
-219.2538675507718
 20
69.36769329707371
 30
0.0
 10
-218.4819489434853
 20
68.48550059775872
 30
0.0
 10
-218.4695181520668
 20
68.47129397934015
 30
0.0
 10
-218.4570873612115
 20
68.4570873612218
 30
0.0
  0
SPLINE
  5
95
330
1F
100
AcDbEntity
  8
0
  6
Continuous
 62
     7
370
    25
100
AcDbSpline
210
0.0
220
0.0
230
1.0
 70
     8
 71
     3
 72
    24
 73
    20
 74
     0
 42
0.000000001
 43
0.00000001
 40
-0.0052892276097257
 40
-0.0052892276097257
 40
-0.0052892276097257
 40
-0.0052892276097257
 40
0.3222081239160869
 40
0.3222081239160869
 40
0.6397813132744504
 40
0.6397813132744504
 40
0.8382645566234276
 40
0.8382645566234276
 40
0.9623165837165383
 40
0.9623165837165383
 40
1.086368610809649
 40
1.086368610809649
 40
1.284851854158626
 40
1.284851854158626
 40
1.60242504351699
 40
1.60242504351699
 40
1.924633167433077
 40
1.924633167433077
 40
1.929922395042802
 40
1.929922395042802
 40
1.929922395042802
 40
1.929922395042802
 10
232.0997874732091
 20
-84.0487446320628
 30
0.0
 10
231.3353774490112
 20
-83.17513317583635
 30
0.0
 10
230.5695188749519
 20
-82.29986623405682
 30
0.0
 10
229.0588122613349
 20
-80.57334438992481
 30
0.0
 10
228.3140307993188
 20
-79.72216557619393
 30
0.0
 10
227.102549662658
 20
-78.33761570572494
 30
0.0
 10
226.6363042106283
 20
-77.80476376054591
 30
0.0
 10
225.8783026470814
 20
-76.93847625935123
 30
0.0
 10
225.5866810193838
 20
-76.60519439913128
 30
0.0
 10
225.0032953343011
 20
-75.93846790189306
 30
0.0
 10
224.7114900869471
 20
-75.60497619062457
 30
0.0
 10
223.9525492719841
 20
-74.73761525924073
 30
0.0
 10
223.4852654012913
 20
-74.20357654989206
 30
0.0
 10
222.2698792226145
 20
-72.81456377426477
 30
0.0
 10
221.5215080452504
 20
-71.95928242867654
 30
0.0
 10
220.0135404560433
 20
-70.23589089815462
 30
0.0
 10
219.2539396071096
 20
-69.3677756814539
 30
0.0
 10
218.4820210202583
 20
-68.48558296884644
 30
0.0
 10
218.4695541902526
 20
-68.47133516583258
 30
0.0
 10
218.4570873612186
 20
-68.45708736122359
 30
0.0
  0
SPLINE
  5
96
330
1F
100
AcDbEntity
  8
0
  6
Continuous
 62
     7
370
    25
100
AcDbSpline
210
0.0
220
0.0
230
1.0
 70
     8
 71
     3
 72
    24
 73
    20
 74
     0
 42
0.000000001
 43
0.00000001
 40
-0.0052739378989303
 40
-0.0052739378989303
 40
-0.0052739378989303
 40
-0.0052739378989303
 40
0.0
 40
0.0
 40
0.3222234153558124
 40
0.3222234153558124
 40
0.6397966063907145
 40
0.6397966063907145
 40
0.8382798507875282
 40
0.8382798507875282
 40
0.9623318785355368
 40
0.9623318785355368
 40
1.086383906283545
 40
1.086383906283545
 40
1.284867150680359
 40
1.284867150680359
 40
1.602440341715262
 40
1.602440341715262
 40
1.929937694970004
 40
1.929937694970004
 40
1.929937694970004
 40
1.929937694970004
 10
-218.4570873612186
 20
-68.4570873612218
 30
0.0
 10
-218.469518152058
 20
-68.47129397932594
 30
0.0
 10
-218.4819489434959
 20
-68.48550059798075
 30
0.0
 10
-219.2538675522089
 20
-69.36769329564373
 30
0.0
 10
-220.0135053273362
 20
-70.23585075106541
 30
0.0
 10
-221.521512404693
 20
-71.95928741090273
 30
0.0
 10
-222.2698861180747
 20
-72.8145716547699
 30
0.0
 10
-223.4852777192211
 20
-74.2035906275076
 30
0.0
 10
-223.9525639883242
 20
-74.73763207791163
 30
0.0
 10
-224.7115092001808
 20
-75.6049980343212
 30
0.0
 10
-225.0033162587171
 20
-75.93849181550371
 30
0.0
 10
-225.586705803626
 20
-76.60522272397063
 30
0.0
 10
-225.8783220840206
 20
-76.93849847299373
 30
0.0
 10
-226.6363190252472
 20
-77.8047806915394
 30
0.0
 10
-227.1025619931875
 20
-78.33762979776094
 30
0.0
 10
-228.3140375770403
 20
-79.72217332216135
 30
0.0
 10
-229.0588165137963
 20
-80.57334924988257
 30
0.0
 10
-230.569519709797
 20
-82.29986718817185
 30
0.0
 10
-231.3353774449736
 20
-83.17513317122672
 30
0.0
 10
-232.0997874732074
 20
-84.04874463206636
 30
0.0
  0
SPLINE
  5
98
330
1F
100
AcDbEntity
  8
0
  6
Continuous
 62
     7
370
    25
100
AcDbSpline
210
0.0
220
0.0
230
1.0
 70
     8
 71
     3
 72
    24
 73
    20
 74
     0
 42
0.000000001
 43
0.00000001
 40
-0.0052739378989303
 40
-0.0052739378989303
 40
-0.0052739378989303
 40
-0.0052739378989303
 40
0.3222234153558122
 40
0.3222234153558122
 40
0.6397966063907145
 40
0.6397966063907145
 40
0.8382798507875283
 40
0.8382798507875283
 40
0.9623318785355369
 40
0.9623318785355369
 40
1.086383906283545
 40
1.086383906283545
 40
1.284867150680359
 40
1.284867150680359
 40
1.602440341715261
 40
1.602440341715261
 40
1.924663757071074
 40
1.924663757071074
 40
1.929937694970004
 40
1.929937694970004
 40
1.929937694970004
 40
1.929937694970004
 10
-234.0487446320649
 20
-82.09978747321057
 30
0.0
 10
-233.1751331712253
 20
-81.335377444975
 30
0.0
 10
-232.2998671881669
 20
-80.5695197098002
 30
0.0
 10
-230.5733492498811
 20
-79.05881651379775
 30
0.0
 10
-229.7221733221546
 20
-78.31403757704524
 30
0.0
 10
-228.3376297977542
 20
-77.10256199319244
 30
0.0
 10
-227.8047806915362
 20
-76.63631902525037
 30
0.0
 10
-226.9384984729923
 20
-75.87832208402378
 30
0.0
 10
-226.6052227239657
 20
-75.58670580362926
 30
0.0
 10
-225.9384918155005
 20
-75.00331625872025
 30
0.0
 10
-225.6049980343215
 20
-74.711509200184
 30
0.0
 10
-224.737632077912
 20
-73.95256398832561
 30
0.0
 10
-224.2035906275097
 20
-73.48527771922252
 30
0.0
 10
-222.8145716547702
 20
-72.2698861180744
 30
0.0
 10
-221.9592874109067
 20
-71.52151240468908
 30
0.0
 10
-220.2358507510693
 20
-70.0135053273323
 30
0.0
 10
-219.3676932937807
 20
-69.25386755384099
 30
0.0
 10
-218.4855005981037
 20
-68.48194894338545
 30
0.0
 10
-218.471293979321
 20
-68.46951815206114
 30
0.0
 10
-218.4570873612186
 20
-68.45708736122003
 30
0.0
  0
SPLINE
  5
99
330
1F
100
AcDbEntity
  8
0
  6
Continuous
 62
     7
370
    25
100
AcDbSpline
210
0.0
220
0.0
230
1.0
 70
     8
 71
     3
 72
    24
 73
    20
 74
     0
 42
0.000000001
 43
0.00000001
 40
0.0
 40
0.0
 40
0.0
 40
0.0
 40
0.0052739379055904
 40
0.0052739379055904
 40
0.3274973532579226
 40
0.3274973532579226
 40
0.6450705442959086
 40
0.6450705442959086
 40
0.8435537886946498
 40
0.8435537886946498
 40
0.967605816443863
 40
0.967605816443863
 40
1.091657844193076
 40
1.091657844193076
 40
1.290141088591817
 40
1.290141088591817
 40
1.607714279629803
 40
1.607714279629803
 40
1.935211632887726
 40
1.935211632887726
 40
1.935211632887726
 40
1.935211632887726
 10
-218.4570873612168
 20
68.45708736121824
 30
0.0
 10
-218.4712939775312
 20
68.46951815387942
 30
0.0
 10
-218.4855005944832
 20
68.48194894680522
 30
0.0
 10
-219.3676931763881
 20
69.2538676708411
 30
0.0
 10
-220.2358505248455
 20
70.01350555332571
 30
0.0
 10
-221.9592869660972
 20
71.52151284999323
 30
0.0
 10
-222.8145711017285
 20
72.26988667233782
 30
0.0
 10
-224.2035898994234
 20
73.48527845080739
 30
0.0
 10
-224.7376312826989
 20
73.95256478817096
 30
0.0
 10
-225.6049971304715
 20
74.71151011108992
 30
0.0
 10
-225.938490869986
 20
75.00331721238217
 30
0.0
 10
-226.6052216953366
 20
75.58670684286076
 30
0.0
 10
-226.9384974029153
 20
75.87832316608097
 30
0.0
 10
-227.8047795140443
 20
76.6363202187761
 30
0.0
 10
-228.3376285545007
 20
77.10256325543318
 30
0.0
 10
-229.7221719089376
 20
78.31403901830444
 30
0.0
 10
-230.5733477330844
 20
79.05881806557225
 30
0.0
 10
-232.2998654636109
 20
80.56952148691539
 30
0.0
 10
-233.1751313425628
 20
81.33537933694056
 30
0.0
 10
-234.0487427009655
 20
82.09978948055587
 30
0.0
  0
CIRCLE
  5
9B
330
1F
100
AcDbEntity
  8
0
  6
Continuous
 62
     7
370
    25
100
AcDbCircle
 10
0.0
 20
0.0
 30
0.0
 40
33.06919557412689
  0
CIRCLE
  5
9C
330
1F
100
AcDbEntity
  8
0
  6
Continuous
 62
     7
370
    25
100
AcDbCircle
 10
0.0
 20
0.0
 30
0.0
 40
22.99999999999968
  0
LINE
  5
9D
330
1F
100
AcDbEntity
  8
0
  6
Continuous
 62
     7
370
    25
100
AcDbLine
 10
344.9470410668
 20
185.5790592258
 30
0.0
 11
344.9470410668
 21
-185.5790592258
 31
0.0
  0
LINE
  5
9E
330
1F
100
AcDbEntity
  8
0
  6
Continuous
 62
     7
370
    25
100
AcDbLine
 10
234.0487446321
 20
82.0997874732
 30
0.0
 11
234.0487446321
 21
-82.0997874732
 31
0.0
  0
LINE
  5
9F
330
1F
100
AcDbEntity
  8
0
  6
Continuous
 62
     7
370
    25
100
AcDbLine
 10
-344.9470410668
 20
-185.5790592258
 30
0.0
 11
-344.9470410668
 21
185.5790592258
 31
0.0
  0
LINE
  5
A0
330
1F
100
AcDbEntity
  8
0
  6
Continuous
 62
     7
370
    25
100
AcDbLine
 10
335.5790592258
 20
-194.9470410668
 30
0.0
 11
-335.5790592258
 21
-194.9470410668
 31
0.0
  0
LINE
  5
A1
330
1F
100
AcDbEntity
  8
0
  6
Continuous
 62
     7
370
    25
100
AcDbLine
 10
-335.5790592258
 20
194.9470410668
 30
0.0
 11
335.5790592258
 21
194.9470410668
 31
0.0
  0
LINE
  5
A2
330
1F
100
AcDbEntity
  8
0
  6
Continuous
 62
     7
370
    25
100
AcDbLine
 10
350.0
 20
200.0
 30
0.0
 11
-350.0
 21
200.0
 31
0.0
  0
LINE
  5
A3
330
1F
100
AcDbEntity
  8
0
  6
Continuous
 62
     7
370
    25
100
AcDbLine
 10
350.0
 20
-200.0
 30
0.0
 11
350.0
 21
200.0
 31
0.0
  0
LINE
  5
A4
330
1F
100
AcDbEntity
  8
0
  6
Continuous
 62
     7
370
    25
100
AcDbLine
 10
-350.0
 20
-200.0
 30
0.0
 11
350.0
 21
-200.0
 31
0.0
  0
LINE
  5
A5
330
1F
100
AcDbEntity
  8
0
  6
Continuous
 62
     7
370
    25
100
AcDbLine
 10
-350.0
 20
200.0
 30
0.0
 11
-350.0
 21
-200.0
 31
0.0
  0
LINE
  5
A6
330
1F
100
AcDbEntity
  8
0
  6
Continuous
 62
     7
370
    25
100
AcDbLine
 10
232.0997874732
 20
-84.0487446321
 30
0.0
 11
-232.0997874732
 21
-84.0487446321
 31
0.0
  0
LINE
  5
A7
330
1F
100
AcDbEntity
  8
0
  6
Continuous
 62
     7
370
    25
100
AcDbLine
 10
-234.0487446321
 20
-82.0997874732
 30
0.0
 11
-234.0487446321
 21
82.0997874732
 31
0.0
  0
LINE
  5
A8
330
1F
100
AcDbEntity
  8
0
  6
Continuous
 62
     7
370
    25
100
AcDbLine
 10
-232.0997874732
 20
84.0487446321
 30
0.0
 11
232.0997874732
 21
84.0487446321
 31
0.0
  0
LINE
  5
A9
330
1F
100
AcDbEntity
  8
0
  6
Continuous
 62
     7
370
    25
100
AcDbLine
 10
218.4570873612
 20
-68.4570873612
 30
0.0
 11
218.4570873612
 21
68.4570873612
 31
0.0
  0
LINE
  5
AA
330
1F
100
AcDbEntity
  8
0
  6
Continuous
 62
     7
370
    25
100
AcDbLine
 10
218.4570873612
 20
68.4570873612
 30
0.0
 11
-218.4570873612
 21
68.4570873612
 31
0.0
  0
LINE
  5
AB
330
1F
100
AcDbEntity
  8
0
  6
Continuous
 62
     7
370
    25
100
AcDbLine
 10
-218.4570873612
 20
-68.4570873612
 30
0.0
 11
218.4570873612
 21
-68.4570873612
 31
0.0
  0
LINE
  5
AC
330
1F
100
AcDbEntity
  8
0
  6
Continuous
 62
     7
370
    25
100
AcDbLine
 10
-218.4570873612
 20
68.4570873612
 30
0.0
 11
-218.4570873612
 21
-68.4570873612
 31
0.0
  0
LINE
  5
B1
330
1B
100
AcDbEntity
 67
     1
  8
0
  6
Continuous
 62
     7
370
    25
100
AcDbLine
 10
-350.0
 20
120.0
 30
0.0
 11
350.0
 21
120.0
 31
0.0
  0
LINE
  5
B2
330
1B
100
AcDbEntity
 67
     1
  8
0
  6
Continuous
 62
     7
370
    25
100
AcDbLine
 10
-350.0
 20
0.0
 30
0.0
 11
350.0
 21
0.0
 31
0.0
  0
LINE
  5
B3
330
1B
100
AcDbEntity
 67
     1
  8
0
  6
Continuous
 62
     7
370
    25
100
AcDbLine
 10
-350.0
 20
0.0
 30
0.0
 11
-350.0
 21
120.0
 31
0.0
  0
LINE
  5
B4
330
1B
100
AcDbEntity
 67
     1
  8
0
  6
Continuous
 62
     7
370
    25
100
AcDbLine
 10
350.0
 20
0.0
 30
0.0
 11
350.0
 21
120.0
 31
0.0
  0
VIEWPORT
  5
1B6
330
1B
100
AcDbEntity
 67
     1
  8
0
100
AcDbViewport
 10
0.0
 20
0.0
 30
0.0
 40
205.6
 41
156.0
 68
     1
 69
     1
 12
0.0
 22
0.0
 13
0.0
 23
0.0
 14
10.0
 24
10.0
 15
10.0
 25
10.0
 16
0.0
 26
0.0
 36
1.0
 17
0.0
 27
0.0
 37
0.0
 42
50.0
 43
0.0
 44
0.0
 45
541.7509727626
 50
0.0
 51
0.0
 72
   100
 90
   557152
  1

281
     0
 71
     1
 74
     0
110
0.0
120
0.0
130
0.0
111
1.0
121
0.0
131
0.0
112
0.0
122
1.0
132
0.0
 79
     0
146
0.0
  0
ENDSEC
  0
SECTION
  2
OBJECTS
  0
DICTIONARY
  5
C
330
0
100
AcDbDictionary
281
     1
  3
ACAD_GROUP
350
D
  3
ACAD_LAYOUT
350
1A
  3
ACAD_MLINESTYLE
350
17
  3
ACAD_PLOTSETTINGS
350
19
  3
ACAD_PLOTSTYLENAME
350
E
  3
ACAD_SCALELIST
350
47
  0
DICTIONARY
  5
D
102
{ACAD_REACTORS
330
C
102
}
330
C
100
AcDbDictionary
281
     1
  0
DICTIONARY
  5
1A
102
{ACAD_REACTORS
330
C
102
}
330
C
100
AcDbDictionary
281
     1
  3
_Dimetrisch
350
17D
  3
_Isometrisch
350
EF
  3
_Links
350
CA
  3
_Normal auf
350
E3
  3
_Rechts
350
26
  3
_Rückseite
350
BE
  3
_Trimetrisch
350
13F
  3
_Unten
350
D6
  3
_Vorderseite
350
1E
  3
Model
350
22
  0
DICTIONARY
  5
17
102
{ACAD_REACTORS
330
C
102
}
330
C
100
AcDbDictionary
281
     1
  3
Standard
350
18
  0
DICTIONARY
  5
19
102
{ACAD_REACTORS
330
C
102
}
330
C
100
AcDbDictionary
281
     1
  0
ACDBDICTIONARYWDFLT
  5
E
102
{ACAD_REACTORS
330
C
102
}
330
C
100
AcDbDictionary
281
     1
  3
Normal
350
F
100
AcDbDictionaryWithDefault
340
F
  0
DICTIONARY
  5
47
102
{ACAD_REACTORS
330
C
102
}
330
C
100
AcDbDictionary
281
     1
  3
A0
350
48
  3
A1
350
49
  3
A2
350
4A
  3
A3
350
4B
  3
A4
350
4C
  3
A5
350
4D
  3
A6
350
4E
  3
A7
350
4F
  3
A8
350
50
  3
A9
350
51
  3
B0
350
52
  3
B1
350
53
  3
B2
350
54
  3
B3
350
55
  3
B4
350
56
  3
B5
350
57
  3
B6
350
58
  3
B7
350
59
  3
B8
350
5A
  3
B9
350
5B
  3
C0
350
5C
  3
C1
350
5D
  3
C2
350
5E
  3
C3
350
5F
  3
C4
350
60
  3
C5
350
61
  3
C6
350
62
  3
C7
350
63
  3
C8
350
64
  3
C9
350
65
  3
D0
350
66
  3
D1
350
67
  3
D2
350
68
  0
LAYOUT
  5
17D
102
{ACAD_REACTORS
330
1A
102
}
330
1A
100
AcDbPlotSettings
  1

  2
none_device
  4
ISO_A4_(210.00_x_297.00_MM)
  6

 40
7.5
 41
20.0
 42
7.5
 43
20.0
 44
210.0
 45
297.0
 46
0.0
 47
0.0
 48
0.0
 49
0.0
140
0.0
141
0.0
142
1.0
143
2.7237354086
 70
   688
 72
     1
 73
     1
 74
     1
  7

 75
     0
147
0.3671428571
148
350.0
149
0.0
100
AcDbLayout
  1
_Dimetrisch
 70
     1
 71
     9
 10
0.0
 20
0.0
 11
0.0
 21
0.0
 12
0.0
 22
0.0
 32
0.0
 14
0.0
 24
0.0
 34
0.0
 15
0.0
 25
0.0
 35
0.0
146
0.0
 13
0.0
 23
0.0
 33
0.0
 16
1.0
 26
0.0
 36
0.0
 17
0.0
 27
1.0
 37
0.0
 76
     0
330
17C
331
1C6
  0
LAYOUT
  5
EF
102
{ACAD_REACTORS
330
1A
102
}
330
1A
100
AcDbPlotSettings
  1

  2
none_device
  4
ISO_A4_(210.00_x_297.00_MM)
  6

 40
7.5
 41
20.0
 42
7.5
 43
20.0
 44
210.0
 45
297.0
 46
0.0
 47
0.0
 48
0.0
 49
0.0
140
0.0
141
0.0
142
1.0
143
2.7237354086
 70
   688
 72
     1
 73
     1
 74
     1
  7

 75
     0
147
0.3671428571
148
350.0
149
0.0
100
AcDbLayout
  1
_Isometrisch
 70
     1
 71
     7
 10
0.0
 20
0.0
 11
0.0
 21
0.0
 12
0.0
 22
0.0
 32
0.0
 14
0.0
 24
0.0
 34
0.0
 15
0.0
 25
0.0
 35
0.0
146
0.0
 13
0.0
 23
0.0
 33
0.0
 16
1.0
 26
0.0
 36
0.0
 17
0.0
 27
1.0
 37
0.0
 76
     0
330
EE
331
1C2
  0
LAYOUT
  5
CA
102
{ACAD_REACTORS
330
1A
102
}
330
1A
100
AcDbPlotSettings
  1

  2
none_device
  4
ISO_A4_(210.00_x_297.00_MM)
  6

 40
7.5
 41
20.0
 42
7.5
 43
20.0
 44
210.0
 45
297.0
 46
0.0
 47
0.0
 48
0.0
 49
0.0
140
0.0
141
0.0
142
1.0
143
2.7237354086
 70
   688
 72
     1
 73
     1
 74
     1
  7

 75
     0
147
0.3671428571
148
350.0
149
0.0
100
AcDbLayout
  1
_Links
 70
     1
 71
     4
 10
0.0
 20
0.0
 11
0.0
 21
0.0
 12
0.0
 22
0.0
 32
0.0
 14
0.0
 24
0.0
 34
0.0
 15
0.0
 25
0.0
 35
0.0
146
0.0
 13
0.0
 23
0.0
 33
0.0
 16
1.0
 26
0.0
 36
0.0
 17
0.0
 27
1.0
 37
0.0
 76
     0
330
C9
331
1BC
  0
LAYOUT
  5
E3
102
{ACAD_REACTORS
330
1A
102
}
330
1A
100
AcDbPlotSettings
  1

  2
none_device
  4
ISO_A4_(210.00_x_297.00_MM)
  6

 40
7.5
 41
20.0
 42
7.5
 43
20.0
 44
210.0
 45
297.0
 46
0.0
 47
0.0
 48
0.0
 49
0.0
140
0.0
141
0.0
142
1.0
143
2.7237354086
 70
   688
 72
     1
 73
     1
 74
     1
  7

 75
     0
147
0.3671428571
148
350.0
149
0.0
100
AcDbLayout
  1
_Normal auf
 70
     1
 71
     6
 10
0.0
 20
0.0
 11
0.0
 21
0.0
 12
0.0
 22
0.0
 32
0.0
 14
0.0
 24
0.0
 34
0.0
 15
0.0
 25
0.0
 35
0.0
146
0.0
 13
0.0
 23
0.0
 33
0.0
 16
1.0
 26
0.0
 36
0.0
 17
0.0
 27
1.0
 37
0.0
 76
     0
330
E2
331
1C0
  0
LAYOUT
  5
26
102
{ACAD_REACTORS
330
1A
102
}
330
1A
100
AcDbPlotSettings
  1

  2
none_device
  4
ISO_A4_(210.00_x_297.00_MM)
  6

 40
7.5
 41
20.0
 42
7.5
 43
20.0
 44
210.0
 45
297.0
 46
0.0
 47
0.0
 48
0.0
 49
0.0
140
0.0
141
0.0
142
1.0
143
2.7237354086
 70
   688
 72
     1
 73
     1
 74
     1
  7

 75
     0
147
0.3671428571
148
350.0
149
0.0
100
AcDbLayout
  1
_Rechts
 70
     1
 71
     2
 10
0.0
 20
0.0
 11
0.0
 21
0.0
 12
0.0
 22
0.0
 32
0.0
 14
0.0
 24
0.0
 34
0.0
 15
0.0
 25
0.0
 35
0.0
146
0.0
 13
0.0
 23
0.0
 33
0.0
 16
1.0
 26
0.0
 36
0.0
 17
0.0
 27
1.0
 37
0.0
 76
     0
330
23
331
1B8
  0
LAYOUT
  5
BE
102
{ACAD_REACTORS
330
1A
102
}
330
1A
100
AcDbPlotSettings
  1

  2
none_device
  4
ISO_A4_(210.00_x_297.00_MM)
  6

 40
7.5
 41
20.0
 42
7.5
 43
20.0
 44
210.0
 45
297.0
 46
0.0
 47
0.0
 48
0.0
 49
0.0
140
0.0
141
0.0
142
1.0
143
2.7237354086
 70
   688
 72
     1
 73
     1
 74
     1
  7

 75
     0
147
0.3671428571
148
350.0
149
0.0
100
AcDbLayout
  1
_Rückseite
 70
     1
 71
     3
 10
0.0
 20
0.0
 11
0.0
 21
0.0
 12
0.0
 22
0.0
 32
0.0
 14
0.0
 24
0.0
 34
0.0
 15
0.0
 25
0.0
 35
0.0
146
0.0
 13
0.0
 23
0.0
 33
0.0
 16
1.0
 26
0.0
 36
0.0
 17
0.0
 27
1.0
 37
0.0
 76
     0
330
BD
331
1BA
  0
LAYOUT
  5
13F
102
{ACAD_REACTORS
330
1A
102
}
330
1A
100
AcDbPlotSettings
  1

  2
none_device
  4
ISO_A4_(210.00_x_297.00_MM)
  6

 40
7.5
 41
20.0
 42
7.5
 43
20.0
 44
210.0
 45
297.0
 46
0.0
 47
0.0
 48
0.0
 49
0.0
140
0.0
141
0.0
142
1.0
143
2.7237354086
 70
   688
 72
     1
 73
     1
 74
     1
  7

 75
     0
147
0.3671428571
148
350.0
149
0.0
100
AcDbLayout
  1
_Trimetrisch
 70
     1
 71
     8
 10
0.0
 20
0.0
 11
0.0
 21
0.0
 12
0.0
 22
0.0
 32
0.0
 14
0.0
 24
0.0
 34
0.0
 15
0.0
 25
0.0
 35
0.0
146
0.0
 13
0.0
 23
0.0
 33
0.0
 16
1.0
 26
0.0
 36
0.0
 17
0.0
 27
1.0
 37
0.0
 76
     0
330
13E
331
1C4
  0
LAYOUT
  5
D6
102
{ACAD_REACTORS
330
1A
102
}
330
1A
100
AcDbPlotSettings
  1

  2
none_device
  4
ISO_A4_(210.00_x_297.00_MM)
  6

 40
7.5
 41
20.0
 42
7.5
 43
20.0
 44
210.0
 45
297.0
 46
0.0
 47
0.0
 48
0.0
 49
0.0
140
0.0
141
0.0
142
1.0
143
2.7237354086
 70
   688
 72
     1
 73
     1
 74
     1
  7

 75
     0
147
0.3671428571
148
350.0
149
0.0
100
AcDbLayout
  1
_Unten
 70
     1
 71
     5
 10
0.0
 20
0.0
 11
0.0
 21
0.0
 12
0.0
 22
0.0
 32
0.0
 14
0.0
 24
0.0
 34
0.0
 15
0.0
 25
0.0
 35
0.0
146
0.0
 13
0.0
 23
0.0
 33
0.0
 16
1.0
 26
0.0
 36
0.0
 17
0.0
 27
1.0
 37
0.0
 76
     0
330
D5
331
1BE
  0
LAYOUT
  5
1E
102
{ACAD_REACTORS
330
1A
102
}
330
1A
100
AcDbPlotSettings
  1

  2
none_device
  4
ISO_A4_(210.00_x_297.00_MM)
  6

 40
7.5
 41
20.0
 42
7.5
 43
20.0
 44
210.0
 45
297.0
 46
0.0
 47
0.0
 48
0.0
 49
0.0
140
0.0
141
0.0
142
1.0
143
2.7237354086
 70
   688
 72
     1
 73
     1
 74
     1
  7

 75
     0
147
0.3671428571
148
350.0
149
0.0
100
AcDbLayout
  1
_Vorderseite
 70
     1
 71
     1
 10
-404.4747081712
 20
-20.4280155642
 11
404.4747081712
 21
551.5564202335
 12
0.0
 22
0.0
 32
0.0
 14
-350.0
 24
0.0
 34
0.0
 15
350.0
 25
120.0
 35
0.0
146
0.0
 13
0.0
 23
0.0
 33
0.0
 16
1.0
 26
0.0
 36
0.0
 17
0.0
 27
1.0
 37
0.0
 76
     0
330
1B
331
1B6
  0
LAYOUT
  5
22
102
{ACAD_REACTORS
330
1A
102
}
330
1A
100
AcDbPlotSettings
  1

  2
none_device
  4
ANSI_A_(11.00_x_8.50_Inches)
  6

 40
6.35
 41
19.05
 42
6.35000508
 43
19.05000254
 44
279.4
 45
215.9
 46
133.34999746
 47
88.89999873
 48
0.0
 49
0.0
140
0.0
141
0.0
142
0.0155571429
143
1.0
 70
  1696
 72
     0
 73
     0
 74
     0
  7

 75
     0
147
0.0179189148
148
-1300.4909072572
149
0.0
100
AcDbLayout
  1
Model
 70
     1
 71
     0
 10
0.0
 20
0.0
 11
420.0
 21
297.0
 12
0.0
 22
0.0
 32
0.0
 14
-350.0
 24
-200.0
 34
0.0
 15
350.0
 25
200.0
 35
0.0
146
0.0
 13
0.0
 23
0.0
 33
0.0
 16
1.0
 26
0.0
 36
0.0
 17
0.0
 27
1.0
 37
0.0
 76
     0
330
1F
331
29
  0
MLINESTYLE
  5
18
102
{ACAD_REACTORS
330
17
102
}
330
17
100
AcDbMlineStyle
  2
Standard
 70
     0
  3

 62
   256
 51
90.0
 52
90.0
 71
     2
 49
0.5
 62
   256
  6
BYLAYER
 49
-0.5
 62
   256
  6
BYLAYER
  0
ACDBPLACEHOLDER
  5
F
102
{ACAD_REACTORS
330
E
102
}
330
E
  0
SCALE
  5
48
102
{ACAD_REACTORS
330
47
102
}
330
47
100
AcDbScale
 70
     0
300
1:1
140
1.0
141
1.0
290
     1
  0
SCALE
  5
49
102
{ACAD_REACTORS
330
47
102
}
330
47
100
AcDbScale
 70
     0
300
1:2
140
1.0
141
2.0
290
     0
  0
SCALE
  5
4A
102
{ACAD_REACTORS
330
47
102
}
330
47
100
AcDbScale
 70
     0
300
1:4
140
1.0
141
4.0
290
     0
  0
SCALE
  5
4B
102
{ACAD_REACTORS
330
47
102
}
330
47
100
AcDbScale
 70
     0
300
1:5
140
1.0
141
5.0
290
     0
  0
SCALE
  5
4C
102
{ACAD_REACTORS
330
47
102
}
330
47
100
AcDbScale
 70
     0
300
1:8
140
1.0
141
8.0
290
     0
  0
SCALE
  5
4D
102
{ACAD_REACTORS
330
47
102
}
330
47
100
AcDbScale
 70
     0
300
1:10
140
1.0
141
10.0
290
     0
  0
SCALE
  5
4E
102
{ACAD_REACTORS
330
47
102
}
330
47
100
AcDbScale
 70
     0
300
1:16
140
1.0
141
16.0
290
     0
  0
SCALE
  5
4F
102
{ACAD_REACTORS
330
47
102
}
330
47
100
AcDbScale
 70
     0
300
1:20
140
1.0
141
20.0
290
     0
  0
SCALE
  5
50
102
{ACAD_REACTORS
330
47
102
}
330
47
100
AcDbScale
 70
     0
300
1:30
140
1.0
141
30.0
290
     0
  0
SCALE
  5
51
102
{ACAD_REACTORS
330
47
102
}
330
47
100
AcDbScale
 70
     0
300
1:40
140
1.0
141
40.0
290
     0
  0
SCALE
  5
52
102
{ACAD_REACTORS
330
47
102
}
330
47
100
AcDbScale
 70
     0
300
1:50
140
1.0
141
50.0
290
     0
  0
SCALE
  5
53
102
{ACAD_REACTORS
330
47
102
}
330
47
100
AcDbScale
 70
     0
300
1:100
140
1.0
141
100.0
290
     0
  0
SCALE
  5
54
102
{ACAD_REACTORS
330
47
102
}
330
47
100
AcDbScale
 70
     0
300
2:1
140
2.0
141
1.0
290
     0
  0
SCALE
  5
55
102
{ACAD_REACTORS
330
47
102
}
330
47
100
AcDbScale
 70
     0
300
4:1
140
4.0
141
1.0
290
     0
  0
SCALE
  5
56
102
{ACAD_REACTORS
330
47
102
}
330
47
100
AcDbScale
 70
     0
300
8:1
140
8.0
141
1.0
290
     0
  0
SCALE
  5
57
102
{ACAD_REACTORS
330
47
102
}
330
47
100
AcDbScale
 70
     0
300
10:1
140
10.0
141
1.0
290
     0
  0
SCALE
  5
58
102
{ACAD_REACTORS
330
47
102
}
330
47
100
AcDbScale
 70
     0
300
100:1
140
100.0
141
1.0
290
     0
  0
SCALE
  5
59
102
{ACAD_REACTORS
330
47
102
}
330
47
100
AcDbScale
 70
     0
300
1/128" = 1'-0"
140
0.0078125
141
12.0
290
     0
  0
SCALE
  5
5A
102
{ACAD_REACTORS
330
47
102
}
330
47
100
AcDbScale
 70
     0
300
1/64" = 1'-0"
140
0.015625
141
12.0
290
     0
  0
SCALE
  5
5B
102
{ACAD_REACTORS
330
47
102
}
330
47
100
AcDbScale
 70
     0
300
1/32" = 1'-0"
140
0.03125
141
12.0
290
     0
  0
SCALE
  5
5C
102
{ACAD_REACTORS
330
47
102
}
330
47
100
AcDbScale
 70
     0
300
1/16" = 1'-0"
140
0.0625
141
12.0
290
     0
  0
SCALE
  5
5D
102
{ACAD_REACTORS
330
47
102
}
330
47
100
AcDbScale
 70
     0
300
3/32" = 1'-0"
140
0.09375
141
12.0
290
     0
  0
SCALE
  5
5E
102
{ACAD_REACTORS
330
47
102
}
330
47
100
AcDbScale
 70
     0
300
1/8" = 1'-0"
140
0.125
141
12.0
290
     0
  0
SCALE
  5
5F
102
{ACAD_REACTORS
330
47
102
}
330
47
100
AcDbScale
 70
     0
300
3/16" = 1'-0"
140
0.1875
141
12.0
290
     0
  0
SCALE
  5
60
102
{ACAD_REACTORS
330
47
102
}
330
47
100
AcDbScale
 70
     0
300
1/4" = 1'-0"
140
0.25
141
12.0
290
     0
  0
SCALE
  5
61
102
{ACAD_REACTORS
330
47
102
}
330
47
100
AcDbScale
 70
     0
300
3/8" = 1'-0"
140
0.375
141
12.0
290
     0
  0
SCALE
  5
62
102
{ACAD_REACTORS
330
47
102
}
330
47
100
AcDbScale
 70
     0
300
1/2" = 1'-0"
140
0.5
141
12.0
290
     0
  0
SCALE
  5
63
102
{ACAD_REACTORS
330
47
102
}
330
47
100
AcDbScale
 70
     0
300
3/4" = 1'-0"
140
0.75
141
12.0
290
     0
  0
SCALE
  5
64
102
{ACAD_REACTORS
330
47
102
}
330
47
100
AcDbScale
 70
     0
300
1" = 1'-0"
140
1.0
141
12.0
290
     0
  0
SCALE
  5
65
102
{ACAD_REACTORS
330
47
102
}
330
47
100
AcDbScale
 70
     0
300
1-1/2" = 1'-0"
140
1.5
141
12.0
290
     0
  0
SCALE
  5
66
102
{ACAD_REACTORS
330
47
102
}
330
47
100
AcDbScale
 70
     0
300
3" = 1'-0"
140
3.0
141
12.0
290
     0
  0
SCALE
  5
67
102
{ACAD_REACTORS
330
47
102
}
330
47
100
AcDbScale
 70
     0
300
6" = 1'-0"
140
6.0
141
12.0
290
     0
  0
SCALE
  5
68
102
{ACAD_REACTORS
330
47
102
}
330
47
100
AcDbScale
 70
     0
300
1'-0" = 1'-0"
140
12.0
141
12.0
290
     0
  0
ENDSEC
  0
EOF
