  0
SECTION
  2
HEADER
  9
$ACADVER
  1
AC1015
  9
$ACADMAINTVER
 70
     6
  9
$DWGCODEPAGE
  3
ANSI_1252
  9
$INSBASE
 10
0.0
 20
0.0
 30
0.0
  9
$EXTMIN
 10
0.0
 20
-145.0
 30
0.0
  9
$EXTMAX
 10
650.0
 20
0.0
 30
0.0
  9
$LIMMIN
 10
0.0
 20
0.0
  9
$LIMMAX
 10
420.0
 20
297.0
  9
$ORTHOMODE
 70
     0
  9
$REGENMODE
 70
     1
  9
$FILLMODE
 70
     1
  9
$QTEXTMODE
 70
     0
  9
$MIRRTEXT
 70
     1
  9
$LTSCALE
 40
1.0
  9
$ATTMODE
 70
     1
  9
$TEXTSIZE
 40
3.5
  9
$TRACEWID
 40
1.0
  9
$TEXTSTYLE
  7
STANDARD
  9
$CLAYER
  8
0
  9
$CELTYPE
  6
ByLayer
  9
$CECOLOR
 62
   256
  9
$CELTSCALE
 40
1.0
  9
$DISPSILH
 70
     0
  9
$DIMSCALE
 40
1.0
  9
$DIMASZ
 40
6.0
  9
$DIMEXO
 40
1.0
  9
$DIMDLI
 40
3.75
  9
$DIMRND
 40
0.0
  9
$DIMDLE
 40
0.0
  9
$DIMEXE
 40
1.0
  9
$DIMTP
 40
0.0
  9
$DIMTM
 40
0.0
  9
$DIMTXT
 40
3.5
  9
$DIMCEN
 40
2.5
  9
$DIMTSZ
 40
0.0
  9
$DIMTOL
 70
     0
  9
$DIMLIM
 70
     0
  9
$DIMTIH
 70
     1
  9
$DIMTOH
 70
     1
  9
$DIMSE1
 70
     0
  9
$DIMSE2
 70
     0
  9
$DIMTAD
 70
     1
  9
$DIMZIN
 70
     0
  9
$DIMBLK
  1

  9
$DIMASO
 70
     1
  9
$DIMSHO
 70
     1
  9
$DIMPOST
  1

  9
$DIMAPOST
  1

  9
$DIMALT
 70
     0
  9
$DIMALTD
 70
     3
  9
$DIMALTF
 40
0.0393700787
  9
$DIMLFAC
 40
1.0
  9
$DIMTOFL
 70
     1
  9
$DIMTVP
 40
0.0
  9
$DIMTIX
 70
     0
  9
$DIMSOXD
 70
     0
  9
$DIMSAH
 70
     0
  9
$DIMBLK1
  1

  9
$DIMBLK2
  1

  9
$DIMSTYLE
  2
ISO-25
  9
$DIMCLRD
 70
     0
  9
$DIMCLRE
 70
     0
  9
$DIMCLRT
 70
     0
  9
$DIMTFAC
 40
1.0
  9
$DIMGAP
 40
1.524
  9
$DIMJUST
 70
     0
  9
$DIMSD1
 70
     0
  9
$DIMSD2
 70
     0
  9
$DIMTOLJ
 70
     0
  9
$DIMTZIN
 70
     0
  9
$DIMALTZ
 70
     0
  9
$DIMALTTZ
 70
     0
  9
$DIMUPT
 70
     0
  9
$DIMDEC
 70
     2
  9
$DIMTDEC
 70
     2
  9
$DIMALTU
 70
     2
  9
$DIMALTTD
 70
     3
  9
$DIMTXSTY
  7
STANDARD
  9
$DIMAUNIT
 70
     0
  9
$DIMADEC
 70
     2
  9
$DIMALTRND
 40
0.0
  9
$DIMAZIN
 70
     0
  9
$DIMDSEP
 70
    44
  9
$DIMATFIT
 70
     3
  9
$DIMFRAC
 70
     0
  9
$DIMLDRBLK
  1

  9
$DIMLUNIT
 70
     2
  9
$DIMLWD
 70
    -2
  9
$DIMLWE
 70
    -2
  9
$DIMTMOVE
 70
     0
  9
$LUNITS
 70
     2
  9
$LUPREC
 70
     2
  9
$SKETCHINC
 40
1.0
  9
$FILLETRAD
 40
10.0
  9
$AUNITS
 70
     0
  9
$AUPREC
 70
     2
  9
$MENU
  1
.
  9
$ELEVATION
 40
0.0
  9
$PELEVATION
 40
0.0
  9
$THICKNESS
 40
0.0
  9
$LIMCHECK
 70
     0
  9
$CHAMFERA
 40
0.0
  9
$CHAMFERB
 40
0.0
  9
$CHAMFERC
 40
0.0
  9
$CHAMFERD
 40
0.0
  9
$SKPOLY
 70
     0
  9
$TDCREATE
 40
2459027.488897048
  9
$TDUCREATE
 40
2459027.405563715
  9
$TDUPDATE
 40
2459027.488937674
  9
$TDUUPDATE
 40
2459027.40560434
  9
$TDINDWG
 40
0.0000000116
  9
$TDUSRTIMER
 40
0.0000000116
  9
$USRTIMER
 70
     1
  9
$ANGBASE
 50
0.0
  9
$ANGDIR
 70
     0
  9
$PDMODE
 70
     0
  9
$PDSIZE
 40
-1.0
  9
$PLINEWID
 40
0.0
  9
$SPLFRAME
 70
     0
  9
$SPLINETYPE
 70
     6
  9
$SPLINESEGS
 70
     8
  9
$HANDSEED
  5
27D
  9
$SURFTAB1
 70
     6
  9
$SURFTAB2
 70
     6
  9
$SURFTYPE
 70
     6
  9
$SURFU
 70
     6
  9
$SURFV
 70
     6
  9
$UCSBASE
  2

  9
$UCSNAME
  2

  9
$UCSORG
 10
0.0
 20
0.0
 30
0.0
  9
$UCSXDIR
 10
1.0
 20
0.0
 30
0.0
  9
$UCSYDIR
 10
0.0
 20
1.0
 30
0.0
  9
$UCSORTHOREF
  2

  9
$UCSORTHOVIEW
 70
     0
  9
$UCSORGTOP
 10
0.0
 20
0.0
 30
0.0
  9
$UCSORGBOTTOM
 10
0.0
 20
0.0
 30
0.0
  9
$UCSORGLEFT
 10
0.0
 20
0.0
 30
0.0
  9
$UCSORGRIGHT
 10
0.0
 20
0.0
 30
0.0
  9
$UCSORGFRONT
 10
0.0
 20
0.0
 30
0.0
  9
$UCSORGBACK
 10
0.0
 20
0.0
 30
0.0
  9
$PUCSBASE
  2

  9
$PUCSNAME
  2

  9
$PUCSORG
 10
0.0
 20
0.0
 30
0.0
  9
$PUCSXDIR
 10
1.0
 20
0.0
 30
0.0
  9
$PUCSYDIR
 10
0.0
 20
1.0
 30
0.0
  9
$PUCSORTHOREF
  2

  9
$PUCSORTHOVIEW
 70
     0
  9
$PUCSORGTOP
 10
0.0
 20
0.0
 30
0.0
  9
$PUCSORGBOTTOM
 10
0.0
 20
0.0
 30
0.0
  9
$PUCSORGLEFT
 10
0.0
 20
0.0
 30
0.0
  9
$PUCSORGRIGHT
 10
0.0
 20
0.0
 30
0.0
  9
$PUCSORGFRONT
 10
0.0
 20
0.0
 30
0.0
  9
$PUCSORGBACK
 10
0.0
 20
0.0
 30
0.0
  9
$USERI1
 70
     0
  9
$USERI2
 70
     0
  9
$USERI3
 70
     0
  9
$USERI4
 70
     0
  9
$USERI5
 70
     0
  9
$USERR1
 40
0.0
  9
$USERR2
 40
0.0
  9
$USERR3
 40
0.0
  9
$USERR4
 40
0.0
  9
$USERR5
 40
0.0
  9
$WORLDVIEW
 70
     1
  9
$SHADEDGE
 70
     3
  9
$SHADEDIF
 70
    70
  9
$TILEMODE
 70
     1
  9
$MAXACTVP
 70
    64
  9
$PINSBASE
 10
0.0
 20
0.0
 30
0.0
  9
$PLIMCHECK
 70
     0
  9
$PEXTMIN
 10
0.0
 20
0.0
 30
0.0
  9
$PEXTMAX
 10
650.0
 20
103.0
 30
0.0
  9
$PLIMMIN
 10
-50.5836575875
 20
-18.9688715953
  9
$PLIMMAX
 10
700.5836575875
 20
512.1595330739
  9
$UNITMODE
 70
     0
  9
$VISRETAIN
 70
     1
  9
$PLINEGEN
 70
     0
  9
$PSLTSCALE
 70
     1
  9
$TREEDEPTH
 70
  3020
  9
$CMLSTYLE
  2
Standard
  9
$CMLJUST
 70
     0
  9
$CMLSCALE
 40
20.0
  9
$PROXYGRAPHICS
 70
     1
  9
$MEASUREMENT
 70
     1
  9
$CELWEIGHT
370
    -1
  9
$ENDCAPS
280
     0
  9
$JOINSTYLE
280
     0
  9
$LWDISPLAY
290
     1
  9
$INSUNITS
 70
     4
  9
$HYPERLINKBASE
  1

  9
$STYLESHEET
  1

  9
$XEDIT
290
     1
  9
$CEPSNTYPE
380
     0
  9
$PSTYLEMODE
290
     1
  9
$FINGERPRINTGUID
  2
{8b908c62-9237-4eb4-95c3-a82c69588f67}
  9
$VERSIONGUID
  2
{FAEB1C32-E019-11D5-929B-00C0DF256EC4}
  9
$EXTNAMES
290
     1
  9
$PSVPSCALE
 40
0.0
  9
$OLESTARTUP
290
     0
  0
ENDSEC
  0
SECTION
  2
CLASSES
  0
CLASS
  1
ACDBDICTIONARYWDFLT
  2
AcDbDictionaryWithDefault
  3
ObjectDBX Classes
 90
        0
280
     0
281
     0
  0
CLASS
  1
VISUALSTYLE
  2
AcDbVisualStyle
  3
ObjectDBX Classes
 90
     4095
280
     0
281
     0
  0
CLASS
  1
MATERIAL
  2
AcDbMaterial
  3
ObjectDBX Classes
 90
     1153
280
     0
281
     0
  0
CLASS
  1
SCALE
  2
AcDbScale
  3
ObjectDBX Classes
 90
     1153
280
     0
281
     0
  0
CLASS
  1
TABLESTYLE
  2
AcDbTableStyle
  3
ObjectDBX Classes
 90
     4095
280
     0
281
     0
  0
CLASS
  1
MLEADERSTYLE
  2
AcDbMLeaderStyle
  3
ACDB_MLEADERSTYLE_CLASS
 90
     4095
280
     0
281
     0
  0
CLASS
  1
SUN
  2
AcDbSun
  3
SCENEOE
 90
     1153
280
     0
281
     0
  0
CLASS
  1
ACDBPLACEHOLDER
  2
AcDbPlaceHolder
  3
ObjectDBX Classes
 90
        0
280
     0
281
     0
  0
CLASS
  1
LAYOUT
  2
AcDbLayout
  3
ObjectDBX Classes
 90
        0
280
     0
281
     0
  0
ENDSEC
  0
SECTION
  2
TABLES
  0
TABLE
  2
VPORT
  5
8
330
0
100
AcDbSymbolTable
 70
     1
  0
VPORT
  5
29
330
8
100
AcDbSymbolTableRecord
100
AcDbViewportTableRecord
  2
*Active
 70
     0
 10
0.0
 20
0.0
 11
1.0
 21
1.0
 12
325.0
 22
-72.5
 13
0.0
 23
0.0
 14
10.0
 24
10.0
 15
10.0
 25
10.0
 16
0.0
 26
0.0
 36
1.0
 17
0.0
 27
0.0
 37
0.0
 40
147.9
 41
4.4827586207
 42
50.0
 43
0.0
 44
0.0
 50
0.0
 51
0.0
 71
     0
 72
   100
 73
     1
 74
     3
 75
     0
 76
     0
 77
     0
 78
     0
281
     0
 65
     1
110
0.0
120
0.0
130
0.0
111
1.0
121
0.0
131
0.0
112
0.0
122
1.0
132
0.0
 79
     0
146
0.0
  0
ENDTAB
  0
TABLE
  2
LTYPE
  5
5
330
0
100
AcDbSymbolTable
 70
     6
  0
LTYPE
  5
14
330
5
100
AcDbSymbolTableRecord
100
AcDbLinetypeTableRecord
  2
ByBlock
 70
     0
  3

 72
    65
 73
     0
 40
0.0
  0
LTYPE
  5
15
330
5
100
AcDbSymbolTableRecord
100
AcDbLinetypeTableRecord
  2
ByLayer
 70
     0
  3

 72
    65
 73
     0
 40
0.0
  0
LTYPE
  5
16
330
5
100
AcDbSymbolTableRecord
100
AcDbLinetypeTableRecord
  2
Continuous
 70
     0
  3
Solid line
 72
    65
 73
     0
 40
0.0
  0
LTYPE
  5
6E
330
5
100
AcDbSymbolTableRecord
100
AcDbLinetypeTableRecord
  2
HIDDEN
 70
     0
  3
Hidden __ __ __ __ __ __ __ __ __ __ __ __ __ __
 72
    65
 73
     2
 40
1.905
 49
1.27
 74
     0
 49
-0.635
 74
     0
  0
LTYPE
  5
6F
330
5
100
AcDbSymbolTableRecord
100
AcDbLinetypeTableRecord
  2
PHANTOM
 70
     0
  3
Phantom ______  __  __  ______  __  __  ______
 72
    65
 73
     6
 40
12.7
 49
6.35
 74
     0
 49
-1.27
 74
     0
 49
1.27
 74
     0
 49
-1.27
 74
     0
 49
1.27
 74
     0
 49
-1.27
 74
     0
  0
LTYPE
  5
70
330
5
100
AcDbSymbolTableRecord
100
AcDbLinetypeTableRecord
  2
CENTER
 70
     0
  3
Center ____ _ ____ _ ____ _ ____ _ ____ _ ____
 72
    65
 73
     4
 40
10.16
 49
6.35
 74
     0
 49
-1.27
 74
     0
 49
1.27
 74
     0
 49
-1.27
 74
     0
  0
LTYPE
  5
71
330
5
100
AcDbSymbolTableRecord
100
AcDbLinetypeTableRecord
  2
CENTERX2
 70
     0
  3
Center (2x) ________  __  ________  __  _____
 72
    65
 73
     4
 40
20.32
 49
12.7
 74
     0
 49
-2.54
 74
     0
 49
2.54
 74
     0
 49
-2.54
 74
     0
  0
LTYPE
  5
72
330
5
100
AcDbSymbolTableRecord
100
AcDbLinetypeTableRecord
  2
DOT2
 70
     0
  3
Dot (.5x) ........................................
 72
    65
 73
     2
 40
0.635
 49
0.0
 74
     0
 49
-0.635
 74
     0
  0
ENDTAB
  0
TABLE
  2
LAYER
  5
2
330
0
100
AcDbSymbolTable
 70
     1
  0
LAYER
  5
10
330
2
100
AcDbSymbolTableRecord
100
AcDbLayerTableRecord
  2
0
 70
     0
 62
     7
  6
Continuous
370
    -3
390
F
  0
ENDTAB
  0
TABLE
  2
STYLE
  5
3
330
0
100
AcDbSymbolTable
 70
     1
  0
STYLE
  5
11
330
3
100
AcDbSymbolTableRecord
100
AcDbTextStyleTableRecord
  2
STANDARD
 70
     0
 40
0.0
 41
1.0
 50
0.0
 71
     0
 42
3.5
  3
GOTHIC.TTF
  4

1001
ACAD
1000
CENTURY GOTHIC
1071
       34
  0
ENDTAB
  0
TABLE
  2
VIEW
  5
6
330
0
100
AcDbSymbolTable
 70
     0
  0
ENDTAB
  0
TABLE
  2
UCS
  5
7
330
0
100
AcDbSymbolTable
 70
     0
  0
ENDTAB
  0
TABLE
  2
APPID
  5
9
330
0
100
AcDbSymbolTable
 70
     1
  0
APPID
  5
12
330
9
100
AcDbSymbolTableRecord
100
AcDbRegAppTableRecord
  2
ACAD
 70
     0
  0
ENDTAB
  0
TABLE
  2
DIMSTYLE
  5
A
330
0
100
AcDbSymbolTable
 70
     1
100
AcDbDimStyleTable
  0
DIMSTYLE
105
27
330
A
100
AcDbSymbolTableRecord
100
AcDbDimStyleTableRecord
  2
ISO-25
 70
     0
 41
2.5
 42
0.625
 43
3.75
 44
1.25
 73
     0
 74
     0
 77
     1
 78
     8
140
2.5
141
2.5
143
0.0393700787
147
0.625
171
     3
172
     1
178
     0
271
     2
272
     2
274
     3
278
    44
283
     0
284
     8
340
11
  0
ENDTAB
  0
TABLE
  2
BLOCK_RECORD
  5
1
330
0
100
AcDbSymbolTable
 70
     8
  0
BLOCK_RECORD
  5
1F
330
1
100
AcDbSymbolTableRecord
100
AcDbBlockTableRecord
  2
*Model_Space
340
22
  0
BLOCK_RECORD
  5
1B
330
1
100
AcDbSymbolTableRecord
100
AcDbBlockTableRecord
  2
*Paper_Space
340
1E
  0
BLOCK_RECORD
  5
23
330
1
100
AcDbSymbolTableRecord
100
AcDbBlockTableRecord
  2
*Paper_Space0
340
26
  0
BLOCK_RECORD
  5
C6
330
1
100
AcDbSymbolTableRecord
100
AcDbBlockTableRecord
  2
*Paper_Space1
340
C7
  0
BLOCK_RECORD
  5
D6
330
1
100
AcDbSymbolTableRecord
100
AcDbBlockTableRecord
  2
*Paper_Space2
340
D7
  0
BLOCK_RECORD
  5
E2
330
1
100
AcDbSymbolTableRecord
100
AcDbBlockTableRecord
  2
*Paper_Space3
340
E3
  0
BLOCK_RECORD
  5
F2
330
1
100
AcDbSymbolTableRecord
100
AcDbBlockTableRecord
  2
*Paper_Space4
340
F3
  0
BLOCK_RECORD
  5
102
330
1
100
AcDbSymbolTableRecord
100
AcDbBlockTableRecord
  2
*Paper_Space5
340
103
  0
BLOCK_RECORD
  5
185
330
1
100
AcDbSymbolTableRecord
100
AcDbBlockTableRecord
  2
*Paper_Space6
340
186
  0
BLOCK_RECORD
  5
1F8
330
1
100
AcDbSymbolTableRecord
100
AcDbBlockTableRecord
  2
*Paper_Space7
340
1F9
  0
ENDTAB
  0
ENDSEC
  0
SECTION
  2
BLOCKS
  0
BLOCK
  5
20
330
1F
100
AcDbEntity
  8
0
100
AcDbBlockBegin
  2
*Model_Space
 70
     0
 10
0.0
 20
0.0
 30
0.0
  3
*Model_Space
  1

  0
ENDBLK
  5
21
330
1F
100
AcDbEntity
  8
0
100
AcDbBlockEnd
  0
BLOCK
  5
1C
330
1B
100
AcDbEntity
 67
     1
  8
0
100
AcDbBlockBegin
  2
*Paper_Space
 70
     0
 10
0.0
 20
0.0
 30
0.0
  3
*Paper_Space
  1

  0
ENDBLK
  5
1D
330
1B
100
AcDbEntity
 67
     1
  8
0
100
AcDbBlockEnd
  0
BLOCK
  5
24
330
23
100
AcDbEntity
  8
0
100
AcDbBlockBegin
  2
*Paper_Space0
 70
     0
 10
0.0
 20
0.0
 30
0.0
  3
*Paper_Space0
  1

  0
LINE
  5
B0
330
23
100
AcDbEntity
  8
0
  6
Continuous
 62
     7
370
    25
100
AcDbLine
 10
-141.0
 20
0.0
 30
0.0
 11
0.0
 21
0.0
 31
0.0
  0
LINE
  5
B1
330
23
100
AcDbEntity
  8
0
  6
Continuous
 62
     7
370
    25
100
AcDbLine
 10
-141.0
 20
8.0
 30
0.0
 11
-141.0
 21
0.0
 31
0.0
  0
LINE
  5
B2
330
23
100
AcDbEntity
  8
0
  6
Continuous
 62
     7
370
    25
100
AcDbLine
 10
-145.0
 20
8.0
 30
0.0
 11
-141.0
 21
8.0
 31
0.0
  0
LINE
  5
B3
330
23
100
AcDbEntity
  8
0
  6
Continuous
 62
     7
370
    25
100
AcDbLine
 10
-145.0
 20
103.0
 30
0.0
 11
-145.0
 21
8.0
 31
0.0
  0
LINE
  5
B4
330
23
100
AcDbEntity
  8
0
  6
Continuous
 62
     7
370
    25
100
AcDbLine
 10
0.0
 20
103.0
 30
0.0
 11
-145.0
 21
103.0
 31
0.0
  0
LINE
  5
B5
330
23
100
AcDbEntity
  8
0
  6
Continuous
 62
     7
370
    25
100
AcDbLine
 10
0.0
 20
0.0
 30
0.0
 11
0.0
 21
103.0
 31
0.0
  0
LINE
  5
B6
330
23
100
AcDbEntity
  8
0
  6
Continuous
 62
     7
370
    25
100
AcDbLine
 10
-137.0
 20
8.0
 30
0.0
 11
-8.0
 21
8.0
 31
0.0
  0
LINE
  5
B7
330
23
100
AcDbEntity
  8
0
  6
Continuous
 62
     7
370
    25
100
AcDbLine
 10
-137.0
 20
95.0
 30
0.0
 11
-137.0
 21
8.0
 31
0.0
  0
LINE
  5
B8
330
23
100
AcDbEntity
  8
0
  6
Continuous
 62
     7
370
    25
100
AcDbLine
 10
-8.0
 20
95.0
 30
0.0
 11
-137.0
 21
95.0
 31
0.0
  0
LINE
  5
B9
330
23
100
AcDbEntity
  8
0
  6
Continuous
 62
     7
370
    25
100
AcDbLine
 10
-8.0
 20
8.0
 30
0.0
 11
-8.0
 21
95.0
 31
0.0
  0
LINE
  5
BA
330
23
100
AcDbEntity
  8
0
  6
Continuous
 62
     7
370
    25
100
AcDbLine
 10
-9.0
 20
8.0
 30
0.0
 11
-9.0
 21
94.0
 31
0.0
  0
LINE
  5
BB
330
23
100
AcDbEntity
  8
0
  6
Continuous
 62
     7
370
    25
100
AcDbLine
 10
-136.0
 20
94.0
 30
0.0
 11
-136.0
 21
8.0
 31
0.0
  0
LINE
  5
BC
330
23
100
AcDbEntity
  8
0
  6
Continuous
 62
     7
370
    25
100
AcDbLine
 10
-54.0
 20
63.0
 30
0.0
 11
-91.0
 21
63.0
 31
0.0
  0
LINE
  5
BD
330
23
100
AcDbEntity
  8
0
  6
Continuous
 62
     7
370
    25
100
AcDbLine
 10
-96.0
 20
58.0
 30
0.0
 11
-96.0
 21
44.0
 31
0.0
  0
LINE
  5
BE
330
23
100
AcDbEntity
  8
0
  6
Continuous
 62
     7
370
    25
100
AcDbLine
 10
-91.0
 20
39.0
 30
0.0
 11
-54.0
 21
39.0
 31
0.0
  0
LINE
  5
BF
330
23
100
AcDbEntity
  8
0
  6
Continuous
 62
     7
370
    25
100
AcDbLine
 10
-136.0
 20
94.0
 30
0.0
 11
-9.0
 21
94.0
 31
0.0
  0
LINE
  5
C0
330
23
100
AcDbEntity
  8
0
  6
Continuous
 62
     7
370
    25
100
AcDbLine
 10
-49.0
 20
44.0
 30
0.0
 11
-49.0
 21
58.0
 31
0.0
  0
LINE
  5
C1
330
23
100
AcDbEntity
  8
0
  6
Continuous
 62
     7
370
    25
100
AcDbLine
 10
-96.0
 20
48.0
 30
0.0
 11
-49.0
 21
48.0
 31
0.0
  0
ARC
  5
C2
330
23
100
AcDbEntity
  8
0
  6
Continuous
 62
     7
370
    25
100
AcDbCircle
 10
-54.0
 20
58.0
 30
0.0
 40
4.999999999999972
100
AcDbArc
 50
0.0
 51
90.0
  0
ARC
  5
C3
330
23
100
AcDbEntity
  8
0
  6
Continuous
 62
     7
370
    25
100
AcDbCircle
 10
-91.0
 20
58.0
 30
0.0
 40
5.000000000000007
100
AcDbArc
 50
90.0
 51
180.0
  0
ARC
  5
C4
330
23
100
AcDbEntity
  8
0
  6
Continuous
 62
     7
370
    25
100
AcDbCircle
 10
-91.0
 20
44.0
 30
0.0
 40
4.999999999999979
100
AcDbArc
 50
180.0
 51
270.0
  0
ARC
  5
C5
330
23
100
AcDbEntity
  8
0
  6
Continuous
 62
     7
370
    25
100
AcDbCircle
 10
-54.0
 20
44.0
 30
0.0
 40
5.000000000000007
100
AcDbArc
 50
270.0
 51
0.0
  0
VIEWPORT
  5
26D
330
23
100
AcDbEntity
  8
0
100
AcDbViewport
 10
0.0
 20
0.0
 30
0.0
 40
205.6
 41
156.0
 68
     1
 69
     1
 12
325.0
 22
-72.5
 13
0.0
 23
0.0
 14
10.0
 24
10.0
 15
10.0
 25
10.0
 16
0.0
 26
0.0
 36
1.0
 17
0.0
 27
0.0
 37
0.0
 42
50.0
 43
0.0
 44
0.0
 45
503.0544747082
 50
0.0
 51
0.0
 72
   100
 90
   557152
  1

281
     0
 71
     1
 74
     0
110
0.0
120
0.0
130
0.0
111
1.0
121
0.0
131
0.0
112
0.0
122
1.0
132
0.0
 79
     0
146
0.0
  0
ENDBLK
  5
25
330
23
100
AcDbEntity
  8
0
100
AcDbBlockEnd
  0
BLOCK
  5
C8
330
C6
100
AcDbEntity
  8
0
100
AcDbBlockBegin
  2
*Paper_Space1
 70
     0
 10
0.0
 20
0.0
 30
0.0
  3
*Paper_Space1
  1

  0
LINE
  5
D1
330
C6
100
AcDbEntity
  8
0
  6
Continuous
 62
     7
370
    25
100
AcDbLine
 10
650.0
 20
103.0
 30
0.0
 11
0.0
 21
103.0
 31
0.0
  0
LINE
  5
D2
330
C6
100
AcDbEntity
  8
0
  6
Continuous
 62
     7
370
    25
100
AcDbLine
 10
650.0
 20
103.0
 30
0.0
 11
650.0
 21
0.0
 31
0.0
  0
LINE
  5
D3
330
C6
100
AcDbEntity
  8
0
  6
Continuous
 62
     7
370
    25
100
AcDbLine
 10
650.0
 20
8.0
 30
0.0
 11
0.0
 21
8.0
 31
0.0
  0
LINE
  5
D4
330
C6
100
AcDbEntity
  8
0
  6
Continuous
 62
     7
370
    25
100
AcDbLine
 10
0.0
 20
103.0
 30
0.0
 11
0.0
 21
0.0
 31
0.0
  0
LINE
  5
D5
330
C6
100
AcDbEntity
  8
0
  6
Continuous
 62
     7
370
    25
100
AcDbLine
 10
650.0
 20
0.0
 30
0.0
 11
0.0
 21
0.0
 31
0.0
  0
VIEWPORT
  5
26F
330
C6
100
AcDbEntity
  8
0
100
AcDbViewport
 10
0.0
 20
0.0
 30
0.0
 40
205.6
 41
156.0
 68
     1
 69
     1
 12
325.0
 22
-72.5
 13
0.0
 23
0.0
 14
10.0
 24
10.0
 15
10.0
 25
10.0
 16
0.0
 26
0.0
 36
1.0
 17
0.0
 27
0.0
 37
0.0
 42
50.0
 43
0.0
 44
0.0
 45
503.0544747082
 50
0.0
 51
0.0
 72
   100
 90
   557152
  1

281
     0
 71
     1
 74
     0
110
0.0
120
0.0
130
0.0
111
1.0
121
0.0
131
0.0
112
0.0
122
1.0
132
0.0
 79
     0
146
0.0
  0
ENDBLK
  5
C9
330
C6
100
AcDbEntity
  8
0
100
AcDbBlockEnd
  0
BLOCK
  5
D8
330
D6
100
AcDbEntity
  8
0
100
AcDbBlockBegin
  2
*Paper_Space2
 70
     0
 10
0.0
 20
0.0
 30
0.0
  3
*Paper_Space2
  1

  0
LINE
  5
DE
330
D6
100
AcDbEntity
  8
0
  6
Continuous
 62
     7
370
    25
100
AcDbLine
 10
-650.0
 20
0.0
 30
0.0
 11
-650.0
 21
103.0
 31
0.0
  0
LINE
  5
DF
330
D6
100
AcDbEntity
  8
0
  6
Continuous
 62
     7
370
    25
100
AcDbLine
 10
-650.0
 20
103.0
 30
0.0
 11
0.0
 21
103.0
 31
0.0
  0
LINE
  5
E0
330
D6
100
AcDbEntity
  8
0
  6
Continuous
 62
     7
370
    25
100
AcDbLine
 10
0.0
 20
0.0
 30
0.0
 11
0.0
 21
103.0
 31
0.0
  0
LINE
  5
E1
330
D6
100
AcDbEntity
  8
0
  6
Continuous
 62
     7
370
    25
100
AcDbLine
 10
-650.0
 20
0.0
 30
0.0
 11
0.0
 21
0.0
 31
0.0
  0
VIEWPORT
  5
271
330
D6
100
AcDbEntity
  8
0
100
AcDbViewport
 10
0.0
 20
0.0
 30
0.0
 40
205.6
 41
156.0
 68
     1
 69
     1
 12
325.0
 22
-72.5
 13
0.0
 23
0.0
 14
10.0
 24
10.0
 15
10.0
 25
10.0
 16
0.0
 26
0.0
 36
1.0
 17
0.0
 27
0.0
 37
0.0
 42
50.0
 43
0.0
 44
0.0
 45
503.0544747082
 50
0.0
 51
0.0
 72
   100
 90
   557152
  1

281
     0
 71
     1
 74
     0
110
0.0
120
0.0
130
0.0
111
1.0
121
0.0
131
0.0
112
0.0
122
1.0
132
0.0
 79
     0
146
0.0
  0
ENDBLK
  5
D9
330
D6
100
AcDbEntity
  8
0
100
AcDbBlockEnd
  0
BLOCK
  5
E4
330
E2
100
AcDbEntity
  8
0
100
AcDbBlockBegin
  2
*Paper_Space3
 70
     0
 10
0.0
 20
0.0
 30
0.0
  3
*Paper_Space3
  1

  0
LINE
  5
EC
330
E2
100
AcDbEntity
  8
0
  6
Continuous
 62
     7
370
    25
100
AcDbLine
 10
141.0
 20
8.0
 30
0.0
 11
141.0
 21
0.0
 31
0.0
  0
LINE
  5
ED
330
E2
100
AcDbEntity
  8
0
  6
Continuous
 62
     7
370
    25
100
AcDbLine
 10
145.0
 20
8.0
 30
0.0
 11
141.0
 21
8.0
 31
0.0
  0
LINE
  5
EE
330
E2
100
AcDbEntity
  8
0
  6
Continuous
 62
     7
370
    25
100
AcDbLine
 10
145.0
 20
103.0
 30
0.0
 11
145.0
 21
8.0
 31
0.0
  0
LINE
  5
EF
330
E2
100
AcDbEntity
  8
0
  6
Continuous
 62
     7
370
    25
100
AcDbLine
 10
0.0
 20
103.0
 30
0.0
 11
145.0
 21
103.0
 31
0.0
  0
LINE
  5
F0
330
E2
100
AcDbEntity
  8
0
  6
Continuous
 62
     7
370
    25
100
AcDbLine
 10
0.0
 20
0.0
 30
0.0
 11
0.0
 21
103.0
 31
0.0
  0
LINE
  5
F1
330
E2
100
AcDbEntity
  8
0
  6
Continuous
 62
     7
370
    25
100
AcDbLine
 10
141.0
 20
0.0
 30
0.0
 11
0.0
 21
0.0
 31
0.0
  0
VIEWPORT
  5
273
330
E2
100
AcDbEntity
  8
0
100
AcDbViewport
 10
0.0
 20
0.0
 30
0.0
 40
205.6
 41
156.0
 68
     1
 69
     1
 12
325.0
 22
-72.5
 13
0.0
 23
0.0
 14
10.0
 24
10.0
 15
10.0
 25
10.0
 16
0.0
 26
0.0
 36
1.0
 17
0.0
 27
0.0
 37
0.0
 42
50.0
 43
0.0
 44
0.0
 45
503.0544747082
 50
0.0
 51
0.0
 72
   100
 90
   557152
  1

281
     0
 71
     1
 74
     0
110
0.0
120
0.0
130
0.0
111
1.0
121
0.0
131
0.0
112
0.0
122
1.0
132
0.0
 79
     0
146
0.0
  0
ENDBLK
  5
E5
330
E2
100
AcDbEntity
  8
0
100
AcDbBlockEnd
  0
BLOCK
  5
F4
330
F2
100
AcDbEntity
  8
0
100
AcDbBlockBegin
  2
*Paper_Space4
 70
     0
 10
0.0
 20
0.0
 30
0.0
  3
*Paper_Space4
  1

  0
LINE
  5
FD
330
F2
100
AcDbEntity
  8
0
  6
Continuous
 62
     7
370
    25
100
AcDbLine
 10
650.0
 20
145.0
 30
0.0
 11
650.0
 21
0.0
 31
0.0
  0
LINE
  5
FE
330
F2
100
AcDbEntity
  8
0
  6
Continuous
 62
     7
370
    25
100
AcDbLine
 10
650.0
 20
0.0
 30
0.0
 11
0.0
 21
0.0
 31
0.0
  0
LINE
  5
FF
330
F2
100
AcDbEntity
  8
0
  6
Continuous
 62
     7
370
    25
100
AcDbLine
 10
0.0
 20
145.0
 30
0.0
 11
0.0
 21
0.0
 31
0.0
  0
LINE
  5
100
330
F2
100
AcDbEntity
  8
0
  6
Continuous
 62
     7
370
    25
100
AcDbLine
 10
650.0
 20
141.0
 30
0.0
 11
0.0
 21
141.0
 31
0.0
  0
LINE
  5
101
330
F2
100
AcDbEntity
  8
0
  6
Continuous
 62
     7
370
    25
100
AcDbLine
 10
650.0
 20
145.0
 30
0.0
 11
0.0
 21
145.0
 31
0.0
  0
VIEWPORT
  5
275
330
F2
100
AcDbEntity
  8
0
100
AcDbViewport
 10
0.0
 20
0.0
 30
0.0
 40
205.6
 41
156.0
 68
     1
 69
     1
 12
325.0
 22
-72.5
 13
0.0
 23
0.0
 14
10.0
 24
10.0
 15
10.0
 25
10.0
 16
0.0
 26
0.0
 36
1.0
 17
0.0
 27
0.0
 37
0.0
 42
50.0
 43
0.0
 44
0.0
 45
503.0544747082
 50
0.0
 51
0.0
 72
   100
 90
   557152
  1

281
     0
 71
     1
 74
     0
110
0.0
120
0.0
130
0.0
111
1.0
121
0.0
131
0.0
112
0.0
122
1.0
132
0.0
 79
     0
146
0.0
  0
ENDBLK
  5
F5
330
F2
100
AcDbEntity
  8
0
100
AcDbBlockEnd
  0
BLOCK
  5
104
330
102
100
AcDbEntity
  8
0
100
AcDbBlockBegin
  2
*Paper_Space5
 70
     0
 10
0.0
 20
0.0
 30
0.0
  3
*Paper_Space5
  1

  0
LWPOLYLINE
  5
10C
330
102
100
AcDbEntity
  8
0
  6
Continuous
 62
     7
370
    25
100
AcDbPolyline
 90
        9
 70
   128
 43
0.0
 10
261.2759556484
 20
-134.0813642604
 10
260.0323273373
 20
-134.9561661323
 10
259.1082281352
 20
-135.9542203883
 10
258.5391706563
 20
-137.037172363
 10
258.3470234603
 20
-138.1634048195
 10
258.5391706563
 20
-139.289637276
 10
259.1082281352
 20
-140.3725892507
 10
260.0323273373
 20
-141.3706435067
 10
261.2759556484
 20
-142.2454453786
  0
LWPOLYLINE
  5
110
330
102
100
AcDbEntity
  8
0
  6
Continuous
 62
     7
370
    25
100
AcDbPolyline
 90
        9
 70
   128
 43
0.0
 10
374.4130406383
 20
-183.0658509697
 10
375.6566689494
 20
-182.1910490979
 10
376.5807681515
 20
-181.1929948419
 10
377.1498256304
 20
-180.1100428671
 10
377.3419728264
 20
-178.9838104106
 10
377.1498256304
 20
-177.8575779542
 10
376.5807681515
 20
-176.7746259794
 10
375.6566689494
 20
-175.7765717234
 10
374.4130406383
 20
-174.9017698515
  0
LWPOLYLINE
  5
112
330
102
100
AcDbEntity
  8
0
  6
Continuous
 62
     7
370
    25
100
AcDbPolyline
 90
       61
 70
   128
 43
0.0
 10
76.7210857587
 20
-45.5010841276
 10
79.2102502431
 20
-46.7949323879
 10
81.9200536362
 20
-47.9314891661
 10
84.820806765
 20
-48.8983021081
 10
87.8807283713
 20
-49.6847786092
 10
91.0662933134
 20
-50.2823018681
 10
94.3425998754
 20
-50.6843252951
 10
97.6737521569
 20
-50.8864442373
 10
101.0232533565
 20
-50.8864442373
 10
104.354405638
 20
-50.6843252951
 10
107.6307122
 20
-50.2823018681
 10
110.8162771422
 20
-49.6847786092
 10
113.8761987484
 20
-48.8983021081
 10
116.7769518772
 20
-47.9314891661
 10
119.4867552703
 20
-46.7949323879
 10
121.9759197547
 20
-45.5010841276
 10
124.2171735233
 20
-44.0641200574
 10
126.185960931
 20
-42.4997838564
 10
127.8607115307
 20
-40.8252147194
 10
129.2230764046
 20
-39.0587595761
 10
130.258129198
 20
-37.219772079
 10
130.9545296558
 20
-35.3284005597
 10
131.3046478689
 20
-33.4053672805
 10
131.3046478689
 20
-31.4717413964
 10
130.9545296558
 20
-29.5487081172
 10
130.258129198
 20
-27.6573365979
 10
129.2230764046
 20
-25.8183491008
 10
127.8607115307
 20
-24.0518939576
 10
126.185960931
 20
-22.3773248205
 10
124.2171735233
 20
-20.8129886195
 10
121.9759197547
 20
-19.3760245493
 10
119.4867552703
 20
-18.082176289
 10
116.7769518772
 20
-16.9456195109
 10
113.8761987484
 20
-15.9788065688
 10
110.8162771422
 20
-15.1923300677
 10
107.6307122
 20
-14.5948068088
 10
104.354405638
 20
-14.1927833818
 10
101.0232533565
 20
-13.9906644396
 10
97.6737521569
 20
-13.9906644396
 10
94.3425998754
 20
-14.1927833818
 10
91.0662933134
 20
-14.5948068088
 10
87.8807283713
 20
-15.1923300677
 10
84.820806765
 20
-15.9788065688
 10
81.9200536362
 20
-16.9456195109
 10
79.2102502431
 20
-18.082176289
 10
76.7210857587
 20
-19.3760245493
 10
74.4798319901
 20
-20.8129886195
 10
72.5110445825
 20
-22.3773248205
 10
70.8362939827
 20
-24.0518939576
 10
69.4739291088
 20
-25.8183491008
 10
68.4388763155
 20
-27.6573365979
 10
67.7424758577
 20
-29.5487081172
 10
67.3923576446
 20
-31.4717413964
 10
67.3923576446
 20
-33.4053672805
 10
67.7424758577
 20
-35.3284005597
 10
68.4388763155
 20
-37.219772079
 10
69.4739291088
 20
-39.0587595761
 10
70.8362939827
 20
-40.8252147194
 10
72.5110445825
 20
-42.4997838564
 10
74.4798319901
 20
-44.0641200574
 10
76.7210857587
 20
-45.5010841276
  0
LWPOLYLINE
  5
113
330
102
100
AcDbEntity
  8
0
  6
Continuous
 62
     7
370
    25
100
AcDbPolyline
 90
       61
 70
   128
 43
0.0
 10
6.0104076401
 20
-4.6806785365
 10
8.4995721245
 20
-5.9745267968
 10
11.2093755176
 20
-7.1110835749
 10
14.1101286464
 20
-8.077896517
 10
17.1700502526
 20
-8.8643730181
 10
20.3556151948
 20
-9.461896277
 10
23.6319217568
 20
-9.863919704
 10
26.9630740383
 20
-10.0660386462
 10
30.3125752378
 20
-10.0660386462
 10
33.6437275193
 20
-9.863919704
 10
36.9200340813
 20
-9.461896277
 10
40.1055990235
 20
-8.8643730181
 10
43.1655206297
 20
-8.077896517
 10
46.0662737585
 20
-7.1110835749
 10
48.7760771516
 20
-5.9745267968
 10
51.265241636
 20
-4.6806785365
 10
53.5064954047
 20
-3.2437144663
 10
55.4752828123
 20
-1.6793782653
 10
57.1500334121
 20
-0.0048091282
 10
58.512398286
 20
1.761646015
 10
59.5474510793
 20
3.6006335122
 10
60.2438515371
 20
5.4920050314
 10
60.5939697502
 20
7.4150383106
 10
60.5939697502
 20
9.3486641947
 10
60.2438515371
 20
11.2716974739
 10
59.5474510793
 20
13.1630689932
 10
58.512398286
 20
15.0020564904
 10
57.1500334121
 20
16.7685116336
 10
55.4752828123
 20
18.4430807706
 10
53.5064954047
 20
20.0074169717
 10
51.265241636
 20
21.4443810418
 10
48.7760771516
 20
22.7382293021
 10
46.0662737585
 20
23.8747860803
 10
43.1655206297
 20
24.8415990223
 10
40.1055990235
 20
25.6280755234
 10
36.9200340813
 20
26.2255987824
 10
33.6437275193
 20
26.6276222093
 10
30.3125752378
 20
26.8297411515
 10
26.9630740383
 20
26.8297411515
 10
23.6319217568
 20
26.6276222093
 10
20.3556151948
 20
26.2255987824
 10
17.1700502526
 20
25.6280755234
 10
14.1101286464
 20
24.8415990223
 10
11.2093755176
 20
23.8747860803
 10
8.4995721245
 20
22.7382293021
 10
6.0104076401
 20
21.4443810418
 10
3.7691538714
 20
20.0074169716
 10
1.8003664638
 20
18.4430807706
 10
0.125615864
 20
16.7685116336
 10
-1.2367490099
 20
15.0020564904
 10
-2.2718018032
 20
13.1630689932
 10
-2.968202261
 20
11.2716974739
 10
-3.3183204741
 20
9.3486641947
 10
-3.3183204741
 20
7.4150383106
 10
-2.968202261
 20
5.4920050314
 10
-2.2718018032
 20
3.6006335122
 10
-1.2367490099
 20
1.761646015
 10
0.125615864
 20
-0.0048091282
 10
1.8003664638
 20
-1.6793782653
 10
3.7691538714
 20
-3.2437144663
 10
6.0104076401
 20
-4.6806785365
  0
LWPOLYLINE
  5
12E
330
102
100
AcDbEntity
  8
0
  6
Continuous
 62
     7
370
    25
100
AcDbPolyline
 90
       22
 70
   128
 43
0.0
 10
121.9759197547
 20
-25.9083510444
 10
119.4867552703
 20
-24.6145027841
 10
116.7769518772
 20
-23.4779460059
 10
113.8761987484
 20
-22.5111330639
 10
110.8162771422
 20
-21.7246565628
 10
107.6307122
 20
-21.1271333039
 10
104.354405638
 20
-20.7251098769
 10
101.0232533565
 20
-20.5229909347
 10
97.6737521569
 20
-20.5229909347
 10
94.3425998754
 20
-20.7251098769
 10
91.0662933134
 20
-21.1271333039
 10
87.8807283713
 20
-21.7246565628
 10
84.820806765
 20
-22.5111330639
 10
81.9200536362
 20
-23.4779460059
 10
79.2102502431
 20
-24.6145027841
 10
76.7210857587
 20
-25.9083510444
 10
74.4798319901
 20
-27.3453151146
 10
72.5110445825
 20
-28.9096513156
 10
70.8362939827
 20
-30.5842204526
 10
69.4739291088
 20
-32.3506755959
 10
68.4388763155
 20
-34.189663093
 10
67.8526364167
 20
-35.704717586
  0
LWPOLYLINE
  5
130
330
102
100
AcDbEntity
  8
0
  6
Continuous
 62
     7
370
    25
100
AcDbPolyline
 90
       22
 70
   128
 43
0.0
 10
51.265241636
 20
14.9120545468
 10
48.7760771516
 20
16.2059028071
 10
46.0662737585
 20
17.3424595852
 10
43.1655206297
 20
18.3092725273
 10
40.1055990235
 20
19.0957490283
 10
36.9200340813
 20
19.6932722873
 10
33.6437275193
 20
20.0952957143
 10
30.3125752378
 20
20.2974146565
 10
26.9630740383
 20
20.2974146565
 10
23.6319217568
 20
20.0952957143
 10
20.3556151948
 20
19.6932722873
 10
17.1700502526
 20
19.0957490283
 10
14.1101286464
 20
18.3092725273
 10
11.2093755176
 20
17.3424595852
 10
8.4995721245
 20
16.2059028071
 10
6.0104076401
 20
14.9120545468
 10
3.7691538714
 20
13.4750904766
 10
1.8003664638
 20
11.9107542756
 10
0.125615864
 20
10.2361851385
 10
-1.2367490099
 20
8.4697299953
 10
-2.2718018032
 20
6.6307424981
 10
-2.858041702
 20
5.1156880051
  0
LINE
  5
149
330
102
100
AcDbEntity
  8
0
  6
Continuous
 62
     7
370
    25
100
AcDbLine
 10
459.6194077713
 20
-181.2289327181
 30
0.0
 11
357.0889244992
 21
-240.4185208253
 31
0.0
  0
LINE
  5
14A
330
102
100
AcDbEntity
  8
0
  6
Continuous
 62
     7
370
    25
100
AcDbLine
 10
357.0889244992
 20
-240.4185208253
 30
0.0
 11
-102.530483272
 21
24.9141155171
 31
0.0
  0
LINE
  5
14B
330
102
100
AcDbEntity
  8
0
  6
Continuous
 62
     7
370
    25
100
AcDbLine
 10
0.0
 20
84.1037036242
 30
0.0
 11
-102.530483272
 21
24.9141155171
 31
0.0
  0
LINE
  5
14C
330
102
100
AcDbEntity
  8
0
  6
Continuous
 62
     7
370
    25
100
AcDbLine
 10
459.6194077713
 20
-181.2289327181
 30
0.0
 11
0.0
 21
84.1037036242
 31
0.0
  0
LINE
  5
14D
330
102
100
AcDbEntity
  8
0
  6
Continuous
 62
     7
370
    25
100
AcDbLine
 10
275.4180912722
 20
-125.9172831422
 30
0.0
 11
261.2759556484
 21
-134.0813642604
 31
0.0
  0
LINE
  5
14E
330
102
100
AcDbEntity
  8
0
  6
Continuous
 62
     7
370
    25
100
AcDbLine
 10
261.2759556484
 20
-142.2454453786
 30
0.0
 11
346.1287693908
 21
-191.229932088
 31
0.0
  0
LINE
  5
14F
330
102
100
AcDbEntity
  8
0
  6
Continuous
 62
     7
370
    25
100
AcDbLine
 10
360.2709050145
 20
-191.229932088
 30
0.0
 11
374.4130406383
 21
-183.0658509697
 31
0.0
  0
LINE
  5
150
330
102
100
AcDbEntity
  8
0
  6
Continuous
 62
     7
370
    25
100
AcDbLine
 10
374.4130406383
 20
-174.9017698515
 30
0.0
 11
289.5602268959
 21
-125.9172831422
 31
0.0
  0
LINE
  5
151
330
102
100
AcDbEntity
  8
0
  6
Continuous
 62
     7
370
    25
100
AcDbLine
 10
357.0889244992
 20
-240.4185208253
 30
0.0
 11
357.0889244992
 21
-317.9898979544
 31
0.0
  0
LINE
  5
152
330
102
100
AcDbEntity
  8
0
  6
Continuous
 62
     7
370
    25
100
AcDbLine
 10
357.0889244992
 20
-317.9898979544
 30
0.0
 11
-102.530483272
 21
-52.6572616121
 31
0.0
  0
LINE
  5
153
330
102
100
AcDbEntity
  8
0
  6
Continuous
 62
     7
370
    25
100
AcDbLine
 10
-102.530483272
 20
24.9141155171
 30
0.0
 11
-102.530483272
 21
-52.6572616121
 31
0.0
  0
LINE
  5
154
330
102
100
AcDbEntity
  8
0
  6
Continuous
 62
     7
370
    25
100
AcDbLine
 10
362.7457787487
 20
-243.6852148731
 30
0.0
 11
362.7457787487
 21
-314.7242655072
 31
0.0
  0
LINE
  5
155
330
102
100
AcDbEntity
  8
0
  6
Continuous
 62
     7
370
    25
100
AcDbLine
 10
362.7457787487
 20
-314.7242655072
 30
0.0
 11
453.9625535218
 21
-262.0659422946
 31
0.0
  0
LINE
  5
156
330
102
100
AcDbEntity
  8
0
  6
Continuous
 62
     7
370
    25
100
AcDbLine
 10
453.9625535218
 20
-262.0659422946
 30
0.0
 11
453.9625535218
 21
-191.0268916605
 31
0.0
  0
LINE
  5
157
330
102
100
AcDbEntity
  8
0
  6
Continuous
 62
     7
370
    25
100
AcDbLine
 10
453.9625535218
 20
-191.0268916605
 30
0.0
 11
362.7457787487
 21
-243.6852148731
 31
0.0
  0
LINE
  5
158
330
102
100
AcDbEntity
  8
0
  6
Continuous
 62
     7
370
    25
100
AcDbLine
 10
359.917351624
 20
-322.8894082259
 30
0.0
 11
459.6194077713
 21
-265.3326363424
 31
0.0
  0
LINE
  5
159
330
102
100
AcDbEntity
  8
0
  6
Continuous
 62
     7
370
    25
100
AcDbLine
 10
359.917351624
 20
-316.3570817308
 30
0.0
 11
359.917351624
 21
-322.8894082259
 31
0.0
  0
LINE
  5
15A
330
102
100
AcDbEntity
  8
0
  6
Continuous
 62
     7
370
    25
100
AcDbLine
 10
357.0889244992
 20
-317.9898979544
 30
0.0
 11
359.917351624
 21
-316.3570817308
 31
0.0
  0
LINE
  5
15B
330
102
100
AcDbEntity
  8
0
  6
Continuous
 62
     7
370
    25
100
AcDbLine
 10
459.6194077713
 20
-265.3326363424
 30
0.0
 11
459.6194077713
 21
-181.2289327181
 31
0.0
  0
LINE
  5
15C
330
102
100
AcDbEntity
  8
0
  6
Continuous
 62
     7
370
    25
100
AcDbLine
 10
359.917351624
 20
-322.8894082259
 30
0.0
 11
-99.7020561473
 21
-57.5567718835
 31
0.0
  0
LINE
  5
15D
330
102
100
AcDbEntity
  8
0
  6
Continuous
 62
     7
370
    25
100
AcDbLine
 10
-99.7020561473
 20
-54.2900778357
 30
0.0
 11
-99.7020561473
 21
-57.5567718835
 31
0.0
  0
LINE
  5
15E
330
102
100
AcDbEntity
  8
0
  6
Continuous
 62
     7
370
    25
100
AcDbLine
 10
453.9625535218
 20
-262.0659422946
 30
0.0
 11
453.2554467406
 21
-261.6577382387
 31
0.0
  0
LINE
  5
15F
330
102
100
AcDbEntity
  8
0
  6
Continuous
 62
     7
370
    25
100
AcDbLine
 10
374.4130406383
 20
-181.4340963466
 30
0.0
 11
374.4130406383
 21
-174.9017698515
 31
0.0
  0
LINE
  5
160
330
102
100
AcDbEntity
  8
0
  6
Continuous
 62
     7
370
    25
100
AcDbLine
 10
375.5875532502
 20
-182.249973659
 30
0.0
 11
374.4130406383
 21
-181.4340963466
 31
0.0
  0
LINE
  5
161
330
102
100
AcDbEntity
  8
0
  6
Continuous
 62
     7
370
    25
100
AcDbLine
 10
289.5602268959
 20
-132.4496096372
 30
0.0
 11
289.5602268959
 21
-125.9172831422
 31
0.0
  0
LINE
  5
162
330
102
100
AcDbEntity
  8
0
  6
Continuous
 62
     7
370
    25
100
AcDbLine
 10
374.4130406383
 20
-181.4340963466
 30
0.0
 11
289.5602268959
 21
-132.4496096372
 31
0.0
  0
LINE
  5
163
330
102
100
AcDbEntity
  8
0
  6
Continuous
 62
     7
370
    25
100
AcDbLine
 10
261.2759556484
 20
-140.6136907555
 30
0.0
 11
261.2759556484
 21
-134.0813642604
 31
0.0
  0
LINE
  5
164
330
102
100
AcDbEntity
  8
0
  6
Continuous
 62
     7
370
    25
100
AcDbLine
 10
261.2759556484
 20
-140.6136907555
 30
0.0
 11
260.1014430375
 21
-141.429568067
 31
0.0
  0
LINE
  5
165
330
102
100
AcDbEntity
  8
0
  6
Continuous
 62
     7
370
    25
100
AcDbLine
 10
275.4180912722
 20
-132.4496096372
 30
0.0
 11
275.4180912722
 21
-125.9172831422
 31
0.0
  0
LINE
  5
166
330
102
100
AcDbEntity
  8
0
  6
Continuous
 62
     7
370
    25
100
AcDbLine
 10
275.4180912722
 20
-132.4496096372
 30
0.0
 11
261.2759556484
 21
-140.6136907555
 31
0.0
  0
LINE
  5
167
330
102
100
AcDbEntity
  8
0
  6
Continuous
 62
     7
370
    25
100
AcDbLine
 10
84.5828692707
 20
-48.8275894824
 30
0.0
 11
70.9587851154
 21
-40.9625731111
 31
0.0
  0
LINE
  5
168
330
102
100
AcDbEntity
  8
0
  6
Continuous
 62
     7
370
    25
100
AcDbLine
 10
13.872191152
 20
-8.0071838913
 30
0.0
 11
0.2481069967
 21
-0.14216752
 31
0.0
  0
LINE
  5
169
330
102
100
AcDbEntity
  8
0
  6
Continuous
 62
     7
370
    25
100
AcDbLine
 10
0.0
 20
0.1390600217
 30
0.0
 11
0.0
 21
10.0923159886
 31
0.0
  0
LINE
  5
16A
330
102
100
AcDbEntity
  8
0
  6
Continuous
 62
     7
370
    25
100
AcDbLine
 10
363.4528855299
 20
-244.0935516291
 30
0.0
 11
363.4528855299
 21
-314.3160614512
 31
0.0
  0
LINE
  5
16B
330
102
100
AcDbEntity
  8
0
  6
Continuous
 62
     7
370
    25
100
AcDbLine
 10
363.4528855299
 20
-314.3160614512
 30
0.0
 11
362.7457787487
 21
-313.9078573953
 31
0.0
  0
LINE
  5
16C
330
102
100
AcDbEntity
  8
0
  6
Continuous
 62
     7
370
    25
100
AcDbLine
 10
362.7457787487
 20
-243.6853475732
 30
0.0
 11
363.4528855299
 21
-244.0935516291
 31
0.0
  0
LINE
  5
16D
330
102
100
AcDbEntity
  8
0
  6
Continuous
 62
     7
370
    25
100
AcDbLine
 10
453.2554467406
 20
-262.4741463505
 30
0.0
 11
453.2554467406
 21
-192.2516365283
 31
0.0
  0
LINE
  5
16E
330
102
100
AcDbEntity
  8
0
  6
Continuous
 62
     7
370
    25
100
AcDbLine
 10
363.4528855299
 20
-244.0935516291
 30
0.0
 11
453.2554467406
 21
-192.2516365283
 31
0.0
  0
LINE
  5
16F
330
102
100
AcDbEntity
  8
0
  6
Continuous
 62
     7
370
    25
100
AcDbLine
 10
421.4356415872
 20
-235.9335842128
 30
0.0
 11
395.2726906833
 21
-251.0371342815
 31
0.0
  0
LINE
  5
170
330
102
100
AcDbEntity
  8
0
  6
Continuous
 62
     7
370
    25
100
AcDbLine
 10
391.7371567773
 20
-257.1608586205
 30
0.0
 11
391.7371567773
 21
-268.5924299869
 31
0.0
  0
LINE
  5
171
330
102
100
AcDbEntity
  8
0
  6
Continuous
 62
     7
370
    25
100
AcDbLine
 10
395.2726906833
 20
-270.6341137668
 30
0.0
 11
421.4356415872
 21
-255.530563698
 31
0.0
  0
LINE
  5
172
330
102
100
AcDbEntity
  8
0
  6
Continuous
 62
     7
370
    25
100
AcDbLine
 10
424.9711754931
 20
-249.4068393591
 30
0.0
 11
424.9711754931
 21
-237.9752679927
 31
0.0
  0
LINE
  5
173
330
102
100
AcDbEntity
  8
0
  6
Continuous
 62
     7
370
    25
100
AcDbLine
 10
453.2554467406
 20
-192.2516365283
 30
0.0
 11
452.5482250253
 21
-191.8433661224
 31
0.0
  0
LINE
  5
174
330
102
100
AcDbEntity
  8
0
  6
Continuous
 62
     7
370
    25
100
AcDbLine
 10
415.7787873377
 20
-252.2649312508
 30
0.0
 11
421.4356415872
 21
-255.530563698
 31
0.0
  0
LINE
  5
175
330
102
100
AcDbEntity
  8
0
  6
Continuous
 62
     7
370
    25
100
AcDbLine
 10
415.7787873377
 20
-252.2649312508
 30
0.0
 11
391.7371567773
 21
-266.1438691517
 31
0.0
  0
LINE
  5
176
330
102
100
AcDbEntity
  8
0
  6
Continuous
 62
     7
370
    25
100
AcDbLine
 10
419.3143212436
 20
-246.1412069118
 30
0.0
 11
424.9711754931
 21
-249.4068393591
 31
0.0
  0
LINE
  5
177
330
102
100
AcDbEntity
  8
0
  6
Continuous
 62
     7
370
    25
100
AcDbLine
 10
419.3143212436
 20
-237.1581963805
 30
0.0
 11
419.3143212436
 21
-246.1412069118
 31
0.0
  0
LINE
  5
178
330
102
100
AcDbEntity
  8
0
  6
Continuous
 62
     7
370
    25
100
AcDbLine
 10
277.8929650063
 20
-151.8382406925
 30
0.0
 11
277.8929650063
 21
-131.404665755
 31
0.0
  0
LINE
  5
179
330
102
100
AcDbEntity
  8
0
  6
Continuous
 62
    60
370
    25
100
AcDbLine
 10
391.737156824
 20
-268.5930935142
 30
0.0
 11
395.2726906833
 21
-270.6341137668
 31
0.0
  0
LINE
  5
17A
330
102
100
AcDbEntity
  8
0
  6
Continuous
 62
    60
370
    25
100
AcDbLine
 10
421.4350669168
 20
-235.9339159629
 30
0.0
 11
424.9711754931
 21
-237.9752679927
 31
0.0
  0
ARC
  5
17B
330
102
100
AcDbEntity
  8
0
  6
Continuous
 62
     7
370
    25
100
AcDbCircle
 10
282.489159084
 20
-139.5643939917
 30
0.0
 40
15.37021907911755
100
AcDbArc
 50
62.6096722366
 51
117.3903277634
  0
ARC
  5
17C
330
102
100
AcDbEntity
  8
0
  6
Continuous
 62
     7
370
    25
100
AcDbCircle
 10
353.1998372027
 20
-177.5828212384
 30
0.0
 40
15.37021907911736
100
AcDbArc
 50
242.6096722366
 51
297.3903277634
  0
ARC
  5
17D
330
102
100
AcDbEntity
  8
0
  6
Continuous
 62
     7
370
    25
100
AcDbCircle
 10
282.489159084
 20
-146.0967204868
 30
0.0
 40
15.37021907911769
100
AcDbArc
 50
62.6096722366
 51
117.3903277634
  0
ARC
  5
17E
330
102
100
AcDbEntity
  8
0
  6
Continuous
 62
     7
370
    25
100
AcDbCircle
 10
113.7681673169
 20
-42.2510564344
 30
0.0
 40
18.28800753343873
100
AcDbArc
 50
20.974843491
 51
63.3329489154
  0
ARC
  5
17F
330
102
100
AcDbEntity
  8
0
  6
Continuous
 62
     7
370
    25
100
AcDbCircle
 10
43.0574891982
 20
-1.4306508432
 30
0.0
 40
18.28800753344223
100
AcDbArc
 50
20.9748434911
 51
63.3329489154
  0
ARC
  5
180
330
102
100
AcDbEntity
  8
0
  6
Continuous
 62
     7
370
    25
100
AcDbCircle
 10
422.815803656
 20
-237.6256320082
 30
0.0
 40
2.183545987142383
100
AcDbArc
 50
350.7859630095
 51
129.2032852357
  0
ARC
  5
181
330
102
100
AcDbEntity
  8
0
  6
Continuous
 62
     7
370
    25
100
AcDbCircle
 10
399.4132372842
 20
-257.5101628818
 30
0.0
 40
7.684024037860048
100
AcDbArc
 50
122.60547834
 51
177.3945215143
  0
ARC
  5
182
330
102
100
AcDbEntity
  8
0
  6
Continuous
 62
     7
370
    25
100
AcDbCircle
 10
393.8925286145
 20
-268.9420659714
 30
0.0
 40
2.183545987142387
100
AcDbArc
 50
170.7859630095
 51
309.2032852357
  0
ARC
  5
183
330
102
100
AcDbEntity
  8
0
  6
Continuous
 62
     7
370
    25
100
AcDbCircle
 10
417.2950949863
 20
-249.0575350978
 30
0.0
 40
7.684024037860286
100
AcDbArc
 50
302.60547834
 51
357.3945215143
  0
ARC
  5
184
330
102
100
AcDbEntity
  8
0
  6
Continuous
 62
     7
370
    25
100
AcDbCircle
 10
411.6382407368
 20
-245.7919026505
 30
0.0
 40
7.684024037860367
100
AcDbArc
 50
302.60547834
 51
357.3945215143
  0
VIEWPORT
  5
277
330
102
100
AcDbEntity
  8
0
100
AcDbViewport
 10
0.0
 20
0.0
 30
0.0
 40
205.6
 41
156.0
 68
     1
 69
     1
 12
325.0
 22
-72.5
 13
0.0
 23
0.0
 14
10.0
 24
10.0
 15
10.0
 25
10.0
 16
0.0
 26
0.0
 36
1.0
 17
0.0
 27
0.0
 37
0.0
 42
50.0
 43
0.0
 44
0.0
 45
503.0544747082
 50
0.0
 51
0.0
 72
   100
 90
   557152
  1

281
     0
 71
     1
 74
     0
110
0.0
120
0.0
130
0.0
111
1.0
121
0.0
131
0.0
112
0.0
122
1.0
132
0.0
 79
     0
146
0.0
  0
ENDBLK
  5
105
330
102
100
AcDbEntity
  8
0
100
AcDbBlockEnd
  0
BLOCK
  5
187
330
185
100
AcDbEntity
  8
0
100
AcDbBlockBegin
  2
*Paper_Space6
 70
     0
 10
0.0
 20
0.0
 30
0.0
  3
*Paper_Space6
  1

  0
LWPOLYLINE
  5
18D
330
185
100
AcDbEntity
  8
0
  6
Continuous
 62
     7
370
    25
100
AcDbPolyline
 90
        9
 70
   128
 43
0.0
 10
384.0996642961
 20
-46.6750342289
 10
382.2845759242
 20
-46.2936284093
 10
380.3598919598
 20
-46.1019293583
 10
378.3995769283
 20
-46.1073039628
 10
376.478964637
 20
-46.3095456799
 10
374.6718631392
 20
-46.7008824738
 10
373.0477183319
 20
-47.2662754908
 10
371.6689451893
 20
-47.9839969946
 10
370.5885291901
 20
-48.8264653501
  0
LWPOLYLINE
  5
18F
330
185
100
AcDbEntity
  8
0
  6
Continuous
 62
     7
370
    25
100
AcDbPolyline
 90
        9
 70
   128
 43
0.0
 10
361.2546214115
 20
-57.9366454862
 10
360.5140823365
 20
-58.871485107
 10
360.1418786872
 20
-59.8627706309
 10
360.152314041
 20
-60.8724075109
 10
360.5449873732
 20
-61.8615959681
 10
361.3048084678
 20
-62.7923220447
 10
362.4025778262
 20
-63.6288184596
 10
363.7961087877
 20
-64.3389391247
 10
365.4318487389
 20
-64.895394501
  0
LWPOLYLINE
  5
191
330
185
100
AcDbEntity
  8
0
  6
Continuous
 62
     7
370
    25
100
AcDbPolyline
 90
        9
 70
   128
 43
0.0
 10
471.5620233402
 20
-93.7393018631
 10
473.3771117121
 20
-94.1207076827
 10
475.3017956765
 20
-94.3124067337
 10
477.262110708
 20
-94.3070321291
 10
479.1827229993
 20
-94.1047904121
 10
480.9898244972
 20
-93.7134536182
 10
482.6139693045
 20
-93.1480606012
 10
483.9927424471
 20
-92.4303390974
 10
485.0731584463
 20
-91.5878707419
  0
LWPOLYLINE
  5
193
330
185
100
AcDbEntity
  8
0
  6
Continuous
 62
     7
370
    25
100
AcDbPolyline
 90
        9
 70
   128
 43
0.0
 10
494.4070662249
 20
-82.4776906058
 10
495.1476052999
 20
-81.542850985
 10
495.5198089492
 20
-80.5515654611
 10
495.5093735953
 20
-79.5419285811
 10
495.1167002632
 20
-78.5527401239
 10
494.3568791686
 20
-77.6220140473
 10
493.2591098101
 20
-76.7855176324
 10
491.8655788486
 20
-76.0753969673
 10
490.2298388974
 20
-75.5189415909
  0
LWPOLYLINE
  5
195
330
185
100
AcDbEntity
  8
0
  6
Continuous
 62
     7
370
    25
100
AcDbPolyline
 90
       61
 70
   128
 43
0.0
 10
139.6113917741
 20
-10.5103948064
 10
142.6515029202
 20
-11.2345468574
 10
145.8219287675
 20
-11.791064083
 10
149.0879334667
 20
-12.173849164
 10
152.4137339871
 20
-12.3787082269
 10
155.7628921621
 20
-12.4033967931
 10
159.098713914
 20
-12.2476443693
 10
162.3846512815
 20
-11.9131574118
 10
165.5847028472
 20
-11.4036006296
 10
168.6638081765
 20
-10.7245568336
 10
171.5882319471
 20
-9.8834657695
 10
174.3259335601
 20
-8.8895426072
 10
176.8469181839
 20
-7.7536769767
 10
179.1235653832
 20
-6.4883136597
 10
181.1309317351
 20
-5.1073162414
 10
182.8470241135
 20
-3.6258152186
 10
184.2530406515
 20
-2.0600422263
 10
185.3335767374
 20
-0.4271522013
 10
186.0767937919
 20
1.2549645716
 10
186.4745489734
 20
2.9678784692
 10
186.5224843928
 20
4.6928224482
 10
186.2200748597
 20
6.4108976615
 10
185.5706336363
 20
8.1032805176
 10
184.5812761364
 20
9.7514289156
 10
183.2628419678
 20
11.3372853968
 10
181.6297761713
 20
12.8434749858
 10
179.6999709573
 20
14.2534955543
 10
177.4945696758
 20
15.5518986218
 10
175.0377351646
 20
16.7244586126
 10
172.3563850168
 20
17.7583287141
 10
169.4798966656
 20
18.6421816291
 10
166.4397855195
 20
19.3663336801
 10
163.2693596723
 20
19.9228509056
 10
160.003354973
 20
20.3056359866
 10
156.6775544526
 20
20.5104950496
 10
153.3283962776
 20
20.5351836157
 10
149.9925745257
 20
20.379431192
 10
146.7066371583
 20
20.0449442345
 10
143.5065855926
 20
19.5353874523
 10
140.4274802632
 20
18.8563436562
 10
137.5030564927
 20
18.0152525922
 10
134.7653548796
 20
17.0213294299
 10
132.2443702559
 20
15.8854637994
 10
129.9677230565
 20
14.6201004824
 10
127.9603567047
 20
13.2391030641
 10
126.2442643262
 20
11.7576020412
 10
124.8382477883
 20
10.191829049
 10
123.7577117023
 20
8.558939024
 10
123.0144946478
 20
6.876822251
 10
122.6167394663
 20
5.1639083535
 10
122.5688040469
 20
3.4389643745
 10
122.87121358
 20
1.7208891611
 10
123.5206548035
 20
0.0285063051
 10
124.5100123034
 20
-1.6196420929
 10
125.8284464719
 20
-3.2054985741
 10
127.4615122685
 20
-4.7116881632
 10
129.3913174824
 20
-6.1217087316
 10
131.5967187639
 20
-7.4201117991
 10
134.0535532751
 20
-8.5926717899
 10
136.734903423
 20
-9.6265418914
 10
139.6113917741
 20
-10.5103948064
  0
LWPOLYLINE
  5
196
330
185
100
AcDbEntity
  8
0
  6
Continuous
 62
     7
370
    25
100
AcDbPolyline
 90
       61
 70
   128
 43
0.0
 10
51.1695796064
 20
13.526194662
 10
54.2096907525
 20
12.802042611
 10
57.3801165997
 20
12.2455253854
 10
60.646121299
 20
11.8627403044
 10
63.9719218194
 20
11.6578812415
 10
67.3210799944
 20
11.6331926753
 10
70.6569017462
 20
11.7889450991
 10
73.9428391137
 20
12.1234320566
 10
77.1428906794
 20
12.6329888388
 10
80.2219960087
 20
13.3120326348
 10
83.1464197793
 20
14.1531236989
 10
85.8841213924
 20
15.1470468612
 10
88.4051060161
 20
16.2829124916
 10
90.6817532155
 20
17.5482758087
 10
92.6891195673
 20
18.929273227
 10
94.4052119458
 20
20.4107742498
 10
95.8112284837
 20
21.9765472421
 10
96.8917645697
 20
23.6094372671
 10
97.6349816242
 20
25.29155404
 10
98.0327368056
 20
27.0044679376
 10
98.0806722251
 20
28.7294119166
 10
97.778262692
 20
30.4474871299
 10
97.1288214685
 20
32.1398699859
 10
96.1394639686
 20
33.788018384
 10
94.8210298001
 20
35.3738748652
 10
93.1879640035
 20
36.8800644542
 10
91.2581587896
 20
38.2900850227
 10
89.0527575081
 20
39.5884880902
 10
86.5959229969
 20
40.761048081
 10
83.914572849
 20
41.7949181825
 10
81.0380844979
 20
42.6787710975
 10
77.9979733517
 20
43.4029231484
 10
74.8275475045
 20
43.959440374
 10
71.5615428052
 20
44.342225455
 10
68.2357422849
 20
44.547084518
 10
64.8865841098
 20
44.5717730841
 10
61.550762358
 20
44.4160206604
 10
58.2648249905
 20
44.0815337029
 10
55.0647734248
 20
43.5719769207
 10
51.9856680955
 20
42.8929331246
 10
49.0612443249
 20
42.0518420606
 10
46.3235427119
 20
41.0579188983
 10
43.8025580881
 20
39.9220532678
 10
41.5259108888
 20
38.6566899508
 10
39.5185445369
 20
37.2756925325
 10
37.8024521584
 20
35.7941915096
 10
36.3964356205
 20
34.2284185174
 10
35.3158995346
 20
32.5955284924
 10
34.5726824801
 20
30.9134117194
 10
34.1749272986
 20
29.2004978219
 10
34.1269918792
 20
27.4755538428
 10
34.4294014122
 20
25.7574786295
 10
35.0788426357
 20
24.0650957735
 10
36.0682001356
 20
22.4169473755
 10
37.3866343042
 20
20.8310908942
 10
39.0197001007
 20
19.3249013052
 10
40.9495053146
 20
17.9148807368
 10
43.1549065962
 20
16.6164776693
 10
45.6117411074
 20
15.4439176785
 10
48.2930912552
 20
14.410047577
 10
51.1695796064
 20
13.526194662
  0
LWPOLYLINE
  5
1A6
330
185
100
AcDbEntity
  8
0
  6
Continuous
 62
     7
370
    25
100
AcDbPolyline
 90
        3
 70
   128
 43
0.0
 10
493.2310529557
 20
-83.6255156089
 10
491.8655788486
 20
-82.9327353729
 10
490.2298388974
 20
-82.3762799966
  0
LWPOLYLINE
  5
1AB
330
185
100
AcDbEntity
  8
0
  6
Continuous
 62
     7
370
    25
100
AcDbPolyline
 90
        9
 70
   128
 43
0.0
 10
384.0996642961
 20
-53.5323726345
 10
382.2845759242
 20
-53.1509668149
 10
380.3598919598
 20
-52.9592677639
 10
378.3995769283
 20
-52.9646423685
 10
376.478964637
 20
-53.1668840855
 10
374.6718631392
 20
-53.5582208794
 10
373.0477183319
 20
-54.1236138964
 10
371.6689451893
 20
-54.8413354002
 10
370.5885291901
 20
-55.6838037557
  0
LWPOLYLINE
  5
1AC
330
185
100
AcDbEntity
  8
0
  6
Continuous
 62
     7
370
    25
100
AcDbPolyline
 90
       19
 70
   128
 43
0.0
 10
169.4798966656
 20
11.7848432235
 10
166.4397855195
 20
12.5089952744
 10
163.2693596723
 20
13.0655125
 10
160.003354973
 20
13.448297581
 10
156.6775544526
 20
13.653156644
 10
153.3283962776
 20
13.6778452101
 10
149.9925745257
 20
13.5220927864
 10
146.7066371583
 20
13.1876058288
 10
143.5065855926
 20
12.6780490467
 10
140.4274802632
 20
11.9990052506
 10
137.5030564927
 20
11.1579141866
 10
134.7653548796
 20
10.1639910242
 10
132.2443702559
 20
9.0281253938
 10
129.9677230565
 20
7.7627620768
 10
127.9603567047
 20
6.3817646585
 10
126.2442643262
 20
4.9002636356
 10
124.8382477883
 20
3.3344906434
 10
123.7577117023
 20
1.7016006184
 10
123.2457595416
 20
0.6372242085
  0
LWPOLYLINE
  5
1AD
330
185
100
AcDbEntity
  8
0
  6
Continuous
 62
     7
370
    25
100
AcDbPolyline
 90
       10
 70
   128
 43
0.0
 10
185.8455288981
 20
0.6372242085
 10
185.5706336363
 20
1.2459421119
 10
184.5812761364
 20
2.8940905099
 10
183.2628419678
 20
4.4799469912
 10
181.6297761713
 20
5.9861365802
 10
179.6999709573
 20
7.3961571487
 10
177.4945696758
 20
8.6945602162
 10
175.0377351646
 20
9.867120207
 10
172.3563850168
 20
10.9009903085
 10
169.4798966656
 20
11.7848432235
  0
LWPOLYLINE
  5
1AE
330
185
100
AcDbEntity
  8
0
  6
Continuous
 62
     7
370
    25
100
AcDbPolyline
 90
       19
 70
   128
 43
0.0
 10
81.0380844979
 20
35.8214326918
 10
77.9979733517
 20
36.5455847428
 10
74.8275475045
 20
37.1021019684
 10
71.5615428053
 20
37.4848870494
 10
68.2357422849
 20
37.6897461123
 10
64.8865841098
 20
37.7144346785
 10
61.550762358
 20
37.5586822547
 10
58.2648249905
 20
37.2241952972
 10
55.0647734248
 20
36.7146385151
 10
51.9856680955
 20
36.035594719
 10
49.0612443249
 20
35.194503655
 10
46.3235427119
 20
34.2005804926
 10
43.8025580881
 20
33.0647148622
 10
41.5259108888
 20
31.7993515452
 10
39.5185445369
 20
30.4183541269
 10
37.8024521584
 20
28.936853104
 10
36.3964356205
 20
27.3710801118
 10
35.3158995346
 20
25.7381900868
 10
34.8039473738
 20
24.6738136769
  0
LWPOLYLINE
  5
1AF
330
185
100
AcDbEntity
  8
0
  6
Continuous
 62
     7
370
    25
100
AcDbPolyline
 90
       10
 70
   128
 43
0.0
 10
97.4037167304
 20
24.6738136769
 10
97.1288214685
 20
25.2825315803
 10
96.1394639686
 20
26.9306799783
 10
94.8210298001
 20
28.5165364596
 10
93.1879640035
 20
30.0227260486
 10
91.2581587896
 20
31.4327466171
 10
89.0527575081
 20
32.7311496846
 10
86.5959229969
 20
33.9037096754
 10
83.914572849
 20
34.9375797769
 10
81.0380844979
 20
35.8214326918
  0
LWPOLYLINE
  5
1B6
330
185
100
AcDbEntity
  8
0
  6
Continuous
 62
     7
370
    25
100
AcDbPolyline
 90
        9
 70
   128
 43
0.0
 10
552.0037050328
 20
-128.8420694372
 10
551.9588679276
 20
-128.0497066029
 10
551.8260796769
 20
-127.3753186062
 10
551.6104432586
 20
-126.8448217999
 10
551.3202454594
 20
-126.4786028786
 10
550.966638418
 20
-126.29073543
 10
550.5632110546
 20
-126.288439095
 10
550.1254668566
 20
-126.4718021203
 10
549.6702280881
 20
-126.8337779677
  0
LWPOLYLINE
  5
1BA
330
185
100
AcDbEntity
  8
0
  6
Continuous
 62
     7
370
    25
100
AcDbPolyline
 90
        9
 70
   128
 43
0.0
 10
530.069021753
 20
-162.2513349669
 10
530.1138588582
 20
-163.0436978012
 10
530.2466471089
 20
-163.7180857979
 10
530.4622835272
 20
-164.2485826042
 10
530.7524813264
 20
-164.6148015255
 10
531.1060883678
 20
-164.8026689741
 10
531.5095157312
 20
-164.8049653091
 10
531.9472599291
 20
-164.6216022838
 10
532.4024986977
 20
-164.2596264364
  0
LINE
  5
1C8
330
185
100
AcDbEntity
  8
0
  6
Continuous
 62
     7
370
    25
100
AcDbLine
 10
574.8717790903
 20
-67.9495995722
 30
0.0
 11
507.2009476955
 21
-133.9984055588
 31
0.0
  0
LINE
  5
1C9
330
185
100
AcDbEntity
  8
0
  6
Continuous
 62
     7
370
    25
100
AcDbLine
 10
507.2009476955
 20
-133.9984055588
 30
0.0
 11
-67.6708313949
 21
22.2394259857
 31
0.0
  0
LINE
  5
1CA
330
185
100
AcDbEntity
  8
0
  6
Continuous
 62
     7
370
    25
100
AcDbLine
 10
0.0
 20
88.2882319723
 30
0.0
 11
-67.6708313949
 21
22.2394259857
 31
0.0
  0
LINE
  5
1CB
330
185
100
AcDbEntity
  8
0
  6
Continuous
 62
     7
370
    25
100
AcDbLine
 10
574.8717790903
 20
-67.9495995722
 30
0.0
 11
0.0
 21
88.2882319723
 31
0.0
  0
LINE
  5
1CC
330
185
100
AcDbEntity
  8
0
  6
Continuous
 62
     7
370
    25
100
AcDbLine
 10
370.5885291901
 20
-48.8264653501
 30
0.0
 11
361.2546214115
 21
-57.9366454862
 31
0.0
  0
LINE
  5
1CD
330
185
100
AcDbEntity
  8
0
  6
Continuous
 62
     7
370
    25
100
AcDbLine
 10
365.4318487389
 20
-64.895394501
 30
0.0
 11
471.5620233402
 21
-93.7393018631
 31
0.0
  0
LINE
  5
1CE
330
185
100
AcDbEntity
  8
0
  6
Continuous
 62
     7
370
    25
100
AcDbLine
 10
485.0731584463
 20
-91.5878707419
 30
0.0
 11
494.4070662249
 21
-82.4776906058
 31
0.0
  0
LINE
  5
1CF
330
185
100
AcDbEntity
  8
0
  6
Continuous
 62
     7
370
    25
100
AcDbLine
 10
490.2298388974
 20
-75.5189415909
 30
0.0
 11
384.0996642961
 21
-46.6750342289
 31
0.0
  0
LINE
  5
1D0
330
185
100
AcDbEntity
  8
0
  6
Continuous
 62
     7
370
    25
100
AcDbLine
 10
510.9345108069
 20
-137.21167191
 30
0.0
 11
510.9345108069
 21
-211.7852270711
 31
0.0
  0
LINE
  5
1D1
330
185
100
AcDbEntity
  8
0
  6
Continuous
 62
     7
370
    25
100
AcDbLine
 10
510.9345108069
 20
-211.7852270711
 30
0.0
 11
571.1382159789
 21
-153.0245651934
 31
0.0
  0
LINE
  5
1D2
330
185
100
AcDbEntity
  8
0
  6
Continuous
 62
     7
370
    25
100
AcDbLine
 10
571.1382159789
 20
-153.0245651934
 30
0.0
 11
571.1382159789
 21
-78.4510100323
 31
0.0
  0
LINE
  5
1D3
330
185
100
AcDbEntity
  8
0
  6
Continuous
 62
     7
370
    25
100
AcDbLine
 10
571.1382159789
 20
-78.4510100323
 30
0.0
 11
510.9345108069
 21
-137.21167191
 31
0.0
  0
LINE
  5
1D4
330
185
100
AcDbEntity
  8
0
  6
Continuous
 62
     7
370
    25
100
AcDbLine
 10
509.0677292512
 20
-220.464601504
 30
0.0
 11
574.8717790903
 21
-156.2378315445
 31
0.0
  0
LINE
  5
1D5
330
185
100
AcDbEntity
  8
0
  6
Continuous
 62
     7
370
    25
100
AcDbLine
 10
509.0677292512
 20
-213.6072630983
 30
0.0
 11
509.0677292512
 21
-220.464601504
 31
0.0
  0
LINE
  5
1D6
330
185
100
AcDbEntity
  8
0
  6
Continuous
 62
     7
370
    25
100
AcDbLine
 10
507.2009476955
 20
-215.4292991256
 30
0.0
 11
509.0677292512
 21
-213.6072630983
 31
0.0
  0
LINE
  5
1D7
330
185
100
AcDbEntity
  8
0
  6
Continuous
 62
     7
370
    25
100
AcDbLine
 10
507.2009476955
 20
-133.9984055588
 30
0.0
 11
507.2009476955
 21
-215.4292991256
 31
0.0
  0
LINE
  5
1D8
330
185
100
AcDbEntity
  8
0
  6
Continuous
 62
     7
370
    25
100
AcDbLine
 10
574.8717790903
 20
-156.2378315445
 30
0.0
 11
574.8717790903
 21
-67.9495995722
 31
0.0
  0
LINE
  5
1D9
330
185
100
AcDbEntity
  8
0
  6
Continuous
 62
     7
370
    25
100
AcDbLine
 10
507.2009476955
 20
-215.4292991256
 30
0.0
 11
-67.6708313949
 21
-59.191467581
 31
0.0
  0
LINE
  5
1DA
330
185
100
AcDbEntity
  8
0
  6
Continuous
 62
     7
370
    25
100
AcDbLine
 10
-67.6708313949
 20
22.2394259857
 30
0.0
 11
-67.6708313949
 21
-59.191467581
 31
0.0
  0
LINE
  5
1DB
330
185
100
AcDbEntity
  8
0
  6
Continuous
 62
     7
370
    25
100
AcDbLine
 10
509.0677292512
 20
-220.464601504
 30
0.0
 11
-65.8040498391
 21
-64.2267699594
 31
0.0
  0
LINE
  5
1DC
330
185
100
AcDbEntity
  8
0
  6
Continuous
 62
     7
370
    25
100
AcDbLine
 10
-65.8040498391
 20
-59.6988188076
 30
0.0
 11
-65.8040498391
 21
-64.2267699594
 31
0.0
  0
LINE
  5
1DD
330
185
100
AcDbEntity
  8
0
  6
Continuous
 62
     7
370
    25
100
AcDbLine
 10
571.1382159789
 20
-153.0245651934
 30
0.0
 11
570.67152059
 21
-152.8977273867
 31
0.0
  0
LINE
  5
1DE
330
185
100
AcDbEntity
  8
0
  6
Continuous
 62
     7
370
    25
100
AcDbLine
 10
490.2298388974
 20
-82.3762799966
 30
0.0
 11
490.2298388974
 21
-75.5189415909
 31
0.0
  0
LINE
  5
1DF
330
185
100
AcDbEntity
  8
0
  6
Continuous
 62
     7
370
    25
100
AcDbLine
 10
384.0996642961
 20
-53.5323726345
 30
0.0
 11
384.0996642961
 21
-46.6750342289
 31
0.0
  0
LINE
  5
1E0
330
185
100
AcDbEntity
  8
0
  6
Continuous
 62
     7
370
    25
100
AcDbLine
 10
490.2298388974
 20
-82.3762799966
 30
0.0
 11
384.0996642961
 21
-53.5323726345
 31
0.0
  0
LINE
  5
1E1
330
185
100
AcDbEntity
  8
0
  6
Continuous
 62
     7
370
    25
100
AcDbLine
 10
370.5885291901
 20
-55.6838037557
 30
0.0
 11
370.5885291901
 21
-48.8264653501
 31
0.0
  0
LINE
  5
1E2
330
185
100
AcDbEntity
  8
0
  6
Continuous
 62
     7
370
    25
100
AcDbLine
 10
370.5885291901
 20
-55.6838037557
 30
0.0
 11
362.4306346807
 21
-63.6461588887
 31
0.0
  0
LINE
  5
1E3
330
185
100
AcDbEntity
  8
0
  6
Continuous
 62
     7
370
    25
100
AcDbLine
 10
511.4012061958
 20
-137.6133302039
 30
0.0
 11
511.4012061958
 21
-211.3297180643
 31
0.0
  0
LINE
  5
1E4
330
185
100
AcDbEntity
  8
0
  6
Continuous
 62
     7
370
    25
100
AcDbLine
 10
511.4012061958
 20
-211.3297180643
 30
0.0
 11
510.9345108069
 21
-211.2028802577
 31
0.0
  0
LINE
  5
1E5
330
185
100
AcDbEntity
  8
0
  6
Continuous
 62
     7
370
    25
100
AcDbLine
 10
510.9345108069
 20
-137.4864923973
 30
0.0
 11
511.4012061958
 21
-137.6133302039
 31
0.0
  0
LINE
  5
1E6
330
185
100
AcDbEntity
  8
0
  6
Continuous
 62
     7
370
    25
100
AcDbLine
 10
570.67152059
 20
-153.4800742002
 30
0.0
 11
570.67152059
 21
-79.7636863398
 31
0.0
  0
LINE
  5
1E7
330
185
100
AcDbEntity
  8
0
  6
Continuous
 62
     7
370
    25
100
AcDbLine
 10
511.4012061958
 20
-137.6133302039
 30
0.0
 11
570.67152059
 21
-79.7636863398
 31
0.0
  0
LINE
  5
1E8
330
185
100
AcDbEntity
  8
0
  6
Continuous
 62
     7
370
    25
100
AcDbLine
 10
549.6702280881
 20
-126.8337779677
 30
0.0
 11
532.4024986977
 21
-143.6876112195
 31
0.0
  0
LINE
  5
1E9
330
185
100
AcDbEntity
  8
0
  6
Continuous
 62
     7
370
    25
100
AcDbLine
 10
530.069021753
 20
-150.250992757
 30
0.0
 11
530.069021753
 21
-162.2513349669
 31
0.0
  0
LINE
  5
1EA
330
185
100
AcDbEntity
  8
0
  6
Continuous
 62
     7
370
    25
100
AcDbLine
 10
532.4024986977
 20
-164.2596264364
 30
0.0
 11
549.6702280881
 21
-147.4057931846
 31
0.0
  0
LINE
  5
1EB
330
185
100
AcDbEntity
  8
0
  6
Continuous
 62
     7
370
    25
100
AcDbLine
 10
552.0037050328
 20
-140.8424116471
 30
0.0
 11
552.0037050328
 21
-128.8420694372
 31
0.0
  0
LINE
  5
1EC
330
185
100
AcDbEntity
  8
0
  6
Continuous
 62
     7
370
    25
100
AcDbLine
 10
570.67152059
 20
-79.7636863398
 30
0.0
 11
569.9845828107
 21
-79.5769913707
 31
0.0
  0
LINE
  5
1ED
330
185
100
AcDbEntity
  8
0
  6
Continuous
 62
     7
370
    25
100
AcDbLine
 10
544.8995912836
 20
-139.6184776347
 30
0.0
 11
538.3854449652
 21
-137.8480722467
 31
0.0
  0
LINE
  5
1EE
330
185
100
AcDbEntity
  8
0
  6
Continuous
 62
     7
370
    25
100
AcDbLine
 10
542.5948831147
 20
-145.4828660271
 30
0.0
 11
549.6702280881
 21
-147.4057931846
 31
0.0
  0
LINE
  5
1EF
330
185
100
AcDbEntity
  8
0
  6
Continuous
 62
     7
370
    25
100
AcDbLine
 10
542.5948831147
 20
-145.4828660271
 30
0.0
 11
530.069021753
 21
-157.7084907141
 31
0.0
  0
LINE
  5
1F0
330
185
100
AcDbEntity
  8
0
  6
Continuous
 62
     7
370
    25
100
AcDbLine
 10
544.9283600593
 20
-138.9194844896
 30
0.0
 11
552.0037050328
 21
-140.8424116471
 31
0.0
  0
LINE
  5
1F1
330
185
100
AcDbEntity
  8
0
  6
Continuous
 62
     7
370
    25
100
AcDbLine
 10
544.9283600593
 20
-131.4619865325
 30
0.0
 11
544.9283600593
 21
-138.9194844896
 31
0.0
  0
LINE
  5
1F2
330
185
100
AcDbEntity
  8
0
  6
Continuous
 62
    60
370
    25
100
AcDbLine
 10
361.2546214115
 20
-62.7439633798
 30
0.0
 11
361.2546214115
 21
-57.9366454862
 31
0.0
  0
LINE
  5
1F3
330
185
100
AcDbEntity
  8
0
  6
Continuous
 62
    60
370
    25
100
AcDbLine
 10
530.233138389
 20
-163.6700407882
 30
0.0
 11
532.4024986977
 21
-164.2596264364
 31
0.0
  0
LINE
  5
1F4
330
185
100
AcDbEntity
  8
0
  6
Continuous
 62
    60
370
    25
100
AcDbLine
 10
548.5690161365
 20
-127.9085945917
 30
0.0
 11
552.0037050328
 21
-128.8420694372
 31
0.0
  0
ARC
  5
1F5
330
185
100
AcDbEntity
  8
0
  6
Continuous
 62
     7
370
    25
100
AcDbCircle
 10
540.2937989949
 20
-150.1897036229
 30
0.0
 40
10.22496092917753
100
AcDbArc
 50
140.5129436103
 51
180.3434369839
  0
ARC
  5
1F6
330
185
100
AcDbEntity
  8
0
  6
Continuous
 62
     7
370
    25
100
AcDbCircle
 10
541.7789277909
 20
-140.9037007812
 30
0.0
 40
10.22496092917804
100
AcDbArc
 50
320.5129436103
 51
0.3434369839
  0
ARC
  5
1F7
330
185
100
AcDbEntity
  8
0
  6
Continuous
 62
     7
370
    25
100
AcDbCircle
 10
534.7035828175
 20
-138.9807736237
 30
0.0
 40
10.22496092917753
100
AcDbArc
 50
320.5129436103
 51
0.3434369839
  0
VIEWPORT
  5
279
330
185
100
AcDbEntity
  8
0
100
AcDbViewport
 10
0.0
 20
0.0
 30
0.0
 40
205.6
 41
156.0
 68
     1
 69
     1
 12
325.0
 22
-72.5
 13
0.0
 23
0.0
 14
10.0
 24
10.0
 15
10.0
 25
10.0
 16
0.0
 26
0.0
 36
1.0
 17
0.0
 27
0.0
 37
0.0
 42
50.0
 43
0.0
 44
0.0
 45
503.0544747082
 50
0.0
 51
0.0
 72
   100
 90
   557152
  1

281
     0
 71
     1
 74
     0
110
0.0
120
0.0
130
0.0
111
1.0
121
0.0
131
0.0
112
0.0
122
1.0
132
0.0
 79
     0
146
0.0
  0
ENDBLK
  5
188
330
185
100
AcDbEntity
  8
0
100
AcDbBlockEnd
  0
BLOCK
  5
1FA
330
1F8
100
AcDbEntity
  8
0
100
AcDbBlockBegin
  2
*Paper_Space7
 70
     0
 10
0.0
 20
0.0
 30
0.0
  3
*Paper_Space7
  1

  0
LWPOLYLINE
  5
20B
330
1F8
100
AcDbEntity
  8
0
  6
Continuous
 62
     7
370
    25
100
AcDbPolyline
 90
        9
 70
   128
 43
0.0
 10
413.5998751847
 20
26.2923580961
 10
411.7070380308
 20
26.4623618309
 10
409.7510729621
 20
26.5060075882
 10
407.8071466191
 20
26.4216180862
 10
405.9499630011
 20
26.2124363662
 10
404.2508926329
 20
25.8865011642
 10
402.775229836
 20
25.4563379874
 10
401.5796835041
 20
24.9384777653
 10
400.7101978123
 20
24.3528215759
  0
LWPOLYLINE
  5
20D
330
1F8
100
AcDbEntity
  8
0
  6
Continuous
 62
     7
370
    25
100
AcDbPolyline
 90
        9
 70
   128
 43
0.0
 10
393.6391300021
 20
18.1167259326
 10
393.1291187978
 20
17.4857802148
 10
392.9981815257
 20
16.8337918587
 10
393.2513500317
 20
16.1858164112
 10
393.878895192
 20
15.5667552053
 10
394.8567007981
 20
15.0003984161
 10
396.147190329
 20
14.5085108172
 10
397.7007709956
 20
14.1099953733
 10
399.4577395642
 20
13.8201668095
  0
LWPOLYLINE
  5
20F
330
1F8
100
AcDbEntity
  8
0
  6
Continuous
 62
     7
370
    25
100
AcDbPolyline
 90
        9
 70
   128
 43
0.0
 10
511.7074611711
 20
-0.3219688077
 10
513.6002983249
 20
-0.4919725424
 10
515.5562633936
 20
-0.5356182997
 10
517.5001897366
 20
-0.4512287978
 10
519.3573733546
 20
-0.2420470777
 10
521.0564437228
 20
0.0838881243
 10
522.5321065197
 20
0.5140513011
 10
523.7276528516
 20
1.0319115232
 10
524.5971385434
 20
1.6175677126
  0
LWPOLYLINE
  5
211
330
1F8
100
AcDbEntity
  8
0
  6
Continuous
 62
     7
370
    25
100
AcDbPolyline
 90
        9
 70
   128
 43
0.0
 10
531.6682063537
 20
7.8536633559
 10
532.1782175579
 20
8.4846090737
 10
532.3091548301
 20
9.1365974298
 10
532.0559863241
 20
9.7845728773
 10
531.4284411637
 20
10.4036340832
 10
530.4506355576
 20
10.9699908724
 10
529.1601460268
 20
11.4618784713
 10
527.6065653602
 20
11.8603939151
 10
525.8495967916
 20
12.150222479
  0
LWPOLYLINE
  5
213
330
1F8
100
AcDbEntity
  8
0
  6
Continuous
 62
     7
370
    25
100
AcDbPolyline
 90
       61
 70
   128
 43
0.0
 10
162.2969265437
 20
39.423440829
 10
165.4877817964
 20
39.0838984832
 10
168.7676327291
 20
38.8573945845
 10
172.1005446086
 20
38.7464107571
 10
175.4500013548
 20
38.7521629631
 10
178.7793056188
 20
38.8745881799
 10
182.0519808463
 20
39.1123450915
 10
185.2321709227
 20
39.4628287832
 10
188.28503302
 20
39.9221992823
 10
191.1771193422
 20
40.4854236297
 10
193.8767435864
 20
41.1463310215
 10
196.3543281044
 20
41.8976804179
 10
198.5827279617
 20
42.7312398778
 10
200.5375283433
 20
43.6378767493
 10
202.197312047
 20
44.607657729
 10
203.5438941353
 20
45.6299576938
 10
204.562521173
 20
46.6935761111
 10
205.2420328691
 20
47.7868597551
 10
205.5749843513
 20
48.8978303813
 10
205.5577277335
 20
50.0143159631
 10
205.1904520828
 20
51.1240840508
 10
204.477181348
 20
52.2149757931
 10
203.4257302727
 20
53.2750391516
 10
202.0476187748
 20
54.2926598505
 10
200.3579457323
 20
55.2566886243
 10
198.3752235566
 20
56.1565633721
 10
196.1211753668
 20
56.9824248779
 10
193.6204969865
 20
57.7252248302
 10
190.9005863714
 20
58.3768249573
 10
187.9912434314
 20
58.9300861917
 10
184.9243435365
 20
59.3789468877
 10
181.7334882838
 20
59.7184892335
 10
178.4536373511
 20
59.9449931321
 10
175.1207254716
 20
60.0559769595
 10
171.7712687254
 20
60.0502247536
 10
168.4419644614
 20
59.9277995367
 10
165.1692892339
 20
59.6900426252
 10
161.9890991575
 20
59.3395589335
 10
158.9362370602
 20
58.8801884343
 10
156.044150738
 20
58.3169640869
 10
153.3445264938
 20
57.6560566952
 10
150.8669419758
 20
56.9047072988
 10
148.6385421185
 20
56.0711478389
 10
146.6837417369
 20
55.1645109674
 10
145.0239580332
 20
54.1947299876
 10
143.6773759449
 20
53.1724300229
 10
142.6587489072
 20
52.1088116056
 10
141.9792372111
 20
51.0155279616
 10
141.6462857289
 20
49.9045573354
 10
141.6635423467
 20
48.7880717536
 10
142.0308179974
 20
47.6783036658
 10
142.7440887322
 20
46.5874119236
 10
143.7955398075
 20
45.5273485651
 10
145.1736513054
 20
44.5097278662
 10
146.8633243479
 20
43.5456990924
 10
148.8460465236
 20
42.6458243445
 10
151.1000947135
 20
41.8199628387
 10
153.6007730937
 20
41.0771628864
 10
156.3206837088
 20
40.4255627594
 10
159.2300266488
 20
39.872301525
 10
162.2969265437
 20
39.423440829
  0
LWPOLYLINE
  5
214
330
1F8
100
AcDbEntity
  8
0
  6
Continuous
 62
     7
370
    25
100
AcDbPolyline
 90
       61
 70
   128
 43
0.0
 10
68.7554918713
 20
51.2085538432
 10
71.946347124
 20
50.8690114974
 10
75.2261980567
 20
50.6425075988
 10
78.5591099362
 20
50.5315237714
 10
81.9085666824
 20
50.5372759773
 10
85.2378709464
 20
50.6597011942
 10
88.5105461739
 20
50.8974581057
 10
91.6907362503
 20
51.2479417974
 10
94.7435983476
 20
51.7073122966
 10
97.6356846698
 20
52.270536644
 10
100.335308914
 20
52.9314440357
 10
102.812893432
 20
53.6827934322
 10
105.0412932893
 20
54.5163528921
 10
106.9960936709
 20
55.4229897635
 10
108.6558773746
 20
56.3927707433
 10
110.0024594629
 20
57.415070708
 10
111.0210865006
 20
58.4786891254
 10
111.7005981967
 20
59.5719727693
 10
112.0335496789
 20
60.6829433955
 10
112.0162930611
 20
61.7994289774
 10
111.6490174104
 20
62.9091970651
 10
110.9357466756
 20
64.0000888073
 10
109.8842956003
 20
65.0601521659
 10
108.5061841024
 20
66.0777728647
 10
106.8165110599
 20
67.0418016386
 10
104.8337888842
 20
67.9416763864
 10
102.5797406944
 20
68.7675378922
 10
100.0790623141
 20
69.5103378445
 10
97.359151699
 20
70.1619379715
 10
94.449808759
 20
70.715199206
 10
91.3829088641
 20
71.1640599019
 10
88.1920536114
 20
71.5036022478
 10
84.9122026787
 20
71.7301061464
 10
81.5792907992
 20
71.8410899738
 10
78.229834053
 20
71.8353377679
 10
74.900529789
 20
71.712912551
 10
71.6278545615
 20
71.4751556395
 10
68.4476644851
 20
71.1246719478
 10
65.3948023878
 20
70.6653014486
 10
62.5027160656
 20
70.1020771012
 10
59.8030918214
 20
69.4411697095
 10
57.3255073034
 20
68.689820313
 10
55.0971074461
 20
67.8562608531
 10
53.1423070645
 20
66.9496239817
 10
51.4825233608
 20
65.9798430019
 10
50.1359412725
 20
64.9575430372
 10
49.1173142348
 20
63.8939246198
 10
48.4378025387
 20
62.8006409759
 10
48.1048510565
 20
61.6896703496
 10
48.1221076743
 20
60.5731847678
 10
48.489383325
 20
59.4634166801
 10
49.2026540598
 20
58.3725249379
 10
50.2541051351
 20
57.3124615793
 10
51.632216633
 20
56.2948408805
 10
53.3218896755
 20
55.3308121066
 10
55.3046118512
 20
54.4309373588
 10
57.558660041
 20
53.605075853
 10
60.0593384213
 20
52.8622759007
 10
62.7792490364
 20
52.2106757737
 10
65.6885919764
 20
51.6574145392
 10
68.7554918713
 20
51.2085538432
  0
LWPOLYLINE
  5
219
330
1F8
100
AcDbEntity
  8
0
  6
Continuous
 62
     7
370
    25
100
AcDbPolyline
 90
        3
 70
   128
 43
0.0
 10
527.648993194
 20
4.3090505269
 10
527.6065653602
 20
4.3179215823
 10
525.8495967916
 20
4.6077501461
  0
LWPOLYLINE
  5
21E
330
1F8
100
AcDbEntity
  8
0
  6
Continuous
 62
     7
370
    25
100
AcDbPolyline
 90
        9
 70
   128
 43
0.0
 10
413.5998751847
 20
18.7498857633
 10
411.7070380308
 20
18.919889498
 10
409.7510729621
 20
18.9635352553
 10
407.8071466191
 20
18.8791457534
 10
405.9499630011
 20
18.6699640333
 10
404.2508926329
 20
18.3440288313
 10
402.775229836
 20
17.9138656545
 10
401.5796835041
 20
17.3960054324
 10
400.7101978123
 20
16.810349243
  0
LWPOLYLINE
  5
21F
330
1F8
100
AcDbEntity
  8
0
  6
Continuous
 62
     7
370
    25
100
AcDbPolyline
 90
       16
 70
   128
 43
0.0
 10
184.9243435365
 20
51.8364745548
 10
181.7334882838
 20
52.1760169006
 10
178.4536373511
 20
52.4025207993
 10
175.1207254716
 20
52.5135046266
 10
171.7712687254
 20
52.5077524207
 10
168.4419644614
 20
52.3853272038
 10
165.1692892339
 20
52.1475702923
 10
161.9890991575
 20
51.7970866006
 10
158.9362370602
 20
51.3377161014
 10
156.044150738
 20
50.7744917541
 10
153.3445264938
 20
50.1135843623
 10
150.8669419758
 20
49.3622349659
 10
148.6385421185
 20
48.528675506
 10
146.6837417369
 20
47.6220386345
 10
145.0239580332
 20
46.6522576547
 10
143.6773759449
 20
45.62995769
  0
LWPOLYLINE
  5
220
330
1F8
100
AcDbEntity
  8
0
  6
Continuous
 62
     7
370
    25
100
AcDbPolyline
 90
       10
 70
   128
 43
0.0
 10
203.5438941332
 20
45.6299576919
 10
203.4257302727
 20
45.7325668187
 10
202.0476187748
 20
46.7501875176
 10
200.3579457323
 20
47.7142162914
 10
198.3752235566
 20
48.6140910393
 10
196.1211753668
 20
49.4399525451
 10
193.6204969865
 20
50.1827524973
 10
190.9005863714
 20
50.8343526244
 10
187.9912434314
 20
51.3876138588
 10
184.9243435365
 20
51.8364745548
  0
LWPOLYLINE
  5
221
330
1F8
100
AcDbEntity
  8
0
  6
Continuous
 62
     7
370
    25
100
AcDbPolyline
 90
       16
 70
   128
 43
0.0
 10
91.3829088641
 20
63.6215875691
 10
88.1920536114
 20
63.9611299149
 10
84.9122026787
 20
64.1876338135
 10
81.5792907992
 20
64.2986176409
 10
78.229834053
 20
64.292865435
 10
74.900529789
 20
64.1704402181
 10
71.6278545615
 20
63.9326833066
 10
68.4476644851
 20
63.5821996149
 10
65.3948023878
 20
63.1228291157
 10
62.5027160656
 20
62.5596047683
 10
59.8030918214
 20
61.8986973766
 10
57.3255073034
 20
61.1473479801
 10
55.0971074461
 20
60.3137885203
 10
53.1423070645
 20
59.4071516488
 10
51.4825233608
 20
58.437370669
 10
50.1359412725
 20
57.4150707043
  0
LWPOLYLINE
  5
222
330
1F8
100
AcDbEntity
  8
0
  6
Continuous
 62
     7
370
    25
100
AcDbPolyline
 90
       10
 70
   128
 43
0.0
 10
110.0024594607
 20
57.4150707062
 10
109.8842956003
 20
57.517679833
 10
108.5061841024
 20
58.5353005319
 10
106.8165110599
 20
59.4993293057
 10
104.8337888842
 20
60.3992040535
 10
102.5797406944
 20
61.2250655593
 10
100.0790623141
 20
61.9678655116
 10
97.359151699
 20
62.6194656386
 10
94.449808759
 20
63.1727268731
 10
91.3829088641
 20
63.6215875691
  0
LWPOLYLINE
  5
229
330
1F8
100
AcDbEntity
  8
0
  6
Continuous
 62
     7
370
    25
100
AcDbPolyline
 90
        9
 70
   128
 43
0.0
 10
590.6952092356
 20
-37.1987445055
 10
590.6612420893
 20
-36.3090361152
 10
590.5606459888
 20
-35.5134311339
 10
590.3972867857
 20
-34.842504215
 10
590.1774422827
 20
-34.3220387036
 10
589.9095609808
 20
-33.9720357974
 10
589.6039374081
 20
-33.805945912
 10
589.2723165071
 20
-33.8301517884
 10
588.927442283
 20
-34.0437232083
  0
LWPOLYLINE
  5
22D
330
1F8
100
AcDbEntity
  8
0
  6
Continuous
 62
     7
370
    25
100
AcDbPolyline
 90
        9
 70
   128
 43
0.0
 10
574.0781998815
 20
-65.0528958499
 10
574.1121670278
 20
-65.9426042403
 10
574.2127631284
 20
-66.7382092216
 10
574.3761223314
 20
-67.4091361405
 10
574.5959668344
 20
-67.9296016519
 10
574.8638481363
 20
-68.2796045581
 10
575.1694717091
 20
-68.4456944435
 10
575.5010926101
 20
-68.4214885671
 10
575.8459668341
 20
-68.2079171472
  0
LINE
  5
23B
330
1F8
100
AcDbEntity
  8
0
  6
Continuous
 62
     7
370
    25
100
AcDbLine
 10
559.5825108705
 20
-29.7536307967
 30
0.0
 11
559.5825108705
 21
-111.7780174168
 31
0.0
  0
LINE
  5
23C
330
1F8
100
AcDbEntity
  8
0
  6
Continuous
 62
     7
370
    25
100
AcDbLine
 10
559.5825108705
 20
-111.7780174168
 30
0.0
 11
605.1908982466
 21
-71.5552005172
 31
0.0
  0
LINE
  5
23D
330
1F8
100
AcDbEntity
  8
0
  6
Continuous
 62
     7
370
    25
100
AcDbLine
 10
605.1908982466
 20
-71.5552005172
 30
0.0
 11
605.1908982466
 21
10.4691861029
 31
0.0
  0
LINE
  5
23E
330
1F8
100
AcDbEntity
  8
0
  6
Continuous
 62
     7
370
    25
100
AcDbLine
 10
605.1908982466
 20
10.4691861029
 30
0.0
 11
559.5825108705
 21
-29.7536307967
 31
0.0
  0
LINE
  5
23F
330
1F8
100
AcDbEntity
  8
0
  6
Continuous
 62
     7
370
    25
100
AcDbLine
 10
558.1682973085
 20
-120.5677088783
 30
0.0
 11
608.0193253707
 21
-76.6032345927
 31
0.0
  0
LINE
  5
240
330
1F8
100
AcDbEntity
  8
0
  6
Continuous
 62
     7
370
    25
100
AcDbLine
 10
558.1682973085
 20
-113.0252365454
 30
0.0
 11
558.1682973085
 21
-120.5677088783
 31
0.0
  0
LINE
  5
241
330
1F8
100
AcDbEntity
  8
0
  6
Continuous
 62
     7
370
    25
100
AcDbLine
 10
556.7540837464
 20
-114.2724556741
 30
0.0
 11
558.1682973085
 21
-113.0252365454
 31
0.0
  0
LINE
  5
242
330
1F8
100
AcDbEntity
  8
0
  6
Continuous
 62
     7
370
    25
100
AcDbLine
 10
556.7540837464
 20
-24.7055967211
 30
0.0
 11
556.7540837464
 21
-114.2724556741
 31
0.0
  0
LINE
  5
243
330
1F8
100
AcDbEntity
  8
0
  6
Continuous
 62
     7
370
    25
100
AcDbLine
 10
608.0193253707
 20
20.5060966931
 30
0.0
 11
556.7540837464
 21
-24.7055967211
 31
0.0
  0
LINE
  5
244
330
1F8
100
AcDbEntity
  8
0
  6
Continuous
 62
     7
370
    25
100
AcDbLine
 10
608.0193253707
 20
-76.6032345927
 30
0.0
 11
608.0193253707
 21
20.5060966931
 31
0.0
  0
LINE
  5
245
330
1F8
100
AcDbEntity
  8
0
  6
Continuous
 62
     7
370
    25
100
AcDbLine
 10
556.7540837464
 20
-24.7055967211
 30
0.0
 11
-51.2652416243
 21
51.8976378716
 31
0.0
  0
LINE
  5
246
330
1F8
100
AcDbEntity
  8
0
  6
Continuous
 62
     7
370
    25
100
AcDbLine
 10
556.7540837464
 20
-114.2724556741
 30
0.0
 11
-51.2652416243
 21
-37.6692210814
 31
0.0
  0
LINE
  5
247
330
1F8
100
AcDbEntity
  8
0
  6
Continuous
 62
     7
370
    25
100
AcDbLine
 10
-51.2652416243
 20
51.8976378716
 30
0.0
 11
-51.2652416243
 21
-37.6692210814
 31
0.0
  0
LINE
  5
248
330
1F8
100
AcDbEntity
  8
0
  6
Continuous
 62
     7
370
    25
100
AcDbLine
 10
0.0
 20
97.1093312858
 30
0.0
 11
-51.2652416243
 21
51.8976378716
 31
0.0
  0
LINE
  5
249
330
1F8
100
AcDbEntity
  8
0
  6
Continuous
 62
     7
370
    25
100
AcDbLine
 10
608.0193253707
 20
20.5060966931
 30
0.0
 11
0.0
 21
97.1093312858
 31
0.0
  0
LINE
  5
24A
330
1F8
100
AcDbEntity
  8
0
  6
Continuous
 62
     7
370
    25
100
AcDbLine
 10
400.7101978123
 20
24.3528215759
 30
0.0
 11
393.6391300021
 21
18.1167259326
 31
0.0
  0
LINE
  5
24B
330
1F8
100
AcDbEntity
  8
0
  6
Continuous
 62
     7
370
    25
100
AcDbLine
 10
399.4577395642
 20
13.8201668095
 30
0.0
 11
511.7074611711
 21
-0.3219688077
 31
0.0
  0
LINE
  5
24C
330
1F8
100
AcDbEntity
  8
0
  6
Continuous
 62
     7
370
    25
100
AcDbLine
 10
524.5971385434
 20
1.6175677126
 30
0.0
 11
531.6682063537
 21
7.8536633559
 31
0.0
  0
LINE
  5
24D
330
1F8
100
AcDbEntity
  8
0
  6
Continuous
 62
     7
370
    25
100
AcDbLine
 10
525.8495967916
 20
12.150222479
 30
0.0
 11
413.5998751847
 21
26.2923580961
 31
0.0
  0
LINE
  5
24E
330
1F8
100
AcDbEntity
  8
0
  6
Continuous
 62
     7
370
    25
100
AcDbLine
 10
558.1682973085
 20
-120.5677088783
 30
0.0
 11
-49.8510280622
 21
-43.9644742856
 31
0.0
  0
LINE
  5
24F
330
1F8
100
AcDbEntity
  8
0
  6
Continuous
 62
     7
370
    25
100
AcDbLine
 10
-49.8510280622
 20
-37.8473952425
 30
0.0
 11
-49.8510280622
 21
-43.9644742856
 31
0.0
  0
LINE
  5
250
330
1F8
100
AcDbEntity
  8
0
  6
Continuous
 62
     7
370
    25
100
AcDbLine
 10
605.1908982466
 20
-71.5552005172
 30
0.0
 11
604.8373448561
 21
-71.5106569769
 31
0.0
  0
LINE
  5
251
330
1F8
100
AcDbEntity
  8
0
  6
Continuous
 62
     7
370
    25
100
AcDbLine
 10
525.8495967916
 20
4.6077501461
 30
0.0
 11
525.8495967916
 21
12.150222479
 31
0.0
  0
LINE
  5
252
330
1F8
100
AcDbEntity
  8
0
  6
Continuous
 62
     7
370
    25
100
AcDbLine
 10
413.5998751847
 20
18.7498857633
 30
0.0
 11
413.5998751847
 21
26.2923580961
 31
0.0
  0
LINE
  5
253
330
1F8
100
AcDbEntity
  8
0
  6
Continuous
 62
     7
370
    25
100
AcDbLine
 10
525.8495967916
 20
4.6077501461
 30
0.0
 11
413.5998751847
 21
18.7498857633
 31
0.0
  0
LINE
  5
254
330
1F8
100
AcDbEntity
  8
0
  6
Continuous
 62
     7
370
    25
100
AcDbLine
 10
400.7101978123
 20
16.810349243
 30
0.0
 11
400.7101978123
 21
24.3528215759
 31
0.0
  0
LINE
  5
255
330
1F8
100
AcDbEntity
  8
0
  6
Continuous
 62
     7
370
    25
100
AcDbLine
 10
400.7101978123
 20
16.810349243
 30
0.0
 11
397.6583431618
 21
14.1188664287
 31
0.0
  0
LINE
  5
256
330
1F8
100
AcDbEntity
  8
0
  6
Continuous
 62
     7
370
    25
100
AcDbLine
 10
559.936064261
 20
-30.3846350561
 30
0.0
 11
559.936064261
 21
-111.4662126346
 31
0.0
  0
LINE
  5
257
330
1F8
100
AcDbEntity
  8
0
  6
Continuous
 62
     7
370
    25
100
AcDbLine
 10
559.936064261
 20
-111.4662126346
 30
0.0
 11
559.5825108705
 21
-111.4216690943
 31
0.0
  0
LINE
  5
258
330
1F8
100
AcDbEntity
  8
0
  6
Continuous
 62
     7
370
    25
100
AcDbLine
 10
559.5825108705
 20
-30.3400915158
 30
0.0
 11
559.936064261
 21
-30.3846350561
 31
0.0
  0
LINE
  5
259
330
1F8
100
AcDbEntity
  8
0
  6
Continuous
 62
     7
370
    25
100
AcDbLine
 10
604.8373448561
 20
-71.8670052994
 30
0.0
 11
604.8373448561
 21
9.2145722791
 31
0.0
  0
LINE
  5
25A
330
1F8
100
AcDbEntity
  8
0
  6
Continuous
 62
     7
370
    25
100
AcDbLine
 10
559.936064261
 20
-30.3846350561
 30
0.0
 11
604.8373448561
 21
9.2145722791
 31
0.0
  0
LINE
  5
25B
330
1F8
100
AcDbEntity
  8
0
  6
Continuous
 62
     7
370
    25
100
AcDbLine
 10
588.927442283
 20
-34.0437232083
 30
0.0
 11
575.8459668341
 21
-45.5805001485
 31
0.0
  0
LINE
  5
25C
330
1F8
100
AcDbEntity
  8
0
  6
Continuous
 62
     7
370
    25
100
AcDbLine
 10
574.0781998815
 20
-51.8535692674
 30
0.0
 11
574.0781998815
 21
-65.0528958499
 31
0.0
  0
LINE
  5
25D
330
1F8
100
AcDbEntity
  8
0
  6
Continuous
 62
     7
370
    25
100
AcDbLine
 10
575.8459668341
 20
-68.2079171472
 30
0.0
 11
588.927442283
 21
-56.671140207
 31
0.0
  0
LINE
  5
25E
330
1F8
100
AcDbEntity
  8
0
  6
Continuous
 62
     7
370
    25
100
AcDbLine
 10
590.6952092356
 20
-50.3980710881
 30
0.0
 11
590.6952092356
 21
-37.1987445055
 31
0.0
  0
LINE
  5
25F
330
1F8
100
AcDbEntity
  8
0
  6
Continuous
 62
     7
370
    25
100
AcDbLine
 10
604.8373448561
 20
9.2145722791
 30
0.0
 11
603.9019305093
 21
9.3324234092
 31
0.0
  0
LINE
  5
260
330
1F8
100
AcDbEntity
  8
0
  6
Continuous
 62
     7
370
    25
100
AcDbLine
 10
575.8395001068
 20
-60.671147932
 30
0.0
 11
574.0781998815
 21
-60.4492449616
 31
0.0
  0
LINE
  5
261
330
1F8
100
AcDbEntity
  8
0
  6
Continuous
 62
     7
370
    25
100
AcDbLine
 10
581.4441275092
 20
-55.7283311658
 30
0.0
 11
588.927442283
 21
-56.671140207
 31
0.0
  0
LINE
  5
262
330
1F8
100
AcDbEntity
  8
0
  6
Continuous
 62
     7
370
    25
100
AcDbLine
 10
581.4441275092
 20
-55.7283311658
 30
0.0
 11
574.0781998815
 21
-62.2244687254
 31
0.0
  0
LINE
  5
263
330
1F8
100
AcDbEntity
  8
0
  6
Continuous
 62
     7
370
    25
100
AcDbLine
 10
583.2118944618
 20
-49.4552620469
 30
0.0
 11
590.6952092356
 21
-50.3980710881
 31
0.0
  0
LINE
  5
264
330
1F8
100
AcDbEntity
  8
0
  6
Continuous
 62
     7
370
    25
100
AcDbLine
 10
583.2118944618
 20
-39.0843625889
 30
0.0
 11
583.2118944618
 21
-49.4552620469
 31
0.0
  0
LINE
  5
265
330
1F8
100
AcDbEntity
  8
0
  6
Continuous
 62
    60
370
    25
100
AcDbLine
 10
393.6391300021
 20
15.7597033297
 30
0.0
 11
393.6391300021
 21
18.1167259326
 31
0.0
  0
LINE
  5
266
330
1F8
100
AcDbEntity
  8
0
  6
Continuous
 62
    60
370
    25
100
AcDbLine
 10
574.6766989012
 20
-68.0606032346
 30
0.0
 11
575.8459668341
 21
-68.2079171472
 31
0.0
  0
LINE
  5
267
330
1F8
100
AcDbEntity
  8
0
  6
Continuous
 62
    60
370
    25
100
AcDbLine
 10
586.0181375018
 20
-36.6094888548
 30
0.0
 11
590.6952092356
 21
-37.1987445055
 31
0.0
  0
ARC
  5
268
330
1F8
100
AcDbEntity
  8
0
  6
Continuous
 62
     7
370
    25
100
AcDbCircle
 10
583.903067425
 20
-51.2366269295
 30
0.0
 40
9.84421861274243
100
AcDbArc
 50
144.9309440897
 51
183.5931111895
  0
ARC
  5
269
330
1F8
100
AcDbEntity
  8
0
  6
Continuous
 62
     7
370
    25
100
AcDbCircle
 10
580.8703416921
 20
-51.015013426
 30
0.0
 40
9.844218612741985
100
AcDbArc
 50
324.9309440897
 51
3.5931111895
  0
ARC
  5
26A
330
1F8
100
AcDbEntity
  8
0
  6
Continuous
 62
     7
370
    25
100
AcDbCircle
 10
573.3870269183
 20
-50.0722043848
 30
0.0
 40
9.844218612741972
100
AcDbArc
 50
324.9309440897
 51
3.5931111895
  0
VIEWPORT
  5
27B
330
1F8
100
AcDbEntity
  8
0
100
AcDbViewport
 10
0.0
 20
0.0
 30
0.0
 40
205.6
 41
156.0
 68
     1
 69
     1
 12
325.0
 22
-72.5
 13
0.0
 23
0.0
 14
10.0
 24
10.0
 15
10.0
 25
10.0
 16
0.0
 26
0.0
 36
1.0
 17
0.0
 27
0.0
 37
0.0
 42
50.0
 43
0.0
 44
0.0
 45
503.0544747082
 50
0.0
 51
0.0
 72
   100
 90
   557152
  1

281
     0
 71
     1
 74
     0
110
0.0
120
0.0
130
0.0
111
1.0
121
0.0
131
0.0
112
0.0
122
1.0
132
0.0
 79
     0
146
0.0
  0
ENDBLK
  5
1FB
330
1F8
100
AcDbEntity
  8
0
100
AcDbBlockEnd
  0
ENDSEC
  0
SECTION
  2
ENTITIES
  0
CIRCLE
  5
7D
330
1F
100
AcDbEntity
  8
0
  6
Continuous
 62
     7
370
    25
100
AcDbCircle
 10
213.0
 20
-72.5
 30
0.0
 40
31.99999999999997
  0
CIRCLE
  5
7E
330
1F
100
AcDbEntity
  8
0
  6
Continuous
 62
     7
370
    25
100
AcDbCircle
 10
113.0
 20
-72.5
 30
0.0
 40
31.99999999999997
  0
LINE
  5
81
330
1F
100
AcDbEntity
  8
0
  6
Continuous
 62
     7
370
    25
100
AcDbLine
 10
650.0
 20
0.0
 30
0.0
 11
650.0
 21
-145.0
 31
0.0
  0
LINE
  5
82
330
1F
100
AcDbEntity
  8
0
  6
Continuous
 62
     7
370
    25
100
AcDbLine
 10
650.0
 20
-145.0
 30
0.0
 11
0.0
 21
-145.0
 31
0.0
  0
LINE
  5
83
330
1F
100
AcDbEntity
  8
0
  6
Continuous
 62
     7
370
    25
100
AcDbLine
 10
0.0
 20
0.0
 30
0.0
 11
0.0
 21
-145.0
 31
0.0
  0
LINE
  5
84
330
1F
100
AcDbEntity
  8
0
  6
Continuous
 62
     7
370
    25
100
AcDbLine
 10
650.0
 20
0.0
 30
0.0
 11
0.0
 21
0.0
 31
0.0
  0
LINE
  5
85
330
1F
100
AcDbEntity
  8
0
  6
Continuous
 62
     7
370
    25
100
AcDbLine
 10
452.0
 20
-62.5
 30
0.0
 11
452.0
 21
-82.5
 31
0.0
  0
LINE
  5
86
330
1F
100
AcDbEntity
  8
0
  6
Continuous
 62
     7
370
    25
100
AcDbLine
 10
462.0
 20
-92.5
 30
0.0
 11
582.0
 21
-92.5
 31
0.0
  0
LINE
  5
87
330
1F
100
AcDbEntity
  8
0
  6
Continuous
 62
     7
370
    25
100
AcDbLine
 10
592.0
 20
-82.5
 30
0.0
 11
592.0
 21
-62.5
 31
0.0
  0
LINE
  5
88
330
1F
100
AcDbEntity
  8
0
  6
Continuous
 62
     7
370
    25
100
AcDbLine
 10
582.0
 20
-52.5
 30
0.0
 11
462.0
 21
-52.5
 31
0.0
  0
ARC
  5
89
330
1F
100
AcDbEntity
  8
0
  6
Continuous
 62
     7
370
    25
100
AcDbCircle
 10
462.0
 20
-82.5
 30
0.0
 40
10.00000000000006
100
AcDbArc
 50
180.0
 51
270.0
  0
ARC
  5
8A
330
1F
100
AcDbEntity
  8
0
  6
Continuous
 62
     7
370
    25
100
AcDbCircle
 10
582.0
 20
-82.5
 30
0.0
 40
10.00000000000011
100
AcDbArc
 50
270.0
 51
0.0
  0
ARC
  5
8B
330
1F
100
AcDbEntity
  8
0
  6
Continuous
 62
     7
370
    25
100
AcDbCircle
 10
582.0
 20
-62.5
 30
0.0
 40
10.00000000000004
100
AcDbArc
 50
0.0
 51
90.0
  0
ARC
  5
8C
330
1F
100
AcDbEntity
  8
0
  6
Continuous
 62
     7
370
    25
100
AcDbCircle
 10
462.0
 20
-62.5
 30
0.0
 40
10.00000000000007
100
AcDbArc
 50
90.0
 51
180.0
  0
LINE
  5
94
330
1B
100
AcDbEntity
 67
     1
  8
0
  6
Continuous
 62
     7
370
    25
100
AcDbLine
 10
650.0
 20
103.0
 30
0.0
 11
0.0
 21
103.0
 31
0.0
  0
LINE
  5
95
330
1B
100
AcDbEntity
 67
     1
  8
0
  6
Continuous
 62
     7
370
    25
100
AcDbLine
 10
650.0
 20
103.0
 30
0.0
 11
650.0
 21
0.0
 31
0.0
  0
LINE
  5
96
330
1B
100
AcDbEntity
 67
     1
  8
0
  6
Continuous
 62
     7
370
    25
100
AcDbLine
 10
650.0
 20
8.0
 30
0.0
 11
0.0
 21
8.0
 31
0.0
  0
LINE
  5
97
330
1B
100
AcDbEntity
 67
     1
  8
0
  6
Continuous
 62
     7
370
    25
100
AcDbLine
 10
0.0
 20
103.0
 30
0.0
 11
0.0
 21
0.0
 31
0.0
  0
LINE
  5
98
330
1B
100
AcDbEntity
 67
     1
  8
0
  6
Continuous
 62
     7
370
    25
100
AcDbLine
 10
650.0
 20
0.0
 30
0.0
 11
0.0
 21
0.0
 31
0.0
  0
VIEWPORT
  5
26B
330
1B
100
AcDbEntity
 67
     1
  8
0
100
AcDbViewport
 10
0.0
 20
0.0
 30
0.0
 40
205.6
 41
156.0
 68
     1
 69
     1
 12
325.0
 22
-72.5
 13
0.0
 23
0.0
 14
10.0
 24
10.0
 15
10.0
 25
10.0
 16
0.0
 26
0.0
 36
1.0
 17
0.0
 27
0.0
 37
0.0
 42
50.0
 43
0.0
 44
0.0
 45
503.0544747082
 50
0.0
 51
0.0
 72
   100
 90
   557152
  1

281
     0
 71
     1
 74
     0
110
0.0
120
0.0
130
0.0
111
1.0
121
0.0
131
0.0
112
0.0
122
1.0
132
0.0
 79
     0
146
0.0
  0
ENDSEC
  0
SECTION
  2
OBJECTS
  0
DICTIONARY
  5
C
330
0
100
AcDbDictionary
281
     1
  3
ACAD_GROUP
350
D
  3
ACAD_LAYOUT
350
1A
  3
ACAD_MLINESTYLE
350
17
  3
ACAD_PLOTSETTINGS
350
19
  3
ACAD_PLOTSTYLENAME
350
E
  3
ACAD_SCALELIST
350
47
  0
DICTIONARY
  5
D
102
{ACAD_REACTORS
330
C
102
}
330
C
100
AcDbDictionary
281
     1
  0
DICTIONARY
  5
1A
102
{ACAD_REACTORS
330
C
102
}
330
C
100
AcDbDictionary
281
     1
  3
_Dimetrisch
350
1F9
  3
_Isometrisch
350
103
  3
_Links
350
E3
  3
_Normal auf
350
C7
  3
_Rechts
350
26
  3
_Rückseite
350
D7
  3
_Trimetrisch
350
186
  3
_Unten
350
F3
  3
_Vorderseite
350
1E
  3
Model
350
22
  0
DICTIONARY
  5
17
102
{ACAD_REACTORS
330
C
102
}
330
C
100
AcDbDictionary
281
     1
  3
Standard
350
18
  0
DICTIONARY
  5
19
102
{ACAD_REACTORS
330
C
102
}
330
C
100
AcDbDictionary
281
     1
  0
ACDBDICTIONARYWDFLT
  5
E
102
{ACAD_REACTORS
330
C
102
}
330
C
100
AcDbDictionary
281
     1
  3
Normal
350
F
100
AcDbDictionaryWithDefault
340
F
  0
DICTIONARY
  5
47
102
{ACAD_REACTORS
330
C
102
}
330
C
100
AcDbDictionary
281
     1
  3
A0
350
48
  3
A1
350
49
  3
A2
350
4A
  3
A3
350
4B
  3
A4
350
4C
  3
A5
350
4D
  3
A6
350
4E
  3
A7
350
4F
  3
A8
350
50
  3
A9
350
51
  3
B0
350
52
  3
B1
350
53
  3
B2
350
54
  3
B3
350
55
  3
B4
350
56
  3
B5
350
57
  3
B6
350
58
  3
B7
350
59
  3
B8
350
5A
  3
B9
350
5B
  3
C0
350
5C
  3
C1
350
5D
  3
C2
350
5E
  3
C3
350
5F
  3
C4
350
60
  3
C5
350
61
  3
C6
350
62
  3
C7
350
63
  3
C8
350
64
  3
C9
350
65
  3
D0
350
66
  3
D1
350
67
  3
D2
350
68
  0
LAYOUT
  5
1F9
102
{ACAD_REACTORS
330
1A
102
}
330
1A
100
AcDbPlotSettings
  1

  2
none_device
  4
ISO_A4_(210.00_x_297.00_MM)
  6

 40
7.5
 41
20.0
 42
7.5
 43
20.0
 44
210.0
 45
297.0
 46
0.0
 47
0.0
 48
0.0
 49
0.0
140
0.0
141
0.0
142
1.0
143
2.5291828794
 70
   688
 72
     1
 73
     1
 74
     1
  7

 75
     0
147
0.3953846154
148
0.0
149
0.0
100
AcDbLayout
  1
_Dimetrisch
 70
     1
 71
     9
 10
0.0
 20
0.0
 11
0.0
 21
0.0
 12
0.0
 22
0.0
 32
0.0
 14
0.0
 24
0.0
 34
0.0
 15
0.0
 25
0.0
 35
0.0
146
0.0
 13
0.0
 23
0.0
 33
0.0
 16
1.0
 26
0.0
 36
0.0
 17
0.0
 27
1.0
 37
0.0
 76
     0
330
1F8
331
27B
  0
LAYOUT
  5
103
102
{ACAD_REACTORS
330
1A
102
}
330
1A
100
AcDbPlotSettings
  1

  2
none_device
  4
ISO_A4_(210.00_x_297.00_MM)
  6

 40
7.5
 41
20.0
 42
7.5
 43
20.0
 44
210.0
 45
297.0
 46
0.0
 47
0.0
 48
0.0
 49
0.0
140
0.0
141
0.0
142
1.0
143
2.5291828794
 70
   688
 72
     1
 73
     1
 74
     1
  7

 75
     0
147
0.3953846154
148
0.0
149
0.0
100
AcDbLayout
  1
_Isometrisch
 70
     1
 71
     7
 10
0.0
 20
0.0
 11
0.0
 21
0.0
 12
0.0
 22
0.0
 32
0.0
 14
0.0
 24
0.0
 34
0.0
 15
0.0
 25
0.0
 35
0.0
146
0.0
 13
0.0
 23
0.0
 33
0.0
 16
1.0
 26
0.0
 36
0.0
 17
0.0
 27
1.0
 37
0.0
 76
     0
330
102
331
277
  0
LAYOUT
  5
E3
102
{ACAD_REACTORS
330
1A
102
}
330
1A
100
AcDbPlotSettings
  1

  2
none_device
  4
ISO_A4_(210.00_x_297.00_MM)
  6

 40
7.5
 41
20.0
 42
7.5
 43
20.0
 44
210.0
 45
297.0
 46
0.0
 47
0.0
 48
0.0
 49
0.0
140
0.0
141
0.0
142
1.0
143
2.5291828794
 70
   688
 72
     1
 73
     1
 74
     1
  7

 75
     0
147
0.3953846154
148
0.0
149
0.0
100
AcDbLayout
  1
_Links
 70
     1
 71
     5
 10
0.0
 20
0.0
 11
0.0
 21
0.0
 12
0.0
 22
0.0
 32
0.0
 14
0.0
 24
0.0
 34
0.0
 15
0.0
 25
0.0
 35
0.0
146
0.0
 13
0.0
 23
0.0
 33
0.0
 16
1.0
 26
0.0
 36
0.0
 17
0.0
 27
1.0
 37
0.0
 76
     0
330
E2
331
273
  0
LAYOUT
  5
C7
102
{ACAD_REACTORS
330
1A
102
}
330
1A
100
AcDbPlotSettings
  1

  2
none_device
  4
ISO_A4_(210.00_x_297.00_MM)
  6

 40
7.5
 41
20.0
 42
7.5
 43
20.0
 44
210.0
 45
297.0
 46
0.0
 47
0.0
 48
0.0
 49
0.0
140
0.0
141
0.0
142
1.0
143
2.5291828794
 70
   688
 72
     1
 73
     1
 74
     1
  7

 75
     0
147
0.3953846154
148
0.0
149
0.0
100
AcDbLayout
  1
_Normal auf
 70
     1
 71
     3
 10
0.0
 20
0.0
 11
0.0
 21
0.0
 12
0.0
 22
0.0
 32
0.0
 14
0.0
 24
0.0
 34
0.0
 15
0.0
 25
0.0
 35
0.0
146
0.0
 13
0.0
 23
0.0
 33
0.0
 16
1.0
 26
0.0
 36
0.0
 17
0.0
 27
1.0
 37
0.0
 76
     0
330
C6
331
26F
  0
LAYOUT
  5
26
102
{ACAD_REACTORS
330
1A
102
}
330
1A
100
AcDbPlotSettings
  1

  2
none_device
  4
ISO_A4_(210.00_x_297.00_MM)
  6

 40
7.5
 41
20.0
 42
7.5
 43
20.0
 44
210.0
 45
297.0
 46
0.0
 47
0.0
 48
0.0
 49
0.0
140
0.0
141
0.0
142
1.0
143
2.5291828794
 70
   688
 72
     1
 73
     1
 74
     1
  7

 75
     0
147
0.3953846154
148
0.0
149
0.0
100
AcDbLayout
  1
_Rechts
 70
     1
 71
     2
 10
0.0
 20
0.0
 11
0.0
 21
0.0
 12
0.0
 22
0.0
 32
0.0
 14
0.0
 24
0.0
 34
0.0
 15
0.0
 25
0.0
 35
0.0
146
0.0
 13
0.0
 23
0.0
 33
0.0
 16
1.0
 26
0.0
 36
0.0
 17
0.0
 27
1.0
 37
0.0
 76
     0
330
23
331
26D
  0
LAYOUT
  5
D7
102
{ACAD_REACTORS
330
1A
102
}
330
1A
100
AcDbPlotSettings
  1

  2
none_device
  4
ISO_A4_(210.00_x_297.00_MM)
  6

 40
7.5
 41
20.0
 42
7.5
 43
20.0
 44
210.0
 45
297.0
 46
0.0
 47
0.0
 48
0.0
 49
0.0
140
0.0
141
0.0
142
1.0
143
2.5291828794
 70
   688
 72
     1
 73
     1
 74
     1
  7

 75
     0
147
0.3953846154
148
0.0
149
0.0
100
AcDbLayout
  1
_Rückseite
 70
     1
 71
     4
 10
0.0
 20
0.0
 11
0.0
 21
0.0
 12
0.0
 22
0.0
 32
0.0
 14
0.0
 24
0.0
 34
0.0
 15
0.0
 25
0.0
 35
0.0
146
0.0
 13
0.0
 23
0.0
 33
0.0
 16
1.0
 26
0.0
 36
0.0
 17
0.0
 27
1.0
 37
0.0
 76
     0
330
D6
331
271
  0
LAYOUT
  5
186
102
{ACAD_REACTORS
330
1A
102
}
330
1A
100
AcDbPlotSettings
  1

  2
none_device
  4
ISO_A4_(210.00_x_297.00_MM)
  6

 40
7.5
 41
20.0
 42
7.5
 43
20.0
 44
210.0
 45
297.0
 46
0.0
 47
0.0
 48
0.0
 49
0.0
140
0.0
141
0.0
142
1.0
143
2.5291828794
 70
   688
 72
     1
 73
     1
 74
     1
  7

 75
     0
147
0.3953846154
148
0.0
149
0.0
100
AcDbLayout
  1
_Trimetrisch
 70
     1
 71
     8
 10
0.0
 20
0.0
 11
0.0
 21
0.0
 12
0.0
 22
0.0
 32
0.0
 14
0.0
 24
0.0
 34
0.0
 15
0.0
 25
0.0
 35
0.0
146
0.0
 13
0.0
 23
0.0
 33
0.0
 16
1.0
 26
0.0
 36
0.0
 17
0.0
 27
1.0
 37
0.0
 76
     0
330
185
331
279
  0
LAYOUT
  5
F3
102
{ACAD_REACTORS
330
1A
102
}
330
1A
100
AcDbPlotSettings
  1

  2
none_device
  4
ISO_A4_(210.00_x_297.00_MM)
  6

 40
7.5
 41
20.0
 42
7.5
 43
20.0
 44
210.0
 45
297.0
 46
0.0
 47
0.0
 48
0.0
 49
0.0
140
0.0
141
0.0
142
1.0
143
2.5291828794
 70
   688
 72
     1
 73
     1
 74
     1
  7

 75
     0
147
0.3953846154
148
0.0
149
0.0
100
AcDbLayout
  1
_Unten
 70
     1
 71
     6
 10
0.0
 20
0.0
 11
0.0
 21
0.0
 12
0.0
 22
0.0
 32
0.0
 14
0.0
 24
0.0
 34
0.0
 15
0.0
 25
0.0
 35
0.0
146
0.0
 13
0.0
 23
0.0
 33
0.0
 16
1.0
 26
0.0
 36
0.0
 17
0.0
 27
1.0
 37
0.0
 76
     0
330
F2
331
275
  0
LAYOUT
  5
1E
102
{ACAD_REACTORS
330
1A
102
}
330
1A
100
AcDbPlotSettings
  1

  2
none_device
  4
ISO_A4_(210.00_x_297.00_MM)
  6

 40
7.5
 41
20.0
 42
7.5
 43
20.0
 44
210.0
 45
297.0
 46
0.0
 47
0.0
 48
0.0
 49
0.0
140
0.0
141
0.0
142
1.0
143
2.5291828794
 70
   688
 72
     1
 73
     1
 74
     1
  7

 75
     0
147
0.3953846154
148
0.0
149
0.0
100
AcDbLayout
  1
_Vorderseite
 70
     1
 71
     1
 10
-50.5836575875
 20
-18.9688715953
 11
700.5836575875
 21
512.1595330739
 12
0.0
 22
0.0
 32
0.0
 14
0.0
 24
0.0
 34
0.0
 15
650.0
 25
103.0
 35
0.0
146
0.0
 13
0.0
 23
0.0
 33
0.0
 16
1.0
 26
0.0
 36
0.0
 17
0.0
 27
1.0
 37
0.0
 76
     0
330
1B
331
26B
  0
LAYOUT
  5
22
102
{ACAD_REACTORS
330
1A
102
}
330
1A
100
AcDbPlotSettings
  1

  2
none_device
  4
ANSI_A_(11.00_x_8.50_Inches)
  6

 40
6.35
 41
19.05
 42
6.35000508
 43
19.05000254
 44
279.4
 45
215.9
 46
-4.95300254
 47
119.7522064223
 48
0.0
 49
0.0
140
0.0
141
0.0
142
0.0167538462
143
1.0
 70
  1696
 72
     0
 73
     0
 74
     0
  7

 75
     0
147
0.0179189148
148
-1300.4909072572
149
0.0
100
AcDbLayout
  1
Model
 70
     1
 71
     0
 10
0.0
 20
0.0
 11
420.0
 21
297.0
 12
0.0
 22
0.0
 32
0.0
 14
0.0
 24
-145.0
 34
0.0
 15
650.0
 25
0.0
 35
0.0
146
0.0
 13
0.0
 23
0.0
 33
0.0
 16
1.0
 26
0.0
 36
0.0
 17
0.0
 27
1.0
 37
0.0
 76
     0
330
1F
331
29
  0
MLINESTYLE
  5
18
102
{ACAD_REACTORS
330
17
102
}
330
17
100
AcDbMlineStyle
  2
Standard
 70
     0
  3

 62
   256
 51
90.0
 52
90.0
 71
     2
 49
0.5
 62
   256
  6
BYLAYER
 49
-0.5
 62
   256
  6
BYLAYER
  0
ACDBPLACEHOLDER
  5
F
102
{ACAD_REACTORS
330
E
102
}
330
E
  0
SCALE
  5
48
102
{ACAD_REACTORS
330
47
102
}
330
47
100
AcDbScale
 70
     0
300
1:1
140
1.0
141
1.0
290
     1
  0
SCALE
  5
49
102
{ACAD_REACTORS
330
47
102
}
330
47
100
AcDbScale
 70
     0
300
1:2
140
1.0
141
2.0
290
     0
  0
SCALE
  5
4A
102
{ACAD_REACTORS
330
47
102
}
330
47
100
AcDbScale
 70
     0
300
1:4
140
1.0
141
4.0
290
     0
  0
SCALE
  5
4B
102
{ACAD_REACTORS
330
47
102
}
330
47
100
AcDbScale
 70
     0
300
1:5
140
1.0
141
5.0
290
     0
  0
SCALE
  5
4C
102
{ACAD_REACTORS
330
47
102
}
330
47
100
AcDbScale
 70
     0
300
1:8
140
1.0
141
8.0
290
     0
  0
SCALE
  5
4D
102
{ACAD_REACTORS
330
47
102
}
330
47
100
AcDbScale
 70
     0
300
1:10
140
1.0
141
10.0
290
     0
  0
SCALE
  5
4E
102
{ACAD_REACTORS
330
47
102
}
330
47
100
AcDbScale
 70
     0
300
1:16
140
1.0
141
16.0
290
     0
  0
SCALE
  5
4F
102
{ACAD_REACTORS
330
47
102
}
330
47
100
AcDbScale
 70
     0
300
1:20
140
1.0
141
20.0
290
     0
  0
SCALE
  5
50
102
{ACAD_REACTORS
330
47
102
}
330
47
100
AcDbScale
 70
     0
300
1:30
140
1.0
141
30.0
290
     0
  0
SCALE
  5
51
102
{ACAD_REACTORS
330
47
102
}
330
47
100
AcDbScale
 70
     0
300
1:40
140
1.0
141
40.0
290
     0
  0
SCALE
  5
52
102
{ACAD_REACTORS
330
47
102
}
330
47
100
AcDbScale
 70
     0
300
1:50
140
1.0
141
50.0
290
     0
  0
SCALE
  5
53
102
{ACAD_REACTORS
330
47
102
}
330
47
100
AcDbScale
 70
     0
300
1:100
140
1.0
141
100.0
290
     0
  0
SCALE
  5
54
102
{ACAD_REACTORS
330
47
102
}
330
47
100
AcDbScale
 70
     0
300
2:1
140
2.0
141
1.0
290
     0
  0
SCALE
  5
55
102
{ACAD_REACTORS
330
47
102
}
330
47
100
AcDbScale
 70
     0
300
4:1
140
4.0
141
1.0
290
     0
  0
SCALE
  5
56
102
{ACAD_REACTORS
330
47
102
}
330
47
100
AcDbScale
 70
     0
300
8:1
140
8.0
141
1.0
290
     0
  0
SCALE
  5
57
102
{ACAD_REACTORS
330
47
102
}
330
47
100
AcDbScale
 70
     0
300
10:1
140
10.0
141
1.0
290
     0
  0
SCALE
  5
58
102
{ACAD_REACTORS
330
47
102
}
330
47
100
AcDbScale
 70
     0
300
100:1
140
100.0
141
1.0
290
     0
  0
SCALE
  5
59
102
{ACAD_REACTORS
330
47
102
}
330
47
100
AcDbScale
 70
     0
300
1/128" = 1'-0"
140
0.0078125
141
12.0
290
     0
  0
SCALE
  5
5A
102
{ACAD_REACTORS
330
47
102
}
330
47
100
AcDbScale
 70
     0
300
1/64" = 1'-0"
140
0.015625
141
12.0
290
     0
  0
SCALE
  5
5B
102
{ACAD_REACTORS
330
47
102
}
330
47
100
AcDbScale
 70
     0
300
1/32" = 1'-0"
140
0.03125
141
12.0
290
     0
  0
SCALE
  5
5C
102
{ACAD_REACTORS
330
47
102
}
330
47
100
AcDbScale
 70
     0
300
1/16" = 1'-0"
140
0.0625
141
12.0
290
     0
  0
SCALE
  5
5D
102
{ACAD_REACTORS
330
47
102
}
330
47
100
AcDbScale
 70
     0
300
3/32" = 1'-0"
140
0.09375
141
12.0
290
     0
  0
SCALE
  5
5E
102
{ACAD_REACTORS
330
47
102
}
330
47
100
AcDbScale
 70
     0
300
1/8" = 1'-0"
140
0.125
141
12.0
290
     0
  0
SCALE
  5
5F
102
{ACAD_REACTORS
330
47
102
}
330
47
100
AcDbScale
 70
     0
300
3/16" = 1'-0"
140
0.1875
141
12.0
290
     0
  0
SCALE
  5
60
102
{ACAD_REACTORS
330
47
102
}
330
47
100
AcDbScale
 70
     0
300
1/4" = 1'-0"
140
0.25
141
12.0
290
     0
  0
SCALE
  5
61
102
{ACAD_REACTORS
330
47
102
}
330
47
100
AcDbScale
 70
     0
300
3/8" = 1'-0"
140
0.375
141
12.0
290
     0
  0
SCALE
  5
62
102
{ACAD_REACTORS
330
47
102
}
330
47
100
AcDbScale
 70
     0
300
1/2" = 1'-0"
140
0.5
141
12.0
290
     0
  0
SCALE
  5
63
102
{ACAD_REACTORS
330
47
102
}
330
47
100
AcDbScale
 70
     0
300
3/4" = 1'-0"
140
0.75
141
12.0
290
     0
  0
SCALE
  5
64
102
{ACAD_REACTORS
330
47
102
}
330
47
100
AcDbScale
 70
     0
300
1" = 1'-0"
140
1.0
141
12.0
290
     0
  0
SCALE
  5
65
102
{ACAD_REACTORS
330
47
102
}
330
47
100
AcDbScale
 70
     0
300
1-1/2" = 1'-0"
140
1.5
141
12.0
290
     0
  0
SCALE
  5
66
102
{ACAD_REACTORS
330
47
102
}
330
47
100
AcDbScale
 70
     0
300
3" = 1'-0"
140
3.0
141
12.0
290
     0
  0
SCALE
  5
67
102
{ACAD_REACTORS
330
47
102
}
330
47
100
AcDbScale
 70
     0
300
6" = 1'-0"
140
6.0
141
12.0
290
     0
  0
SCALE
  5
68
102
{ACAD_REACTORS
330
47
102
}
330
47
100
AcDbScale
 70
     0
300
1'-0" = 1'-0"
140
12.0
141
12.0
290
     0
  0
ENDSEC
  0
EOF
