  0
SECTION
  2
HEADER
  9
$ACADVER
  1
AC1014
  9
$ACADMAINTVER
 70
     9
  9
$DWGCODEPAGE
  3
ANSI_1252
  9
$INSBASE
 10
0.0
 20
0.0
 30
0.0
  9
$EXTMIN
 10
-160.8160192546
 20
-160.8160192546
 30
0.0
  9
$EXTMAX
 10
300.7417837623
 20
180.0
 30
0.0
  9
$LIMMIN
 10
0.0
 20
0.0
  9
$LIMMAX
 10
420.0
 20
297.0
  9
$ORTHOMODE
 70
     0
  9
$REGENMODE
 70
     1
  9
$FILLMODE
 70
     1
  9
$QTEXTMODE
 70
     0
  9
$MIRRTEXT
 70
     1
  9
$DRAGMODE
 70
     2
  9
$LTSCALE
 40
1.0
  9
$OSMODE
 70
    37
  9
$ATTMODE
 70
     1
  9
$TEXTSIZE
 40
3.5
  9
$TRACEWID
 40
1.0
  9
$TEXTSTYLE
  7
STANDARD
  9
$CLAYER
  8
0
  9
$CELTYPE
  6
BYLAYER
  9
$CECOLOR
 62
   256
  9
$CELTSCALE
 40
1.0
  9
$DELOBJ
 70
     1
  9
$DISPSILH
 70
     0
  9
$DIMSCALE
 40
1.0
  9
$DIMASZ
 40
6.0
  9
$DIMEXO
 40
0.0
  9
$DIMDLI
 40
3.75
  9
$DIMRND
 40
0.0
  9
$DIMDLE
 40
0.0
  9
$DIMEXE
 40
1.0
  9
$DIMTP
 40
0.0
  9
$DIMTM
 40
0.0
  9
$DIMTXT
 40
3.5
  9
$DIMCEN
 40
2.5
  9
$DIMTSZ
 40
0.0
  9
$DIMTOL
 70
     0
  9
$DIMLIM
 70
     0
  9
$DIMTIH
 70
     1
  9
$DIMTOH
 70
     1
  9
$DIMSE1
 70
     0
  9
$DIMSE2
 70
     0
  9
$DIMTAD
 70
     1
  9
$DIMZIN
 70
     0
  9
$DIMBLK
  1

  9
$DIMASO
 70
     1
  9
$DIMSHO
 70
     1
  9
$DIMPOST
  1

  9
$DIMAPOST
  1

  9
$DIMALT
 70
     0
  9
$DIMALTD
 70
     3
  9
$DIMALTF
 40
0.0393700787
  9
$DIMLFAC
 40
1.0
  9
$DIMTOFL
 70
     1
  9
$DIMTVP
 40
0.0
  9
$DIMTIX
 70
     0
  9
$DIMSOXD
 70
     0
  9
$DIMSAH
 70
     0
  9
$DIMBLK1
  1

  9
$DIMBLK2
  1

  9
$DIMSTYLE
  2
ISO-25
  9
$DIMCLRD
 70
     0
  9
$DIMCLRE
 70
     0
  9
$DIMCLRT
 70
     0
  9
$DIMTFAC
 40
1.0
  9
$DIMGAP
 40
1.524
  9
$DIMJUST
 70
     0
  9
$DIMSD1
 70
     0
  9
$DIMSD2
 70
     0
  9
$DIMTOLJ
 70
     0
  9
$DIMTZIN
 70
     0
  9
$DIMALTZ
 70
     0
  9
$DIMALTTZ
 70
     0
  9
$DIMFIT
 70
     3
  9
$DIMUPT
 70
     0
  9
$DIMUNIT
 70
     2
  9
$DIMDEC
 70
     2
  9
$DIMTDEC
 70
     2
  9
$DIMALTU
 70
     2
  9
$DIMALTTD
 70
     3
  9
$DIMTXSTY
  7
STANDARD
  9
$DIMAUNIT
 70
     0
  9
$LUNITS
 70
     2
  9
$LUPREC
 70
     2
  9
$SKETCHINC
 40
1.0
  9
$FILLETRAD
 40
0.0
  9
$AUNITS
 70
     0
  9
$AUPREC
 70
     2
  9
$MENU
  1
.
  9
$ELEVATION
 40
0.0
  9
$PELEVATION
 40
0.0
  9
$THICKNESS
 40
0.0
  9
$LIMCHECK
 70
     0
  9
$CHAMFERA
 40
0.0
  9
$CHAMFERB
 40
0.0
  9
$CHAMFERC
 40
0.0
  9
$CHAMFERD
 40
0.0
  9
$SKPOLY
 70
     0
  9
$TDCREATE
 40
2460389.468001644
  9
$TDUPDATE
 40
2460389.468027512
  9
$TDINDWG
 40
0.0000000116
  9
$TDUSRTIMER
 40
0.0000000116
  9
$USRTIMER
 70
     1
  9
$ANGBASE
 50
0.0
  9
$ANGDIR
 70
     0
  9
$PDMODE
 70
     0
  9
$PDSIZE
 40
-1.0
  9
$PLINEWID
 40
0.0
  9
$COORDS
 70
     1
  9
$SPLFRAME
 70
     0
  9
$SPLINETYPE
 70
     6
  9
$SPLINESEGS
 70
     8
  9
$ATTDIA
 70
     0
  9
$ATTREQ
 70
     1
  9
$HANDLING
 70
     1
  9
$HANDSEED
  5
45A
  9
$SURFTAB1
 70
     6
  9
$SURFTAB2
 70
     6
  9
$SURFTYPE
 70
     6
  9
$SURFU
 70
     6
  9
$SURFV
 70
     6
  9
$UCSNAME
  2

  9
$UCSORG
 10
0.0
 20
0.0
 30
0.0
  9
$UCSXDIR
 10
1.0
 20
0.0
 30
0.0
  9
$UCSYDIR
 10
0.0
 20
1.0
 30
0.0
  9
$PUCSNAME
  2

  9
$PUCSORG
 10
0.0
 20
0.0
 30
0.0
  9
$PUCSXDIR
 10
1.0
 20
0.0
 30
0.0
  9
$PUCSYDIR
 10
0.0
 20
1.0
 30
0.0
  9
$USERI1
 70
     0
  9
$USERI2
 70
     0
  9
$USERI3
 70
     0
  9
$USERI4
 70
     0
  9
$USERI5
 70
     0
  9
$USERR1
 40
0.0
  9
$USERR2
 40
0.0
  9
$USERR3
 40
0.0
  9
$USERR4
 40
0.0
  9
$USERR5
 40
0.0
  9
$WORLDVIEW
 70
     1
  9
$SHADEDGE
 70
     3
  9
$SHADEDIF
 70
    70
  9
$TILEMODE
 70
     1
  9
$MAXACTVP
 70
    64
  9
$PINSBASE
 10
0.0
 20
0.0
 30
0.0
  9
$PLIMCHECK
 70
     0
  9
$PEXTMIN
 10
-160.8160192546
 20
0.0
 30
0.0
  9
$PEXTMAX
 10
300.7417837622
 20
116.7993909728
 30
0.0
  9
$PLIMMIN
 10
-196.734914431
 20
-13.4695856912
  9
$PLIMMAX
 10
336.6606789386
 20
363.6788136611
  9
$UNITMODE
 70
     0
  9
$VISRETAIN
 70
     1
  9
$PLINEGEN
 70
     0
  9
$PSLTSCALE
 70
     1
  9
$TREEDEPTH
 70
  3020
  9
$PICKSTYLE
 70
     1
  9
$CMLSTYLE
  2
STANDARD
  9
$CMLJUST
 70
     0
  9
$CMLSCALE
 40
20.0
  9
$PROXYGRAPHICS
 70
     1
  9
$MEASUREMENT
 70
     1
  0
ENDSEC
  0
SECTION
  2
CLASSES
  0
CLASS
  1
ACDBDICTIONARYWDFLT
  2
AcDbDictionaryWithDefault
  3
ObjectDBX Classes
 90
        0
280
     0
281
     0
  0
CLASS
  1
VISUALSTYLE
  2
AcDbVisualStyle
  3
ObjectDBX Classes
 90
     4095
280
     0
281
     0
  0
CLASS
  1
MATERIAL
  2
AcDbMaterial
  3
ObjectDBX Classes
 90
     1153
280
     0
281
     0
  0
CLASS
  1
SCALE
  2
AcDbScale
  3
ObjectDBX Classes
 90
     1153
280
     0
281
     0
  0
CLASS
  1
TABLESTYLE
  2
AcDbTableStyle
  3
ObjectDBX Classes
 90
     4095
280
     0
281
     0
  0
CLASS
  1
MLEADERSTYLE
  2
AcDbMLeaderStyle
  3
ACDB_MLEADERSTYLE_CLASS
 90
     4095
280
     0
281
     0
  0
CLASS
  1
SUN
  2
AcDbSun
  3
SCENEOE
 90
     1153
280
     0
281
     0
  0
CLASS
  1
XRECORD
  2
AcDbXrecord
  3
ObjectDBX Classes
 90
        0
280
     0
281
     0
  0
CLASS
  1
LWPOLYLINE
  2
AcDbPolyline
  3
ObjectDBX Classes
 90
        0
280
     0
281
     1
  0
CLASS
  1
HATCH
  2
AcDbHatch
  3
ObjectDBX Classes
 90
        0
280
     0
281
     1
  0
ENDSEC
  0
SECTION
  2
TABLES
  0
TABLE
  2
VPORT
  5
8
330
0
100
AcDbSymbolTable
 70
     1
  0
VPORT
  5
29
330
8
100
AcDbSymbolTableRecord
100
AcDbViewportTableRecord
  2
*ACTIVE
 70
     0
 10
0.0
 20
0.0
 11
1.0
 21
1.0
 12
69.9628822539
 22
9.5919903727
 13
0.0
 23
0.0
 14
10.0
 24
10.0
 15
10.0
 25
10.0
 16
0.0
 26
0.0
 36
1.0
 17
0.0
 27
0.0
 37
0.0
 40
347.6323396397
 41
1.3542726191
 42
50.0
 43
0.0
 44
0.0
 50
0.0
 51
0.0
 71
     0
 72
   100
 73
     1
 74
     3
 75
     0
 76
     0
 77
     0
 78
     0
  0
ENDTAB
  0
TABLE
  2
LTYPE
  5
5
330
0
100
AcDbSymbolTable
 70
     6
  0
LTYPE
  5
14
330
5
100
AcDbSymbolTableRecord
100
AcDbLinetypeTableRecord
  2
BYBLOCK
 70
     0
  3

 72
    65
 73
     0
 40
0.0
  0
LTYPE
  5
15
330
5
100
AcDbSymbolTableRecord
100
AcDbLinetypeTableRecord
  2
BYLAYER
 70
     0
  3

 72
    65
 73
     0
 40
0.0
  0
LTYPE
  5
16
330
5
100
AcDbSymbolTableRecord
100
AcDbLinetypeTableRecord
  2
CONTINUOUS
 70
     0
  3
Solid line
 72
    65
 73
     0
 40
0.0
  0
LTYPE
  5
5E
330
5
100
AcDbSymbolTableRecord
100
AcDbLinetypeTableRecord
  2
HIDDEN
 70
     0
  3
Hidden __ __ __ __ __ __ __ __ __ __ __ __ __ __
 72
    65
 73
     2
 40
1.905
 49
1.27
 74
     0
 49
-0.635
 74
     0
  0
LTYPE
  5
5F
330
5
100
AcDbSymbolTableRecord
100
AcDbLinetypeTableRecord
  2
PHANTOM
 70
     0
  3
Phantom ______  __  __  ______  __  __  ______
 72
    65
 73
     6
 40
12.7
 49
6.35
 74
     0
 49
-1.27
 74
     0
 49
1.27
 74
     0
 49
-1.27
 74
     0
 49
1.27
 74
     0
 49
-1.27
 74
     0
  0
LTYPE
  5
60
330
5
100
AcDbSymbolTableRecord
100
AcDbLinetypeTableRecord
  2
CENTER
 70
     0
  3
Center ____ _ ____ _ ____ _ ____ _ ____ _ ____
 72
    65
 73
     4
 40
10.16
 49
6.35
 74
     0
 49
-1.27
 74
     0
 49
1.27
 74
     0
 49
-1.27
 74
     0
  0
LTYPE
  5
61
330
5
100
AcDbSymbolTableRecord
100
AcDbLinetypeTableRecord
  2
CENTERX2
 70
     0
  3
Center (2x) ________  __  ________  __  _____
 72
    65
 73
     4
 40
20.32
 49
12.7
 74
     0
 49
-2.54
 74
     0
 49
2.54
 74
     0
 49
-2.54
 74
     0
  0
LTYPE
  5
62
330
5
100
AcDbSymbolTableRecord
100
AcDbLinetypeTableRecord
  2
DOT2
 70
     0
  3
Dot (.5x) ........................................
 72
    65
 73
     2
 40
0.635
 49
0.0
 74
     0
 49
-0.635
 74
     0
  0
ENDTAB
  0
TABLE
  2
LAYER
  5
2
330
0
100
AcDbSymbolTable
 70
     1
  0
LAYER
  5
10
330
2
100
AcDbSymbolTableRecord
100
AcDbLayerTableRecord
  2
0
 70
     0
 62
     7
  6
CONTINUOUS
  0
ENDTAB
  0
TABLE
  2
STYLE
  5
3
330
0
100
AcDbSymbolTable
 70
     1
  0
STYLE
  5
11
330
3
100
AcDbSymbolTableRecord
100
AcDbTextStyleTableRecord
  2
STANDARD
 70
     0
 40
0.0
 41
1.0
 50
0.0
 71
     0
 42
3.5
  3
txt
  4

  0
ENDTAB
  0
TABLE
  2
VIEW
  5
6
330
0
100
AcDbSymbolTable
 70
     0
  0
ENDTAB
  0
TABLE
  2
UCS
  5
7
330
0
100
AcDbSymbolTable
 70
     0
  0
ENDTAB
  0
TABLE
  2
APPID
  5
9
330
0
100
AcDbSymbolTable
 70
     1
  0
APPID
  5
12
330
9
100
AcDbSymbolTableRecord
100
AcDbRegAppTableRecord
  2
ACAD
 70
     0
  0
ENDTAB
  0
TABLE
  2
DIMSTYLE
  5
A
330
0
100
AcDbSymbolTable
 70
     1
  0
DIMSTYLE
105
27
330
A
100
AcDbSymbolTableRecord
100
AcDbDimStyleTableRecord
  2
ISO-25
 70
     0
  3

  4

  5

  6

  7

 40
1.0
 41
2.5
 42
0.625
 43
3.75
 44
1.25
 45
0.0
 46
0.0
 47
0.0
 48
0.0
140
2.5
141
2.5
142
0.0
143
0.0393700787
144
1.0
145
0.0
146
1.0
147
0.625
 71
     0
 72
     0
 73
     0
 74
     0
 75
     0
 76
     0
 77
     1
 78
     8
170
     0
171
     3
172
     1
173
     0
174
     0
175
     0
176
     0
177
     0
178
     0
270
     2
271
     2
272
     2
273
     2
274
     3
340
11
275
     0
280
     0
281
     0
282
     0
283
     0
284
     8
285
     0
286
     0
287
     3
288
     0
  0
ENDTAB
  0
TABLE
  2
BLOCK_RECORD
  5
1
330
0
100
AcDbSymbolTable
 70
     8
  0
BLOCK_RECORD
  5
1F
330
1
100
AcDbSymbolTableRecord
100
AcDbBlockTableRecord
  2
*MODEL_SPACE
  0
BLOCK_RECORD
  5
1B
330
1
100
AcDbSymbolTableRecord
100
AcDbBlockTableRecord
  2
*PAPER_SPACE
  0
BLOCK_RECORD
  5
23
330
1
100
AcDbSymbolTableRecord
100
AcDbBlockTableRecord
  2
*PAPER_SPACE0
  0
BLOCK_RECORD
  5
145
330
1
100
AcDbSymbolTableRecord
100
AcDbBlockTableRecord
  2
*PAPER_SPACE1
  0
BLOCK_RECORD
  5
189
330
1
100
AcDbSymbolTableRecord
100
AcDbBlockTableRecord
  2
*PAPER_SPACE2
  0
BLOCK_RECORD
  5
1D1
330
1
100
AcDbSymbolTableRecord
100
AcDbBlockTableRecord
  2
*PAPER_SPACE3
  0
BLOCK_RECORD
  5
21A
330
1
100
AcDbSymbolTableRecord
100
AcDbBlockTableRecord
  2
*PAPER_SPACE4
  0
BLOCK_RECORD
  5
30E
330
1
100
AcDbSymbolTableRecord
100
AcDbBlockTableRecord
  2
*PAPER_SPACE5
  0
BLOCK_RECORD
  5
37A
330
1
100
AcDbSymbolTableRecord
100
AcDbBlockTableRecord
  2
*PAPER_SPACE6
  0
BLOCK_RECORD
  5
3E7
330
1
100
AcDbSymbolTableRecord
100
AcDbBlockTableRecord
  2
*PAPER_SPACE7
  0
ENDTAB
  0
ENDSEC
  0
SECTION
  2
BLOCKS
  0
BLOCK
  5
20
330
1F
100
AcDbEntity
  8
0
100
AcDbBlockBegin
  2
*MODEL_SPACE
 70
     0
 10
0.0
 20
0.0
 30
0.0
  3
*MODEL_SPACE
  1

  0
ENDBLK
  5
21
330
1F
100
AcDbEntity
  8
0
100
AcDbBlockEnd
  0
BLOCK
  5
1C
330
1B
100
AcDbEntity
 67
     1
  8
0
100
AcDbBlockBegin
  2
*PAPER_SPACE
 70
     0
 10
0.0
 20
0.0
 30
0.0
  3
*PAPER_SPACE
  1

  0
ENDBLK
  5
1D
330
1B
100
AcDbEntity
 67
     1
  8
0
100
AcDbBlockEnd
  0
BLOCK
  5
24
330
23
100
AcDbEntity
  8
0
100
AcDbBlockBegin
  2
*PAPER_SPACE0
 70
     0
 10
0.0
 20
0.0
 30
0.0
  3
*PAPER_SPACE0
  1

  0
SPLINE
  5
116
330
23
100
AcDbEntity
  8
0
  6
CONTINUOUS
 62
     7
100
AcDbSpline
210
0.0
220
0.0
230
1.0
 70
     8
 71
     3
 72
    18
 73
    14
 74
     0
 42
0.00000001
 43
0.00000001
 40
0.0
 40
0.0
 40
0.0
 40
0.0
 40
0.5000000000000009
 40
0.5000000000000009
 40
0.749999999999992
 40
0.749999999999992
 40
0.874999999999984
 40
0.874999999999984
 40
0.937499999999983
 40
0.937499999999983
 40
0.9687499999999915
 40
0.9687499999999915
 40
1.0
 40
1.0
 40
1.0
 40
1.0
 10
44.17056677602059
 20
21.79939097275269
 30
0.0
 10
43.7314718962995
 20
21.7993909727527
 30
0.0
 10
43.29262206259662
 20
21.81623174465641
 30
0.0
 10
42.63905111440113
 20
21.89002861435381
 30
0.0
 10
42.42166115131093
 20
21.92213541079513
 30
0.0
 10
42.10154324930264
 20
21.99994478135186
 30
0.0
 10
41.99539074363716
 20
22.03037034172473
 30
0.0
 10
41.84313304270141
 20
22.09633512881893
 30
0.0
 10
41.79326910508802
 20
22.12135928773885
 30
0.0
 10
41.72624477957823
 20
22.17332863247727
 30
0.0
 10
41.70511041543202
 20
22.19316456217728
 30
0.0
 10
41.67394380455042
 20
22.2423957051208
 30
0.0
 10
41.66536972103182
 20
22.27373337924404
 30
0.0
 10
41.6718237032621
 20
22.30375424050154
 30
0.0
  0
SPLINE
  5
118
330
23
100
AcDbEntity
  8
0
  6
CONTINUOUS
 62
     7
100
AcDbSpline
210
0.0
220
0.0
230
1.0
 70
    24
 71
     3
 72
    32
 73
    28
 74
     0
 42
0.00000001
 43
0.00000001
 40
0.0
 40
0.0
 40
0.0
 40
0.0
 40
0.1250000000000031
 40
0.1250000000000031
 40
0.1875000000000071
 40
0.1875000000000071
 40
0.2500000000000111
 40
0.2500000000000111
 40
0.3750000000000143
 40
0.3750000000000143
 40
0.4375000000000137
 40
0.4375000000000137
 40
0.5000000000000131
 40
0.5000000000000131
 40
0.6250000000000092
 40
0.6250000000000092
 40
0.6875000000000073
 40
0.6875000000000073
 40
0.7500000000000054
 40
0.7500000000000054
 40
0.8750000000000028
 40
0.8750000000000028
 40
0.9375000000000014
 40
0.9375000000000014
 40
0.9687500000000008
 40
0.9687500000000008
 40
1.0
 40
1.0
 40
1.0
 40
1.0
 10
54.2582162377855
 20
21.79939097275269
 30
0.0
 10
54.25821623778551
 20
21.79939097275269
 30
0.0
 10
54.19094286307608
 20
21.79939097275267
 30
0.0
 10
53.99338552781261
 20
21.79939097275268
 30
0.0
 10
53.91130189388123
 20
21.79939097275269
 30
0.0
 10
53.71392258786123
 20
21.79939097275269
 30
0.0
 10
53.59820686109664
 20
21.79939097275269
 30
0.0
 10
53.20871976548516
 20
21.79939097275269
 30
0.0
 10
52.89110264186929
 20
21.79939097275269
 30
0.0
 10
52.32874465511139
 20
21.79939097275269
 30
0.0
 10
52.12576924763744
 20
21.79939097275269
 30
0.0
 10
51.69549616767154
 20
21.79939097275269
 30
0.0
 10
51.46919546192245
 20
21.79939097275268
 30
0.0
 10
50.75810506750162
 20
21.79939097275268
 30
0.0
 10
50.2411415116572
 20
21.79939097275268
 30
0.0
 10
49.40380291054463
 20
21.79939097275267
 30
0.0
 10
49.11572048130041
 20
21.79939097275269
 30
0.0
 10
48.52908454370051
 20
21.79939097275268
 30
0.0
 10
48.22963046041228
 20
21.79939097275268
 30
0.0
 10
47.31697676826063
 20
21.79939097275268
 30
0.0
 10
46.6895895310278
 20
21.79939097275268
 30
0.0
 10
45.74606171219302
 20
21.79939097275269
 30
0.0
 10
45.43081366122217
 20
21.79939097275268
 30
0.0
 10
44.95797134409458
 20
21.79939097275267
 30
0.0
 10
44.80035503358631
 20
21.79939097275268
 30
0.0
 10
44.4852441695155
 20
21.79939097275268
 30
0.0
 10
44.32629728477369
 20
21.79939097275262
 30
0.0
 10
44.17056677602054
 20
21.79939097275262
 30
0.0
  0
LWPOLYLINE
  5
119
330
23
100
AcDbEntity
  8
0
  6
CONTINUOUS
 62
     7
100
AcDbPolyline
 90
        3
 70
   128
 43
0.0
 10
41.6718237033
 20
22.3037542405
 10
41.83346734
 20
42.301844202
 10
42.3706328967
 20
108.7819379018
  0
SPLINE
  5
11A
330
23
100
AcDbEntity
  8
0
  6
CONTINUOUS
 62
     7
100
AcDbSpline
210
0.0
220
0.0
230
1.0
 70
     8
 71
     3
 72
    20
 73
    16
 74
     0
 42
0.00000001
 43
0.00000001
 40
0.0
 40
0.0
 40
0.0
 40
0.0
 40
0.1249999999999984
 40
0.1249999999999984
 40
0.2499999999999969
 40
0.2499999999999969
 40
0.499999999999998
 40
0.499999999999998
 40
0.7499999999999991
 40
0.7499999999999991
 40
0.8750000000000009
 40
0.8750000000000009
 40
0.9375000000000004
 40
0.9375000000000004
 40
1.0
 40
1.0
 40
1.0
 40
1.0
 10
49.45746020768539
 20
105.813525283099
 30
0.0
 10
49.15675593716021
 20
105.8134346167927
 30
0.0
 10
48.85476486034822
 20
105.8461691461316
 30
0.0
 10
48.24623718729364
 20
105.9569632850413
 30
0.0
 10
47.93892800152583
 20
106.0355546028534
 30
0.0
 10
47.01353878191667
 20
106.3223282855022
 30
0.0
 10
46.41263328711168
 20
106.5726823843789
 30
0.0
 10
45.22257370623198
 20
107.1356802315006
 30
0.0
 10
44.63122147838128
 20
107.4514255954007
 30
0.0
 10
43.77036488828949
 20
107.9399983940134
 30
0.0
 10
43.48678558103395
 20
108.1059436689015
 30
0.0
 10
43.06540348335407
 20
108.3577143822821
 30
0.0
 10
42.92561029000213
 20
108.4421169463585
 30
0.0
 10
42.64720813752961
 20
108.6116119680161
 30
0.0
 10
42.50768190104978
 20
108.697271984009
 30
0.0
 10
42.37063289665664
 20
108.7819379017557
 30
0.0
  0
SPLINE
  5
11B
330
23
100
AcDbEntity
  8
0
  6
CONTINUOUS
 62
     7
100
AcDbSpline
210
0.0
220
0.0
230
1.0
 70
     8
 71
     3
 72
    20
 73
    16
 74
     0
 42
0.00000001
 43
0.00000001
 40
0.0
 40
0.0
 40
0.0
 40
0.0
 40
0.1249999999999994
 40
0.1249999999999994
 40
0.2499999999999987
 40
0.2499999999999987
 40
0.3749999999999981
 40
0.3749999999999981
 40
0.4999999999999974
 40
0.4999999999999974
 40
0.6249999999999968
 40
0.6249999999999968
 40
0.7499999999999962
 40
0.7499999999999962
 40
1.0
 40
1.0
 40
1.0
 40
1.0
 10
54.9913492875308
 20
105.808117508251
 30
0.0
 10
54.99135393674202
 20
105.80865025509
 30
0.0
 10
54.95857144015819
 20
105.8091552608194
 30
0.0
 10
54.82994255019376
 20
105.8100913840412
 30
0.0
 10
54.73454343517761
 20
105.8105226949987
 30
0.0
 10
54.48300122260647
 20
105.811313500485
 30
0.0
 10
54.3268613762142
 20
105.8116729988585
 30
0.0
 10
53.95172594302406
 20
105.8123176821573
 30
0.0
 10
53.73486933060272
 20
105.8125982594808
 30
0.0
 10
53.2508984177646
 20
105.8130699738149
 30
0.0
 10
52.9828905516407
 20
105.8132626803028
 30
0.0
 10
52.39435956476228
 20
105.8135610115246
 30
0.0
 10
52.07116561317996
 20
105.8136666657117
 30
0.0
 10
51.04765624248948
 20
105.8138415409339
 30
0.0
 10
50.2907839286105
 20
105.8137765411991
 30
0.0
 10
49.4574602076854
 20
105.813525283099
 30
0.0
  0
LWPOLYLINE
  5
11C
330
23
100
AcDbEntity
  8
0
  6
CONTINUOUS
 62
     7
100
AcDbPolyline
 90
        9
 70
   128
 43
0.0
 10
49.4574602077
 20
105.8135252831
 10
49.4671072061
 20
106.0065963516
 10
49.4932431925
 20
106.1918468445
 10
49.5348817136
 20
106.3622848315
 10
49.590451202
 20
106.5114774529
 10
49.6578542922
 20
106.6337937148
 10
49.7345469819
 20
106.7246170208
 10
49.8176346504
 20
106.780519417
 10
49.9039813105
 20
106.7993909728
  0
SPLINE
  5
11D
330
23
100
AcDbEntity
  8
0
  6
CONTINUOUS
 62
     7
100
AcDbSpline
210
0.0
220
0.0
230
1.0
 70
    24
 71
     3
 72
    20
 73
    16
 74
     0
 42
0.00000001
 43
0.00000001
 40
0.0
 40
0.0
 40
0.0
 40
0.0
 40
0.250000000000001
 40
0.250000000000001
 40
0.3750000000000009
 40
0.3750000000000009
 40
0.5000000000000008
 40
0.5000000000000008
 40
0.6250000000000006
 40
0.6250000000000006
 40
0.7500000000000004
 40
0.7500000000000004
 40
0.8750000000000002
 40
0.8750000000000002
 40
1.0
 40
1.0
 40
1.0
 40
1.0
 10
49.90398131053527
 20
106.7993909727527
 30
0.0
 10
50.82063139303296
 20
106.7993909727527
 30
0.0
 10
51.65318725155485
 20
106.7993909727527
 30
0.0
 10
52.7790455611805
 20
106.7993909727527
 30
0.0
 10
53.13455893161768
 20
106.7993909727527
 30
0.0
 10
53.78194520638694
 20
106.7993909727527
 30
0.0
 10
54.07675583189408
 20
106.7993909727527
 30
0.0
 10
54.60912925817068
 20
106.7993909727526
 30
0.0
 10
54.84767489465127
 20
106.7993909727526
 30
0.0
 10
55.26033234429769
 20
106.7993909727527
 30
0.0
 10
55.43209100377906
 20
106.7993909727527
 30
0.0
 10
55.70879770966116
 20
106.7993909727527
 30
0.0
 10
55.81374218501144
 20
106.7993909727527
 30
0.0
 10
55.95524493716457
 20
106.7993909727527
 30
0.0
 10
55.99131121059497
 20
106.7993909727526
 30
0.0
 10
55.99131121059497
 20
106.7993909727527
 30
0.0
  0
SPLINE
  5
120
330
23
100
AcDbEntity
  8
0
  6
CONTINUOUS
 62
     7
100
AcDbSpline
210
0.0
220
0.0
230
1.0
 70
     8
 71
     3
 72
    18
 73
    14
 74
     0
 42
0.00000001
 43
0.00000001
 40
0.0
 40
0.0
 40
0.0
 40
0.0
 40
0.1249999999999983
 40
0.1249999999999983
 40
0.2499999999999965
 40
0.2499999999999965
 40
0.4999999999999977
 40
0.4999999999999977
 40
0.7499999999999988
 40
0.7499999999999988
 40
0.8749999999999994
 40
0.8749999999999994
 40
1.0
 40
1.0
 40
1.0
 40
1.0
 10
49.90398131053528
 20
106.7993909727527
 30
0.0
 10
49.58356850433541
 20
106.7993909727527
 30
0.0
 10
49.26281205915168
 20
106.8235592740865
 30
0.0
 10
48.61959002970954
 20
106.9022290534688
 30
0.0
 10
48.29641302692539
 20
106.9571479189062
 30
0.0
 10
47.32856673300878
 20
107.1531077271976
 30
0.0
 10
46.69358303439557
 20
107.322440919282
 30
0.0
 10
45.43336040443543
 20
107.6983661396067
 30
0.0
 10
44.80718088902861
 20
107.9063165288317
 30
0.0
 10
43.88444898817873
 20
108.2284506942023
 30
0.0
 10
43.57909429374584
 20
108.3377830137433
 30
0.0
 10
42.97214123661671
 20
108.5586232114219
 30
0.0
 10
42.66947615291868
 20
108.6705367315588
 30
0.0
 10
42.37063289665664
 20
108.7819379017558
 30
0.0
  0
LINE
  5
127
330
23
100
AcDbEntity
  8
0
  6
CONTINUOUS
 62
     7
100
AcDbLine
 10
160.0613165405
 20
108.7819379018
 30
0.0
 11
160.0
 21
115.8081175083
 31
0.0
  0
LINE
  5
128
330
23
100
AcDbEntity
  8
0
  6
CONTINUOUS
 62
     7
100
AcDbLine
 10
-160.0
 20
115.8081175083
 30
0.0
 11
-160.8160002161
 21
22.3037542405
 31
0.0
  0
LINE
  5
129
330
23
100
AcDbEntity
  8
0
  6
CONTINUOUS
 62
     7
100
AcDbLine
 10
-60.0
 20
6.7993909728
 30
0.0
 11
-60.0
 21
1.0
 31
0.0
  0
LINE
  5
12A
330
23
100
AcDbEntity
  8
0
  6
CONTINUOUS
 62
     7
100
AcDbLine
 10
60.0
 20
1.0
 30
0.0
 11
60.0
 21
6.7993909728
 31
0.0
  0
LINE
  5
12B
330
23
100
AcDbEntity
  8
0
  6
CONTINUOUS
 62
     7
100
AcDbLine
 10
180.0
 20
21.7993909728
 30
0.0
 11
54.2582162378
 21
21.7993909728
 31
0.0
  0
LINE
  5
12C
330
23
100
AcDbEntity
  8
0
  6
CONTINUOUS
 62
     7
100
AcDbLine
 10
55.9913112106
 20
105.8081175083
 30
0.0
 11
55.2581781608
 21
21.7993909728
 31
0.0
  0
LINE
  5
12D
330
23
100
AcDbEntity
  8
0
  6
CONTINUOUS
 62
     7
100
AcDbLine
 10
180.0
 20
105.8081175083
 30
0.0
 11
55.9913112106
 21
105.8081175083
 31
0.0
  0
LINE
  5
12E
330
23
100
AcDbEntity
  8
0
  6
CONTINUOUS
 62
     7
100
AcDbLine
 10
180.0
 20
106.7993909728
 30
0.0
 11
180.0
 21
21.7993909728
 31
0.0
  0
LINE
  5
12F
330
23
100
AcDbEntity
  8
0
  6
CONTINUOUS
 62
     7
100
AcDbLine
 10
54.2582162378
 20
21.7993909728
 30
0.0
 11
54.9913492875
 21
105.8081175083
 31
0.0
  0
LINE
  5
130
330
23
100
AcDbEntity
  8
0
  6
CONTINUOUS
 62
     7
100
AcDbLine
 10
55.9913112106
 20
105.8081175083
 30
0.0
 11
55.9913112106
 21
106.7993909728
 31
0.0
  0
LINE
  5
131
330
23
100
AcDbEntity
  8
0
  6
CONTINUOUS
 62
     7
100
AcDbLine
 10
55.9913112106
 20
106.7993909728
 30
0.0
 11
180.0
 21
106.7993909728
 31
0.0
  0
LINE
  5
132
330
23
100
AcDbEntity
  8
0
  6
CONTINUOUS
 62
     7
100
AcDbLine
 10
-160.3160192546
 20
21.7993909728
 30
0.0
 11
44.170566776
 21
21.7993909728
 31
0.0
  0
LINE
  5
133
330
23
100
AcDbEntity
  8
0
  6
CONTINUOUS
 62
     7
100
AcDbLine
 10
-159.0000380769
 20
116.7993909728
 30
0.0
 11
159.0000380769
 21
116.7993909728
 31
0.0
  0
LINE
  5
134
330
23
100
AcDbEntity
  8
0
  6
CONTINUOUS
 62
     7
100
AcDbLine
 10
-59.0
 20
0.0
 30
0.0
 11
59.0
 21
0.0
 31
0.0
  0
LINE
  5
135
330
23
100
AcDbEntity
  8
0
  6
CONTINUOUS
 62
     7
100
AcDbLine
 10
-160.8160002161
 20
22.3037542405
 30
0.0
 11
41.6718237033
 21
22.3037542405
 31
0.0
  0
LINE
  5
136
330
23
100
AcDbEntity
  8
0
  6
CONTINUOUS
 62
     7
100
AcDbLine
 10
-160.0
 20
115.8081175083
 30
0.0
 11
160.0
 21
115.8081175083
 31
0.0
  0
LINE
  5
137
330
23
100
AcDbEntity
  8
0
  6
CONTINUOUS
 62
     7
100
AcDbLine
 10
42.3706328967
 20
108.7819379018
 30
0.0
 11
160.0613165405
 21
108.7819379018
 31
0.0
  0
LINE
  5
138
330
23
100
AcDbEntity
  8
0
  6
CONTINUOUS
 62
     7
100
AcDbLine
 10
-60.0
 20
6.7993909728
 30
0.0
 11
60.0
 21
6.7993909728
 31
0.0
  0
LINE
  5
139
330
23
100
AcDbEntity
  8
0
  6
CONTINUOUS
 62
     7
100
AcDbLine
 10
-60.0
 20
1.0
 30
0.0
 11
60.0
 21
1.0
 31
0.0
  0
ARC
  5
13A
330
23
100
AcDbEntity
  8
0
  6
CONTINUOUS
 62
     7
100
AcDbCircle
 10
-160.3160192546
 20
22.2993909728
 30
0.0
 40
0.5000000000000593
100
AcDbArc
 50
179.5
 51
270.0
  0
ARC
  5
13B
330
23
100
AcDbEntity
  8
0
  6
CONTINUOUS
 62
     7
100
AcDbCircle
 10
-159.0000380769
 20
115.7993909728
 30
0.0
 40
1.000000000000014
100
AcDbArc
 50
90.0
 51
179.5
  0
ARC
  5
13C
330
23
100
AcDbEntity
  8
0
  6
CONTINUOUS
 62
     7
100
AcDbCircle
 10
159.0000380769
 20
115.7993909728
 30
0.0
 40
1.000000000000034
100
AcDbArc
 50
0.5
 51
90.0
  0
ARC
  5
13D
330
23
100
AcDbEntity
  8
0
  6
CONTINUOUS
 62
     7
100
AcDbCircle
 10
162.0612403866
 20
108.7993909728
 30
0.0
 40
1.999999999999972
100
AcDbArc
 50
180.5
 51
270.0
  0
ARC
  5
13E
330
23
100
AcDbEntity
  8
0
  6
CONTINUOUS
 62
     7
100
AcDbCircle
 10
-75.0
 20
6.7993909728
 30
0.0
 40
15.0
100
AcDbArc
 50
0.0
 51
90.0
  0
ARC
  5
13F
330
23
100
AcDbEntity
  8
0
  6
CONTINUOUS
 62
     7
100
AcDbCircle
 10
75.0
 20
6.7993909728
 30
0.0
 40
14.99999999999997
100
AcDbArc
 50
90.0
 51
180.0
  0
ARC
  5
140
330
23
100
AcDbEntity
  8
0
  6
CONTINUOUS
 62
     7
100
AcDbCircle
 10
-59.0
 20
1.0
 30
0.0
 40
1.000000000000036
100
AcDbArc
 50
180.0
 51
270.0
  0
ARC
  5
141
330
23
100
AcDbEntity
  8
0
  6
CONTINUOUS
 62
     7
100
AcDbCircle
 10
59.0
 20
1.0
 30
0.0
 40
1.0
100
AcDbArc
 50
270.0
 51
0.0
  0
ARC
  5
142
330
23
100
AcDbEntity
  8
0
  6
CONTINUOUS
 62
     7
100
AcDbCircle
 10
55.4913302491
 20
77.1584295008
 30
0.0
 40
28.65405039236397
100
AcDbArc
 50
89.0002023313
 51
90.9997976687
  0
ARC
  5
143
330
23
100
AcDbEntity
  8
0
  6
CONTINUOUS
 62
     7
100
AcDbCircle
 10
55.9913112106
 20
105.7993909728
 30
0.0
 40
1.0
100
AcDbArc
 50
90.0
 51
179.5
  0
ARC
  5
144
330
23
100
AcDbEntity
  8
0
  6
CONTINUOUS
 62
     7
100
AcDbCircle
 10
47.9672207263
 20
328.5498360711
 30
0.0
 40
306.3107811688317
100
AcDbArc
 50
268.8223559211
 51
271.1776440789
  0
VIEWPORT
  5
449
330
23
100
AcDbEntity
  8
0
100
AcDbViewport
 10
0.0
 20
0.0
 30
0.0
 40
205.6
 41
156.0
 68
     1
 69
     1
1001
ACAD
1000
MVIEW
1002
{
1070
    16
1010
0.0
1020
0.0
1030
0.0
1010
0.0
1020
0.0
1030
1.0
1040
0.0
1040
357.2134125294
1040
69.9628822539
1040
9.5919903727
1040
50.0
1040
0.0
1040
0.0
1070
     0
1070
   100
1070
     0
1070
     3
1070
     0
1070
     0
1070
     0
1070
     0
1040
0.0
1040
0.0
1040
0.0
1040
10.0
1040
10.0
1040
10.0
1040
10.0
1070
     0
1002
{
1002
}
1002
}
  0
ENDBLK
  5
25
330
23
100
AcDbEntity
  8
0
100
AcDbBlockEnd
  0
BLOCK
  5
147
330
145
100
AcDbEntity
  8
0
100
AcDbBlockBegin
  2
*PAPER_SPACE1
 70
     0
 10
0.0
 20
0.0
 30
0.0
  3
*PAPER_SPACE1
  1

  0
SPLINE
  5
158
330
145
100
AcDbEntity
  8
0
  6
CONTINUOUS
 62
     7
100
AcDbSpline
210
0.0
220
0.0
230
1.0
 70
     8
 71
     3
 72
     8
 73
     4
 74
     0
 42
0.00000001
 43
0.00000001
 40
0.0
 40
0.0
 40
0.0
 40
0.0
 40
1.0
 40
1.0
 40
1.0
 40
1.0
 10
164.9810983388893
 20
22.30375424050178
 30
0.0
 10
164.9830116668639
 20
22.13557670727535
 30
0.0
 10
164.9807428477758
 20
21.96745561465664
 30
0.0
 10
164.9742911327139
 20
21.79939097275269
 30
0.0
  0
SPLINE
  5
159
330
145
100
AcDbEntity
  8
0
  6
CONTINUOUS
 62
     7
100
AcDbSpline
210
0.0
220
0.0
230
1.0
 70
    24
 71
     3
 72
     9
 73
     5
 74
     0
 42
0.00000001
 43
0.00000001
 40
0.0
 40
0.0
 40
0.0
 40
0.0
 40
0.7363099956148161
 40
1.0
 40
1.0
 40
1.0
 40
1.0
 10
164.9742911327139
 20
21.79939097275269
 30
0.0
 10
163.8203829009977
 20
21.79939097275269
 30
0.0
 10
162.2532328709987
 20
21.79939097275269
 30
0.0
 10
160.9402793449252
 20
21.79939097275269
 30
0.0
 10
160.5940666238773
 20
21.79939097275269
 30
0.0
  0
SPLINE
  5
15B
330
145
100
AcDbEntity
  8
0
  6
CONTINUOUS
 62
     7
100
AcDbSpline
210
0.0
220
0.0
230
1.0
 70
    24
 71
     3
 72
     9
 73
     5
 74
     0
 42
0.00000001
 43
0.00000001
 40
0.0
 40
0.0
 40
0.0
 40
0.0
 40
0.7402165652853759
 40
1.0
 40
1.0
 40
1.0
 40
1.0
 10
160.0786179654383
 20
106.7993909727527
 30
0.0
 10
161.0319753125763
 20
106.7993909727527
 30
0.0
 10
162.3199191277361
 20
106.7993909727527
 30
0.0
 10
163.6760353633997
 20
106.7993909727527
 30
0.0
 10
164.0283318969726
 20
106.7993909727527
 30
0.0
  0
LWPOLYLINE
  5
16A
330
145
100
AcDbEntity
  8
0
  6
CONTINUOUS
 62
     7
100
AcDbPolyline
 90
        4
 70
   128
 43
0.0
 10
164.9810983389
 20
22.3037542405
 10
162.958814172
 20
22.2825520793
 10
161.0201082585
 20
22.265832733
 10
160.8147859356
 20
22.2642940332
  0
SPLINE
  5
16B
330
145
100
AcDbEntity
  8
0
  6
CONTINUOUS
 62
     7
100
AcDbSpline
210
0.0
220
0.0
230
1.0
 70
     8
 71
     3
 72
     9
 73
     5
 74
     0
 42
0.00000001
 43
0.00000001
 40
0.0
 40
0.0
 40
0.0
 40
0.0
 40
0.2364963335232241
 40
1.0
 40
1.0
 40
1.0
 40
1.0
 10
164.0283318969726
 20
105.8081175082511
 30
0.0
 10
163.7081833466425
 20
105.8084774666013
 30
0.0
 10
162.3544687010045
 20
105.8099995128205
 30
0.0
 10
161.0688275590588
 20
105.8110664808708
 30
0.0
 10
160.0872358334099
 20
105.8118811148893
 30
0.0
  0
LINE
  5
16C
330
145
100
AcDbEntity
  8
0
  6
CONTINUOUS
 62
     7
100
AcDbLine
 10
160.8160002161
 20
22.3037542405
 30
0.0
 11
160.0
 21
115.8081175083
 31
0.0
  0
LINE
  5
16D
330
145
100
AcDbEntity
  8
0
  6
CONTINUOUS
 62
     7
100
AcDbLine
 10
-160.0
 20
115.8081175083
 30
0.0
 11
-160.8160002161
 21
22.3037542405
 31
0.0
  0
LINE
  5
16E
330
145
100
AcDbEntity
  8
0
  6
CONTINUOUS
 62
     7
100
AcDbLine
 10
-60.0
 20
6.7993909728
 30
0.0
 11
-60.0
 21
1.0
 31
0.0
  0
LINE
  5
16F
330
145
100
AcDbEntity
  8
0
  6
CONTINUOUS
 62
     7
100
AcDbLine
 10
60.0
 20
1.0
 30
0.0
 11
60.0
 21
6.7993909728
 31
0.0
  0
LINE
  5
170
330
145
100
AcDbEntity
  8
0
  6
CONTINUOUS
 62
     7
100
AcDbLine
 10
-160.3160192546
 20
21.7993909728
 30
0.0
 11
160.3160192546
 21
21.7993909728
 31
0.0
  0
LINE
  5
171
330
145
100
AcDbEntity
  8
0
  6
CONTINUOUS
 62
     7
100
AcDbLine
 10
-159.0000380769
 20
116.7993909728
 30
0.0
 11
159.0000380769
 21
116.7993909728
 31
0.0
  0
LINE
  5
172
330
145
100
AcDbEntity
  8
0
  6
CONTINUOUS
 62
     7
100
AcDbLine
 10
-59.0
 20
0.0
 30
0.0
 11
58.9999999924
 21
0.0
 31
0.0
  0
LINE
  5
173
330
145
100
AcDbEntity
  8
0
  6
CONTINUOUS
 62
     7
100
AcDbLine
 10
164.028331897
 20
105.8081175083
 30
0.0
 11
164.9810983389
 21
22.3037542405
 31
0.0
  0
LINE
  5
174
330
145
100
AcDbEntity
  8
0
  6
CONTINUOUS
 62
     7
100
AcDbLine
 10
164.028331897
 20
105.8081175083
 30
0.0
 11
164.028331897
 21
106.7993909728
 31
0.0
  0
LINE
  5
175
330
145
100
AcDbEntity
  8
0
  6
CONTINUOUS
 62
     7
100
AcDbLine
 10
299.0086887894
 20
105.8081175083
 30
0.0
 11
164.028331897
 21
105.8081175083
 31
0.0
  0
LINE
  5
176
330
145
100
AcDbEntity
  8
0
  6
CONTINUOUS
 62
     7
100
AcDbLine
 10
299.7418218392
 20
21.7993909728
 30
0.0
 11
299.0086887894
 21
105.8081175083
 31
0.0
  0
LINE
  5
177
330
145
100
AcDbEntity
  8
0
  6
CONTINUOUS
 62
     7
100
AcDbLine
 10
300.7417837622
 20
21.7993909728
 30
0.0
 11
164.9742911327
 21
21.7993909728
 31
0.0
  0
LINE
  5
178
330
145
100
AcDbEntity
  8
0
  6
CONTINUOUS
 62
     7
100
AcDbLine
 10
300.0086507125
 20
105.8081175083
 30
0.0
 11
300.7417837622
 21
21.7993909728
 31
0.0
  0
LINE
  5
179
330
145
100
AcDbEntity
  8
0
  6
CONTINUOUS
 62
     7
100
AcDbLine
 10
299.0086887894
 20
105.8081175083
 30
0.0
 11
299.0086887894
 21
106.7993909728
 31
0.0
  0
LINE
  5
17A
330
145
100
AcDbEntity
  8
0
  6
CONTINUOUS
 62
     7
100
AcDbLine
 10
164.028331897
 20
106.7993909728
 30
0.0
 11
299.0086887894
 21
106.7993909728
 31
0.0
  0
LINE
  5
17B
330
145
100
AcDbEntity
  8
0
  6
CONTINUOUS
 62
     7
100
AcDbLine
 10
-160.8160002161
 20
22.3037542405
 30
0.0
 11
160.8160002161
 21
22.3037542405
 31
0.0
  0
LINE
  5
17C
330
145
100
AcDbEntity
  8
0
  6
CONTINUOUS
 62
     7
100
AcDbLine
 10
-160.0
 20
115.8081175083
 30
0.0
 11
160.0
 21
115.8081175083
 31
0.0
  0
LINE
  5
17D
330
145
100
AcDbEntity
  8
0
  6
CONTINUOUS
 62
     7
100
AcDbLine
 10
-60.0
 20
6.7993909728
 30
0.0
 11
60.0
 21
6.7993909728
 31
0.0
  0
LINE
  5
17E
330
145
100
AcDbEntity
  8
0
  6
CONTINUOUS
 62
     7
100
AcDbLine
 10
-60.0
 20
1.0
 30
0.0
 11
60.0
 21
1.0
 31
0.0
  0
ARC
  5
17F
330
145
100
AcDbEntity
  8
0
  6
CONTINUOUS
 62
     7
100
AcDbCircle
 10
-160.3160192546
 20
22.2993909728
 30
0.0
 40
0.5000000000000592
100
AcDbArc
 50
179.5
 51
270.0
  0
ARC
  5
180
330
145
100
AcDbEntity
  8
0
  6
CONTINUOUS
 62
     7
100
AcDbCircle
 10
160.3160192546
 20
22.2993909728
 30
0.0
 40
0.5000000000000028
100
AcDbArc
 50
270.0
 51
0.5
  0
ARC
  5
181
330
145
100
AcDbEntity
  8
0
  6
CONTINUOUS
 62
     7
100
AcDbCircle
 10
-159.0000380769
 20
115.7993909728
 30
0.0
 40
1.000000000000014
100
AcDbArc
 50
90.0
 51
179.5
  0
ARC
  5
182
330
145
100
AcDbEntity
  8
0
  6
CONTINUOUS
 62
     7
100
AcDbCircle
 10
159.0000380769
 20
115.7993909728
 30
0.0
 40
1.000000000000034
100
AcDbArc
 50
0.5
 51
90.0
  0
ARC
  5
183
330
145
100
AcDbEntity
  8
0
  6
CONTINUOUS
 62
     7
100
AcDbCircle
 10
-75.0
 20
6.7993909728
 30
0.0
 40
14.99999999999999
100
AcDbArc
 50
0.0
 51
90.0
  0
ARC
  5
184
330
145
100
AcDbEntity
  8
0
  6
CONTINUOUS
 62
     7
100
AcDbCircle
 10
75.0
 20
6.7993909728
 30
0.0
 40
14.99999999999996
100
AcDbArc
 50
90.0
 51
180.0
  0
ARC
  5
185
330
145
100
AcDbEntity
  8
0
  6
CONTINUOUS
 62
     7
100
AcDbCircle
 10
-59.0
 20
1.0
 30
0.0
 40
0.9999999999999787
100
AcDbArc
 50
180.0
 51
270.0
  0
ARC
  5
186
330
145
100
AcDbEntity
  8
0
  6
CONTINUOUS
 62
     7
100
AcDbCircle
 10
59.0
 20
1.0
 30
0.0
 40
1.0
100
AcDbArc
 50
270.0
 51
0.0
  0
ARC
  5
187
330
145
100
AcDbEntity
  8
0
  6
CONTINUOUS
 62
     7
100
AcDbCircle
 10
299.5086697509
 20
77.1584295006
 30
0.0
 40
28.6540503924927
100
AcDbArc
 50
89.0002023313
 51
90.9997976687
  0
ARC
  5
188
330
145
100
AcDbEntity
  8
0
  6
CONTINUOUS
 62
     7
100
AcDbCircle
 10
299.0086887894
 20
105.7993909728
 30
0.0
 40
1.000000000000177
100
AcDbArc
 50
0.5
 51
90.0
  0
VIEWPORT
  5
44B
330
145
100
AcDbEntity
  8
0
100
AcDbViewport
 10
0.0
 20
0.0
 30
0.0
 40
205.6
 41
156.0
 68
     1
 69
     1
1001
ACAD
1000
MVIEW
1002
{
1070
    16
1010
0.0
1020
0.0
1030
0.0
1010
0.0
1020
0.0
1030
1.0
1040
0.0
1040
357.2134125294
1040
69.9628822539
1040
9.5919903727
1040
50.0
1040
0.0
1040
0.0
1070
     0
1070
   100
1070
     0
1070
     3
1070
     0
1070
     0
1070
     0
1070
     0
1040
0.0
1040
0.0
1040
0.0
1040
10.0
1040
10.0
1040
10.0
1040
10.0
1070
     0
1002
{
1002
}
1002
}
  0
ENDBLK
  5
148
330
145
100
AcDbEntity
  8
0
100
AcDbBlockEnd
  0
BLOCK
  5
18B
330
189
100
AcDbEntity
  8
0
100
AcDbBlockBegin
  2
*PAPER_SPACE2
 70
     0
 10
0.0
 20
0.0
 30
0.0
  3
*PAPER_SPACE2
  1

  0
SPLINE
  5
198
330
189
100
AcDbEntity
  8
0
  6
CONTINUOUS
 62
     7
100
AcDbSpline
210
0.0
220
0.0
230
1.0
 70
     8
 71
     3
 72
     9
 73
     5
 74
     0
 42
0.00000001
 43
0.00000001
 40
0.0
 40
0.0
 40
0.0
 40
0.0
 40
0.5295306555119813
 40
0.9999999999999999
 40
0.9999999999999999
 40
0.9999999999999999
 40
0.9999999999999999
 10
-154.0171934726982
 20
107.2836141270983
 30
0.0
 10
-154.0309617520613
 20
107.1453763647537
 30
0.0
 10
-154.0569626629054
 20
106.8843192174372
 30
0.0
 10
-154.0997211030305
 20
106.8533968109107
 30
0.0
 10
-154.1198376383274
 20
106.8388487665822
 30
0.0
  0
CIRCLE
  5
19A
330
189
100
AcDbEntity
  8
0
  6
CONTINUOUS
 62
     7
100
AcDbCircle
 10
-122.7417837622
 20
71.7993909728
 30
0.0
 40
8.500000000000014
  0
CIRCLE
  5
1A0
330
189
100
AcDbEntity
  8
0
  6
CONTINUOUS
 62
     7
100
AcDbCircle
 10
-257.7417837622
 20
71.7993909728
 30
0.0
 40
8.499999999999972
  0
SPLINE
  5
1A1
330
189
100
AcDbEntity
  8
0
  6
CONTINUOUS
 62
     7
100
AcDbSpline
210
0.0
220
0.0
230
1.0
 70
     8
 71
     3
 72
    18
 73
    14
 74
     0
 42
0.00000001
 43
0.00000001
 40
0.0
 40
0.0
 40
0.0
 40
0.0
 40
0.0312499999999991
 40
0.0312499999999991
 40
0.0624999999999982
 40
0.0624999999999982
 40
0.1249999999999937
 40
0.1249999999999937
 40
0.2499999999999902
 40
0.2499999999999902
 40
0.4999999999999936
 40
0.4999999999999936
 40
1.0
 40
1.0
 40
1.0
 40
1.0
 10
43.05953790363864
 20
22.30375424050183
 30
0.0
 10
43.06389317310322
 20
22.26990716898845
 30
0.0
 10
43.08417350090707
 20
22.2417906302161
 30
0.0
 10
43.12935428950237
 20
22.19627500487271
 30
0.0
 10
43.15473065242097
 20
22.17817803863036
 30
0.0
 10
43.23402937249885
 20
22.12918710674801
 30
0.0
 10
43.29033782986964
 20
22.10455704676271
 30
0.0
 10
43.46009249613284
 20
22.03973312411751
 30
0.0
 10
43.57687927265294
 20
22.00870895845285
 30
0.0
 10
43.92905731383021
 20
21.92908763703501
 30
0.0
 10
44.16530623857864
 20
21.89558007704363
 30
0.0
 10
44.87584795566111
 20
21.81807477236376
 30
0.0
 10
45.3526202936437
 20
21.79939097275176
 30
0.0
 10
45.82943322397939
 20
21.79939097275176
 30
0.0
  0
SPLINE
  5
1A3
330
189
100
AcDbEntity
  8
0
  6
CONTINUOUS
 62
     7
100
AcDbSpline
210
0.0
220
0.0
230
1.0
 70
    24
 71
     3
 72
    30
 73
    26
 74
     0
 42
0.00000001
 43
0.00000001
 40
0.0
 40
0.0
 40
0.0
 40
0.0
 40
0.1249999999999945
 40
0.1249999999999945
 40
0.1874999999999917
 40
0.1874999999999917
 40
0.249999999999989
 40
0.249999999999989
 40
0.3749999999999887
 40
0.3749999999999887
 40
0.4374999999999912
 40
0.4374999999999912
 40
0.4999999999999936
 40
0.4999999999999936
 40
0.6249999999999947
 40
0.6249999999999947
 40
0.7499999999999958
 40
0.7499999999999958
 40
0.874999999999997
 40
0.874999999999997
 40
0.9374999999999984
 40
0.9374999999999984
 40
0.9687499999999991
 40
0.9687499999999991
 40
1.0
 40
1.0
 40
1.0
 40
1.0
 10
35.74178376221448
 20
21.79939097275266
 30
0.0
 10
35.74178376221451
 20
21.79939097275266
 30
0.0
 10
35.80932083543706
 20
21.79939097275266
 30
0.0
 10
36.00761482248905
 20
21.79939097275266
 30
0.0
 10
36.09000158152762
 20
21.79939097275266
 30
0.0
 10
36.28809864191196
 20
21.79939097275266
 30
0.0
 10
36.40421912498856
 20
21.79939097275266
 30
0.0
 10
36.79502117338319
 20
21.79939097275266
 30
0.0
 10
37.11367629848613
 20
21.79939097275265
 30
0.0
 10
37.67770754822176
 20
21.79939097275267
 30
0.0
 10
37.88127206805697
 20
21.79939097275266
 30
0.0
 10
38.31258863011823
 20
21.79939097275266
 30
0.0
 10
38.53941573619682
 20
21.79939097275266
 30
0.0
 10
39.2520142675479
 20
21.79939097275266
 30
0.0
 10
39.76995595803497
 20
21.79939097275266
 30
0.0
 10
40.88688734080638
 20
21.79939097275266
 30
0.0
 10
41.47741019457929
 20
21.79939097275266
 30
0.0
 10
42.69172230118875
 20
21.79939097275266
 30
0.0
 10
43.31657484750562
 20
21.79939097275266
 30
0.0
 10
44.25710239471145
 20
21.79939097275266
 30
0.0
 10
44.57146655806084
 20
21.79939097275266
 30
0.0
 10
45.04325134107572
 20
21.79939097275266
 30
0.0
 10
45.20055866728293
 20
21.79939097275266
 30
0.0
 10
45.5151426259248
 20
21.79939097275266
 30
0.0
 10
45.67386077752126
 20
21.79939097275266
 30
0.0
 10
45.82943322397945
 20
21.79939097275265
 30
0.0
  0
SPLINE
  5
1A4
330
189
100
AcDbEntity
  8
0
  6
CONTINUOUS
 62
     7
100
AcDbSpline
210
0.0
220
0.0
230
1.0
 70
     8
 71
     3
 72
    14
 73
    10
 74
     0
 42
0.00000001
 43
0.00000001
 40
0.0
 40
0.0
 40
0.0
 40
0.0
 40
0.25
 40
0.25
 40
0.5
 40
0.5
 40
0.75
 40
0.75
 40
1.0
 40
1.0
 40
1.0
 40
1.0
 10
36.60226325789942
 20
105.8103306907637
 30
0.0
 10
36.34254147255855
 20
105.8102890880982
 30
0.0
 10
36.11386201882149
 20
105.8102102971108
 30
0.0
 10
35.71737193866101
 20
105.8099797951367
 30
0.0
 10
35.5488651532189
 20
105.8098267347751
 30
0.0
 10
35.28006773073539
 20
105.8094527579454
 30
0.0
 10
35.17908322603752
 20
105.8092322634866
 30
0.0
 10
35.0433311606721
 20
105.8087248757224
 30
0.0
 10
35.00864792788316
 20
105.8084365902087
 30
0.0
 10
35.0086507124692
 20
105.808117508251
 30
0.0
  0
SPLINE
  5
1A5
330
189
100
AcDbEntity
  8
0
  6
CONTINUOUS
 62
     7
100
AcDbSpline
210
0.0
220
0.0
230
1.0
 70
     8
 71
     3
 72
    20
 73
    16
 74
     0
 42
0.00000001
 43
0.00000001
 40
0.0
 40
0.0
 40
0.0
 40
0.0
 40
0.1249999999999973
 40
0.1249999999999973
 40
0.2499999999999945
 40
0.2499999999999945
 40
0.4999999999999977
 40
0.4999999999999977
 40
0.7500000000000008
 40
0.7500000000000008
 40
0.8750000000000014
 40
0.8750000000000014
 40
0.9375000000000007
 40
0.9375000000000007
 40
1.0
 40
1.0
 40
1.0
 40
1.0
 10
36.60226325789942
 20
105.8103306907637
 30
0.0
 10
36.7845701747388
 20
105.8103598929873
 30
0.0
 10
36.97710441200922
 20
105.8433134811731
 30
0.0
 10
37.38229408897872
 20
105.9545750951851
 30
0.0
 10
37.59555529054587
 20
106.0334328916389
 30
0.0
 10
38.26188037680198
 20
106.3208787472357
 30
0.0
 10
38.72616087113252
 20
106.5716014336609
 30
0.0
 10
39.69866768502545
 20
107.1351473062919
 30
0.0
 10
40.20949917383393
 20
107.4510572579126
 30
0.0
 10
40.99089146845144
 20
107.939806119718
 30
0.0
 10
41.25470340918264
 20
108.1057992875048
 30
0.0
 10
41.65618735058968
 20
108.3576309286445
 30
0.0
 10
41.79097763254308
 20
108.4420519764988
 30
0.0
 10
42.06262834945751
 20
108.611581152276
 30
0.0
 10
42.20040202606842
 20
108.6972543107675
 30
0.0
 10
42.33734794164193
 20
108.7819379017556
 30
0.0
  0
LWPOLYLINE
  5
1A6
330
189
100
AcDbEntity
  8
0
  6
CONTINUOUS
 62
     7
100
AcDbPolyline
 90
        3
 70
   128
 43
0.0
 10
42.3373479416
 20
108.7819379018
 10
42.5043351619
 20
88.7830914989
 10
43.0595379036
 20
22.3037542405
  0
SPLINE
  5
1A8
330
189
100
AcDbEntity
  8
0
  6
CONTINUOUS
 62
     7
100
AcDbSpline
210
0.0
220
0.0
230
1.0
 70
    24
 71
     3
 72
    12
 73
     8
 74
     0
 42
0.00000001
 43
0.00000001
 40
0.0
 40
0.0
 40
0.0
 40
0.0
 40
0.5
 40
0.5
 40
0.75
 40
0.75
 40
1.0
 40
1.0
 40
1.0
 40
1.0
 10
34.00868878940503
 20
106.7993909727527
 30
0.0
 10
34.00868878940502
 20
106.7993909727526
 30
0.0
 10
34.15800770051883
 20
106.7993909727526
 30
0.0
 10
34.60100445802103
 20
106.7993909727527
 30
0.0
 10
34.78660527389962
 20
106.7993909727527
 30
0.0
 10
35.22338120758442
 20
106.7993909727527
 30
0.0
 10
35.47538785482838
 20
106.7993909727527
 30
0.0
 10
35.76168383494461
 20
106.7993909727527
 30
0.0
  0
SPLINE
  5
1A9
330
189
100
AcDbEntity
  8
0
  6
CONTINUOUS
 62
     7
100
AcDbSpline
210
0.0
220
0.0
230
1.0
 70
     8
 71
     3
 72
    18
 73
    14
 74
     0
 42
0.00000001
 43
0.00000001
 40
0.0
 40
0.0
 40
0.0
 40
0.0
 40
0.1249999999999983
 40
0.1249999999999983
 40
0.2499999999999965
 40
0.2499999999999965
 40
0.4999999999999977
 40
0.4999999999999977
 40
0.7499999999999988
 40
0.7499999999999988
 40
0.8749999999999994
 40
0.8749999999999994
 40
1.0
 40
1.0
 40
1.0
 40
1.0
 10
-154.1863751600972
 20
106.7993909727527
 30
0.0
 10
-154.0989779083843
 20
106.7993909727527
 30
0.0
 10
-154.0277591523786
 20
106.8235592740865
 30
0.0
 10
-153.9124926044005
 20
106.9022290534688
 30
0.0
 10
-153.8684182626101
 20
106.9571479189062
 30
0.0
 10
-153.7728730320219
 20
107.1531077271976
 30
0.0
 10
-153.757940971754
 20
107.322440919282
 30
0.0
 10
-153.8046471200859
 20
107.6983661396067
 30
0.0
 10
-153.8670558884763
 20
107.9063165288317
 30
0.0
 10
-154.0110798390255
 20
108.2284506942023
 30
0.0
 10
-154.0675638528948
 20
108.3377830137433
 30
0.0
 10
-154.1970642608079
 20
108.5586232114219
 30
0.0
 10
-154.2703728782294
 20
108.6705367315588
 30
0.0
 10
-154.3513994773448
 20
108.7819379017558
 30
0.0
  0
SPLINE
  5
1AB
330
189
100
AcDbEntity
  8
0
  6
CONTINUOUS
 62
     7
100
AcDbSpline
210
0.0
220
0.0
230
1.0
 70
     8
 71
     3
 72
    18
 73
    14
 74
     0
 42
0.00000001
 43
0.00000001
 40
0.0
 40
0.0
 40
0.0
 40
0.0
 40
0.1250000000000027
 40
0.1250000000000027
 40
0.2500000000000055
 40
0.2500000000000055
 40
0.5000000000000038
 40
0.5000000000000038
 40
0.7500000000000021
 40
0.7500000000000021
 40
0.8750000000000011
 40
0.8750000000000011
 40
1.0
 40
1.0
 40
1.0
 40
1.0
 10
35.76168383494461
 20
106.7993909727527
 30
0.0
 10
35.99300301760723
 20
106.7993909727527
 30
0.0
 10
36.23295801058143
 20
106.8236283134306
 30
0.0
 10
36.72828516480975
 20
106.902439207956
 30
0.0
 10
36.98427157332797
 20
106.9574381268506
 30
0.0
 10
37.76944766273779
 20
107.1535706319935
 30
0.0
 10
38.3090343745541
 20
107.3229609817254
 30
0.0
 10
39.41890445129498
 20
107.6988779848963
 30
0.0
 10
39.99037875915889
 20
107.906759825806
 30
0.0
 10
40.85907825805621
 20
108.2287503609491
 30
0.0
 10
41.15105703672302
 20
108.3380279789188
 30
0.0
 10
41.74021333106348
 20
108.5587505115578
 30
0.0
 10
42.03845462351519
 20
108.6705990904583
 30
0.0
 10
42.33734794164194
 20
108.7819379017557
 30
0.0
  0
SPLINE
  5
1B4
330
189
100
AcDbEntity
  8
0
  6
CONTINUOUS
 62
     7
100
AcDbSpline
210
0.0
220
0.0
230
1.0
 70
     8
 71
     3
 72
    10
 73
     6
 74
     0
 42
0.00000001
 43
0.00000001
 40
0.0
 40
0.0
 40
0.0
 40
0.0
 40
0.0110679100183035
 40
0.9936966709901167
 40
1.0
 40
1.0
 40
1.0
 40
1.0
 10
-154.0162772716308
 20
107.263139355754
 30
0.0
 10
-154.0148110555554
 20
107.2675379087039
 30
0.0
 10
-153.8831715652989
 20
107.6624478254103
 30
0.0
 10
-154.1257819485701
 20
108.2621024260004
 30
0.0
 10
-154.3499705274831
 20
108.7786455209068
 30
0.0
 10
-154.3513994773448
 20
108.7819379017567
 30
0.0
  0
LINE
  5
1B5
330
189
100
AcDbEntity
  8
0
  6
CONTINUOUS
 62
     7
100
AcDbLine
 10
160.8160002161
 20
22.3037542405
 30
0.0
 11
160.0
 21
115.8081175083
 31
0.0
  0
LINE
  5
1B6
330
189
100
AcDbEntity
  8
0
  6
CONTINUOUS
 62
     7
100
AcDbLine
 10
-160.0
 20
115.8081175083
 30
0.0
 11
-160.0786179654
 21
106.7993909728
 31
0.0
  0
LINE
  5
1B7
330
189
100
AcDbEntity
  8
0
  6
CONTINUOUS
 62
     7
100
AcDbLine
 10
-60.0
 20
6.7993909728
 30
0.0
 11
-60.0
 21
1.0
 31
0.0
  0
LINE
  5
1B8
330
189
100
AcDbEntity
  8
0
  6
CONTINUOUS
 62
     7
100
AcDbLine
 10
60.0
 20
1.0
 30
0.0
 11
60.0
 21
6.7993909728
 31
0.0
  0
LINE
  5
1B9
330
189
100
AcDbEntity
  8
0
  6
CONTINUOUS
 62
     7
100
AcDbLine
 10
35.7417837622
 20
21.7993909728
 30
0.0
 11
-300.7417837622
 21
21.7993909728
 31
0.0
  0
LINE
  5
1BA
330
189
100
AcDbEntity
  8
0
  6
CONTINUOUS
 62
     7
100
AcDbLine
 10
-300.0086507125
 20
105.8081175083
 30
0.0
 11
-300.7417837622
 21
21.7993909728
 31
0.0
  0
LINE
  5
1BB
330
189
100
AcDbEntity
  8
0
  6
CONTINUOUS
 62
     7
100
AcDbLine
 10
35.0086507125
 20
105.8081175083
 30
0.0
 11
35.7417837622
 21
21.7993909728
 31
0.0
  0
LINE
  5
1BC
330
189
100
AcDbEntity
  8
0
  6
CONTINUOUS
 62
     7
100
AcDbLine
 10
34.0086887894
 20
106.7993909728
 30
0.0
 11
-299.0086887894
 21
106.7993909728
 31
0.0
  0
LINE
  5
1BD
330
189
100
AcDbEntity
  8
0
  6
CONTINUOUS
 62
     7
100
AcDbLine
 10
-154.3513994773
 20
108.7819379018
 30
0.0
 11
42.3373479416
 21
108.7819379018
 31
0.0
  0
LINE
  5
1BE
330
189
100
AcDbEntity
  8
0
  6
CONTINUOUS
 62
     7
100
AcDbLine
 10
-159.0000380769
 20
116.7993909728
 30
0.0
 11
159.0000380769
 21
116.7993909728
 31
0.0
  0
LINE
  5
1BF
330
189
100
AcDbEntity
  8
0
  6
CONTINUOUS
 62
     7
100
AcDbLine
 10
45.829433224
 20
21.7993909728
 30
0.0
 11
160.3160192546
 21
21.7993909728
 31
0.0
  0
LINE
  5
1C0
330
189
100
AcDbEntity
  8
0
  6
CONTINUOUS
 62
     7
100
AcDbLine
 10
-58.9999999924
 20
0.0
 30
0.0
 11
59.0
 21
0.0
 31
0.0
  0
LINE
  5
1C1
330
189
100
AcDbEntity
  8
0
  6
CONTINUOUS
 62
     7
100
AcDbLine
 10
-160.0
 20
115.8081175083
 30
0.0
 11
160.0
 21
115.8081175083
 31
0.0
  0
LINE
  5
1C2
330
189
100
AcDbEntity
  8
0
  6
CONTINUOUS
 62
     7
100
AcDbLine
 10
-154.3736889914
 20
106.7993909728
 30
0.0
 11
-154.3513994773
 21
108.7819379018
 31
0.0
  0
LINE
  5
1C3
330
189
100
AcDbEntity
  8
0
  6
CONTINUOUS
 62
     7
100
AcDbLine
 10
43.0595379036
 20
22.3037542405
 30
0.0
 11
160.8160002161
 21
22.3037542405
 31
0.0
  0
LINE
  5
1C4
330
189
100
AcDbEntity
  8
0
  6
CONTINUOUS
 62
     7
100
AcDbLine
 10
-60.0
 20
6.7993909728
 30
0.0
 11
60.0
 21
6.7993909728
 31
0.0
  0
LINE
  5
1C5
330
189
100
AcDbEntity
  8
0
  6
CONTINUOUS
 62
     7
100
AcDbLine
 10
-60.0
 20
1.0
 30
0.0
 11
60.0
 21
1.0
 31
0.0
  0
ARC
  5
1C6
330
189
100
AcDbEntity
  8
0
  6
CONTINUOUS
 62
     7
100
AcDbCircle
 10
-159.0000380769
 20
115.7993909728
 30
0.0
 40
1.000000000000034
100
AcDbArc
 50
90.0
 51
179.5
  0
ARC
  5
1C7
330
189
100
AcDbEntity
  8
0
  6
CONTINUOUS
 62
     7
100
AcDbCircle
 10
159.0000380769
 20
115.7993909728
 30
0.0
 40
1.000000000000034
100
AcDbArc
 50
0.5
 51
90.0
  0
ARC
  5
1C8
330
189
100
AcDbEntity
  8
0
  6
CONTINUOUS
 62
     7
100
AcDbCircle
 10
160.3160192546
 20
22.2993909728
 30
0.0
 40
0.5000000000000028
100
AcDbArc
 50
270.0
 51
0.5
  0
ARC
  5
1C9
330
189
100
AcDbEntity
  8
0
  6
CONTINUOUS
 62
     7
100
AcDbCircle
 10
-75.0
 20
6.7993909728
 30
0.0
 40
14.99999999999996
100
AcDbArc
 50
0.0
 51
90.0
  0
ARC
  5
1CA
330
189
100
AcDbEntity
  8
0
  6
CONTINUOUS
 62
     7
100
AcDbCircle
 10
75.0
 20
6.7993909728
 30
0.0
 40
14.99999999999998
100
AcDbArc
 50
90.0
 51
180.0
  0
ARC
  5
1CB
330
189
100
AcDbEntity
  8
0
  6
CONTINUOUS
 62
     7
100
AcDbCircle
 10
-59.0
 20
1.0
 30
0.0
 40
1.000000000000009
100
AcDbArc
 50
180.0
 51
270.0
  0
ARC
  5
1CC
330
189
100
AcDbEntity
  8
0
  6
CONTINUOUS
 62
     7
100
AcDbCircle
 10
59.0
 20
1.0
 30
0.0
 40
0.9999999999999717
100
AcDbArc
 50
270.0
 51
0.0
  0
ARC
  5
1CD
330
189
100
AcDbEntity
  8
0
  6
CONTINUOUS
 62
     7
100
AcDbCircle
 10
34.0086887894
 20
105.7993909728
 30
0.0
 40
0.9999999999999912
100
AcDbArc
 50
0.5
 51
90.0
  0
ARC
  5
1CE
330
189
100
AcDbEntity
  8
0
  6
CONTINUOUS
 62
     7
100
AcDbCircle
 10
-299.0086887894
 20
105.7993909728
 30
0.0
 40
1.000000000000177
100
AcDbArc
 50
90.0
 51
179.5
  0
ARC
  5
1CF
330
189
100
AcDbEntity
  8
0
  6
CONTINUOUS
 62
     7
100
AcDbCircle
 10
39.3984600771
 20
267.6207663361
 30
0.0
 40
245.3443292891763
100
AcDbArc
 50
269.1449890279
 51
270.8550109721
  0
ARC
  5
1D0
330
189
100
AcDbEntity
  8
0
  6
CONTINUOUS
 62
     7
100
AcDbCircle
 10
35.6757254818
 20
105.8746123285
 30
0.0
 40
0.9287649753362185
100
AcDbArc
 50
356.0312743372
 51
84.6896046576
  0
VIEWPORT
  5
44D
330
189
100
AcDbEntity
  8
0
100
AcDbViewport
 10
0.0
 20
0.0
 30
0.0
 40
205.6
 41
156.0
 68
     1
 69
     1
1001
ACAD
1000
MVIEW
1002
{
1070
    16
1010
0.0
1020
0.0
1030
0.0
1010
0.0
1020
0.0
1030
1.0
1040
0.0
1040
357.2134125294
1040
69.9628822539
1040
9.5919903727
1040
50.0
1040
0.0
1040
0.0
1070
     0
1070
   100
1070
     0
1070
     3
1070
     0
1070
     0
1070
     0
1070
     0
1040
0.0
1040
0.0
1040
0.0
1040
10.0
1040
10.0
1040
10.0
1040
10.0
1070
     0
1002
{
1002
}
1002
}
  0
ENDBLK
  5
18C
330
189
100
AcDbEntity
  8
0
100
AcDbBlockEnd
  0
BLOCK
  5
1D3
330
1D1
100
AcDbEntity
  8
0
100
AcDbBlockBegin
  2
*PAPER_SPACE3
 70
     0
 10
0.0
 20
0.0
 30
0.0
  3
*PAPER_SPACE3
  1

  0
SPLINE
  5
1E1
330
1D1
100
AcDbEntity
  8
0
  6
CONTINUOUS
 62
     7
100
AcDbSpline
210
0.0
220
0.0
230
1.0
 70
     8
 71
     3
 72
    18
 73
    14
 74
     0
 42
0.00000001
 43
0.00000001
 40
0.0
 40
0.0
 40
0.0
 40
0.0
 40
0.0312499999999991
 40
0.0312499999999991
 40
0.0624999999999982
 40
0.0624999999999982
 40
0.1249999999999937
 40
0.1249999999999937
 40
0.2499999999999902
 40
0.2499999999999902
 40
0.4999999999999936
 40
0.4999999999999936
 40
1.0
 40
1.0
 40
1.0
 40
1.0
 10
-154.9440612641494
 20
22.30375424050183
 30
0.0
 10
-154.9431574913086
 20
22.26990716898845
 30
0.0
 10
-154.9343345555629
 20
22.2417906302161
 30
0.0
 10
-154.9140702660708
 20
22.19627500487271
 30
0.0
 10
-154.9024234051961
 20
22.17817803863036
 30
0.0
 10
-154.8657639736216
 20
22.12918710674801
 30
0.0
 10
-154.8393777890556
 20
22.10455704676271
 30
0.0
 10
-154.7595209994961
 20
22.03973312411751
 30
0.0
 10
-154.7041324151668
 20
22.00870895845285
 30
0.0
 10
-154.5367173351021
 20
21.92908763703501
 30
0.0
 10
-154.4238450485691
 20
21.89558007704363
 30
0.0
 10
-154.0838982270716
 20
21.81807477236376
 30
0.0
 10
-153.8550796370724
 20
21.79939097275176
 30
0.0
 10
-153.6258086390387
 20
21.79939097275176
 30
0.0
  0
LWPOLYLINE
  5
1E3
330
1D1
100
AcDbEntity
  8
0
  6
CONTINUOUS
 62
     7
100
AcDbPolyline
 90
        3
 70
   128
 43
0.0
 10
-154.3605325915
 20
108.7819379018
 10
-154.4956541138
 20
88.7830914989
 10
-154.9440612641
 20
22.3037542405
  0
SPLINE
  5
1E8
330
1D1
100
AcDbEntity
  8
0
  6
CONTINUOUS
 62
     7
100
AcDbSpline
210
0.0
220
0.0
230
1.0
 70
     8
 71
     3
 72
     8
 73
     4
 74
     0
 42
0.00000001
 43
0.00000001
 40
0.0
 40
0.0
 40
0.0
 40
0.0
 40
1.0
 40
1.0
 40
1.0
 40
1.0
 10
-164.5693294512295
 20
21.79939097275266
 30
0.0
 10
-164.5765982653396
 20
21.96743534818951
 30
0.0
 10
-164.5796759461487
 20
22.13555642465134
 30
0.0
 10
-164.5785603973746
 20
22.30375424050175
 30
0.0
  0
SPLINE
  5
1EA
330
1D1
100
AcDbEntity
  8
0
  6
CONTINUOUS
 62
     7
100
AcDbSpline
210
0.0
220
0.0
230
1.0
 70
    24
 71
     3
 72
    30
 73
    26
 74
     0
 42
0.00000001
 43
0.00000001
 40
0.0
 40
0.0
 40
0.0
 40
0.0
 40
0.1249999999999945
 40
0.1249999999999945
 40
0.1874999999999917
 40
0.1874999999999917
 40
0.249999999999989
 40
0.249999999999989
 40
0.3749999999999887
 40
0.3749999999999887
 40
0.4374999999999912
 40
0.4374999999999912
 40
0.4999999999999936
 40
0.4999999999999936
 40
0.6249999999999947
 40
0.6249999999999947
 40
0.7499999999999958
 40
0.7499999999999958
 40
0.874999999999997
 40
0.874999999999997
 40
0.9374999999999984
 40
0.9374999999999984
 40
0.9687499999999991
 40
0.9687499999999991
 40
1.0
 40
1.0
 40
1.0
 40
1.0
 10
-164.5693294512295
 20
21.79939097275266
 30
0.0
 10
-163.8942853768854
 20
21.79939097275266
 30
0.0
 10
-163.2307720935505
 20
21.79939097275266
 30
0.0
 10
-162.252061262016
 20
21.79939097275266
 30
0.0
 10
-161.9286053437187
 20
21.79939097275266
 30
0.0
 10
-161.2873829275225
 20
21.79939097275266
 30
0.0
 10
-160.9692031717456
 20
21.79939097275266
 30
0.0
 10
-160.0444650266762
 20
21.79939097275266
 30
0.0
 10
-159.460168379478
 20
21.79939097275265
 30
0.0
 10
-158.6313894758232
 20
21.79939097275267
 30
0.0
 10
-158.3618439695562
 20
21.79939097275266
 30
0.0
 10
-157.8458703973146
 20
21.79939097275266
 30
0.0
 10
-157.6002469273919
 20
21.79939097275266
 30
0.0
 10
-156.8989286244426
 20
21.79939097275266
 30
0.0
 10
-156.4788446241864
 20
21.79939097275266
 30
0.0
 10
-155.7283926026726
 20
21.79939097275266
 30
0.0
 10
-155.4056178650812
 20
21.79939097275266
 30
0.0
 10
-154.8353122438574
 20
21.79939097275266
 30
0.0
 10
-154.5842996353535
 20
21.79939097275266
 30
0.0
 10
-154.2200163732295
 20
21.79939097275266
 30
0.0
 10
-154.1007960448013
 20
21.79939097275266
 30
0.0
 10
-153.9225814195327
 20
21.79939097275266
 30
0.0
 10
-153.8632947631597
 20
21.79939097275266
 30
0.0
 10
-153.7446415614161
 20
21.79939097275266
 30
0.0
 10
-153.6847222935586
 20
21.79939097275266
 30
0.0
 10
-153.6258086390386
 20
21.79939097275265
 30
0.0
  0
SPLINE
  5
1EC
330
1D1
100
AcDbEntity
  8
0
  6
CONTINUOUS
 62
     7
100
AcDbSpline
210
0.0
220
0.0
230
1.0
 70
     8
 71
     3
 72
    14
 73
    10
 74
     0
 42
0.00000001
 43
0.00000001
 40
0.0
 40
0.0
 40
0.0
 40
0.0
 40
0.25
 40
0.25
 40
0.5
 40
0.5
 40
0.75
 40
0.75
 40
1.0
 40
1.0
 40
1.0
 40
1.0
 10
-158.6078538282537
 20
105.8103306907637
 30
0.0
 10
-159.0109671531264
 20
105.8102890880982
 30
0.0
 10
-159.4292619568584
 20
105.8102102971108
 30
0.0
 10
-160.2956199086225
 20
105.8099797951367
 30
0.0
 10
-160.7466239143528
 20
105.8098267347751
 30
0.0
 10
-161.6611550137821
 20
105.8094527579454
 30
0.0
 10
-162.1249577934193
 20
105.8092322634866
 30
0.0
 10
-163.065518183368
 20
105.8087248757224
 30
0.0
 10
-163.5442575244579
 20
105.8084365902087
 30
0.0
 10
-164.0237942346885
 20
105.808117508251
 30
0.0
  0
SPLINE
  5
1ED
330
1D1
100
AcDbEntity
  8
0
  6
CONTINUOUS
 62
     7
100
AcDbSpline
210
0.0
220
0.0
230
1.0
 70
     8
 71
     3
 72
    20
 73
    16
 74
     0
 42
0.00000001
 43
0.00000001
 40
0.0
 40
0.0
 40
0.0
 40
0.0
 40
0.1249999999999973
 40
0.1249999999999973
 40
0.2499999999999945
 40
0.2499999999999945
 40
0.4999999999999977
 40
0.4999999999999977
 40
0.7500000000000008
 40
0.7500000000000008
 40
0.8750000000000014
 40
0.8750000000000014
 40
0.9375000000000007
 40
0.9375000000000007
 40
1.0
 40
1.0
 40
1.0
 40
1.0
 10
-158.6078538282537
 20
105.8103306907637
 30
0.0
 10
-158.3248958649933
 20
105.8103598929873
 30
0.0
 10
-158.0565914392114
 20
105.8433134811731
 30
0.0
 10
-157.544904936528
 20
105.9545750951851
 30
0.0
 10
-157.3009465367666
 20
106.0334328916389
 30
0.0
 10
-156.6075037209068
 20
106.3208787472357
 30
0.0
 10
-156.2103442385916
 20
106.5716014336609
 30
0.0
 10
-155.5130404448117
 20
107.1351473062919
 30
0.0
 10
-155.2130346479452
 20
107.4510572579126
 30
0.0
 10
-154.8397631370379
 20
107.939806119718
 30
0.0
 10
-154.7275760822851
 20
108.1057992875048
 30
0.0
 10
-154.5768114384547
 20
108.3576309286445
 30
0.0
 10
-154.5294839905554
 20
108.4420519764988
 30
0.0
 10
-154.4406350822317
 20
108.611581152276
 30
0.0
 10
-154.3988598484723
 20
108.6972543107675
 30
0.0
 10
-154.3605325915483
 20
108.7819379017556
 30
0.0
  0
SPLINE
  5
1EE
330
1D1
100
AcDbEntity
  8
0
  6
CONTINUOUS
 62
     7
100
AcDbSpline
210
0.0
220
0.0
230
1.0
 70
     8
 71
     3
 72
    18
 73
    14
 74
     0
 42
0.00000001
 43
0.00000001
 40
0.0
 40
0.0
 40
0.0
 40
0.0
 40
0.1250000000000027
 40
0.1250000000000027
 40
0.2500000000000055
 40
0.2500000000000055
 40
0.5000000000000038
 40
0.5000000000000038
 40
0.7500000000000021
 40
0.7500000000000021
 40
0.8750000000000011
 40
0.8750000000000011
 40
1.0
 40
1.0
 40
1.0
 40
1.0
 10
-158.0662759887193
 20
106.7993909727527
 30
0.0
 10
-157.8272376341527
 20
106.7993909727527
 30
0.0
 10
-157.6020465225042
 20
106.8236283134306
 30
0.0
 10
-157.1742579636079
 20
106.902439207956
 30
0.0
 10
-156.9712669298174
 20
106.9574381268506
 30
0.0
 10
-156.3948438343957
 20
107.1535706319935
 30
0.0
 10
-156.0578056526514
 20
107.3229609817254
 30
0.0
 10
-155.4545191362561
 20
107.6988779848963
 30
0.0
 10
-155.1884653632829
 20
107.906759825806
 30
0.0
 10
-154.8410999502361
 20
108.2287503609491
 30
0.0
 10
-154.7337232517968
 20
108.3380279789188
 30
0.0
 10
-154.535079097153
 20
108.5587505115578
 30
0.0
 10
-154.44351929821
 20
108.6705990904583
 30
0.0
 10
-154.3605325915483
 20
108.7819379017557
 30
0.0
  0
LWPOLYLINE
  5
1EF
330
1D1
100
AcDbEntity
  8
0
  6
CONTINUOUS
 62
     7
100
AcDbPolyline
 90
        9
 70
   128
 43
0.0
 10
-158.0662759887
 20
106.7993909728
 10
-158.1712123918
 20
106.7804421205
 10
-158.2721719461
 20
106.7243136817
 10
-158.3653285163
 20
106.6331327953
 10
-158.4471516821
 20
106.5103550077
 10
-158.5145405334
 20
106.3606333152
 10
-158.5649411874
 20
106.1896418262
 10
-158.5964435751
 20
106.0038607256
 10
-158.6078538283
 20
105.8103306908
  0
SPLINE
  5
1F0
330
1D1
100
AcDbEntity
  8
0
  6
CONTINUOUS
 62
     7
100
AcDbSpline
210
0.0
220
0.0
230
1.0
 70
    24
 71
     3
 72
    12
 73
     8
 74
     0
 42
0.00000001
 43
0.00000001
 40
0.0
 40
0.0
 40
0.0
 40
0.0
 40
0.5
 40
0.5
 40
0.75
 40
0.75
 40
1.0
 40
1.0
 40
1.0
 40
1.0
 10
-164.0237942346885
 20
106.7993909727527
 30
0.0
 10
-162.9665918545532
 20
106.7993909727526
 30
0.0
 10
-161.9348183625644
 20
106.7993909727526
 30
0.0
 10
-160.4244567769822
 20
106.7993909727527
 30
0.0
 10
-159.9269002651703
 20
106.7993909727527
 30
0.0
 10
-158.971761781967
 20
106.7993909727527
 30
0.0
 10
-158.510634107152
 20
106.7993909727527
 30
0.0
 10
-158.0662759887192
 20
106.7993909727527
 30
0.0
  0
LINE
  5
1FF
330
1D1
100
AcDbEntity
  8
0
  6
CONTINUOUS
 62
     7
100
AcDbLine
 10
160.8160002161
 20
22.3037542405
 30
0.0
 11
160.0
 21
115.8081175083
 31
0.0
  0
LINE
  5
200
330
1D1
100
AcDbEntity
  8
0
  6
CONTINUOUS
 62
     7
100
AcDbLine
 10
-160.0
 20
115.8081175083
 30
0.0
 11
-160.0613165405
 21
108.7819379018
 31
0.0
  0
LINE
  5
201
330
1D1
100
AcDbEntity
  8
0
  6
CONTINUOUS
 62
     7
100
AcDbLine
 10
-60.0
 20
6.7993909728
 30
0.0
 11
-60.0
 21
1.0
 31
0.0
  0
LINE
  5
202
330
1D1
100
AcDbEntity
  8
0
  6
CONTINUOUS
 62
     7
100
AcDbLine
 10
60.0
 20
1.0
 30
0.0
 11
60.0
 21
6.7993909728
 31
0.0
  0
LINE
  5
203
330
1D1
100
AcDbEntity
  8
0
  6
CONTINUOUS
 62
     7
100
AcDbLine
 10
-153.625808639
 20
21.7993909728
 30
0.0
 11
160.3160192546
 21
21.7993909728
 31
0.0
  0
LINE
  5
204
330
1D1
100
AcDbEntity
  8
0
  6
CONTINUOUS
 62
     7
100
AcDbLine
 10
-159.0000380769
 20
116.7993909728
 30
0.0
 11
159.0000380769
 21
116.7993909728
 31
0.0
  0
LINE
  5
205
330
1D1
100
AcDbEntity
  8
0
  6
CONTINUOUS
 62
     7
100
AcDbLine
 10
-59.0
 20
0.0
 30
0.0
 11
59.0
 21
0.0
 31
0.0
  0
LINE
  5
206
330
1D1
100
AcDbEntity
  8
0
  6
CONTINUOUS
 62
     7
100
AcDbLine
 10
-164.5785603974
 20
22.3037542405
 30
0.0
 11
-164.0237942347
 21
105.8081175083
 31
0.0
  0
LINE
  5
207
330
1D1
100
AcDbEntity
  8
0
  6
CONTINUOUS
 62
     7
100
AcDbLine
 10
-164.0237942347
 20
106.7993909728
 30
0.0
 11
-164.0237942347
 21
105.8081175083
 31
0.0
  0
LINE
  5
208
330
1D1
100
AcDbEntity
  8
0
  6
CONTINUOUS
 62
     7
100
AcDbLine
 10
-180.0
 20
106.7993909728
 30
0.0
 11
-180.0
 21
21.7993909728
 31
0.0
  0
LINE
  5
209
330
1D1
100
AcDbEntity
  8
0
  6
CONTINUOUS
 62
     7
100
AcDbLine
 10
-164.0237942347
 20
105.8081175083
 30
0.0
 11
-180.0
 21
105.8081175083
 31
0.0
  0
LINE
  5
20A
330
1D1
100
AcDbEntity
  8
0
  6
CONTINUOUS
 62
     7
100
AcDbLine
 10
-164.5693294512
 20
21.7993909728
 30
0.0
 11
-180.0
 21
21.7993909728
 31
0.0
  0
LINE
  5
20B
330
1D1
100
AcDbEntity
  8
0
  6
CONTINUOUS
 62
     7
100
AcDbLine
 10
-180.0
 20
106.7993909728
 30
0.0
 11
-164.0237942347
 21
106.7993909728
 31
0.0
  0
LINE
  5
20C
330
1D1
100
AcDbEntity
  8
0
  6
CONTINUOUS
 62
     7
100
AcDbLine
 10
-154.9440612641
 20
22.3037542405
 30
0.0
 11
160.8160002161
 21
22.3037542405
 31
0.0
  0
LINE
  5
20D
330
1D1
100
AcDbEntity
  8
0
  6
CONTINUOUS
 62
     7
100
AcDbLine
 10
-160.0
 20
115.8081175083
 30
0.0
 11
160.0
 21
115.8081175083
 31
0.0
  0
LINE
  5
20E
330
1D1
100
AcDbEntity
  8
0
  6
CONTINUOUS
 62
     7
100
AcDbLine
 10
-160.0613165405
 20
108.7819379018
 30
0.0
 11
-154.3605325915
 21
108.7819379018
 31
0.0
  0
LINE
  5
20F
330
1D1
100
AcDbEntity
  8
0
  6
CONTINUOUS
 62
     7
100
AcDbLine
 10
-60.0
 20
6.7993909728
 30
0.0
 11
60.0
 21
6.7993909728
 31
0.0
  0
LINE
  5
210
330
1D1
100
AcDbEntity
  8
0
  6
CONTINUOUS
 62
     7
100
AcDbLine
 10
-60.0
 20
1.0
 30
0.0
 11
60.0
 21
1.0
 31
0.0
  0
ARC
  5
211
330
1D1
100
AcDbEntity
  8
0
  6
CONTINUOUS
 62
     7
100
AcDbCircle
 10
160.3160192546
 20
22.2993909728
 30
0.0
 40
0.5000000000000028
100
AcDbArc
 50
270.0
 51
0.5
  0
ARC
  5
212
330
1D1
100
AcDbEntity
  8
0
  6
CONTINUOUS
 62
     7
100
AcDbCircle
 10
-159.0000380769
 20
115.7993909728
 30
0.0
 40
1.000000000000014
100
AcDbArc
 50
90.0
 51
179.5
  0
ARC
  5
213
330
1D1
100
AcDbEntity
  8
0
  6
CONTINUOUS
 62
     7
100
AcDbCircle
 10
159.0000380769
 20
115.7993909728
 30
0.0
 40
1.000000000000034
100
AcDbArc
 50
0.5
 51
90.0
  0
ARC
  5
214
330
1D1
100
AcDbEntity
  8
0
  6
CONTINUOUS
 62
     7
100
AcDbCircle
 10
-75.0
 20
6.7993909728
 30
0.0
 40
14.99999999999998
100
AcDbArc
 50
0.0
 51
90.0
  0
ARC
  5
215
330
1D1
100
AcDbEntity
  8
0
  6
CONTINUOUS
 62
     7
100
AcDbCircle
 10
75.0
 20
6.7993909728
 30
0.0
 40
14.99999999999998
100
AcDbArc
 50
90.0
 51
180.0
  0
ARC
  5
216
330
1D1
100
AcDbEntity
  8
0
  6
CONTINUOUS
 62
     7
100
AcDbCircle
 10
-59.0
 20
1.0
 30
0.0
 40
1.000000000000014
100
AcDbArc
 50
180.0
 51
270.0
  0
ARC
  5
217
330
1D1
100
AcDbEntity
  8
0
  6
CONTINUOUS
 62
     7
100
AcDbCircle
 10
59.0
 20
1.0
 30
0.0
 40
1.000000000000021
100
AcDbArc
 50
270.0
 51
0.0
  0
ARC
  5
218
330
1D1
100
AcDbEntity
  8
0
  6
CONTINUOUS
 62
     7
100
AcDbCircle
 10
-162.0612403866
 20
108.7993909728
 30
0.0
 40
1.999999999999972
100
AcDbArc
 50
270.0
 51
359.5
  0
ARC
  5
219
330
1D1
100
AcDbEntity
  8
0
  6
CONTINUOUS
 62
     7
100
AcDbCircle
 10
-159.7613108308
 20
503.3896527208
 30
0.0
 40
481.1100161189409
100
AcDbArc
 50
269.4263002808
 51
270.5736997192
  0
VIEWPORT
  5
44F
330
1D1
100
AcDbEntity
  8
0
100
AcDbViewport
 10
0.0
 20
0.0
 30
0.0
 40
205.6
 41
156.0
 68
     1
 69
     1
1001
ACAD
1000
MVIEW
1002
{
1070
    16
1010
0.0
1020
0.0
1030
0.0
1010
0.0
1020
0.0
1030
1.0
1040
0.0
1040
357.2134125294
1040
69.9628822539
1040
9.5919903727
1040
50.0
1040
0.0
1040
0.0
1070
     0
1070
   100
1070
     0
1070
     3
1070
     0
1070
     0
1070
     0
1070
     0
1040
0.0
1040
0.0
1040
0.0
1040
10.0
1040
10.0
1040
10.0
1040
10.0
1070
     0
1002
{
1002
}
1002
}
  0
ENDBLK
  5
1D4
330
1D1
100
AcDbEntity
  8
0
100
AcDbBlockEnd
  0
BLOCK
  5
21C
330
21A
100
AcDbEntity
  8
0
100
AcDbBlockBegin
  2
*PAPER_SPACE4
 70
     0
 10
0.0
 20
0.0
 30
0.0
  3
*PAPER_SPACE4
  1

  0
SPLINE
  5
21E
330
21A
100
AcDbEntity
  8
0
  6
CONTINUOUS
 62
     7
100
AcDbSpline
210
0.0
220
0.0
230
1.0
 70
     8
 71
     3
 72
    10
 73
     6
 74
     0
 42
0.00000001
 43
0.00000001
 40
0.0
 40
0.0
 40
0.0
 40
0.0
 40
0.2174254319404465
 40
0.728605710722996
 40
1.0
 40
1.0
 40
1.0
 40
1.0
 10
-36.35441770251885
 20
-161.1615072597796
 30
0.0
 10
-36.30694935913844
 20
-161.2820275080347
 30
0.0
 10
-36.1478800830338
 20
-161.6858981148573
 30
0.0
 10
-35.99837440823836
 20
-162.2678278474953
 30
0.0
 10
-35.9204155985441
 20
-162.7093424374185
 30
0.0
 10
-35.89337973945361
 20
-162.8624582467333
 30
0.0
  0
SPLINE
  5
21F
330
21A
100
AcDbEntity
  8
0
  6
CONTINUOUS
 62
     7
100
AcDbSpline
210
0.0
220
0.0
230
1.0
 70
     8
 71
     3
 72
    10
 73
     6
 74
     0
 42
0.00000001
 43
0.00000001
 40
0.0
 40
0.0
 40
0.0
 40
0.0
 40
0.159027068109685
 40
0.6429058132272896
 40
1.0
 40
1.0
 40
1.0
 40
1.0
 10
-43.06703385495586
 20
-154.9735391910529
 30
0.0
 10
-42.89690156406831
 20
-155.0120476665092
 30
0.0
 10
-42.20910017195659
 20
-155.1677275958671
 30
0.0
 10
-41.19658727891174
 20
-155.6235226491239
 30
0.0
 10
-40.42612133024414
 20
-156.1292949750604
 30
0.0
 10
-40.09896584052217
 20
-156.3440561767277
 30
0.0
  0
CIRCLE
  5
221
330
21A
100
AcDbEntity
  8
0
  6
CONTINUOUS
 62
     7
100
AcDbCircle
 10
0.0
 20
0.0
 30
0.0
 40
59.0
  0
CIRCLE
  5
222
330
21A
100
AcDbEntity
  8
0
  6
CONTINUOUS
 62
     7
100
AcDbCircle
 10
0.0
 20
0.0
 30
0.0
 40
23.00000000000001
  0
CIRCLE
  5
223
330
21A
100
AcDbEntity
  8
0
  6
CONTINUOUS
 62
     7
100
AcDbCircle
 10
0.0
 20
0.0
 30
0.0
 40
59.99999999999998
  0
CIRCLE
  5
224
330
21A
100
AcDbEntity
  8
0
  6
CONTINUOUS
 62
     7
100
AcDbCircle
 10
0.0
 20
0.0
 30
0.0
 40
74.99999999999994
  0
SPLINE
  5
225
330
21A
100
AcDbEntity
  8
0
  6
CONTINUOUS
 62
     7
100
AcDbSpline
210
0.0
220
0.0
230
1.0
 70
     8
 71
     3
 72
    18
 73
    14
 74
     0
 42
0.00000001
 43
0.00000001
 40
0.0
 40
0.0
 40
0.0
 40
0.0
 40
0.0312499999999991
 40
0.0312499999999991
 40
0.0624999999999982
 40
0.0624999999999982
 40
0.1249999999999937
 40
0.1249999999999937
 40
0.2499999999999902
 40
0.2499999999999902
 40
0.4999999999999936
 40
0.4999999999999936
 40
1.0
 40
1.0
 40
1.0
 40
1.0
 10
-43.05953790363864
 20
-154.9440612641494
 30
0.0
 10
-43.06389317310322
 20
-154.9431574913086
 30
0.0
 10
-43.08417350090707
 20
-154.9343345555629
 30
0.0
 10
-43.12935428950237
 20
-154.9140702660708
 30
0.0
 10
-43.15473065242097
 20
-154.9024234051961
 30
0.0
 10
-43.23402937249885
 20
-154.8657639736216
 30
0.0
 10
-43.29033782986964
 20
-154.8393777890556
 30
0.0
 10
-43.46009249613284
 20
-154.7595209994961
 30
0.0
 10
-43.57687927265294
 20
-154.7041324151668
 30
0.0
 10
-43.92905731383021
 20
-154.5367173351021
 30
0.0
 10
-44.16530623857864
 20
-154.4238450485691
 30
0.0
 10
-44.87584795566111
 20
-154.0838982270716
 30
0.0
 10
-45.3526202936437
 20
-153.8550796370724
 30
0.0
 10
-45.82943322397939
 20
-153.6258086390387
 30
0.0
  0
SPLINE
  5
226
330
21A
100
AcDbEntity
  8
0
  6
CONTINUOUS
 62
     7
100
AcDbSpline
210
0.0
220
0.0
230
1.0
 70
     8
 71
     3
 72
    30
 73
    26
 74
     0
 42
0.00000001
 43
0.00000001
 40
0.0
 40
0.0
 40
0.0
 40
0.0
 40
0.1249999999999945
 40
0.1249999999999945
 40
0.1874999999999917
 40
0.1874999999999917
 40
0.249999999999989
 40
0.249999999999989
 40
0.3749999999999887
 40
0.3749999999999887
 40
0.4374999999999912
 40
0.4374999999999912
 40
0.4999999999999936
 40
0.4999999999999936
 40
0.6249999999999947
 40
0.6249999999999947
 40
0.7499999999999958
 40
0.7499999999999958
 40
0.874999999999997
 40
0.874999999999997
 40
0.9374999999999984
 40
0.9374999999999984
 40
0.9687499999999991
 40
0.9687499999999991
 40
1.0
 40
1.0
 40
1.0
 40
1.0
 10
-35.74178376221448
 20
-164.5693294512295
 30
0.0
 10
-35.74178376221451
 20
-163.8942853768854
 30
0.0
 10
-35.80932083543706
 20
-163.2307720935505
 30
0.0
 10
-36.00761482248905
 20
-162.252061262016
 30
0.0
 10
-36.09000158152762
 20
-161.9286053437187
 30
0.0
 10
-36.28809864191196
 20
-161.2873829275225
 30
0.0
 10
-36.40421912498856
 20
-160.9692031717456
 30
0.0
 10
-36.79502117338319
 20
-160.0444650266762
 30
0.0
 10
-37.11367629848613
 20
-159.460168379478
 30
0.0
 10
-37.67770754822176
 20
-158.6313894758232
 30
0.0
 10
-37.88127206805697
 20
-158.3618439695562
 30
0.0
 10
-38.31258863011823
 20
-157.8458703973146
 30
0.0
 10
-38.53941573619682
 20
-157.6002469273919
 30
0.0
 10
-39.2520142675479
 20
-156.8989286244426
 30
0.0
 10
-39.76995595803497
 20
-156.4788446241864
 30
0.0
 10
-40.88688734080638
 20
-155.7283926026726
 30
0.0
 10
-41.47741019457929
 20
-155.4056178650812
 30
0.0
 10
-42.69172230118875
 20
-154.8353122438574
 30
0.0
 10
-43.31657484750562
 20
-154.5842996353535
 30
0.0
 10
-44.25710239471145
 20
-154.2200163732295
 30
0.0
 10
-44.57146655806084
 20
-154.1007960448013
 30
0.0
 10
-45.04325134107572
 20
-153.9225814195327
 30
0.0
 10
-45.20055866728293
 20
-153.8632947631597
 30
0.0
 10
-45.5151426259248
 20
-153.7446415614161
 30
0.0
 10
-45.67386077752126
 20
-153.6847222935586
 30
0.0
 10
-45.82943322397945
 20
-153.6258086390386
 30
0.0
  0
SPLINE
  5
228
330
21A
100
AcDbEntity
  8
0
  6
CONTINUOUS
 62
     7
100
AcDbSpline
210
0.0
220
0.0
230
1.0
 70
     8
 71
     3
 72
    18
 73
    14
 74
     0
 42
0.00000001
 43
0.00000001
 40
0.0
 40
0.0
 40
0.0
 40
0.0
 40
0.5000000000000009
 40
0.5000000000000009
 40
0.749999999999992
 40
0.749999999999992
 40
0.874999999999984
 40
0.874999999999984
 40
0.937499999999983
 40
0.937499999999983
 40
0.9687499999999915
 40
0.9687499999999915
 40
1.0
 40
1.0
 40
1.0
 40
1.0
 10
154.1109569768315
 20
-44.17056677602059
 30
0.0
 10
154.3197009057598
 20
-43.7314718962995
 30
0.0
 10
154.5292617357959
 20
-43.29262206259662
 30
0.0
 10
154.8440818489414
 20
-42.63905111440113
 30
0.0
 10
154.949233393393
 20
-42.42166115131093
 30
0.0
 10
155.1054909533702
 20
-42.10154324930264
 30
0.0
 10
155.1575274287644
 20
-41.99539074363716
 30
0.0
 10
155.2330629309052
 20
-41.84313304270141
 30
0.0
 10
155.2579402392625
 20
-41.79326910508802
 30
0.0
 10
155.2920694601891
 20
-41.72624477957823
 30
0.0
 10
155.3029612532855
 20
-41.70511041543202
 30
0.0
 10
155.31976030525
 20
-41.67394380455042
 30
0.0
 10
155.3250372635748
 20
-41.66536972103182
 30
0.0
 10
155.3230344628502
 20
-41.6718237032621
 30
0.0
  0
SPLINE
  5
22B
330
21A
100
AcDbEntity
  8
0
  6
CONTINUOUS
 62
     7
100
AcDbSpline
210
0.0
220
0.0
230
1.0
 70
     8
 71
     3
 72
    32
 73
    28
 74
     0
 42
0.00000001
 43
0.00000001
 40
0.0
 40
0.0
 40
0.0
 40
0.0
 40
0.1250000000000031
 40
0.1250000000000031
 40
0.1875000000000071
 40
0.1875000000000071
 40
0.2500000000000111
 40
0.2500000000000111
 40
0.3750000000000143
 40
0.3750000000000143
 40
0.4375000000000137
 40
0.4375000000000137
 40
0.5000000000000131
 40
0.5000000000000131
 40
0.6250000000000092
 40
0.6250000000000092
 40
0.6875000000000073
 40
0.6875000000000073
 40
0.7500000000000054
 40
0.7500000000000054
 40
0.8750000000000028
 40
0.8750000000000028
 40
0.9375000000000014
 40
0.9375000000000014
 40
0.9687500000000008
 40
0.9687500000000008
 40
1.0
 40
1.0
 40
1.0
 40
1.0
 10
164.9742911327139
 20
-54.2582162377855
 30
0.0
 10
164.3007058249427
 20
-54.25821623778551
 30
0.0
 10
163.6386006880745
 20
-54.19094286307608
 30
0.0
 10
162.6619357961395
 20
-53.99338552781261
 30
0.0
 10
162.3391506771807
 20
-53.91130189388123
 30
0.0
 10
161.6992480585215
 20
-53.71392258786123
 30
0.0
 10
161.3816842353365
 20
-53.59820686109664
 30
0.0
 10
160.4587001784096
 20
-53.20871976548516
 30
0.0
 10
159.8754865430281
 20
-52.89110264186929
 30
0.0
 10
159.048272214333
 20
-52.32874465511139
 30
0.0
 10
158.7792500951633
 20
-52.12576924763744
 30
0.0
 10
158.2642032094398
 20
-51.69549616767154
 30
0.0
 10
158.0190736080061
 20
-51.46919546192245
 30
0.0
 10
157.3194184546989
 20
-50.75810506750162
 30
0.0
 10
156.9006105566309
 20
-50.2411415116572
 30
0.0
 10
156.3411092031754
 20
-49.40380291054463
 30
0.0
 10
156.1671340247819
 20
-49.11572048130041
 30
0.0
 10
155.844883664935
 20
-48.52908454370051
 30
0.0
 10
155.69607662028
 20
-48.22963046041228
 30
0.0
 10
155.2783452898729
 20
-47.31697676826063
 30
0.0
 10
155.0372725611136
 20
-46.6895895310278
 30
0.0
 10
154.6867136755671
 20
-45.74606171219302
 30
0.0
 10
154.5718432027154
 20
-45.43081366122217
 30
0.0
 10
154.3994576351587
 20
-44.95797134409458
 30
0.0
 10
154.3420023719594
 20
-44.80035503358631
 30
0.0
 10
154.2267617881379
 20
-44.4852441695155
 30
0.0
 10
154.1684278238027
 20
-44.32629728477369
 30
0.0
 10
154.1109569768315
 20
-44.17056677602054
 30
0.0
  0
CIRCLE
  5
241
330
21A
100
AcDbEntity
  8
0
  6
CONTINUOUS
 62
     7
100
AcDbCircle
 10
203.7417837622
 20
-145.0
 30
0.0
 40
3.999999999999972
  0
CIRCLE
  5
242
330
21A
100
AcDbEntity
  8
0
  6
CONTINUOUS
 62
     7
100
AcDbCircle
 10
203.7417837622
 20
-85.0
 30
0.0
 40
4.0
  0
LWPOLYLINE
  5
275
330
21A
100
AcDbEntity
  8
0
  6
CONTINUOUS
 62
     7
100
AcDbPolyline
 90
       37
 70
   128
 43
0.0
 10
122.7417837622
 20
-168.9132842549
 10
124.2177932724
 20
-168.9099027595
 10
125.6489549805
 20
-168.8998610183
 10
126.9917837622
 20
-168.8834641446
 10
128.2054784446
 20
-168.861210349
 10
129.2531615287
 20
-168.833775802
 10
130.1029996944
 20
-168.8019940882
 10
130.7291710389
 20
-168.7668308791
 10
131.1126496628
 20
-168.7293545908
 10
131.2417837622
 20
-168.6907039215
 10
131.1126496628
 20
-168.6520532523
 10
130.7291710389
 20
-168.614576964
 10
130.1029996944
 20
-168.5794137549
 10
129.2531615287
 20
-168.5476320411
 10
128.2054784446
 20
-168.520197494
 10
126.9917837622
 20
-168.4979436985
 10
125.6489549805
 20
-168.4815468248
 10
124.2177932724
 20
-168.4715050836
 10
122.7417837622
 20
-168.4681235882
 10
121.265774252
 20
-168.4715050836
 10
119.8346125439
 20
-168.4815468248
 10
118.4917837622
 20
-168.4979436985
 10
117.2780890799
 20
-168.520197494
 10
116.2304059957
 20
-168.5476320411
 10
115.38056783
 20
-168.5794137549
 10
114.7543964855
 20
-168.614576964
 10
114.3709178616
 20
-168.6520532523
 10
114.2417837622
 20
-168.6907039215
 10
114.3709178616
 20
-168.7293545908
 10
114.7543964855
 20
-168.7668308791
 10
115.38056783
 20
-168.8019940882
 10
116.2304059957
 20
-168.833775802
 10
117.2780890799
 20
-168.861210349
 10
118.4917837622
 20
-168.8834641446
 10
119.8346125439
 20
-168.8998610183
 10
121.265774252
 20
-168.9099027595
 10
122.7417837622
 20
-168.9132842549
  0
LWPOLYLINE
  5
27F
330
21A
100
AcDbEntity
  8
0
  6
CONTINUOUS
 62
     7
100
AcDbPolyline
 90
       37
 70
   128
 43
0.0
 10
257.7417837622
 20
-168.9132842549
 10
259.2177932724
 20
-168.9099027595
 10
260.6489549805
 20
-168.8998610183
 10
261.9917837622
 20
-168.8834641446
 10
263.2054784446
 20
-168.861210349
 10
264.2531615287
 20
-168.833775802
 10
265.1029996944
 20
-168.8019940882
 10
265.7291710389
 20
-168.7668308791
 10
266.1126496628
 20
-168.7293545908
 10
266.2417837622
 20
-168.6907039215
 10
266.1126496628
 20
-168.6520532523
 10
265.7291710389
 20
-168.614576964
 10
265.1029996944
 20
-168.5794137549
 10
264.2531615287
 20
-168.5476320411
 10
263.2054784446
 20
-168.520197494
 10
261.9917837622
 20
-168.4979436985
 10
260.6489549805
 20
-168.4815468248
 10
259.2177932724
 20
-168.4715050836
 10
257.7417837622
 20
-168.4681235882
 10
256.265774252
 20
-168.4715050836
 10
254.8346125439
 20
-168.4815468248
 10
253.4917837622
 20
-168.4979436985
 10
252.2780890799
 20
-168.520197494
 10
251.2304059957
 20
-168.5476320411
 10
250.38056783
 20
-168.5794137549
 10
249.7543964855
 20
-168.614576964
 10
249.3709178616
 20
-168.6520532523
 10
249.2417837622
 20
-168.6907039215
 10
249.3709178616
 20
-168.7293545908
 10
249.7543964855
 20
-168.7668308791
 10
250.38056783
 20
-168.8019940882
 10
251.2304059957
 20
-168.833775802
 10
252.2780890799
 20
-168.861210349
 10
253.4917837622
 20
-168.8834641446
 10
254.8346125439
 20
-168.8998610183
 10
256.265774252
 20
-168.9099027595
 10
257.7417837622
 20
-168.9132842549
  0
LINE
  5
2A5
330
21A
100
AcDbEntity
  8
0
  6
CONTINUOUS
 62
     7
100
AcDbLine
 10
162.8865940326
 20
-54.0347570576
 30
0.0
 11
162.3257999844
 21
-53.8936150268
 31
0.0
  0
LINE
  5
2A6
330
21A
100
AcDbEntity
  8
0
  6
CONTINUOUS
 62
     7
100
AcDbLine
 10
-35.7417837622
 20
-180.0
 30
0.0
 11
300.7417837622
 21
-180.0
 31
0.0
  0
LINE
  5
2A7
330
21A
100
AcDbEntity
  8
0
  6
CONTINUOUS
 62
     7
100
AcDbLine
 10
-35.7417837622
 20
-164.5693294512
 30
0.0
 11
-35.7417837622
 21
-180.0
 31
0.0
  0
LINE
  5
2A8
330
21A
100
AcDbEntity
  8
0
  6
CONTINUOUS
 62
     7
100
AcDbLine
 10
299.7418218392
 20
-54.2582162378
 30
0.0
 11
164.9742911327
 21
-54.2582162378
 31
0.0
  0
LINE
  5
2A9
330
21A
100
AcDbEntity
  8
0
  6
CONTINUOUS
 62
     7
100
AcDbLine
 10
300.7417837622
 20
-180.0
 30
0.0
 11
300.7417837622
 21
-55.2581781608
 31
0.0
  0
LINE
  5
2AA
330
21A
100
AcDbEntity
  8
0
  6
CONTINUOUS
 62
     7
100
AcDbLine
 10
211.7934700204
 20
-155.9537965422
 30
0.0
 11
211.7934700204
 21
-78.3044196956
 31
0.0
  0
LINE
  5
2AB
330
21A
100
AcDbEntity
  8
0
  6
CONTINUOUS
 62
     7
100
AcDbLine
 10
276.7417837622
 20
-171.9483137418
 30
0.0
 11
227.78798722
 21
-171.9483137418
 31
0.0
  0
LINE
  5
2AC
330
21A
100
AcDbEntity
  8
0
  6
CONTINUOUS
 62
     7
100
AcDbLine
 10
292.6900975041
 20
-78.2582162378
 30
0.0
 11
292.6900975041
 21
-156.0
 31
0.0
  0
LINE
  5
2AD
330
21A
100
AcDbEntity
  8
0
  6
CONTINUOUS
 62
     7
100
AcDbLine
 10
227.78798722
 20
-62.3099024959
 30
0.0
 11
276.7417837622
 21
-62.3099024959
 31
0.0
  0
LINE
  5
2AE
330
21A
100
AcDbEntity
  8
0
  6
CONTINUOUS
 62
     7
100
AcDbLine
 10
179.6955803044
 20
-171.9483137418
 30
0.0
 11
68.3487118732
 21
-171.9483137418
 31
0.0
  0
LINE
  5
2AF
330
21A
100
AcDbEntity
  8
0
  6
CONTINUOUS
 62
     7
100
AcDbLine
 10
195.6900975041
 20
-78.3044196956
 30
0.0
 11
195.6900975041
 21
-155.9537965422
 31
0.0
  0
LINE
  5
2B0
330
21A
100
AcDbEntity
  8
0
  6
CONTINUOUS
 62
     7
100
AcDbLine
 10
151.2719339666
 20
-62.3099024959
 30
0.0
 11
179.6955803044
 21
-62.3099024959
 31
0.0
  0
LINE
  5
2B1
330
21A
100
AcDbEntity
  8
0
  6
CONTINUOUS
 62
     7
100
AcDbLine
 10
67.3963964925
 20
-153.8264228349
 30
0.0
 11
61.948569916
 21
-141.3922317195
 31
0.0
  0
LINE
  5
2B2
330
21A
100
AcDbEntity
  8
0
  6
CONTINUOUS
 62
     7
100
AcDbLine
 10
149.1642338295
 20
-77.1678298801
 30
0.0
 11
137.1068996158
 21
-70.9301528477
 31
0.0
  0
LINE
  5
2B3
330
21A
100
AcDbEntity
  8
0
  6
CONTINUOUS
 62
     7
100
AcDbLine
 10
68.3487118732
 20
-171.9483137418
 30
0.0
 11
68.3487118732
 21
-158.3730449378
 31
0.0
  0
LINE
  5
2B4
330
21A
100
AcDbEntity
  8
0
  6
CONTINUOUS
 62
     7
100
AcDbLine
 10
68.3487118732
 20
-169.9489990919
 30
0.0
 11
179.6955803044
 21
-169.9489990919
 31
0.0
  0
LINE
  5
2B5
330
21A
100
AcDbEntity
  8
0
  6
CONTINUOUS
 62
     7
100
AcDbLine
 10
179.6955803044
 20
-171.9483137418
 30
0.0
 11
179.6955803044
 21
-169.9489990919
 31
0.0
  0
LINE
  5
2B6
330
21A
100
AcDbEntity
  8
0
  6
CONTINUOUS
 62
     7
100
AcDbLine
 10
151.2719339666
 20
-75.8851713
 30
0.0
 11
151.2719339666
 21
-62.3099024959
 31
0.0
  0
LINE
  5
2B7
330
21A
100
AcDbEntity
  8
0
  6
CONTINUOUS
 62
     7
100
AcDbLine
 10
179.6955803044
 20
-64.3092171459
 30
0.0
 11
151.2719339666
 21
-64.3092171459
 31
0.0
  0
LINE
  5
2B8
330
21A
100
AcDbEntity
  8
0
  6
CONTINUOUS
 62
     7
100
AcDbLine
 10
179.6955803044
 20
-64.3092171459
 30
0.0
 11
179.6955803044
 21
-62.3099024959
 31
0.0
  0
LINE
  5
2B9
330
21A
100
AcDbEntity
  8
0
  6
CONTINUOUS
 62
     7
100
AcDbLine
 10
193.6907828541
 20
-155.9537965422
 30
0.0
 11
193.6907828541
 21
-78.3044196956
 31
0.0
  0
LINE
  5
2BA
330
21A
100
AcDbEntity
  8
0
  6
CONTINUOUS
 62
     7
100
AcDbLine
 10
193.6907828541
 20
-78.3044196956
 30
0.0
 11
195.6900975041
 21
-78.3044196956
 31
0.0
  0
LINE
  5
2BB
330
21A
100
AcDbEntity
  8
0
  6
CONTINUOUS
 62
     7
100
AcDbLine
 10
195.6900975041
 20
-155.9537965422
 30
0.0
 11
193.6907828541
 21
-155.9537965422
 31
0.0
  0
LINE
  5
2BC
330
21A
100
AcDbEntity
  8
0
  6
CONTINUOUS
 62
     7
100
AcDbLine
 10
276.7417837622
 20
-75.8851713
 30
0.0
 11
276.7417837622
 21
-62.3099024959
 31
0.0
  0
LINE
  5
2BD
330
21A
100
AcDbEntity
  8
0
  6
CONTINUOUS
 62
     7
100
AcDbLine
 10
276.7417837622
 20
-64.3092171459
 30
0.0
 11
227.78798722
 21
-64.3092171459
 31
0.0
  0
LINE
  5
2BE
330
21A
100
AcDbEntity
  8
0
  6
CONTINUOUS
 62
     7
100
AcDbLine
 10
227.78798722
 20
-62.3099024959
 30
0.0
 11
227.78798722
 21
-64.3092171459
 31
0.0
  0
LINE
  5
2BF
330
21A
100
AcDbEntity
  8
0
  6
CONTINUOUS
 62
     7
100
AcDbLine
 10
227.78798722
 20
-169.9489990919
 30
0.0
 11
227.78798722
 21
-171.9483137418
 31
0.0
  0
LINE
  5
2C0
330
21A
100
AcDbEntity
  8
0
  6
CONTINUOUS
 62
     7
100
AcDbLine
 10
211.7934700204
 20
-155.9537965422
 30
0.0
 11
213.7927846703
 21
-155.9537965422
 31
0.0
  0
LINE
  5
2C1
330
21A
100
AcDbEntity
  8
0
  6
CONTINUOUS
 62
     7
100
AcDbLine
 10
211.7934700204
 20
-78.3044196956
 30
0.0
 11
213.7927846703
 21
-78.3044196956
 31
0.0
  0
LINE
  5
2C2
330
21A
100
AcDbEntity
  8
0
  6
CONTINUOUS
 62
     7
100
AcDbLine
 10
213.7927846703
 20
-78.3044196956
 30
0.0
 11
213.7927846703
 21
-155.9537965422
 31
0.0
  0
LINE
  5
2C3
330
21A
100
AcDbEntity
  8
0
  6
CONTINUOUS
 62
     7
100
AcDbLine
 10
227.78798722
 20
-169.9489990919
 30
0.0
 11
276.7417837622
 21
-169.9489990919
 31
0.0
  0
LINE
  5
2C4
330
21A
100
AcDbEntity
  8
0
  6
CONTINUOUS
 62
     7
100
AcDbLine
 10
276.7417837622
 20
-171.9483137418
 30
0.0
 11
276.7417837622
 21
-158.3730449378
 31
0.0
  0
LINE
  5
2C5
330
21A
100
AcDbEntity
  8
0
  6
CONTINUOUS
 62
     7
100
AcDbLine
 10
279.1148287
 20
-156.0
 30
0.0
 11
292.6900975041
 21
-156.0
 31
0.0
  0
LINE
  5
2C6
330
21A
100
AcDbEntity
  8
0
  6
CONTINUOUS
 62
     7
100
AcDbLine
 10
279.1148287
 20
-78.2582162378
 30
0.0
 11
292.6900975041
 21
-78.2582162378
 31
0.0
  0
LINE
  5
2C7
330
21A
100
AcDbEntity
  8
0
  6
CONTINUOUS
 62
     7
100
AcDbLine
 10
290.6907828541
 20
-156.0
 30
0.0
 11
290.6907828541
 21
-78.2582162378
 31
0.0
  0
LINE
  5
2C8
330
21A
100
AcDbEntity
  8
0
  6
CONTINUOUS
 62
     7
100
AcDbLine
 10
178.1161994001
 20
-65.8885980502
 30
0.0
 11
179.6955803044
 21
-64.3092171459
 31
0.0
  0
LINE
  5
2C9
330
21A
100
AcDbEntity
  8
0
  6
CONTINUOUS
 62
     7
100
AcDbLine
 10
193.6907828541
 20
-78.3044196956
 30
0.0
 11
192.1114019498
 21
-79.8838005999
 31
0.0
  0
LINE
  5
2CA
330
21A
100
AcDbEntity
  8
0
  6
CONTINUOUS
 62
     7
100
AcDbLine
 10
192.1114019498
 20
-154.3744156379
 30
0.0
 11
193.6907828541
 21
-155.9537965422
 31
0.0
  0
LINE
  5
2CB
330
21A
100
AcDbEntity
  8
0
  6
CONTINUOUS
 62
     7
100
AcDbLine
 10
179.6955803044
 20
-169.9489990919
 30
0.0
 11
178.1161994001
 21
-168.3696181876
 31
0.0
  0
LINE
  5
2CC
330
21A
100
AcDbEntity
  8
0
  6
CONTINUOUS
 62
     7
100
AcDbLine
 10
229.3673681243
 20
-168.3696181876
 30
0.0
 11
227.78798722
 21
-169.9489990919
 31
0.0
  0
LINE
  5
2CD
330
21A
100
AcDbEntity
  8
0
  6
CONTINUOUS
 62
     7
100
AcDbLine
 10
213.7927846703
 20
-155.9537965422
 30
0.0
 11
215.3721655747
 21
-154.3744156379
 31
0.0
  0
LINE
  5
2CE
330
21A
100
AcDbEntity
  8
0
  6
CONTINUOUS
 62
     7
100
AcDbLine
 10
215.3721655747
 20
-79.8838005999
 30
0.0
 11
213.7927846703
 21
-78.3044196956
 31
0.0
  0
LINE
  5
2CF
330
21A
100
AcDbEntity
  8
0
  6
CONTINUOUS
 62
     7
100
AcDbLine
 10
227.78798722
 20
-64.3092171459
 30
0.0
 11
229.3673681243
 21
-65.8885980502
 31
0.0
  0
LINE
  5
2D0
330
21A
100
AcDbEntity
  8
0
  6
CONTINUOUS
 62
     7
100
AcDbLine
 10
178.1161994001
 20
-168.3696181876
 30
0.0
 11
68.3487118732
 21
-168.3696181876
 31
0.0
  0
LINE
  5
2D1
330
21A
100
AcDbEntity
  8
0
  6
CONTINUOUS
 62
     7
100
AcDbLine
 10
151.2719339666
 20
-65.8885980502
 30
0.0
 11
178.1161994001
 21
-65.8885980502
 31
0.0
  0
LINE
  5
2D2
330
21A
100
AcDbEntity
  8
0
  6
CONTINUOUS
 62
     7
100
AcDbLine
 10
192.1114019498
 20
-79.8838005999
 30
0.0
 11
192.1114019498
 21
-154.3744156379
 31
0.0
  0
LINE
  5
2D3
330
21A
100
AcDbEntity
  8
0
  6
CONTINUOUS
 62
     7
100
AcDbLine
 10
215.3721655747
 20
-154.3744156379
 30
0.0
 11
215.3721655747
 21
-79.8838005999
 31
0.0
  0
LINE
  5
2D4
330
21A
100
AcDbEntity
  8
0
  6
CONTINUOUS
 62
     7
100
AcDbLine
 10
229.3673681243
 20
-65.8885980502
 30
0.0
 11
276.7417837622
 21
-65.8885980502
 31
0.0
  0
LINE
  5
2D5
330
21A
100
AcDbEntity
  8
0
  6
CONTINUOUS
 62
     7
100
AcDbLine
 10
276.7417837622
 20
-168.3696181876
 30
0.0
 11
229.3673681243
 21
-168.3696181876
 31
0.0
  0
LINE
  5
2D6
330
21A
100
AcDbEntity
  8
0
  6
CONTINUOUS
 62
     7
100
AcDbLine
 10
289.1114019498
 20
-78.2582162378
 30
0.0
 11
289.1114019498
 21
-156.0
 31
0.0
  0
LINE
  5
2D7
330
21A
100
AcDbEntity
  8
0
  6
CONTINUOUS
 62
     7
100
AcDbLine
 10
178.1161994001
 20
-75.8851713
 30
0.0
 11
151.2719339666
 21
-75.8851713
 31
0.0
  0
LINE
  5
2D8
330
21A
100
AcDbEntity
  8
0
  6
CONTINUOUS
 62
     7
100
AcDbLine
 10
178.1161994001
 20
-75.8851713
 30
0.0
 11
178.1161994001
 21
-65.8885980502
 31
0.0
  0
LINE
  5
2D9
330
21A
100
AcDbEntity
  8
0
  6
CONTINUOUS
 62
     7
100
AcDbLine
 10
68.3487118732
 20
-158.3730449378
 30
0.0
 11
178.1161994001
 21
-158.3730449378
 31
0.0
  0
LINE
  5
2DA
330
21A
100
AcDbEntity
  8
0
  6
CONTINUOUS
 62
     7
100
AcDbLine
 10
178.1161994001
 20
-168.3696181876
 30
0.0
 11
178.1161994001
 21
-158.3730449378
 31
0.0
  0
LINE
  5
2DB
330
21A
100
AcDbEntity
  8
0
  6
CONTINUOUS
 62
     7
100
AcDbLine
 10
229.3673681243
 20
-168.3696181876
 30
0.0
 11
229.3673681243
 21
-158.3730449378
 31
0.0
  0
LINE
  5
2DC
330
21A
100
AcDbEntity
  8
0
  6
CONTINUOUS
 62
     7
100
AcDbLine
 10
229.3673681243
 20
-158.3730449378
 30
0.0
 11
276.7417837622
 21
-158.3730449378
 31
0.0
  0
LINE
  5
2DD
330
21A
100
AcDbEntity
  8
0
  6
CONTINUOUS
 62
     7
100
AcDbLine
 10
279.1148287
 20
-156.0
 30
0.0
 11
279.1148287
 21
-78.2582162378
 31
0.0
  0
LINE
  5
2DE
330
21A
100
AcDbEntity
  8
0
  6
CONTINUOUS
 62
     7
100
AcDbLine
 10
276.7417837622
 20
-75.8851713
 30
0.0
 11
229.3673681243
 21
-75.8851713
 31
0.0
  0
LINE
  5
2DF
330
21A
100
AcDbEntity
  8
0
  6
CONTINUOUS
 62
     7
100
AcDbLine
 10
229.3673681243
 20
-75.8851713
 30
0.0
 11
229.3673681243
 21
-65.8885980502
 31
0.0
  0
LINE
  5
2E0
330
21A
100
AcDbEntity
  8
0
  6
CONTINUOUS
 62
     7
100
AcDbLine
 10
215.3721655747
 20
-79.8838005999
 30
0.0
 11
225.3687388244
 21
-79.8838005999
 31
0.0
  0
LINE
  5
2E1
330
21A
100
AcDbEntity
  8
0
  6
CONTINUOUS
 62
     7
100
AcDbLine
 10
225.3687388244
 20
-79.8838005999
 30
0.0
 11
225.3687388244
 21
-154.3744156379
 31
0.0
  0
LINE
  5
2E2
330
21A
100
AcDbEntity
  8
0
  6
CONTINUOUS
 62
     7
100
AcDbLine
 10
215.3721655747
 20
-154.3744156379
 30
0.0
 11
225.3687388244
 21
-154.3744156379
 31
0.0
  0
LINE
  5
2E3
330
21A
100
AcDbEntity
  8
0
  6
CONTINUOUS
 62
     7
100
AcDbLine
 10
192.1114019498
 20
-79.8838005999
 30
0.0
 11
182.1148287
 21
-79.8838005999
 31
0.0
  0
LINE
  5
2E4
330
21A
100
AcDbEntity
  8
0
  6
CONTINUOUS
 62
     7
100
AcDbLine
 10
192.1114019498
 20
-154.3744156379
 30
0.0
 11
182.1148287
 21
-154.3744156379
 31
0.0
  0
LINE
  5
2E5
330
21A
100
AcDbEntity
  8
0
  6
CONTINUOUS
 62
     7
100
AcDbLine
 10
182.1148287
 20
-154.3744156379
 30
0.0
 11
182.1148287
 21
-79.8838005999
 31
0.0
  0
ARC
  5
2E6
330
21A
100
AcDbEntity
  8
0
  6
CONTINUOUS
 62
     7
100
AcDbCircle
 10
0.0
 20
0.0
 30
0.0
 40
160.8160002160957
100
AcDbArc
 50
344.9817116094
 51
254.4691878015
  0
ARC
  5
2E7
330
21A
100
AcDbEntity
  8
0
  6
CONTINUOUS
 62
     7
100
AcDbCircle
 10
0.0
 20
0.0
 30
0.0
 40
160.316019254564
100
AcDbArc
 50
344.0068843682
 51
253.3891803024
  0
ARC
  5
2E8
330
21A
100
AcDbEntity
  8
0
  6
CONTINUOUS
 62
     7
100
AcDbCircle
 10
164.9821651804
 20
-44.2620538465
 30
0.0
 40
10.00040491246667
100
AcDbArc
 50
164.9885229594
 51
222.5379977767
  0
ARC
  5
2E9
330
21A
100
AcDbEntity
  8
0
  6
CONTINUOUS
 62
     7
100
AcDbCircle
 10
299.741834877
 20
-55.258165123
 30
0.0
 40
0.9999488852722772
100
AcDbArc
 50
359.9992529465
 51
90.0007470535
  0
ARC
  5
2EA
330
21A
100
AcDbEntity
  8
0
  6
CONTINUOUS
 62
     7
100
AcDbCircle
 10
227.7862812702
 20
-78.3027137458
 30
0.0
 40
15.99281134085842
100
AcDbArc
 50
89.9938882715
 51
180.0061117285
  0
ARC
  5
2EB
330
21A
100
AcDbEntity
  8
0
  6
CONTINUOUS
 62
     7
100
AcDbCircle
 10
227.7862812702
 20
-155.955502492
 30
0.0
 40
15.99281134085842
100
AcDbArc
 50
179.9938882715
 51
270.0061117285
  0
ARC
  5
2EC
330
21A
100
AcDbEntity
  8
0
  6
CONTINUOUS
 62
     7
100
AcDbCircle
 10
276.7417837622
 20
-156.0
 30
0.0
 40
15.94831374184338
100
AcDbArc
 50
270.0
 51
0.0
  0
ARC
  5
2ED
330
21A
100
AcDbEntity
  8
0
  6
CONTINUOUS
 62
     7
100
AcDbCircle
 10
276.7417837622
 20
-78.2582162378
 30
0.0
 40
15.94831374184349
100
AcDbArc
 50
0.0
 51
90.0
  0
ARC
  5
2EE
330
21A
100
AcDbEntity
  8
0
  6
CONTINUOUS
 62
     7
100
AcDbCircle
 10
179.6972862542
 20
-155.955502492
 30
0.0
 40
15.9928113408584
100
AcDbArc
 50
269.9938882715
 51
0.0061117285
  0
ARC
  5
2EF
330
21A
100
AcDbEntity
  8
0
  6
CONTINUOUS
 62
     7
100
AcDbCircle
 10
179.6972862542
 20
-78.3027137458
 30
0.0
 40
15.99281134085842
100
AcDbArc
 50
359.9938882715
 51
90.0061117285
  0
ARC
  5
2F0
330
21A
100
AcDbEntity
  8
0
  6
CONTINUOUS
 62
     7
100
AcDbCircle
 10
151.2719339666
 20
-78.2582162378
 30
0.0
 40
15.94831374184339
100
AcDbArc
 50
90.0
 51
152.6459073587
  0
ARC
  5
2F1
330
21A
100
AcDbEntity
  8
0
  6
CONTINUOUS
 62
     7
100
AcDbCircle
 10
0.0
 20
0.0
 30
0.0
 40
154.3677055127222
100
AcDbArc
 50
293.6598010511
 51
332.6459073587
  0
ARC
  5
2F2
330
21A
100
AcDbEntity
  8
0
  6
CONTINUOUS
 62
     7
100
AcDbCircle
 10
68.3487118732
 20
-156.0
 30
0.0
 40
15.94831374184338
100
AcDbArc
 50
113.659801051
 51
270.0
  0
ARC
  5
2F3
330
21A
100
AcDbEntity
  8
0
  6
CONTINUOUS
 62
     7
100
AcDbCircle
 10
0.0
 20
0.0
 30
0.0
 40
156.3670201626726
100
AcDbArc
 50
293.6598010511
 51
332.6459073587
  0
ARC
  5
2F4
330
21A
100
AcDbEntity
  8
0
  6
CONTINUOUS
 62
     7
100
AcDbCircle
 10
68.3487118732
 20
-156.0
 30
0.0
 40
13.94899909189226
100
AcDbArc
 50
113.659801051
 51
270.0
  0
ARC
  5
2F5
330
21A
100
AcDbEntity
  8
0
  6
CONTINUOUS
 62
     7
100
AcDbCircle
 10
151.2719339666
 20
-78.2582162378
 30
0.0
 40
13.9489990918924
100
AcDbArc
 50
90.0
 51
152.6459073587
  0
ARC
  5
2F6
330
21A
100
AcDbEntity
  8
0
  6
CONTINUOUS
 62
     7
100
AcDbCircle
 10
179.6989457799
 20
-155.9571620177
 30
0.0
 40
13.99183747895131
100
AcDbArc
 50
269.9862185691
 51
0.0137814309
  0
ARC
  5
2F7
330
21A
100
AcDbEntity
  8
0
  6
CONTINUOUS
 62
     7
100
AcDbCircle
 10
179.6989457799
 20
-78.3010542201
 30
0.0
 40
13.99183747895133
100
AcDbArc
 50
359.9862185691
 51
90.0137814309
  0
ARC
  5
2F8
330
21A
100
AcDbEntity
  8
0
  6
CONTINUOUS
 62
     7
100
AcDbCircle
 10
227.7846217445
 20
-155.9571620177
 30
0.0
 40
13.99183747895131
100
AcDbArc
 50
179.9862185691
 51
270.0137814309
  0
ARC
  5
2F9
330
21A
100
AcDbEntity
  8
0
  6
CONTINUOUS
 62
     7
100
AcDbCircle
 10
227.7846217445
 20
-78.3010542201
 30
0.0
 40
13.99183747895131
100
AcDbArc
 50
89.9862185691
 51
180.0137814309
  0
ARC
  5
2FA
330
21A
100
AcDbEntity
  8
0
  6
CONTINUOUS
 62
     7
100
AcDbCircle
 10
276.7417837622
 20
-156.0
 30
0.0
 40
13.94899909189212
100
AcDbArc
 50
270.0
 51
0.0
  0
ARC
  5
2FB
330
21A
100
AcDbEntity
  8
0
  6
CONTINUOUS
 62
     7
100
AcDbCircle
 10
276.7417837622
 20
-78.2582162378
 30
0.0
 40
13.94899909189223
100
AcDbArc
 50
0.0
 51
90.0
  0
ARC
  5
2FC
330
21A
100
AcDbEntity
  8
0
  6
CONTINUOUS
 62
     7
100
AcDbCircle
 10
178.1086821667
 20
-79.8913178333
 30
0.0
 40
14.00272180088804
100
AcDbArc
 50
0.030758718
 51
89.969241282
  0
ARC
  5
2FD
330
21A
100
AcDbEntity
  8
0
  6
CONTINUOUS
 62
     7
100
AcDbCircle
 10
178.1086821667
 20
-154.3668984044
 30
0.0
 40
14.00272180088804
100
AcDbArc
 50
270.030758718
 51
359.969241282
  0
ARC
  5
2FE
330
21A
100
AcDbEntity
  8
0
  6
CONTINUOUS
 62
     7
100
AcDbCircle
 10
229.3748853578
 20
-154.3668984044
 30
0.0
 40
14.00272180088804
100
AcDbArc
 50
180.030758718
 51
269.969241282
  0
ARC
  5
2FF
330
21A
100
AcDbEntity
  8
0
  6
CONTINUOUS
 62
     7
100
AcDbCircle
 10
229.3748853578
 20
-79.8913178333
 30
0.0
 40
14.00272180088796
100
AcDbArc
 50
90.030758718
 51
179.969241282
  0
ARC
  5
300
330
21A
100
AcDbEntity
  8
0
  6
CONTINUOUS
 62
     7
100
AcDbCircle
 10
0.0
 20
0.0
 30
0.0
 40
157.946401067008
100
AcDbArc
 50
293.6598010511
 51
332.6459073587
  0
ARC
  5
301
330
21A
100
AcDbEntity
  8
0
  6
CONTINUOUS
 62
     7
100
AcDbCircle
 10
68.3487118732
 20
-156.0
 30
0.0
 40
12.36961818755734
100
AcDbArc
 50
113.659801051
 51
270.0
  0
ARC
  5
302
330
21A
100
AcDbEntity
  8
0
  6
CONTINUOUS
 62
     7
100
AcDbCircle
 10
151.2719339666
 20
-78.2582162378
 30
0.0
 40
12.36961818755711
100
AcDbArc
 50
90.0
 51
152.6459073587
  0
ARC
  5
303
330
21A
100
AcDbEntity
  8
0
  6
CONTINUOUS
 62
     7
100
AcDbCircle
 10
276.7417837622
 20
-156.0
 30
0.0
 40
12.36961818755731
100
AcDbArc
 50
270.0
 51
0.0
  0
ARC
  5
304
330
21A
100
AcDbEntity
  8
0
  6
CONTINUOUS
 62
     7
100
AcDbCircle
 10
276.7417837622
 20
-78.2582162378
 30
0.0
 40
12.36961818755736
100
AcDbArc
 50
0.0
 51
90.0
  0
ARC
  5
305
330
21A
100
AcDbEntity
  8
0
  6
CONTINUOUS
 62
     7
100
AcDbCircle
 10
151.2719339666
 20
-78.2582162378
 30
0.0
 40
2.373044937801712
100
AcDbArc
 50
90.0
 51
152.6459073587
  0
ARC
  5
306
330
21A
100
AcDbEntity
  8
0
  6
CONTINUOUS
 62
     7
100
AcDbCircle
 10
68.3487118732
 20
-156.0
 30
0.0
 40
2.373044937801761
100
AcDbArc
 50
113.659801051
 51
270.0
  0
ARC
  5
307
330
21A
100
AcDbEntity
  8
0
  6
CONTINUOUS
 62
     7
100
AcDbCircle
 10
0.0
 20
0.0
 30
0.0
 40
167.9429743167632
100
AcDbArc
 50
293.6598010511
 51
332.6459073587
  0
ARC
  5
308
330
21A
100
AcDbEntity
  8
0
  6
CONTINUOUS
 62
     7
100
AcDbCircle
 10
276.7417837622
 20
-78.2582162378
 30
0.0
 40
2.373044937801652
100
AcDbArc
 50
0.0
 51
90.0
  0
ARC
  5
309
330
21A
100
AcDbEntity
  8
0
  6
CONTINUOUS
 62
     7
100
AcDbCircle
 10
276.7417837622
 20
-156.0
 30
0.0
 40
2.373044937801694
100
AcDbArc
 50
270.0
 51
0.0
  0
ARC
  5
30A
330
21A
100
AcDbEntity
  8
0
  6
CONTINUOUS
 62
     7
100
AcDbCircle
 10
229.366899198
 20
-79.8833316735
 30
0.0
 40
3.998160401043987
100
AcDbArc
 50
89.9932800342
 51
180.0067199658
  0
ARC
  5
30B
330
21A
100
AcDbEntity
  8
0
  6
CONTINUOUS
 62
     7
100
AcDbCircle
 10
178.1166683265
 20
-79.8833316735
 30
0.0
 40
3.998160401044015
100
AcDbArc
 50
359.9932800342
 51
90.0067199658
  0
ARC
  5
30C
330
21A
100
AcDbEntity
  8
0
  6
CONTINUOUS
 62
     7
100
AcDbCircle
 10
178.1166683265
 20
-154.3748845643
 30
0.0
 40
3.998160401043916
100
AcDbArc
 50
269.9932800342
 51
0.0067199658
  0
ARC
  5
30D
330
21A
100
AcDbEntity
  8
0
  6
CONTINUOUS
 62
     7
100
AcDbCircle
 10
229.366899198
 20
-154.3748845643
 30
0.0
 40
3.998160401044001
100
AcDbArc
 50
179.9932800342
 51
270.0067199658
  0
VIEWPORT
  5
451
330
21A
100
AcDbEntity
  8
0
100
AcDbViewport
 10
0.0
 20
0.0
 30
0.0
 40
205.6
 41
156.0
 68
     1
 69
     1
1001
ACAD
1000
MVIEW
1002
{
1070
    16
1010
0.0
1020
0.0
1030
0.0
1010
0.0
1020
0.0
1030
1.0
1040
0.0
1040
357.2134125294
1040
69.9628822539
1040
9.5919903727
1040
50.0
1040
0.0
1040
0.0
1070
     0
1070
   100
1070
     0
1070
     3
1070
     0
1070
     0
1070
     0
1070
     0
1040
0.0
1040
0.0
1040
0.0
1040
10.0
1040
10.0
1040
10.0
1040
10.0
1070
     0
1002
{
1002
}
1002
}
  0
ENDBLK
  5
21D
330
21A
100
AcDbEntity
  8
0
100
AcDbBlockEnd
  0
BLOCK
  5
310
330
30E
100
AcDbEntity
  8
0
100
AcDbBlockBegin
  2
*PAPER_SPACE5
 70
     0
 10
0.0
 20
0.0
 30
0.0
  3
*PAPER_SPACE5
  1

  0
SPLINE
  5
314
330
30E
100
AcDbEntity
  8
0
  6
CONTINUOUS
 62
     7
100
AcDbSpline
210
0.0
220
0.0
230
1.0
 70
     8
 71
     3
 72
    54
 73
    50
 74
     0
 42
0.00000001
 43
0.00000001
 40
0.0
 40
0.0
 40
0.0
 40
0.0
 40
0.0207926451329767
 40
0.0421306536732417
 40
0.0634839512084967
 40
0.0848508485374751
 40
0.10622930020205
 40
0.127617148286314
 40
0.1490123039141755
 40
0.170412865179654
 40
0.1918171804366922
 40
0.2132238701712039
 40
0.2346318208549853
 40
0.2560400884890288
 40
0.277447910562625
 40
0.2988548608332651
 40
0.3202606497802598
 40
0.341665096995053
 40
0.3630681076596279
 40
0.3844696530659243
 40
0.405869754840701
 40
0.4272684724035311
 40
0.4486658931522913
 40
0.4700621248941723
 40
0.4914572900915666
 40
0.512851521553267
 40
0.5342449592620266
 40
0.5556377480846334
 40
0.5770300361580554
 40
0.5984219737840956
 40
0.6198137126959884
 40
0.6412054055838607
 40
0.6625971872593011
 40
0.6839891788867914
 40
0.7053815344858457
 40
0.7267744080484221
 40
0.7481679531045425
 40
0.7695623220567597
 40
0.7909576651679495
 40
0.8123541290696685
 40
0.8337518546283945
 40
0.8551509739687142
 40
0.8765516064056876
 40
0.8979538529831598
 40
0.9193577892524162
 40
0.9407634558603423
 40
0.9621708464565089
 40
0.9835798923898408
 40
1.0
 40
1.0
 40
1.0
 40
1.0
 10
153.9260298825932
 20
119.9068532626657
 30
0.0
 10
153.2687066869759
 20
121.1940617214952
 30
0.0
 10
151.9368195832028
 20
123.8022404037836
 30
0.0
 10
149.5519491258376
 20
127.6583356514255
 30
0.0
 10
146.8740679430178
 20
131.4853124036252
 30
0.0
 10
143.8988726871179
 20
135.2381425798798
 30
0.0
 10
140.6401606439488
 20
138.9105846088637
 30
0.0
 10
137.1023549305949
 20
142.4948260258031
 30
0.0
 10
133.2931624266489
 20
145.9837347746171
 30
0.0
 10
129.220134158349
 20
149.3702885412449
 30
0.0
 10
124.8915435858978
 20
152.6477498909519
 30
0.0
 10
120.3161107971156
 20
155.8096332397643
 30
0.0
 10
115.5030461324135
 20
158.8497188378253
 30
0.0
 10
110.4620122225955
 20
161.7620532390163
 30
0.0
 10
105.2030958435858
 20
164.5409617458302
 30
0.0
 10
99.73677940680743
 20
167.181053828982
 30
0.0
 10
94.07391776632144
 20
169.6772268155073
 30
0.0
 10
88.2257325160744
 20
172.0246635236396
 30
0.0
 10
82.20379275511229
 20
174.2188381630284
 30
0.0
 10
76.01999513290785
 20
176.2555226609903
 30
0.0
 10
69.6865430759187
 20
178.1307932208369
 30
0.0
 10
63.21592512696518
 20
179.8410369191632
 30
0.0
 10
56.62089240099325
 20
181.3829581713945
 30
0.0
 10
49.91443519553422
 20
182.7535849197548
 30
0.0
 10
43.10975881915828
 20
183.9502744236098
 30
0.0
 10
36.22025871487389
 20
184.9707185555915
 30
0.0
 10
29.25949496270515
 20
185.8129485272569
 30
0.0
 10
22.24116624860971
 20
186.4753389850041
 30
0.0
 10
15.17908338735997
 20
186.956611430846
 30
0.0
 10
8.087142486029569
 20
187.2558369338229
 30
0.0
 10
0.9792978334771524
 20
187.3724381068381
 30
0.0
 10
-6.130463349040452
 20
187.3061903501239
 30
0.0
 10
-13.22814678010503
 20
187.0572226558052
 30
0.0
 10
-20.29978228288738
 20
186.6260175844751
 30
0.0
 10
-27.33145333374789
 20
186.0134099116006
 30
0.0
 10
-34.30932584782585
 20
185.2205842364465
 30
0.0
 10
-41.21967160296977
 20
184.2490724658396
 30
0.0
 10
-48.04889504191577
 20
183.1007504571038
 30
0.0
 10
-54.78355943548664
 20
181.7778337734425
 30
0.0
 10
-61.41041354487974
 20
180.282873288028
 30
0.0
 10
-67.91641411135762
 20
178.6187480178634
 30
0.0
 10
-74.28876117753885
 20
176.7886651398954
 30
0.0
 10
-80.51488232984859
 20
174.7961302826279
 30
0.0
 10
-86.58260395433585
 20
172.6450261649709
 30
0.0
 10
-92.47962039035674
 20
170.3392846548028
 30
0.0
 10
-98.19557917136358
 20
167.8840747522452
 30
0.0
 10
-103.7143968645068
 20
165.2813314567503
 30
0.0
 10
-108.6289983353958
 20
162.7589110877605
 30
0.0
 10
-111.6281527191598
 20
161.0619990098835
 30
0.0
 10
-112.9299644994384
 20
160.3254380162126
 30
0.0
  0
SPLINE
  5
315
330
30E
100
AcDbEntity
  8
0
  6
CONTINUOUS
 62
     7
100
AcDbSpline
210
0.0
220
0.0
230
1.0
 70
     8
 71
     3
 72
    20
 73
    16
 74
     0
 42
0.00000001
 43
0.00000001
 40
0.0
 40
0.0
 40
0.0
 40
0.0
 40
0.0450579385957879
 40
0.1306449884513042
 40
0.2162410369924708
 40
0.3018368596248211
 40
0.3874286227669499
 40
0.4730117636454575
 40
0.558580609589886
 40
0.6441283447564666
 40
0.7296470903839198
 40
0.8151281541669915
 40
0.9005625042728375
 40
0.9859415063689433
 40
1.0
 40
1.0
 40
1.0
 40
1.0
 10
-112.9299644994384
 20
160.3254380162126
 30
0.0
 10
-113.8085413544065
 20
159.8110154877362
 30
0.0
 10
-116.3559651080891
 20
158.3194531263331
 30
0.0
 10
-120.3991201009111
 20
155.7524283673317
 30
0.0
 10
-124.9737306962135
 20
152.5889554853647
 30
0.0
 10
-129.2987918751842
 20
149.3077093591445
 30
0.0
 10
-133.3692217985558
 20
145.9174358819711
 30
0.0
 10
-137.1758029891375
 20
142.4241706896928
 30
0.0
 10
-140.7108627540866
 20
138.8349368894751
 30
0.0
 10
-143.967786392084
 20
135.1569461673874
 30
0.0
 10
-146.9373054127983
 20
131.3971827415364
 30
0.0
 10
-149.6229968832852
 20
127.5648478389632
 30
0.0
 10
-151.9832420570738
 20
123.6619517583903
 30
0.0
 10
-153.5457015202763
 20
120.8155147495728
 30
0.0
 10
-154.2275873579231
 20
119.2580907418242
 30
0.0
 10
-154.3239925181251
 20
119.0379018147633
 30
0.0
  0
SPLINE
  5
316
330
30E
100
AcDbEntity
  8
0
  6
CONTINUOUS
 62
     7
100
AcDbSpline
210
0.0
220
0.0
230
1.0
 70
     8
 71
     3
 72
    53
 73
    49
 74
     0
 42
0.00000001
 43
0.00000001
 40
0.0
 40
0.0
 40
0.0
 40
0.0
 40
0.0031019371458224
 40
0.0257203825085329
 40
0.0483359674114906
 40
0.0709499989980966
 40
0.0935634955436495
 40
0.1161770241909695
 40
0.1387911787223209
 40
0.1614063999118156
 40
0.1840229805177954
 40
0.2066410963362974
 40
0.2292608322217931
 40
0.2518822033488817
 40
0.2745051722439682
 40
0.297129662203254
 40
0.3197555677082329
 40
0.3423827623975156
 40
0.3650111050814047
 40
0.3876404442094551
 40
0.4102706211297748
 40
0.4329014724160425
 40
0.4555328314855127
 40
0.4781645296886776
 40
0.5007963970180309
 40
0.5234282618031462
 40
0.5460598962007851
 40
0.5686911283916233
 40
0.5913217865853523
 40
0.6139516994776281
 40
0.6365806969851877
 40
0.6592086113752548
 40
0.6818352789411326
 40
0.7044605424105447
 40
0.7270842543177553
 40
0.7497062816253913
 40
0.7723265119470173
 40
0.7949448617959296
 40
0.8175612873646086
 40
0.8401757984144259
 40
0.862788475909629
 40
0.8853994940351225
 40
0.9080091471474138
 40
0.9306178819518958
 40
0.9532262967660406
 40
0.9758349825517492
 40
0.9984449848983019
 40
1.0
 40
1.0
 40
1.0
 40
1.0
 10
128.1929085195517
 20
44.84305678960371
 30
0.0
 10
128.0193211662279
 20
44.68923940244728
 30
0.0
 10
126.5799840951506
 20
43.41382928027408
 30
0.0
 10
123.6241816143091
 20
41.11178107227697
 30
0.0
 10
119.3185873376269
 20
37.95239030530388
 30
0.0
 10
114.7438029276464
 20
34.91713110178971
 30
0.0
 10
109.9416384097701
 20
32.00014236534045
 30
0.0
 10
104.9130437674593
 20
29.21072535625362
 30
0.0
 10
99.67053646577617
 20
26.55381149802412
 30
0.0
 10
94.22410884850399
 20
24.03516508966929
 30
0.0
 10
88.5849868967174
 20
21.65997633845783
 30
0.0
 10
82.7645981781251
 20
19.43322253951494
 30
0.0
 10
76.77481578721574
 20
17.35955386766943
 30
0.0
 10
70.62785872347172
 20
15.44330832280446
 30
0.0
 10
64.33628361632246
 20
13.68849395572413
 30
0.0
 10
57.91295145474562
 20
12.09878154454918
 30
0.0
 10
51.37100062696828
 20
10.67749596997312
 30
0.0
 10
44.72381796236234
 20
9.427609285703818
 30
0.0
 10
37.98501005433322
 20
8.35173455853059
 30
0.0
 10
31.16837429008556
 20
7.452120630644744
 30
0.0
 10
24.28786977024289
 20
6.730647690871789
 30
0.0
 10
17.35758809626402
 20
6.188823631266577
 30
0.0
 10
10.39172405952402
 20
5.827781155867524
 30
0.0
 10
3.40454625306362
 20
5.648275621894287
 30
0.0
 10
-3.589632287793618
 20
5.650683597974264
 30
0.0
 10
-10.57647782913285
 20
5.835001966965021
 30
0.0
 10
-17.541671266171
 20
6.200847364388314
 30
0.0
 10
-24.47093779569785
 20
6.747456855258002
 30
0.0
 10
-31.35008195231602
 20
7.473690125806995
 30
0.0
 10
-38.16501106821704
 20
8.378031380884485
 30
0.0
 10
-44.90176440286113
 20
9.458592086901259
 30
0.0
 10
-51.54654212734629
 20
10.71311441402547
 30
0.0
 10
-58.08573414349051
 20
12.13897538745685
 30
0.0
 10
-64.50594870676291
 20
13.73319177047132
 30
0.0
 10
-70.79404088913437
 20
15.49242569064849
 30
0.0
 10
-76.93714068461293
 20
17.41299111341262
 30
0.0
 10
-82.92268144408258
 20
19.49086098948715
 30
0.0
 10
-88.738426030173
 20
21.72167602884464
 30
0.0
 10
-94.37250036473695
 20
24.10075196787959
 30
0.0
 10
-99.81339816125494
 20
26.62309758705393
 30
0.0
 10
-105.0500917405213
 20
29.28339847605449
 30
0.0
 10
-110.0717451533756
 20
32.07613540677259
 30
0.0
 10
-114.8689088570742
 20
34.99520830665709
 30
0.0
 10
-119.4291794796794
 20
38.03541269314788
 30
0.0
 10
-123.753488386651
 20
41.18699748618024
 30
0.0
 10
-127.7953828227198
 20
44.45603633352453
 30
0.0
 10
-130.4794359225339
 20
46.75398785482476
 30
0.0
 10
-131.7359311650864
 20
47.98542931073302
 30
0.0
 10
-131.816786437861
 20
48.06467237624685
 30
0.0
  0
SPLINE
  5
318
330
30E
100
AcDbEntity
  8
0
  6
CONTINUOUS
 62
     7
100
AcDbSpline
210
0.0
220
0.0
230
1.0
 70
     8
 71
     3
 72
    10
 73
     6
 74
     0
 42
0.00000001
 43
0.00000001
 40
0.0
 40
0.0
 40
0.0
 40
0.0
 40
0.0169446959131694
 40
0.5864651782973324
 40
1.0
 40
1.0
 40
1.0
 40
1.0
 10
140.1378174187505
 20
-27.57013387692628
 30
0.0
 10
140.1478888270204
 20
-27.56092999018842
 30
0.0
 10
140.4964657667871
 20
-27.24237844436002
 30
0.0
 10
141.2361788952813
 20
-26.85593345947147
 30
0.0
 10
141.9737944156703
 20
-26.64169929805137
 30
0.0
 10
142.2840818445067
 20
-26.5515789504197
 30
0.0
  0
SPLINE
  5
31A
330
30E
100
AcDbEntity
  8
0
  6
CONTINUOUS
 62
     7
100
AcDbSpline
210
0.0
220
0.0
230
1.0
 70
     8
 71
     3
 72
    19
 73
    15
 74
     0
 42
0.00000001
 43
0.00000001
 40
0.0
 40
0.0
 40
0.0
 40
0.0
 40
0.0502431295314101
 40
0.1435937390896183
 40
0.2357747588174494
 40
0.3261833365356755
 40
0.4149405525013021
 40
0.5024793937836245
 40
0.5892436118807675
 40
0.675579260512052
 40
0.7617243183041245
 40
0.8478251708534192
 40
0.9339497139276295
 40
1.0
 40
1.0
 40
1.0
 40
1.0
 10
45.17994319310795
 20
26.66229697661007
 30
0.0
 10
45.1722321010542
 20
26.29817846892195
 30
0.0
 10
45.15019397264165
 20
25.25753592777646
 30
0.0
 10
44.76986753677416
 20
23.54598959208204
 30
0.0
 10
44.06387084525426
 20
21.53991930568126
 30
0.0
 10
43.03953354014161
 20
19.57252183612824
 30
0.0
 10
41.72849159895769
 20
17.65875637577342
 30
0.0
 10
40.13661051070628
 20
15.80870228510423
 30
0.0
 10
38.27462960729582
 20
14.03138818700762
 30
0.0
 10
36.1512640239125
 20
12.33741357193052
 30
0.0
 10
33.7799614194016
 20
10.73669173918867
 30
0.0
 10
31.16710871009117
 20
9.24708355128845
 30
0.0
 10
28.57622417765796
 20
7.967760923380588
 30
0.0
 10
26.77560369308068
 20
7.251326720540859
 30
0.0
 10
25.99405855331555
 20
6.940364097385795
 30
0.0
  0
SPLINE
  5
31B
330
30E
100
AcDbEntity
  8
0
  6
CONTINUOUS
 62
     7
100
AcDbSpline
210
0.0
220
0.0
230
1.0
 70
     8
 71
     3
 72
    20
 73
    16
 74
     0
 42
0.00000001
 43
0.00000001
 40
0.0
 40
0.0
 40
0.0
 40
0.0
 40
0.0480430954939736
 40
0.1321969449568237
 40
0.2162117282660002
 40
0.3001085742758569
 40
0.3839382260282211
 40
0.4677697877001278
 40
0.5517305800156
 40
0.6360377134275528
 40
0.7210059808540764
 40
0.8070438447077674
 40
0.8945859979944588
 40
0.9838964489265948
 40
1.0
 40
1.0
 40
1.0
 40
1.0
 10
-25.96510824527494
 20
6.936014544486453
 30
0.0
 10
-26.55284255370624
 20
7.162801261690787
 30
0.0
 10
-28.17007140255663
 20
7.786834972735916
 30
0.0
 10
-30.60548445529519
 20
8.957741401931344
 30
0.0
 10
-33.26226479335097
 20
10.42008881330736
 30
0.0
 10
-35.67460886975876
 20
11.99471356060972
 30
0.0
 10
-37.8381332575286
 20
13.65906859743615
 30
0.0
 10
-39.73775130358901
 20
15.40041142118031
 30
0.0
 10
-41.36502993185918
 20
17.20347211144613
 30
0.0
 10
-42.71474472368834
 20
19.0552592368558
 30
0.0
 10
-43.78169999636436
 20
20.94558441359973
 30
0.0
 10
-44.57303853296634
 20
22.86855908713205
 30
0.0
 10
-45.05136652220658
 20
24.82284313770678
 30
0.0
 10
-45.25942673363124
 20
26.254110995775
 30
0.0
 10
-45.21268189408612
 20
27.03605469209556
 30
0.0
 10
-45.20554092707309
 20
27.15550818034814
 30
0.0
  0
LWPOLYLINE
  5
320
330
30E
100
AcDbEntity
  8
0
  6
CONTINUOUS
 62
     7
100
AcDbPolyline
 90
        3
 70
   128
 43
0.0
 10
139.2964000681
 20
-28.1809595957
 10
139.2521603494
 20
-11.69419676
 10
139.1034831005
 20
43.1138887905
  0
LWPOLYLINE
  5
321
330
30E
100
AcDbEntity
  8
0
  6
CONTINUOUS
 62
     7
100
AcDbPolyline
 90
       57
 70
   128
 43
0.0
 10
-160.8129393169
 20
18.7847142187
 10
-160.7366316676
 20
15.2955559682
 10
-160.3213473563
 20
10.9360044525
 10
-159.5514593975
 20
6.5925460413
 10
-158.4286706529
 20
2.2747877282
 10
-156.9554645408
 20
-2.007720337
 10
-155.1350995436
 20
-6.2455059725
 10
-152.9716019999
 20
-10.4291959147
 10
-150.4697571998
 20
-14.5495365504
 10
-147.6350987999
 20
-18.5974143846
 10
-144.4738965841
 20
-22.5638761976
 10
-140.9931425959
 20
-26.4401488482
 10
-137.2005356732
 20
-30.2176586781
 10
-133.1044644197
 20
-33.8880504759
 10
-128.7139886507
 20
-37.4432059571
 10
-124.0388193546
 20
-40.8752617202
 10
-119.0892972134
 20
-44.1766266397
 10
-113.8763697312
 20
-47.3399986559
 10
-108.41156702
 20
-50.3583809261
 10
-102.7069762972
 20
-53.2250973001
 10
-96.7752151507
 20
-55.9338070874
 10
-90.6294036307
 20
-58.478519081
 10
-84.2831352306
 20
-60.8536048091
 10
-77.7504468205
 20
-63.0538109849
 10
-71.0457876
 20
-65.074271125
 10
-64.1839871388
 20
-66.9105163141
 10
-57.1802225766
 20
-68.5584850892
 10
-50.0499850536
 20
-70.0145324225
 10
-42.8090454466
 20
-71.2754377842
 10
-35.4734194867
 20
-72.3384122652
 10
-28.0593323353
 20
-73.2011047463
 10
-20.5831826966
 20
-73.8616070979
 10
-13.0615065464
 20
-74.3184584006
 10
-5.5109405575
 20
-74.570648177
 10
2.0518146978
 20
-74.6176186258
 10
9.6100316868
 20
-74.4592658565
 10
17.1469929146
 20
-74.0959401186
 10
24.6460279002
 20
-73.5284450269
 10
32.0905500494
 20
-72.7580357845
 10
39.4640933408
 20
-71.786416406
 10
46.7503487466
 20
-70.6157359488
 10
53.9332003047
 20
-69.2485837597
 10
60.9967607648
 20
-67.6879837475
 10
67.9254067285
 20
-65.937387695
 10
74.7038132051
 20
-64.000667624
 10
81.3169875084
 20
-61.882107231
 10
87.7503024178
 20
-59.5863924125
 10
93.9895285311
 20
-57.1186009006
 10
100.0208657375
 20
-54.4841910319
 10
105.8309737414
 20
-51.6889896744
 10
111.4070015687
 20
-48.7391793398
 10
116.7366159908
 20
-45.6412845087
 10
121.8080288041
 20
-42.4021571993
 10
126.6100229029
 20
-39.0289618122
 10
131.1319770901
 20
-35.5291592839
 10
135.3638895696
 20
-31.9104905845
 10
139.2964000681
 20
-28.1809595957
  0
LWPOLYLINE
  5
322
330
30E
100
AcDbEntity
  8
0
  6
CONTINUOUS
 62
     7
100
AcDbPolyline
 90
      134
 70
   128
 43
0.0
 10
-112.4300051331
 20
160.2759299657
 10
-117.6140097426
 20
157.1384405749
 10
-122.5355715066
 20
153.8631249194
 10
-127.1837084964
 20
150.4572915092
 10
-131.5480489007
 20
146.9285400903
 10
-135.6188541697
 20
143.284744687
 10
-139.387040745
 20
139.5340360317
 10
-142.8442003288
 20
135.6847834219
 10
-145.9826186464
 20
131.7455760454
 10
-148.7952926592
 20
127.7252038142
 10
-151.2759461917
 20
123.6326377507
 10
-153.419043936
 20
119.4770099702
 10
-155.2198038028
 20
115.2675933032
 10
-156.6742075929
 20
111.0137806042
 10
-157.7790099627
 20
106.7250637926
 10
-158.5317456661
 20
102.4110126728
 10
-158.9307350553
 20
98.0812535796
 10
-158.9750878291
 20
93.7454478986
 10
-158.664705019
 20
89.4132705077
 10
-158.0002792105
 20
85.0943881886
 10
-156.9832929974
 20
80.7984380566
 10
-155.6160156736
 20
76.5350060562
 10
-153.9014981694
 20
72.3136055712
 10
-151.8435662437
 20
68.143656197
 10
-149.4468119475
 20
64.0344627209
 10
-146.7165833767
 20
59.9951943606
 10
-143.6589727388
 20
56.0348643031
 10
-140.2808027589
 20
52.1623095933
 10
-136.589611455
 20
48.3861714152
 10
-132.5936353182
 20
44.7148758095
 10
-128.301790934
 20
41.1566148723
 10
-123.7236550852
 20
37.719328475
 10
-118.8694433831
 20
34.4106865478
 10
-113.7499874723
 20
31.2380719645
 10
-108.3767108605
 20
28.2085640687
 10
-102.761603429
 20
25.3289228773
 10
-96.9171946781
 20
22.6055739957
 10
-90.8565257691
 20
20.0445942802
 10
-84.5931204241
 20
17.6516982779
 10
-78.1409547496
 20
15.4322254754
 10
-71.5144260501
 20
13.3911283845
 10
-64.7283207024
 20
11.532961491
 10
-57.7977811609
 20
9.8618710916
 10
-50.7382721694
 20
8.3815860425
 10
-43.5655462529
 20
7.0954094386
 10
-36.2956085675
 20
6.0062112427
 10
-28.9446811871
 20
5.1164218818
 10
-21.5291669048
 20
4.4280268241
 10
-14.0656126328
 20
3.942562148
 10
-6.5706724791
 20
3.6611111151
 10
0.9389294142
 20
3.5843017526
 10
8.4464361889
 20
3.7123054524
 10
15.9350956617
 20
4.044836588
 10
23.3881977051
 20
4.5811531526
 10
30.7891115341
 20
5.320058414
 10
38.1213228159
 20
6.2599035858
 10
45.3684705203
 20
7.398591506
 10
52.5143834269
 20
8.7335813164
 10
59.5431162097
 20
10.2618941327
 10
66.4389850175
 20
11.9801196916
 10
73.1866024706
 20
13.88442396
 10
79.7709119959
 20
15.9705576903
 10
86.1772214244
 20
18.2338659024
 10
92.3912357745
 20
20.6692982709
 10
98.3990891506
 20
23.2714203937
 10
104.1873756825
 20
26.0344259188
 10
109.7431794396
 20
28.9521495007
 10
115.0541032513
 20
32.018080557
 10
120.1082963698
 20
35.2253777967
 10
124.8944809141
 20
38.5668844856
 10
129.4019770348
 20
42.0351444156
 10
133.6207267457
 20
45.6224185427
 10
137.5413163664
 20
49.3207022555
 10
141.1549975285
 20
53.1217432371
 10
144.4537066963
 20
57.0170598786
 10
147.4300831598
 20
60.9979602055
 10
150.0774854592
 20
65.0555612726
 10
152.3900062048
 20
69.1808089851
 10
154.3624852587
 20
73.3644983026
 10
155.9905212486
 20
77.597293778
 10
157.2704813898
 20
81.8697503897
 10
158.1995095906
 20
86.1723346162
 10
158.775532826
 20
90.4954457099
 10
158.9972657627
 20
94.8294371193
 10
158.864213628
 20
99.164638015
 10
158.3766733131
 20
103.4913748685
 10
157.5357327112
 20
107.7999930383
 10
156.3432682895
 20
112.0808783122
 10
154.8019409025
 20
116.3244783614
 10
152.9151898542
 20
120.5213240547
 10
150.6872252241
 20
124.6620505885
 10
148.1230184723
 20
128.7374183827
 10
145.2282913468
 20
132.7383336981
 10
142.0095031158
 20
136.6558689282
 10
138.4738361543
 20
140.4812825202
 10
134.629179918
 20
144.2060384805
 10
130.4841133381
 20
147.8218254219
 10
126.0478856792
 20
151.3205751101
 10
121.3303958997
 20
154.6944804664
 10
116.342170564
 20
157.9360129886
 10
111.0943403533
 20
161.0379395503
 10
105.5986152288
 20
163.9933385402
 10
99.8672583024
 20
166.7956153076
 10
93.9130584722
 20
169.4385168774
 10
87.7493018865
 20
171.9161459026
 10
81.3897422963
 20
174.2229738241
 10
74.8485703657
 20
176.3538532068
 10
68.1403820072
 20
178.3040292256
 10
61.280145812
 20
180.0691502752
 10
54.2831696495
 20
181.6452776803
 10
47.1650665096
 20
183.0288944844
 10
39.9417196637
 20
184.2169132974
 10
32.6292472231
 20
185.2066831847
 10
25.2439661731
 20
185.9959955828
 10
17.8023559637
 20
186.583089227
 10
10.321021737
 20
186.9666540818
 10
2.816657275
 20
187.1458342641
 10
-4.6939922507
 20
187.1202299528
 10
-12.1941676443
 20
186.8898982811
 10
-19.6671330817
 20
186.4553532092
 10
-27.0962134548
 20
185.8175643768
 10
-34.4648315805
 20
184.9779549404
 10
-41.7565451904
 20
183.9383983968
 10
-48.9550836202
 20
182.7012144033
 10
-56.0443841159
 20
181.269163601
 10
-63.008627676
 20
179.6454414553
 10
-69.83227435
 20
177.8336711252
 10
-76.5000979139
 20
175.8378953787
 10
-82.997219846
 20
173.6625675719
 10
-89.3091425268
 20
171.3125417119
 10
-95.4217815888
 20
168.7930616251
 10
-101.3214973439
 20
166.1097492568
 10
-106.9951252195
 20
163.2685921262
 10
-112.4300051331
 20
160.2759299657
  0
LWPOLYLINE
  5
323
330
30E
100
AcDbEntity
  8
0
  6
CONTINUOUS
 62
     7
100
AcDbPolyline
 90
      133
 70
   128
 43
0.0
 10
-110.1139062494
 20
158.9388745402
 10
-115.2286151606
 20
155.8422153171
 10
-120.082294197
 20
152.6085704053
 10
-124.6639482145
 20
149.2452650507
 10
-128.9631982931
 20
145.7599182216
 10
-132.9703052486
 20
142.1604253496
 10
-136.676191695
 20
138.4549404437
 10
-140.0724626075
 20
134.6518576191
 10
-143.1514243401
 20
130.7597920816
 10
-145.9061020542
 20
126.7875606115
 10
-148.3302555188
 20
122.7441615905
 10
-150.4183932466
 20
118.6387546181
 10
-152.1657849341
 20
114.4806397613
 10
-153.5684721769
 20
110.2792364879
 10
-154.6232774375
 20
106.0440623275
 10
-155.3278112425
 20
101.7847113117
 10
-155.6804775964
 20
97.5108322405
 10
-155.6804775964
 20
93.2321068248
 10
-155.3278112425
 20
88.9582277536
 10
-154.6232774375
 20
84.6988767378
 10
-153.5684721769
 20
80.4637025774
 10
-152.1657849341
 20
76.262299304
 10
-150.4183932466
 20
72.1041844472
 10
-148.3302555188
 20
67.9987774748
 10
-145.9061020542
 20
63.9553784538
 10
-143.1514243401
 20
59.9831469837
 10
-140.0724626075
 20
56.0910814462
 10
-136.676191695
 20
52.2879986216
 10
-132.9703052486
 20
48.5825137157
 10
-128.9631982931
 20
44.9830208437
 10
-124.6639482145
 20
41.4976740146
 10
-120.082294197
 20
38.13436866
 10
-115.2286151606
 20
34.9007237482
 10
-110.1139062494
 20
31.8040645251
 10
-104.7497539242
 20
28.8514059198
 10
-99.1483097153
 20
26.0494366537
 10
-93.3222626954
 20
23.4045040884
 10
-87.2848107349
 20
20.9225998468
 10
-81.0496306043
 20
18.6093462404
 10
-74.6308469921
 20
16.4699835325
 10
-68.0430005076
 20
14.5093580678
 10
-61.3010147421
 20
12.7319112936
 10
-54.4201624616
 20
11.1416696985
 10
-47.4160310099
 20
9.7422356911
 10
-40.3044869972
 20
8.5367794397
 10
-33.1016403582
 20
7.5280316904
 10
-25.8238078572
 20
6.7182775812
 10
-18.4874761256
 20
6.1093514656
 10
-11.1092643144
 20
5.7026327572
 10
-3.7058864464
 20
5.4990428046
 10
3.7058864464
 20
5.4990428046
 10
11.1092643144
 20
5.7026327572
 10
18.4874761256
 20
6.1093514656
 10
25.8238078572
 20
6.7182775812
 10
33.1016403582
 20
7.5280316904
 10
40.3044869972
 20
8.5367794397
 10
47.4160310099
 20
9.7422356911
 10
54.4201624616
 20
11.1416696985
 10
61.3010147421
 20
12.7319112936
 10
68.0430005076
 20
14.5093580678
 10
74.6308469921
 20
16.4699835325
 10
81.0496306043
 20
18.6093462404
 10
87.2848107349
 20
20.9225998468
 10
93.3222626954
 20
23.4045040884
 10
99.1483097153
 20
26.0494366537
 10
104.7497539242
 20
28.8514059198
 10
110.1139062494
 20
31.8040645251
 10
115.2286151606
 20
34.9007237482
 10
120.082294197
 20
38.13436866
 10
124.6639482145
 20
41.4976740146
 10
128.9631982931
 20
44.9830208437
 10
132.9703052486
 20
48.5825137157
 10
136.676191695
 20
52.2879986216
 10
140.0724626075
 20
56.0910814462
 10
143.1514243401
 20
59.9831469837
 10
145.9061020542
 20
63.9553784538
 10
148.3302555188
 20
67.9987774748
 10
150.4183932466
 20
72.1041844472
 10
152.1657849341
 20
76.262299304
 10
153.5684721769
 20
80.4637025774
 10
154.6232774375
 20
84.6988767378
 10
155.3278112425
 20
88.9582277536
 10
155.6804775964
 20
93.2321068248
 10
155.6804775964
 20
97.5108322405
 10
155.3278112425
 20
101.7847113117
 10
154.6232774375
 20
106.0440623275
 10
153.5684721769
 20
110.2792364879
 10
152.1657849341
 20
114.4806397613
 10
150.4183932466
 20
118.6387546181
 10
148.3302555188
 20
122.7441615905
 10
145.9061020542
 20
126.7875606115
 10
143.1514243401
 20
130.7597920816
 10
140.0724626075
 20
134.6518576191
 10
136.676191695
 20
138.4549404437
 10
132.9703052486
 20
142.1604253496
 10
128.9631982931
 20
145.7599182216
 10
124.6639482145
 20
149.2452650507
 10
120.082294197
 20
152.6085704053
 10
115.2286151606
 20
155.8422153171
 10
110.1139062494
 20
158.9388745402
 10
104.7497539242
 20
161.8915331455
 10
99.1483097153
 20
164.6935024116
 10
93.3222626954
 20
167.3384349769
 10
87.2848107349
 20
169.8203392185
 10
81.0496306043
 20
172.1335928249
 10
74.6308469921
 20
174.2729555328
 10
68.0430005076
 20
176.2335809975
 10
61.3010147421
 20
178.0110277717
 10
54.4201624616
 20
179.6012693669
 10
47.4160310099
 20
181.0007033742
 10
40.3044869972
 20
182.2061596256
 10
33.1016403582
 20
183.2149073749
 10
25.8238078572
 20
184.0246614841
 10
18.4874761256
 20
184.6335875997
 10
11.1092643144
 20
185.0403063081
 10
3.7058864464
 20
185.2438962607
 10
-3.7058864464
 20
185.2438962607
 10
-11.1092643144
 20
185.0403063081
 10
-18.4874761256
 20
184.6335875997
 10
-25.8238078573
 20
184.0246614841
 10
-33.1016403582
 20
183.2149073749
 10
-40.3044869972
 20
182.2061596256
 10
-47.4160310099
 20
181.0007033742
 10
-54.4201624616
 20
179.6012693669
 10
-61.3010147421
 20
178.0110277717
 10
-68.0430005076
 20
176.2335809975
 10
-74.6308469921
 20
174.2729555328
 10
-81.0496306043
 20
172.1335928249
 10
-87.2848107349
 20
169.8203392185
 10
-93.3222626954
 20
167.3384349769
 10
-99.1483097153
 20
164.6935024116
 10
-104.7497539242
 20
161.8915331455
 10
-110.1139062494
 20
158.9388745402
  0
LWPOLYLINE
  5
324
330
30E
100
AcDbEntity
  8
0
  6
CONTINUOUS
 62
     7
100
AcDbPolyline
 90
       15
 70
   128
 43
0.0
 10
-154.6776088279
 20
97.9015964656
 10
-154.7270307434
 20
96.92672771
 10
-154.7270307434
 20
92.6742068469
 10
-154.3765242533
 20
88.4265026476
 10
-153.676305283
 20
84.1932375283
 10
-152.6279600537
 20
79.984001196
 10
-151.2338634046
 20
75.8083289249
 10
-149.4971734129
 20
71.6756799557
 10
-147.4218242401
 20
67.5954160674
 10
-145.0125172195
 20
63.5767803703
 10
-142.2747102064
 20
59.6288763665
 10
-139.2146052144
 20
55.7606473286
 10
-135.8391343653
 20
51.9808560394
 10
-132.1559441865
 20
48.2980649419
 10
-131.7002193605
 20
47.8691699135
  0
LWPOLYLINE
  5
325
330
30E
100
AcDbEntity
  8
0
  6
CONTINUOUS
 62
     7
100
AcDbPolyline
 90
       15
 70
   128
 43
0.0
 10
127.9229777701
 20
44.507700888
 10
128.1733782882
 20
44.7206167424
 10
132.1559441865
 20
48.2980649419
 10
135.8391343653
 20
51.9808560394
 10
139.2146052144
 20
55.7606473286
 10
142.2747102064
 20
59.6288763665
 10
145.0125172195
 20
63.5767803703
 10
147.4218242401
 20
67.5954160674
 10
149.4971734129
 20
71.6756799557
 10
151.2338634046
 20
75.8083289249
 10
152.6279600537
 20
79.984001196
 10
153.676305283
 20
84.1932375283
 10
154.3765242533
 20
88.4265026476
 10
154.7270307434
 20
92.6742068469
 10
154.7278888385
 20
96.9058149193
  0
SPLINE
  5
329
330
30E
100
AcDbEntity
  8
0
  6
CONTINUOUS
 62
     7
100
AcDbSpline
210
0.0
220
0.0
230
1.0
 70
     8
 71
     3
 72
    20
 73
    16
 74
     0
 42
0.00000001
 43
0.00000001
 40
0.0
 40
0.0
 40
0.0
 40
0.0
 40
0.250000000000001
 40
0.250000000000001
 40
0.3750000000000009
 40
0.3750000000000009
 40
0.5000000000000008
 40
0.5000000000000008
 40
0.6250000000000006
 40
0.6250000000000006
 40
0.7500000000000004
 40
0.7500000000000004
 40
0.8750000000000002
 40
0.8750000000000002
 40
1.0
 40
1.0
 40
1.0
 40
1.0
 10
144.3136750351639
 20
44.63756528425846
 30
0.0
 10
145.2853427061953
 20
44.82499404059535
 30
0.0
 10
146.2788276696039
 20
44.9311727355206
 30
0.0
 10
147.8009597073905
 20
44.97162447067605
 30
0.0
 10
148.3158928701645
 20
44.9646038827476
 30
0.0
 10
149.3256037063239
 20
44.91024163047748
 30
0.0
 10
149.8240628807198
 20
44.86317306023801
 30
0.0
 10
150.8083032796521
 20
44.72961715592724
 30
0.0
 10
151.2963763976863
 20
44.64260913494946
 30
0.0
 10
152.2490043221431
 20
44.42956562926646
 30
0.0
 10
152.7074934880315
 20
44.30511063055113
 30
0.0
 10
153.5900233581193
 20
44.02154258027885
 30
0.0
 10
154.0140622210365
 20
43.86242767623696
 30
0.0
 10
154.8268790918647
 20
43.50872247923507
 30
0.0
 10
155.2151754952949
 20
43.31400853507958
 30
0.0
 10
155.5773816356049
 20
43.1049113810367
 30
0.0
  0
SPLINE
  5
330
330
30E
100
AcDbEntity
  8
0
  6
CONTINUOUS
 62
     7
100
AcDbSpline
210
0.0
220
0.0
230
1.0
 70
     8
 71
     3
 72
     8
 73
     4
 74
     0
 42
0.00000001
 43
0.00000001
 40
0.0
 40
0.0
 40
0.0
 40
0.0
 40
1.0
 40
1.0
 40
1.0
 40
1.0
 10
155.0287183785262
 20
-26.98380724535653
 30
0.0
 10
155.0290335111826
 20
-27.12251119914693
 30
0.0
 10
155.0263917675764
 20
-27.2594616964235
 30
0.0
 10
155.0207926182097
 20
-27.39465842318885
 30
0.0
  0
SPLINE
  5
339
330
30E
100
AcDbEntity
  8
0
  6
CONTINUOUS
 62
     7
100
AcDbSpline
210
0.0
220
0.0
230
1.0
 70
     8
 71
     3
 72
    14
 73
    10
 74
     0
 42
0.00000001
 43
0.00000001
 40
0.0
 40
0.0
 40
0.0
 40
0.0
 40
0.2753152534546279
 40
0.4869876461599876
 40
0.6973627605579233
 40
0.8111006302709052
 40
0.8893283448540433
 40
0.9453452961299805
 40
1.0
 40
1.0
 40
1.0
 40
1.0
 10
139.4487774679304
 20
-28.16026586383749
 30
0.0
 10
139.4311540054791
 20
-28.17824191329932
 30
0.0
 10
139.3999809833212
 20
-28.2100386042012
 30
0.0
 10
139.3572132116853
 20
-28.24244058056085
 30
0.0
 10
139.3261633352044
 20
-28.25608510295583
 30
0.0
 10
139.3061831299606
 20
-28.25003442773432
 30
0.0
 10
139.297248918591
 20
-28.23375318166586
 30
0.0
 10
139.2940230071316
 20
-28.21064775096222
 30
0.0
 10
139.2956142432649
 20
-28.19077410646199
 30
0.0
 10
139.2964000681407
 20
-28.18095959565934
 30
0.0
  0
LWPOLYLINE
  5
33A
330
30E
100
AcDbEntity
  8
0
  6
CONTINUOUS
 62
     7
100
AcDbPolyline
 90
       32
 70
   128
 43
0.0
 10
-96.5649701172
 20
-56.0756680032
 10
-94.1963262759
 20
-57.0878941394
 10
-87.9953741002
 20
-59.5608555296
 10
-81.5999429415
 20
-61.8628411312
 10
-75.0241673718
 20
-63.9887633153
 10
-68.282580543
 20
-65.9339235713
 10
-61.3900820674
 20
-67.6940228916
 10
-54.3619050877
 20
-69.2651712726
 10
-47.2135826103
 20
-70.6438963119
 10
-39.9609131757
 20
-71.827150883
 10
-32.6199259423
 20
-72.8123198695
 10
-25.2068452598
 20
-73.5972259448
 10
-17.7380548121
 20
-74.1801343845
 10
-10.2300614074
 20
-74.5597568998
 10
-2.6994584968
 20
-74.7352544853
 10
4.8371104995
 20
-74.706239273
 10
12.3629889756
 20
-74.4727753895
 10
19.8615439526
 20
-74.0353788145
 10
27.3162028395
 20
-73.39501624
 10
34.7104900603
 20
-72.5531029345
 10
42.0280634665
 20
-71.5114996144
 10
49.2527504555
 20
-70.272508332
 10
56.368583713
 20
-68.8388673876
 10
63.3598365032
 20
-67.2137452778
 10
70.2110574258
 20
-65.4007336925
 10
76.907104566
 20
-63.4038395768
 10
83.4331789589
 20
-61.2274762758
 10
89.7748572974
 20
-58.87645378
 10
95.9181238089
 20
-56.3559680951
 10
101.8494012316
 20
-53.6715897581
 10
107.555580822
 20
-50.8292515261
 10
110.0541249491
 20
-49.4961950364
  0
LWPOLYLINE
  5
33B
330
30E
100
AcDbEntity
  8
0
  6
CONTINUOUS
 62
     7
100
AcDbPolyline
 90
       10
 70
   128
 43
0.0
 10
155.0287183785
 20
-26.9838072454
 10
153.4524923254
 20
-26.2600464089
 10
151.6491830655
 20
-25.7319514801
 10
149.6933189171
 20
-25.4213479039
 10
147.6657330847
 20
-25.3410725036
 10
145.6502229321
 20
-25.4944429521
 10
143.730086752
 20
-25.8751206576
 10
141.9846811604
 20
-26.4673727284
 10
140.4861413959
 20
-27.2467221921
 10
139.2964000681
 20
-28.1809595957
  0
SPLINE
  5
33C
330
30E
100
AcDbEntity
  8
0
  6
CONTINUOUS
 62
     7
100
AcDbSpline
210
0.0
220
0.0
230
1.0
 70
     8
 71
     3
 72
    20
 73
    16
 74
     0
 42
0.00000001
 43
0.00000001
 40
0.0
 40
0.0
 40
0.0
 40
0.0
 40
0.1249999999999984
 40
0.1249999999999984
 40
0.2499999999999969
 40
0.2499999999999969
 40
0.499999999999998
 40
0.499999999999998
 40
0.7499999999999991
 40
0.7499999999999991
 40
0.8750000000000009
 40
0.8750000000000009
 40
0.9375000000000004
 40
0.9375000000000004
 40
1.0
 40
1.0
 40
1.0
 40
1.0
 10
144.6305581198264
 20
43.28508955220821
 30
0.0
 10
144.3118065096355
 20
43.22352950152307
 30
0.0
 10
144.0046355838095
 20
43.18103661686813
 30
0.0
 10
143.4093740415074
 20
43.11833479830332
 30
0.0
 10
143.1206112401896
 20
43.09831732156646
 30
0.0
 10
142.2846660949206
 20
43.05956533208316
 30
0.0
 10
141.7854445337336
 20
43.06160002372261
 30
0.0
 10
140.8701656272439
 20
43.07811571336644
 30
0.0
 10
140.4535729613821
 20
43.09364376033982
 30
0.0
 10
139.8993924881629
 20
43.10969466418449
 30
0.0
 10
139.7257101759704
 20
43.11394397151716
 30
0.0
 10
139.4807562324148
 20
43.11691417314879
 30
0.0
 10
139.4017073784134
 20
43.11733794638428
 30
0.0
 10
139.248731265162
 20
43.11675900377433
 30
0.0
 10
139.1743311070018
 20
43.11574384858825
 30
0.0
 10
139.1034831004557
 20
43.11388879050513
 30
0.0
  0
SPLINE
  5
33D
330
30E
100
AcDbEntity
  8
0
  6
CONTINUOUS
 62
     7
100
AcDbSpline
210
0.0
220
0.0
230
1.0
 70
     8
 71
     3
 72
    20
 73
    16
 74
     0
 42
0.00000001
 43
0.00000001
 40
0.0
 40
0.0
 40
0.0
 40
0.0
 40
0.1249999999999994
 40
0.1249999999999994
 40
0.2499999999999987
 40
0.2499999999999987
 40
0.3749999999999981
 40
0.3749999999999981
 40
0.4999999999999974
 40
0.4999999999999974
 40
0.6249999999999968
 40
0.6249999999999968
 40
0.7499999999999962
 40
0.7499999999999962
 40
1.0
 40
1.0
 40
1.0
 40
1.0
 10
154.8703017788779
 20
41.88730762878002
 30
0.0
 10
154.5410255340955
 20
42.07783356396477
 30
0.0
 10
154.1880308678815
 20
42.25526150885328
 30
0.0
 10
153.4491098687771
 20
42.57758223547205
 30
0.0
 10
153.0636214306101
 20
42.72258754561642
 30
0.0
 10
152.2613236226951
 20
42.98102883370381
 30
0.0
 10
151.844515929318
 20
43.09446650131351
 30
0.0
 10
150.9784907422436
 20
43.28867499970383
 30
0.0
 10
150.534787078877
 20
43.36800527772504
 30
0.0
 10
149.6400212395186
 20
43.48980999685861
 30
0.0
 10
149.1868752838226
 20
43.53275914563945
 30
0.0
 10
148.2689531157673
 20
43.58242646178017
 30
0.0
 10
147.8008298430559
 20
43.58889638204964
 30
0.0
 10
146.4170671036325
 20
43.55226704795815
 30
0.0
 10
145.5138953514235
 20
43.4556872308102
 30
0.0
 10
144.6305581198264
 20
43.28508955220821
 30
0.0
  0
SPLINE
  5
33F
330
30E
100
AcDbEntity
  8
0
  6
CONTINUOUS
 62
     7
100
AcDbSpline
210
0.0
220
0.0
230
1.0
 70
     8
 71
     3
 72
    18
 73
    14
 74
     0
 42
0.00000001
 43
0.00000001
 40
0.0
 40
0.0
 40
0.0
 40
0.0
 40
0.1249999999999983
 40
0.1249999999999983
 40
0.2499999999999965
 40
0.2499999999999965
 40
0.4999999999999977
 40
0.4999999999999977
 40
0.7499999999999988
 40
0.7499999999999988
 40
0.8749999999999994
 40
0.8749999999999994
 40
1.0
 40
1.0
 40
1.0
 40
1.0
 10
144.3136750351639
 20
44.63756528425847
 30
0.0
 10
144.0253097777776
 20
44.54244738982649
 30
0.0
 10
143.7481414549597
 20
44.46031949739427
 30
0.0
 10
143.2118090384132
 20
44.30904301404775
 30
0.0
 10
142.9521231222647
 20
44.23995567078654
 30
0.0
 10
142.2001917642311
 20
44.04388801971935
 30
0.0
 10
141.7406319239262
 20
43.92904788821608
 30
0.0
 10
140.8825461906853
 20
43.70251254474228
 30
0.0
 10
140.4839000724353
 20
43.59122799409298
 30
0.0
 10
139.9332704002138
 20
43.41880962181255
 30
0.0
 10
139.7572922543488
 20
43.3603798944612
 30
0.0
 10
139.4196822483927
 20
43.24008163735049
 30
0.0
 10
139.2575027357796
 20
43.17798960423107
 30
0.0
 10
139.1034831004558
 20
43.11388879050521
 30
0.0
  0
SPLINE
  5
340
330
30E
100
AcDbEntity
  8
0
  6
CONTINUOUS
 62
     7
100
AcDbSpline
210
0.0
220
0.0
230
1.0
 70
     8
 71
     3
 72
    12
 73
     8
 74
     0
 42
0.00000001
 43
0.00000001
 40
0.0
 40
0.0
 40
0.0
 40
0.0
 40
0.2459603097918354
 40
0.4918799787100779
 40
0.7390536520952168
 40
0.9500860340745891
 40
0.9999999999999999
 40
0.9999999999999999
 40
0.9999999999999999
 40
0.9999999999999999
 10
155.0207926182098
 20
-27.39465842318887
 30
0.0
 10
154.1435194504226
 20
-26.97921680647513
 30
0.0
 10
152.3891180697312
 20
-26.14840221790444
 30
0.0
 10
149.0342619405921
 20
-25.62739371428185
 30
0.0
 10
145.7737159290345
 20
-25.72909118716885
 30
0.0
 10
143.5671963364382
 20
-26.18399612160549
 30
0.0
 10
142.4859397038934
 20
-26.47372578318689
 30
0.0
 10
142.2791163199035
 20
-26.52914543773224
 30
0.0
  0
LWPOLYLINE
  5
341
330
30E
100
AcDbEntity
  8
0
  6
CONTINUOUS
 62
     7
100
AcDbPolyline
 90
        3
 70
   128
 43
0.0
 10
-45.2288034747
 20
27.1969053249
 10
-45.2260390528
 20
26.9172686517
 10
-45.2253621917
 20
26.88387735
  0
LWPOLYLINE
  5
343
330
30E
100
AcDbEntity
  8
0
  6
CONTINUOUS
 62
     7
100
AcDbPolyline
 90
       12
 70
   128
 43
0.0
 10
-24.3806062244
 20
30.4054406243
 10
-26.7220622392
 20
28.9093221464
 10
-28.7893137346
 20
27.2841311764
 10
-30.5611479129
 20
25.546544373
 10
-32.0193833578
 20
23.714391728
 10
-33.1490566003
 20
21.8064736069
 10
-33.9385756643
 20
19.8423678315
 10
-34.3798390157
 20
17.8422287848
 10
-34.4683186954
 20
15.8265806001
 10
-34.2031067822
 20
13.8161065554
 10
-33.5869247093
 20
11.831436835
 10
-32.7060806919
 20
10.029642042
  0
LWPOLYLINE
  5
344
330
30E
100
AcDbEntity
  8
0
  6
CONTINUOUS
 62
     7
100
AcDbPolyline
 90
       28
 70
   128
 43
0.0
 10
32.7870620091
 20
10.1714922204
 10
33.1490566003
 20
10.8551588685
 10
33.9385756643
 20
12.8192646439
 10
34.3798390157
 20
14.8194036906
 10
34.4683186954
 20
16.8350518753
 10
34.2031067822
 20
18.84552592
 10
33.5869247093
 20
20.8301956404
 10
32.6260953385
 20
22.7686956395
 10
31.3304780793
 20
24.6411342841
 10
29.7133677181
 20
26.4282978199
 10
27.7913579956
 20
28.1118475306
 10
25.5841713322
 20
29.6745079179
 10
23.1144564501
 20
31.1002439717
 10
20.407555966
 20
32.3744257107
 10
17.4912463418
 20
33.4839783061
 10
14.3954528607
 20
34.4175162467
 10
11.1519425531
 20
35.1654601699
 10
7.7939982239
 20
35.7201351591
 10
4.356076926
 20
36.0758494983
 10
0.8734563841
 20
36.2289530768
 10
-2.6181270023
 20
36.1778748449
 10
-6.0828448627
 20
35.9231389344
 10
-9.4851445035
 20
35.4673592803
 10
-12.7901137262
 20
34.8152127987
 10
-15.9638390742
 20
33.9733913951
 10
-18.9737538309
 20
32.9505332961
 10
-21.7889721976
 20
31.75713441
 10
-24.3806062244
 20
30.4054406243
  0
LWPOLYLINE
  5
345
330
30E
100
AcDbEntity
  8
0
  6
CONTINUOUS
 62
     7
100
AcDbPolyline
 90
        9
 70
   128
 43
0.0
 10
-16.2634559673
 20
17.8543051942
 10
-18.1735652846
 20
16.6035572549
 10
-19.7970666211
 20
15.2244690561
 10
-21.1083563907
 20
13.7387896425
 10
-22.0867547706
 20
12.169949066
 10
-22.7168318337
 20
10.5426888797
 10
-22.9886508884
 20
8.8826719488
 10
-22.8979251859
 20
7.2160777319
 10
-22.7781759964
 20
6.6260016385
  0
LWPOLYLINE
  5
346
330
30E
100
AcDbEntity
  8
0
  6
CONTINUOUS
 62
     7
100
AcDbPolyline
 90
       21
 70
   128
 43
0.0
 10
22.7767541464
 20
6.6201439394
 10
22.9886508884
 20
8.0485518676
 10
22.8979251859
 20
9.7151460845
 10
22.4460855246
 20
11.3620344011
 10
21.6402576859
 20
12.9632444046
 10
20.4931500563
 20
14.493524057
 10
19.0228532083
 20
15.9287399338
 10
17.2525546015
 20
17.2462578235
 10
15.2101729024
 20
18.4252996817
 10
12.9279176906
 20
19.4472713142
 10
10.441781494
 20
20.2960556176
 10
7.7909721656
 20
20.9582667567
 10
5.0172945521
 20
21.423461266
 10
2.1644912063
 20
21.6843027503
 10
-0.7224474588
 20
21.7366775835
 10
-3.5979926959
 20
21.5797597833
 10
-6.4167954389
 20
21.2160240371
 10
-9.1344014846
 20
20.6512066749
 10
-11.7079525623
 20
19.8942152039
 10
-14.096862234
 20
18.9569878318
 10
-16.2634559673
 20
17.8543051942
  0
LWPOLYLINE
  5
348
330
30E
100
AcDbEntity
  8
0
  6
CONTINUOUS
 62
     7
100
AcDbPolyline
 90
       16
 70
   128
 43
0.0
 10
20.1137761584
 20
6.4396957565
 10
19.0228532083
 20
7.4631280256
 10
17.2525546015
 20
8.7806459153
 10
15.2101729024
 20
9.9596877735
 10
12.9279176906
 20
10.981659406
 10
10.441781494
 20
11.8304437094
 10
7.7909721656
 20
12.4926548485
 10
5.0172945521
 20
12.9578493578
 10
2.1644912063
 20
13.2186908421
 10
-0.7224474588
 20
13.2710656753
 10
-3.5979926959
 20
13.1141478751
 10
-6.4167954389
 20
12.7504121289
 10
-9.1344014846
 20
12.1855947667
 10
-11.7079525623
 20
11.4286032957
 10
-14.096862234
 20
10.4913759236
 10
-16.2634559673
 20
9.388693286
  0
LWPOLYLINE
  5
34A
330
30E
100
AcDbEntity
  8
0
  6
CONTINUOUS
 62
     7
100
AcDbPolyline
 90
       58
 70
   128
 43
0.0
 10
-154.6923366473
 20
70.968841672
 10
-153.1783457554
 20
67.8791543312
 10
-150.843496417
 20
63.7636623972
 10
-148.1770603361
 20
59.7158720128
 10
-145.184898918
 20
55.7446810996
 10
-141.8735895827
 20
51.8588191972
 10
-138.2504113069
 20
48.0668282734
 10
-134.3233286228
 20
44.3770439471
 10
-130.1009741104
 20
40.7975771652
 10
-125.5926294212
 20
37.3362963724
 10
-120.8082048754
 20
34.0008102152
 10
-115.7582176764
 20
30.7984508159
 10
-110.4537687921
 20
27.7362576556
 10
-104.9065185524
 20
24.8209620995
 10
-99.1286610172
 20
22.0589725998
 10
-93.1328971714
 20
19.4563606089
 10
-86.9324070051
 20
17.0188472328
 10
-80.5408205413
 20
14.7517906549
 10
-73.9721878743
 20
12.6601743576
 10
-67.2409482844
 20
10.7485961674
 10
-60.3618984968
 20
9.0212581481
 10
-53.3501601562
 20
7.4819573636
 10
-46.221146585
 20
6.1340775309
 10
-38.9905289022
 20
4.9805815826
 10
-31.6742015749
 20
4.0240051531
 10
-24.2882474784
 20
3.2664510049
 10
-16.8489025426
 20
2.7095844064
 10
-9.3725200624
 20
2.3546294714
 10
-1.8755347489
 20
2.2023664678
 10
5.625573397
 20
2.2531301028
 10
13.1143153116
 20
2.5068087868
 10
20.574229115
 20
2.962844879
 10
27.9889162976
 20
3.6202359131
 10
35.3420777678
 20
4.4775368011
 10
42.6175496808
 20
5.5328630094
 10
49.7993389704
 20
6.783894702
 10
56.8716585051
 20
8.2278818397
 10
63.8189617916
 20
9.8616502255
 10
70.6259771495
 20
11.6816084819
 10
77.2777412818
 20
13.6837559456
 10
83.7596321673
 20
15.8636914619
 10
90.057401203
 20
18.2166230595
 10
96.1572045259
 20
20.7373784842
 10
102.0456334444
 20
23.4204165683
 10
107.7097439137
 20
26.2598394119
 10
113.1370849898
 20
29.2494053473
 10
118.3157261992
 20
32.3825426599
 10
123.2342837644
 20
35.6523640337
 10
127.8819456286
 20
39.0516816918
 10
132.2484952223
 20
42.5730231963
 10
136.3243339217
 20
46.2086478742
 10
140.1005021489
 20
49.9505638334
 10
143.5686990666
 20
53.7905455307
 10
146.7213008252
 20
57.7201518528
 10
149.5513773219
 20
61.7307446722
 10
152.0527074343
 20
65.8135078355
 10
154.219792696
 20
69.9594665432
 10
154.8752679708
 20
71.3722454327
  0
LWPOLYLINE
  5
34B
330
30E
100
AcDbEntity
  8
0
  6
CONTINUOUS
 62
     7
100
AcDbPolyline
 90
       10
 70
   128
 43
0.0
 10
139.1034831005
 20
43.1138887905
 10
142.7131008143
 20
46.9860833099
 10
145.9995161928
 20
50.9530301721
 10
148.9552864917
 20
55.0057454331
 10
151.5737177784
 20
59.1350509094
 10
153.8488800921
 20
63.3315949635
 10
155.775620873
 20
67.5858736829
 10
157.3495766316
 20
71.8882524033
 10
158.5671828307
 20
76.2289875282
 10
159.1767962551
 20
79.1241806018
  0
LWPOLYLINE
  5
34C
330
30E
100
AcDbEntity
  8
0
  6
CONTINUOUS
 62
     7
100
AcDbPolyline
 90
       17
 70
   128
 43
0.0
 10
-109.4395265262
 20
157.9785611585
 10
-114.5229110016
 20
154.9008670621
 10
-119.3468642492
 20
151.68702623
 10
-123.9004584632
 20
148.3443190451
 10
-128.1733782882
 20
144.8803178145
 10
-132.1559441865
 20
141.302869615
 10
-135.8391343653
 20
137.6200785175
 10
-139.2146052144
 20
133.8402872283
 10
-142.2747102064
 20
129.9720581903
 10
-145.0125172195
 20
126.0241541866
 10
-147.4218242401
 20
122.0055184894
 10
-149.4971734129
 20
117.9252546012
 10
-151.2338634046
 20
113.792605632
 10
-152.6279600537
 20
109.6169333608
 10
-153.676305283
 20
105.4076970286
 10
-154.3765242533
 20
101.1744319092
 10
-154.6776088279
 20
97.9015964656
  0
LWPOLYLINE
  5
34D
330
30E
100
AcDbEntity
  8
0
  6
CONTINUOUS
 62
     7
100
AcDbPolyline
 90
       51
 70
   128
 43
0.0
 10
154.7278888385
 20
96.9058149193
 10
154.7270307434
 20
96.92672771
 10
154.3765242533
 20
101.1744319092
 10
153.676305283
 20
105.4076970286
 10
152.6279600537
 20
109.6169333608
 10
151.2338634046
 20
113.792605632
 10
149.4971734129
 20
117.9252546012
 10
147.4218242401
 20
122.0055184894
 10
145.0125172195
 20
126.0241541866
 10
142.2747102064
 20
129.9720581903
 10
139.2146052144
 20
133.8402872283
 10
135.8391343653
 20
137.6200785175
 10
132.1559441865
 20
141.302869615
 10
128.1733782882
 20
144.8803178145
 10
123.9004584632
 20
148.3443190451
 10
119.3468642492
 20
151.68702623
 10
114.5229110016
 20
154.9008670621
 10
109.4395265262
 20
157.9785611585
 10
104.1082263237
 20
160.9131365519
 10
98.5410875039
 20
163.6979454854
 10
92.7507214266
 20
166.326679471
 10
86.7502451336
 20
168.7933835807
 10
80.5532516335
 20
171.0924699364
 10
74.1737791098
 20
173.2187303679
 10
67.6262791197
 20
175.1673482115
 10
60.9255838564
 20
176.9339092211
 10
54.0868725499
 20
178.5144115678
 10
47.1256370809
 20
179.9052749055
 10
40.0576468867
 20
181.1033484812
 10
32.8989132385
 20
182.1059182731
 10
25.6656529703
 20
182.9107131381
 10
18.3742517432
 20
183.515909957
 10
11.0412269261
 20
183.9201377643
 10
3.6831901788
 20
184.1224808541
 10
-3.6831901788
 20
184.1224808541
 10
-11.0412269261
 20
183.9201377643
 10
-18.3742517432
 20
183.515909957
 10
-25.6656529703
 20
182.9107131381
 10
-32.8989132385
 20
182.1059182731
 10
-40.0576468867
 20
181.1033484812
 10
-47.1256370809
 20
179.9052749055
 10
-54.0868725499
 20
178.5144115678
 10
-60.9255838564
 20
176.9339092211
 10
-67.6262791197
 20
175.1673482115
 10
-74.1737791098
 20
173.2187303679
 10
-80.5532516335
 20
171.0924699364
 10
-86.7502451336
 20
168.7933835807
 10
-92.7507214267
 20
166.326679471
 10
-98.5410875039
 20
163.6979454854
 10
-104.1082263237
 20
160.9131365519
 10
-109.4395265262
 20
157.9785611585
  0
LWPOLYLINE
  5
34E
330
30E
100
AcDbEntity
  8
0
  6
CONTINUOUS
 62
     7
100
AcDbPolyline
 90
       15
 70
   128
 43
0.0
 10
-95.059116442
 20
97.0095291624
 10
-99.7888921933
 20
94.1359213222
 10
-104.2583301187
 20
91.1266439787
 10
-108.4557699648
 20
87.989547993
 10
-112.3702610904
 20
84.7328176902
 10
-115.9915910351
 20
81.3649495079
 10
-119.3103121625
 20
77.8947298296
 10
-122.3177663081
 20
74.3312120623
 10
-125.0061073675
 20
70.6836930168
 10
-127.3683217658
 20
66.961688654
 10
-129.3982467554
 20
63.1749092583
 10
-131.0905864936
 20
59.3332341047
 10
-132.4409258594
 20
55.446685685
 10
-133.4457419715
 20
51.5254035604
 10
-133.7661490299
 20
49.8585639956
  0
LWPOLYLINE
  5
34F
330
30E
100
AcDbEntity
  8
0
  6
CONTINUOUS
 62
     7
100
AcDbPolyline
 90
       46
 70
   128
 43
0.0
 10
133.7661490299
 20
49.8585639956
 10
133.6426308756
 20
50.540853126
 10
132.7246405591
 20
54.4692231665
 10
131.4603868097
 20
58.3654095901
 10
129.853167921
 20
62.2192476913
 10
127.9071769437
 20
66.0206832465
 10
125.627490746
 20
69.7597987445
 10
123.0200567688
 20
73.4268392597
 10
120.0916775099
 20
77.0122379023
 10
116.8499927761
 20
80.5066407765
 10
113.303459753
 20
83.9009313841
 10
109.4613309402
 20
87.1862544087
 10
105.3336300131
 20
90.3540388174
 10
100.9311256721
 20
93.3960202225
 10
96.2653035484
 20
96.3042624419
 10
91.3483362391
 20
99.0711782035
 10
86.1930515507
 20
101.6895489402
 10
80.8128990321
 20
104.1525436216
 10
75.221914887
 20
106.4537365759
 10
69.4346853547
 20
108.5871242533
 10
63.4663086563
 20
110.547140889
 10
57.3323556051
 20
112.3286730234
 10
51.0488289842
 20
113.9270728426
 10
44.6321217972
 20
115.3381703038
 10
38.0989745004
 20
116.5582840151
 10
31.4664313293
 20
117.584230839
 10
24.7517958316
 20
118.4133341974
 10
17.9725857247
 20
119.0434310542
 10
11.1464871937
 20
119.4728775588
 10
4.2913087503
 20
119.7005533343
 10
-2.5750652276
 20
119.7258644005
 10
-9.4347211544
 20
119.5487447237
 10
-16.2697629709
 20
119.169656389
 10
-23.0623588335
 20
118.5895883946
 10
-29.7947876351
 20
117.8100540716
 10
-36.4494852377
 20
116.833087136
 10
-43.009090295
 20
115.6612363831
 10
-49.4564895465
 20
114.2975590377
 10
-55.7748624636
 20
112.7456127782
 10
-61.9477251329
 20
111.0094464552
 10
-67.9589732604
 20
109.0935895285
 10
-73.7929241861
 20
107.0030402501
 10
-79.4343577981
 20
104.7432526242
 10
-84.8685562403
 20
102.3201221788
 10
-90.0813423095
 20
99.7399705846
 10
-95.059116442
 20
97.0095291624
  0
LWPOLYLINE
  5
350
330
30E
100
AcDbEntity
  8
0
  6
CONTINUOUS
 62
     7
100
AcDbPolyline
 90
       16
 70
   128
 43
0.0
 10
158.7853576846
 20
105.9217238812
 10
158.9541206301
 20
105.4380574112
 10
160.2804377118
 20
101.0372162857
 10
161.2413620823
 20
96.6048441559
 10
161.8347031139
 20
92.151045539
 10
162.0591081618
 20
87.6859737988
 10
161.914065648
 20
83.2198079981
 10
161.3999062271
 20
78.7627296941
 10
160.5178020328
 20
74.324899727
 10
159.2697640057
 20
69.9164350565
 10
157.6586373091
 20
65.5473856979
 10
155.6880948425
 20
61.2277118112
 10
153.3626288686
 20
56.9672609946
 10
150.6875407727
 20
52.7757458349
 10
147.6689289764
 20
48.6627217659
 10
144.3136750352
 20
44.6375652843
  0
LWPOLYLINE
  5
352
330
30E
100
AcDbEntity
  8
0
  6
CONTINUOUS
 62
     7
100
AcDbPolyline
 90
       14
 70
   128
 43
0.0
 10
-81.8543081387
 20
77.9697756878
 10
-86.2391842278
 20
75.2949333178
 10
-90.3621547488
 20
72.4847070715
 10
-94.2106983756
 20
69.5476315135
 10
-97.773127208
 20
66.4926264458
 10
-101.0386222664
 20
63.3289698185
 10
-103.9972663498
 20
60.0662695526
 10
-106.6400741534
 20
56.7144343617
 10
-108.9590195567
 20
53.2836436591
 10
-110.9470599987
 20
49.7843166433
 10
-112.5981578659
 20
46.2270806556
 10
-113.9072988284
 20
42.6227389046
 10
-114.8705070681
 20
38.9822376579
 10
-115.4819403421
 20
35.3409721058
  0
LWPOLYLINE
  5
353
330
30E
100
AcDbEntity
  8
0
  6
CONTINUOUS
 62
     7
100
AcDbPolyline
 90
       43
 70
   128
 43
0.0
 10
115.4802023285
 20
35.3554128363
 10
115.2214309786
 20
37.1518788761
 10
114.4323521085
 20
40.8063193948
 10
113.295745946
 20
44.430116824
 10
111.8150643267
 20
48.0122658102
 10
109.994804032
 20
51.5418874845
 10
107.8404931327
 20
55.0082625019
 10
105.3586742001
 20
58.4008635955
 10
102.5568844367
 20
61.7093875472
 10
99.443632786
 20
64.9237864785
 10
96.0283740908
 20
68.0342983655
 10
92.3214803797
 20
71.0314766859
 10
88.334209367
 20
73.9062191076
 10
84.0786702637
 20
76.6497951323
 10
79.5677870022
 20
79.2538726098
 10
74.8152589867
 20
81.7105430424
 10
69.8355194885
 20
84.0123456028
 10
64.6436918129
 20
86.1522897923
 10
59.2555433699
 20
88.1238766705
 10
53.6874377893
 20
89.9211185931
 10
47.9562852246
 20
91.5385573954
 10
42.0794909978
 20
92.9712809688
 10
36.0749027399
 20
94.214938179
 10
29.960756188
 20
95.2657520799
 10
23.7556198042
 20
96.1205313842
 10
17.4783383839
 20
96.7766801553
 10
11.1479758244
 20
97.2322056909
 10
4.7837572287
 20
97.485724575
 10
-1.5949894804
 20
97.5364668789
 10
-7.968892259
 20
97.3842785
 10
-14.3185937737
 20
97.0296216295
 10
-20.6248101896
 20
96.4735733485
 10
-26.8683897349
 20
95.7178223575
 10
-33.0303708637
 20
94.7646638473
 10
-39.0920398417
 20
93.616992529
 10
-45.0349875796
 20
92.2782938427
 10
-50.8411655403
 20
90.7526333723
 10
-56.4929405523
 20
89.0446444985
 10
-61.9731483605
 20
87.1595143274
 10
-67.265145754
 20
85.1029679373
 10
-72.3528611107
 20
82.8812509921
 10
-77.2208432061
 20
80.501110773
 10
-81.8543081387
 20
77.9697756878
  0
LWPOLYLINE
  5
354
330
30E
100
AcDbEntity
  8
0
  6
CONTINUOUS
 62
     7
100
AcDbPolyline
 90
       22
 70
   128
 43
0.0
 10
-34.0601749529
 20
49.274991871
 10
-36.8620662283
 20
47.5119200449
 10
-39.3910436623
 20
45.6163269634
 10
-41.6283835907
 20
43.6022469346
 10
-43.5575215315
 20
41.4845915023
 10
-45.1641748223
 20
39.2790390465
 10
-46.4364483642
 20
37.0019187058
 10
-47.3649226892
 20
34.6700894827
 10
-47.9427236981
 20
32.3008154247
 10
-48.1655735544
 20
29.9116378081
 10
-48.0318223558
 20
27.5202452682
 10
-47.5424603493
 20
25.1443428385
 10
-46.7011106001
 20
22.8015208694
 10
-45.5140021672
 20
20.509124795
 10
-43.9899239862
 20
18.284126714
 10
-42.1401597988
 20
16.1429997335
 10
-39.9784046117
 20
14.1015960088
 10
-37.5206633042
 20
12.1750293786
 10
-34.7851321328
 20
10.3775634683
 10
-31.7920640134
 20
8.7225060867
 10
-28.5636185751
 20
7.2221106995
 10
-28.4024987874
 20
7.1539085434
  0
LWPOLYLINE
  5
355
330
30E
100
AcDbEntity
  8
0
  6
CONTINUOUS
 62
     7
100
AcDbPolyline
 90
       41
 70
   128
 43
0.0
 10
28.2324606924
 20
7.0825716325
 10
29.3915175637
 20
7.5820821205
 10
32.5632943683
 20
9.122230621
 10
35.4939839343
 20
10.8140816954
 10
38.1618884615
 20
12.6451094702
 10
40.5472557182
 20
14.6017576563
 10
42.6324252798
 20
16.6695399152
 10
44.4019592804
 20
18.8331471105
 10
45.8427567094
 20
21.0765606515
 10
46.9441504066
 20
23.3831710892
 10
47.6979860386
 20
25.7359010869
 10
48.09868247
 20
28.117331855
 10
48.1432730846
 20
30.5098321131
 10
47.8314277492
 20
32.8956886264
 10
47.1654552574
 20
35.2572373481
 10
46.1502862367
 20
37.5769941977
 10
44.7934366432
 20
39.837784507
 10
43.1049521167
 20
42.0228701755
 10
41.0973336058
 20
44.1160735936
 10
38.7854448156
 20
46.1018974153
 10
36.1864021618
 20
47.965639296
 10
33.3194480468
 20
49.6935007428
 10
30.205808396
 20
51.272689274
 10
26.868535508
 20
52.6915131304
 10
23.3323373835
 20
53.9394678364
 10
19.6233947962
 20
55.0073139721
 10
15.7691674596
 20
55.8871455782
 10
11.7981907242
 20
56.5724486894
 10
7.7398643125
 20
57.0581495612
 10
3.6242346533
 20
57.3406522343
 10
-0.5182275712
 20
57.4178651578
 10
-4.65685302
 20
57.2892166741
 10
-8.7610007584
 20
56.9556592516
 10
-12.8002851124
 20
56.4196624328
 10
-16.7448006339
 20
55.6851945506
 10
-20.5653435099
 20
54.7576933483
 10
-24.2336277778
 20
53.6440257201
 10
-27.7224947442
 20
52.3524368717
 10
-31.0061140587
 20
50.8924892749
 10
-34.0601749529
 20
49.274991871
 10
-34.0601749529
 20
49.274991871
  0
LWPOLYLINE
  5
356
330
30E
100
AcDbEntity
  8
0
  6
CONTINUOUS
 62
     7
100
AcDbPolyline
 90
       10
 70
   128
 43
0.0
 10
-31.9815956208
 20
45.6686727123
 10
-34.682982713
 20
43.9647004005
 10
-37.1129284405
 20
42.1295692444
 10
-39.2524151834
 20
40.1776416335
 10
-41.0846985571
 20
38.1241940479
 10
-42.5954384599
 20
35.9852974991
 10
-43.7728113037
 20
33.7776917525
 10
-44.6076025497
 20
31.5186543165
 10
-45.0932788245
 20
29.2258652218
 10
-45.2288034747
 20
27.1969053249
  0
LWPOLYLINE
  5
357
330
30E
100
AcDbEntity
  8
0
  6
CONTINUOUS
 62
     7
100
AcDbPolyline
 90
       28
 70
   128
 43
0.0
 10
45.2253621917
 20
26.88387735
 10
45.1596426899
 20
28.6494932812
 10
44.7619466257
 20
30.947923756
 10
44.0139276386
 20
33.2170693125
 10
42.9214399914
 20
35.4391708102
 10
41.4930338813
 20
37.596837292
 10
39.7398885227
 20
39.6731820923
 10
37.6757246551
 20
41.6519549977
 10
35.3166971594
 20
43.5176694274
 10
32.6812686244
 20
45.2557236363
 10
29.7900648514
 20
46.8525149936
 10
26.6657134301
 20
48.2955464421
 10
23.3326666465
 20
49.5735243041
 10
19.8170101108
 20
50.67644667
 10
16.1462586021
 20
51.5956816769
 10
12.3491407279
 20
52.3240350647
 10
8.4553740839
 20
52.8558064804
 10
4.4954326735
 20
53.1868340918
 10
0.5003084073
 20
53.314527159
 10
-3.4987314505
 20
53.2378863106
 10
-7.470388991
 20
52.9575113651
 10
-11.3835806089
 20
52.4755966366
 10
-15.2076802741
 20
51.7959137613
 10
-18.9127592218
 20
50.9237821793
 10
-22.4698201857
 20
49.8660275026
 10
-25.851024341
 20
48.6309280957
 10
-29.0299091807
 20
47.2281502862
 10
-31.9815956208
 20
45.6686727123
  0
LWPOLYLINE
  5
358
330
30E
100
AcDbEntity
  8
0
  6
CONTINUOUS
 62
     7
100
AcDbPolyline
 90
        9
 70
   128
 43
0.0
 10
-31.855466125
 20
37.2515947587
 10
-34.5461994463
 20
35.5543425984
 10
-36.9665619174
 20
33.72644886
 10
-39.0976109205
 20
31.7822192905
 10
-40.9226681076
 20
29.7368701222
 10
-42.4274499317
 20
27.6064089856
 10
-43.6001794349
 20
25.4075096277
 10
-44.4316784186
 20
23.1573814174
 10
-44.5759275023
 20
22.626526381
  0
LWPOLYLINE
  5
359
330
30E
100
AcDbEntity
  8
0
  6
CONTINUOUS
 62
     7
100
AcDbPolyline
 90
       26
 70
   128
 43
0.0
 10
44.5321204532
 20
22.7955104997
 10
43.8403448515
 20
24.8490981789
 10
42.7521657735
 20
27.0624361194
 10
41.3293930328
 20
29.2115931639
 10
39.5831617551
 20
31.2797492444
 10
37.5271385679
 20
33.2507182356
 10
35.1774146402
 20
35.1090746327
 10
32.5523797477
 20
36.8402742774
 10
29.6725783474
 20
38.4307681851
 10
26.5605487901
 20
39.8681085845
 10
23.2406469263
 20
41.1410463382
 10
19.7388554895
 20
42.2396189824
 10
16.0825807455
 20
43.1552286966
 10
12.3004380017
 20
43.8807095933
 10
8.422027653
 20
44.410383801
 10
4.4777035188
 20
44.7401059008
 10
0.4983352835
 20
44.8672953701
 10
-3.484933101
 20
44.790956779
 10
-7.440927159
 20
44.5116875804
 10
-11.3386858731
 20
44.0316734344
 10
-15.1477039968
 20
43.3546711027
 10
-18.8381707987
 20
42.4859790462
 10
-22.3812033723
 20
41.4323959583
 10
-25.749072684
 20
40.202167555
 10
-28.91542059
 20
38.8049220416
 10
-31.855466125
 20
37.2515947587
  0
LWPOLYLINE
  5
35A
330
30E
100
AcDbEntity
  8
0
  6
CONTINUOUS
 62
     7
100
AcDbPolyline
 90
        9
 70
   128
 43
0.0
 10
-29.7768867929
 20
33.6452756
 10
-32.3973283377
 20
31.9858693201
 10
-34.7413673001
 20
30.1939629336
 10
-36.7890051661
 20
28.2848443541
 10
-38.5227722115
 20
26.2748015081
 10
-39.9278765471
 20
24.1809833725
 10
-40.9923303182
 20
22.0212536652
 10
-41.7070519805
 20
19.8140384388
 10
-42.0134972311
 20
18.1077410736
  0
LWPOLYLINE
  5
35B
330
30E
100
AcDbEntity
  8
0
  6
CONTINUOUS
 62
     7
100
AcDbPolyline
 90
       26
 70
   128
 43
0.0
 10
42.018484293
 20
18.0649237073
 10
41.7070519805
 20
19.8140384388
 10
40.9923303182
 20
22.0212536652
 10
39.9278765471
 20
24.1809833725
 10
38.5227722115
 20
26.2748015081
 10
36.7890051661
 20
28.2848443541
 10
34.7413673001
 20
30.1939629336
 10
32.3973283377
 20
31.9858693201
 10
29.7768867929
 20
33.6452756
 10
26.9023993491
 20
35.158024304
 10
23.7983901195
 20
36.5112091936
 10
20.4913414165
 20
37.6932853725
 10
17.0094678136
 20
38.6941677834
 10
13.3824754286
 20
39.5053172505
 10
9.6413084819
 20
40.1198133327
 10
5.8178852906
 20
40.5324133659
 10
1.9448259533
 20
40.7395971922
 10
-1.9448259533
 20
40.7395971922
 10
-5.8178852906
 20
40.5324133659
 10
-9.6413084819
 20
40.1198133327
 10
-13.3824754286
 20
39.5053172505
 10
-17.0094678136
 20
38.6941677834
 10
-20.4913414165
 20
37.6932853725
 10
-23.7983901195
 20
36.5112091936
 10
-26.9023993491
 20
35.158024304
 10
-29.7768867929
 20
33.6452756
  0
LINE
  5
35C
330
30E
100
AcDbEntity
  8
0
  6
CONTINUOUS
 62
     7
100
AcDbLine
 10
160.0582700057
 20
89.3949925108
 30
0.0
 11
159.9969546322
 21
95.1319365161
 31
0.0
  0
LINE
  5
35D
330
30E
100
AcDbEntity
  8
0
  6
CONTINUOUS
 62
     7
100
AcDbLine
 10
-159.9969546322
 20
95.1319365161
 30
0.0
 11
-160.8129393169
 21
18.7847142187
 31
0.0
  0
LINE
  5
35E
330
30E
100
AcDbEntity
  8
0
  6
CONTINUOUS
 62
     7
100
AcDbLine
 10
139.3720300477
 20
-28.2099829984
 30
0.0
 11
139.4334965197
 21
-28.1464426764
 31
0.0
  0
LINE
  5
35F
330
30E
100
AcDbEntity
  8
0
  6
CONTINUOUS
 62
     7
100
AcDbLine
 10
139.4506874419
 20
-28.194860193
 30
0.0
 11
140.1378174188
 21
-27.5701338769
 31
0.0
  0
LINE
  5
360
330
30E
100
AcDbEntity
  8
0
  6
CONTINUOUS
 62
     7
100
AcDbLine
 10
102.731486785
 20
174.6147842284
 30
0.0
 11
94.0954705813
 21
169.6293181926
 31
0.0
  0
LINE
  5
361
330
30E
100
AcDbEntity
  8
0
  6
CONTINUOUS
 62
     7
100
AcDbLine
 10
103.2314461513
 20
174.5652761779
 30
0.0
 11
338.7102920903
 21
38.6262319613
 31
0.0
  0
LINE
  5
362
330
30E
100
AcDbEntity
  8
0
  6
CONTINUOUS
 62
     7
100
AcDbLine
 10
251.0229073212
 20
-11.9946177708
 30
0.0
 11
338.7102920903
 21
38.6262319613
 31
0.0
  0
LINE
  5
363
330
30E
100
AcDbEntity
  8
0
  6
CONTINUOUS
 62
     7
100
AcDbLine
 10
155.5773816356
 20
43.104911381
 30
0.0
 11
251.0229073212
 21
-11.9946177708
 31
0.0
  0
LINE
  5
364
330
30E
100
AcDbEntity
  8
0
  6
CONTINUOUS
 62
     7
100
AcDbLine
 10
250.3158274645
 20
-82.4073110627
 30
0.0
 11
250.3158274645
 21
-13.2122215231
 31
0.0
  0
LINE
  5
365
330
30E
100
AcDbEntity
  8
0
  6
CONTINUOUS
 62
     7
100
AcDbLine
 10
251.729987178
 20
-13.2122215231
 30
0.0
 11
251.729987178
 21
-82.4073110627
 31
0.0
  0
LINE
  5
366
330
30E
100
AcDbEntity
  8
0
  6
CONTINUOUS
 62
     7
100
AcDbLine
 10
154.8703017789
 20
41.8873076288
 30
0.0
 11
155.0287183785
 21
-26.9838072454
 31
0.0
  0
LINE
  5
367
330
30E
100
AcDbEntity
  8
0
  6
CONTINUOUS
 62
     7
100
AcDbLine
 10
250.3158274645
 20
-13.2122215231
 30
0.0
 11
154.8703017789
 21
41.8873076288
 31
0.0
  0
LINE
  5
368
330
30E
100
AcDbEntity
  8
0
  6
CONTINUOUS
 62
     7
100
AcDbLine
 10
250.3158274645
 20
-82.4073110627
 30
0.0
 11
155.0207926182
 21
-27.3946584232
 31
0.0
  0
LINE
  5
369
330
30E
100
AcDbEntity
  8
0
  6
CONTINUOUS
 62
     7
100
AcDbLine
 10
339.417371947
 20
37.408628209
 30
0.0
 11
251.729987178
 21
-13.2122215231
 31
0.0
  0
LINE
  5
36A
330
30E
100
AcDbEntity
  8
0
  6
CONTINUOUS
 62
     7
100
AcDbLine
 10
339.417371947
 20
37.408628209
 30
0.0
 11
339.935775298
 21
-31.4871934462
 31
0.0
  0
LINE
  5
36B
330
30E
100
AcDbEntity
  8
0
  6
CONTINUOUS
 62
     7
100
AcDbLine
 10
339.935775298
 20
-31.4871934462
 30
0.0
 11
251.729987178
 21
-82.4073110627
 31
0.0
  0
LINE
  5
36C
330
30E
100
AcDbEntity
  8
0
  6
CONTINUOUS
 62
     7
100
AcDbLine
 10
45.2177435018
 20
26.6286327011
 30
0.0
 11
45.2253621917
 21
26.88387735
 31
0.0
  0
LINE
  5
36D
330
30E
100
AcDbEntity
  8
0
  6
CONTINUOUS
 62
     7
100
AcDbLine
 10
103.2314461513
 20
174.5652761779
 30
0.0
 11
94.4275918053
 21
169.4829192449
 31
0.0
  0
ARC
  5
36E
330
30E
100
AcDbEntity
  8
0
  6
CONTINUOUS
 62
     7
100
AcDbCircle
 10
-104.5075739367
 20
94.5708498256
 30
0.0
 40
55.45777850948243
100
AcDbArc
 50
154.123813594
 51
205.1877084529
  0
ARC
  5
36F
330
30E
100
AcDbEntity
  8
0
  6
CONTINUOUS
 62
     7
100
AcDbCircle
 10
104.4556169366
 20
94.5892219319
 30
0.0
 40
55.5082805369707
100
AcDbArc
 50
335.2751229233
 51
26.8168548967
  0
ARC
  5
370
330
30E
100
AcDbEntity
  8
0
  6
CONTINUOUS
 62
     7
100
AcDbCircle
 10
106.2449218531
 20
88.8401938402
 30
0.0
 40
53.81620797639214
100
AcDbArc
 50
349.5987472104
 51
0.590680514
  0
ARC
  5
371
330
30E
100
AcDbEntity
  8
0
  6
CONTINUOUS
 62
     7
100
AcDbCircle
 10
251.0229073212
 20
-11.820651405
 30
0.0
 40
1.560906569066646
100
AcDbArc
 50
243.0641210904
 51
296.9358789096
  0
ARC
  5
372
330
30E
100
AcDbEntity
  8
0
  6
CONTINUOUS
 62
     7
100
AcDbCircle
 10
251.0229073212
 20
-81.0426806517
 30
0.0
 40
1.536937891525445
100
AcDbArc
 50
242.609179853
 51
297.390820147
  0
ARC
  5
373
330
30E
100
AcDbEntity
  8
0
  6
CONTINUOUS
 62
     7
100
AcDbCircle
 10
251.8526322313
 20
-13.2905584069
 30
0.0
 40
1.538800038578049
100
AcDbArc
 50
122.6293696929
 51
177.081938098
  0
ARC
  5
374
330
30E
100
AcDbEntity
  8
0
  6
CONTINUOUS
 62
     7
100
AcDbCircle
 10
250.1931824111
 20
-13.2905584069
 30
0.0
 40
1.538800038577656
100
AcDbArc
 50
2.918061902
 51
57.3706303071
  0
ARC
  5
375
330
30E
100
AcDbEntity
  8
0
  6
CONTINUOUS
 62
     7
100
AcDbCircle
 10
156.4071065457
 20
41.8089707449
 30
0.0
 40
1.538800038577963
100
AcDbArc
 50
122.6293696929
 51
177.081938098
  0
ARC
  5
376
330
30E
100
AcDbEntity
  8
0
  6
CONTINUOUS
 62
     7
100
AcDbCircle
 10
337.8805671802
 20
37.3302913252
 30
0.0
 40
1.538800038577986
100
AcDbArc
 50
2.918061902
 51
57.3706303071
  0
ARC
  5
377
330
30E
100
AcDbEntity
  8
0
  6
CONTINUOUS
 62
     7
100
AcDbCircle
 10
141.4838556762
 20
43.2611822624
 30
0.0
 40
3.146793260945101
100
AcDbArc
 50
0.4353002786
 51
25.9376151847
  0
ARC
  5
378
330
30E
100
AcDbEntity
  8
0
  6
CONTINUOUS
 62
     7
100
AcDbCircle
 10
-8.0285006032
 20
-5.3517075203
 30
0.0
 40
16.88472403621151
100
AcDbArc
 50
119.1905916984
 51
135.6680347475
  0
ARC
  5
379
330
30E
100
AcDbEntity
  8
0
  6
CONTINUOUS
 62
     7
100
AcDbCircle
 10
102.9396248003
 20
174.1674901608
 30
0.0
 40
0.4933491829676179
100
AcDbArc
 50
53.7357101128
 51
114.9538314581
  0
VIEWPORT
  5
453
330
30E
100
AcDbEntity
  8
0
100
AcDbViewport
 10
0.0
 20
0.0
 30
0.0
 40
205.6
 41
156.0
 68
     1
 69
     1
1001
ACAD
1000
MVIEW
1002
{
1070
    16
1010
0.0
1020
0.0
1030
0.0
1010
0.0
1020
0.0
1030
1.0
1040
0.0
1040
357.2134125294
1040
69.9628822539
1040
9.5919903727
1040
50.0
1040
0.0
1040
0.0
1070
     0
1070
   100
1070
     0
1070
     3
1070
     0
1070
     0
1070
     0
1070
     0
1040
0.0
1040
0.0
1040
0.0
1040
10.0
1040
10.0
1040
10.0
1040
10.0
1070
     0
1002
{
1002
}
1002
}
  0
ENDBLK
  5
311
330
30E
100
AcDbEntity
  8
0
100
AcDbBlockEnd
  0
BLOCK
  5
37C
330
37A
100
AcDbEntity
  8
0
100
AcDbBlockBegin
  2
*PAPER_SPACE6
 70
     0
 10
0.0
 20
0.0
 30
0.0
  3
*PAPER_SPACE6
  1

  0
SPLINE
  5
380
330
37A
100
AcDbEntity
  8
0
  6
CONTINUOUS
 62
     7
100
AcDbSpline
210
0.0
220
0.0
230
1.0
 70
     8
 71
     3
 72
    62
 73
    58
 74
     0
 42
0.00000001
 43
0.00000001
 40
0.0
 40
0.0
 40
0.0
 40
0.0
 40
0.0121698789980523
 40
0.0304707680552555
 40
0.0487932945163377
 40
0.0671351605655396
 40
0.085493284130651
 40
0.1038643179898041
 40
0.1222450303985185
 40
0.1406325385604956
 40
0.1590244184301136
 40
0.1774187264251754
 40
0.195813961987162
 40
0.2142087314062989
 40
0.2326023440003461
 40
0.2509943447628091
 40
0.2693844593284276
 40
0.2877725486007569
 40
0.3061585726072798
 40
0.324542562455823
 40
0.3429245990333822
 40
0.3613047971205365
 40
0.3796832937484013
 40
0.3980602398185701
 40
0.4164357941977493
 40
0.4348101196684297
 40
0.4531833802587387
 40
0.4715557395887167
 40
0.4899273599596405
 40
0.5082984019816945
 40
0.5266690245870942
 40
0.5450393853141648
 40
0.5634096407756639
 40
0.5817799418416577
 40
0.6001503983836736
 40
0.6185211676961926
 40
0.6368924084703693
 40
0.6552642813598525
 40
0.6736369494275042
 40
0.6920105783931108
 40
0.7103853365884092
 40
0.7287613944951089
 40
0.747138923699567
 40
0.7655180950411723
 40
0.7838990756568287
 40
0.802282024526942
 40
0.8206670860048461
 40
0.8390543806588853
 40
0.8574439925746117
 40
0.8758359520617656
 40
0.8942302125091124
 40
0.9126266199783082
 40
0.9310248741176559
 40
0.9494244792687091
 40
0.9678246163289815
 40
0.986223845714866
 40
1.0
 40
1.0
 40
1.0
 40
1.0
 10
155.6032536996979
 20
118.5261847123215
 30
0.0
 10
155.2374478295461
 20
119.3233788704633
 30
0.0
 10
154.3215483514633
 20
121.3193821414599
 30
0.0
 10
152.5062349998408
 20
124.4638931339223
 30
0.0
 10
150.2058886077425
 20
127.9586751155354
 30
0.0
 10
147.5954158515636
 20
131.3950311169961
 30
0.0
 10
144.6952009658582
 20
134.7679612589867
 30
0.0
 10
141.5070233512513
 20
138.069928216469
 30
0.0
 10
138.0385093379409
 20
141.2943100109198
 30
0.0
 10
134.2964996741981
 20
144.4345247325183
 30
0.0
 10
130.2887608884648
 20
147.4842921841218
 30
0.0
 10
126.0234693328795
 20
150.4375728776192
 30
0.0
 10
121.5093274178867
 20
153.2885691062768
 30
0.0
 10
116.7554777952874
 20
156.0317378541287
 30
0.0
 10
111.7714906765887
 20
158.6617865451654
 30
0.0
 10
106.5673157767171
 20
161.1736806301399
 30
0.0
 10
101.1533014324448
 20
163.5626233299392
 30
0.0
 10
95.5401797212485
 20
165.8240582384926
 30
0.0
 10
89.73905096091922
 20
167.9536736500029
 30
0.0
 10
83.76136694288994
 20
169.9474080963317
 30
0.0
 10
77.61891281800881
 20
171.8014566685575
 30
0.0
 10
71.32378759746126
 20
173.5122777472325
 30
0.0
 10
64.88838333803986
 20
175.0765998419181
 30
0.0
 10
58.3253631172668
 20
176.4914283066472
 30
0.0
 10
51.64763792469446
 20
177.7540517551617
 30
0.0
 10
44.8683425999617
 20
178.8620480454279
 30
0.0
 10
38.00081094526583
 20
179.813289738335
 30
0.0
 10
31.05855013309018
 20
180.6059489621688
 30
0.0
 10
24.0552145219543
 20
181.2385016341811
 30
0.0
 10
17.00457898493083
 20
181.7097310049474
 30
0.0
 10
9.920511848503045
 20
182.0187305015539
 30
0.0
 10
2.816947533063108
 20
182.1649058530396
 30
0.0
 10
-4.292140320958815
 20
182.1479764884936
 30
0.0
 10
-11.39276123685544
 20
181.9679764196534
 30
0.0
 10
-18.47094173285406
 20
181.6252546290641
 30
0.0
 10
-25.51275388589434
 20
181.1204741677927
 30
0.0
 10
-32.50434819786994
 20
180.454609813251
 30
0.0
 10
-39.43197501454118
 20
179.6289459069605
 30
0.0
 10
-46.28201168885872
 20
178.6450732977185
 30
0.0
 10
-53.04098939451511
 20
177.5048855478458
 30
0.0
 10
-59.69561949702835
 20
176.2105744119538
 30
0.0
 10
-66.23281938609401
 20
174.7646246036153
 30
0.0
 10
-72.63973766188509
 20
173.1698078729743
 30
0.0
 10
-78.90377856820808
 20
171.4291764332509
 30
0.0
 10
-85.01262551737133
 20
169.5460557811274
 30
0.0
 10
-90.95426367752464
 20
167.5240370194493
 30
0.0
 10
-96.7170010678788
 20
165.3669686804411
 30
0.0
 10
-102.2894895186387
 20
163.0789486352288
 30
0.0
 10
-107.6607396883865
 20
160.6643147226037
 30
0.0
 10
-112.8201510888449
 20
158.1276403402106
 30
0.0
 10
-117.7574782889
 20
155.4737132487649
 30
0.0
 10
-122.4630271603162
 20
152.7075808417053
 30
0.0
 10
-126.9269843649467
 20
149.8343537854367
 30
0.0
 10
-131.1419696415238
 20
146.8599250206033
 30
0.0
 10
-135.0935203821554
 20
143.7883132200041
 30
0.0
 10
-138.4856966806106
 20
140.8958952550249
 30
0.0
 10
-140.4709784968055
 20
139.003509596256
 30
0.0
 10
-141.3209931812927
 20
138.1932691631122
 30
0.0
  0
SPLINE
  5
381
330
37A
100
AcDbEntity
  8
0
  6
CONTINUOUS
 62
     7
100
AcDbSpline
210
0.0
220
0.0
230
1.0
 70
     8
 71
     3
 72
    14
 73
    10
 74
     0
 42
0.00000001
 43
0.00000001
 40
0.0
 40
0.0
 40
0.0
 40
0.0
 40
0.0920022423001832
 40
0.2666375102546231
 40
0.4412236536007303
 40
0.6157038418768901
 40
0.7900452466192386
 40
0.9642152502778438
 40
1.0
 40
1.0
 40
1.0
 40
1.0
 10
-141.3209931812927
 20
138.1932691631121
 30
0.0
 10
-141.9000819976742
 20
137.6182268527501
 30
0.0
 10
-143.5783758778657
 20
135.9516604072745
 30
0.0
 10
-146.1408005896703
 20
133.1347681204565
 30
0.0
 10
-148.9057287456
 20
129.7248679342844
 30
0.0
 10
-151.3784668109723
 20
126.2527700714817
 30
0.0
 10
-153.5243812366307
 20
122.7228635083703
 30
0.0
 10
-154.9513606778971
 20
120.1015302061927
 30
0.0
 10
-155.566128881725
 20
118.6470112483915
 30
0.0
 10
-155.6709101546274
 20
118.3991026107783
 30
0.0
  0
SPLINE
  5
382
330
37A
100
AcDbEntity
  8
0
  6
CONTINUOUS
 62
     7
100
AcDbSpline
210
0.0
220
0.0
230
1.0
 70
     8
 71
     3
 72
    56
 73
    52
 74
     0
 42
0.00000001
 43
0.00000001
 40
0.0
 40
0.0
 40
0.0
 40
0.0
 40
0.0169472645286518
 40
0.0376333900471423
 40
0.0583154400893007
 40
0.0789955086601807
 40
0.0996750957368349
 40
0.1203550616098917
 40
0.1410362903038986
 40
0.1617193672373966
 40
0.1824046495688338
 40
0.2030923238935844
 40
0.223782451982951
 40
0.2444750061559906
 40
0.2651698960899158
 40
0.2858669887878208
 40
0.3065661232033171
 40
0.3272671207646178
 40
0.3479697927933975
 40
0.3686739455973577
 40
0.3893793838356651
 40
0.410085912612522
 40
0.4307933386415743
 40
0.4515014707374504
 40
0.4722101198256602
 40
0.4929190986136761
 40
0.5136282210310971
 40
0.5343372804759545
 40
0.5550460503115076
 40
0.5757543432711227
 40
0.5964619700108654
 40
0.6171687384807809
 40
0.6378744535041444
 40
0.6585789166589491
 40
0.679281926595195
 40
0.6999832799665643
 40
0.7206827732160723
 40
0.7413802055366785
 40
0.7620753834343263
 40
0.7827681274581626
 40
0.8034582818352192
 40
0.8241457279577674
 40
0.8448304029168078
 40
0.8655123245398667
 40
0.8861916246364082
 40
0.9068685923011813
 40
0.9275437290293305
 40
0.9482178168090184
 40
0.9688917610326583
 40
0.9895668126260587
 40
1.0
 40
1.0
 40
1.0
 40
1.0
 10
136.6505237194182
 20
62.20427958167478
 30
0.0
 10
135.748183250275
 20
61.34589630371577
 30
0.0
 10
133.7444303276026
 20
59.43975548348125
 30
0.0
 10
130.3092313498964
 20
56.57841375247155
 30
0.0
 10
126.4180187632715
 20
53.61098794509166
 30
0.0
 10
122.2608440071401
 20
50.73743121128467
 30
0.0
 10
117.8562212880253
 20
47.96102038202983
 30
0.0
 10
113.2102222922398
 20
45.28828732553447
 30
0.0
 10
108.3329302491198
 20
42.72465205546575
 30
0.0
 10
103.2339823639322
 20
40.27555612116983
 30
0.0
 10
97.92375656224773
 20
37.94614796274776
 30
0.0
 10
92.41302758251464
 20
35.74134833413742
 30
0.0
 10
86.71302408269044
 20
33.66581270888616
 30
0.0
 10
80.83537756838565
 20
31.72392441149256
 30
0.0
 10
74.79210001734609
 20
29.91978208707588
 30
0.0
 10
68.59555372630892
 20
28.25719078650638
 30
0.0
 10
62.2584232350666
 20
26.73965379682784
 30
0.0
 10
55.7936866965068
 20
25.370365689766
 30
0.0
 10
49.21458737438601
 20
24.1522062410453
 30
0.0
 10
42.53460505212342
 20
23.08773515447174
 30
0.0
 10
35.76742737897221
 20
22.17918749694026
 30
0.0
 10
28.92692112367828
 20
21.42846979349471
 30
0.0
 10
22.02710333240916
 20
20.83715674573477
 30
0.0
 10
15.08211239261039
 20
20.40648855103778
 30
0.0
 10
8.10617901423117
 20
20.13736880835976
 30
0.0
 10
1.113597146976161
 20
20.03036300186799
 30
0.0
 10
-5.881302773082172
 20
20.0856975379789
 30
0.0
 10
-12.86418075652558
 20
20.30325899752007
 30
0.0
 10
-19.82072106168502
 20
20.68259398768237
 30
0.0
 10
-26.73666373533771
 20
21.2229101594327
 30
0.0
 10
-33.59783574299684
 20
21.9230781126839
 30
0.0
 10
-40.39017526993913
 20
22.78163310842649
 30
0.0
 10
-47.09976045916179
 20
23.79677747054173
 30
0.0
 10
-53.71283799260179
 20
24.96638353158133
 30
0.0
 10
-60.21585149867605
 20
26.28799712183168
 30
0.0
 10
-66.59546978183901
 20
27.75884160534199
 30
0.0
 10
-72.83861487190175
 20
29.37582247689907
 30
0.0
 10
-78.9324899343773
 20
31.13553253906162
 30
0.0
 10
-84.86460698000421
 20
33.03425772684532
 30
0.0
 10
-90.62281475941171
 20
35.06798356739255
 30
0.0
 10
-96.19532561846549
 20
37.23240270641524
 30
0.0
 10
-101.5707461450688
 20
39.52292247790523
 30
0.0
 10
-106.7380938553664
 20
41.93467720040658
 30
0.0
 10
-111.686866374503
 20
44.46252895419009
 30
0.0
 10
-116.4069151874038
 20
47.10111914879886
 30
0.0
 10
-120.8890487259626
 20
49.84474062789317
 30
0.0
 10
-125.1229130867181
 20
52.68789233996849
 30
0.0
 10
-129.1050133052595
 20
55.62329201096953
 30
0.0
 10
-132.808842837024
 20
58.64935735550761
 30
0.0
 10
-135.7204384832715
 20
61.23152860717955
 30
0.0
 10
-137.2875932284044
 20
62.82980301091967
 30
0.0
 10
-137.8131909363652
 20
63.36583773621226
 30
0.0
  0
SPLINE
  5
383
330
37A
100
AcDbEntity
  8
0
  6
CONTINUOUS
 62
     7
100
AcDbSpline
210
0.0
220
0.0
230
1.0
 70
     8
 71
     3
 72
    10
 73
     6
 74
     0
 42
0.00000001
 43
0.00000001
 40
0.0
 40
0.0
 40
0.0
 40
0.0
 40
0.2942552431872501
 40
0.6558615780786581
 40
0.9999999999999999
 40
0.9999999999999999
 40
0.9999999999999999
 40
0.9999999999999999
 10
45.2003507738232
 20
28.22050568040001
 30
0.0
 10
45.17477809537514
 20
27.74649776590022
 30
0.0
 10
45.11777949422541
 20
26.68998786157959
 30
0.0
 10
44.68142566084487
 20
25.06196342859124
 30
0.0
 10
44.11815467412089
 20
23.89409173975831
 30
0.0
 10
43.8434899506298
 20
23.32460891169356
 30
0.0
  0
SPLINE
  5
384
330
37A
100
AcDbEntity
  8
0
  6
CONTINUOUS
 62
     7
100
AcDbSpline
210
0.0
220
0.0
230
1.0
 70
     8
 71
     3
 72
    11
 73
     7
 74
     0
 42
0.00000001
 43
0.00000001
 40
0.0
 40
0.0
 40
0.0
 40
0.0
 40
0.0111275102251598
 40
0.348793625440718
 40
0.6948743566430905
 40
1.0
 40
1.0
 40
1.0
 40
1.0
 10
-43.84635825990048
 20
23.33272673684023
 30
0.0
 10
-43.8575688245126
 20
23.35083631433697
 30
0.0
 10
-44.20896580327753
 20
23.91848397877214
 30
0.0
 10
-44.63115431660657
 20
25.03999103432722
 30
0.0
 10
-45.10693280755689
 20
26.61860601009573
 30
0.0
 10
-45.17188894154587
 20
27.64583037645431
 30
0.0
 10
-45.20232442705041
 20
28.12714092239171
 30
0.0
  0
SPLINE
  5
385
330
37A
100
AcDbEntity
  8
0
  6
CONTINUOUS
 62
     7
100
AcDbSpline
210
0.0
220
0.0
230
1.0
 70
     8
 71
     3
 72
    11
 73
     7
 74
     0
 42
0.00000001
 43
0.00000001
 40
0.0
 40
0.0
 40
0.0
 40
0.0
 40
0.2094129583989566
 40
0.6177883832686111
 40
0.9925694717004612
 40
1.0
 40
1.0
 40
1.0
 40
1.0
 10
156.8593518175558
 20
0.7098624837368617
 30
0.0
 10
156.9307212273298
 20
0.8757212033868798
 30
0.0
 10
157.1412678554671
 20
1.365020390251777
 30
0.0
 10
157.8019872048403
 20
2.057619233792031
 30
0.0
 10
158.3885625055311
 20
2.475905880906098
 30
0.0
 10
158.6506980964913
 20
2.5678407246401
 30
0.0
 10
158.6557942417723
 20
2.569628018453736
 30
0.0
  0
LWPOLYLINE
  5
38A
330
37A
100
AcDbEntity
  8
0
  6
CONTINUOUS
 62
     7
100
AcDbPolyline
 90
        3
 70
   128
 43
0.0
 10
156.8185543635
 20
0.765579701
 10
156.6956990436
 20
18.0348105927
 10
156.285353803
 20
75.4437127537
  0
LWPOLYLINE
  5
38B
330
37A
100
AcDbEntity
  8
0
  6
CONTINUOUS
 62
     7
100
AcDbPolyline
 90
       64
 70
   128
 43
0.0
 10
-160.8137893292
 20
19.5523597185
 10
-160.8156703272
 20
18.9502833388
 10
-160.6225067508
 20
15.0562216654
 10
-160.0740734133
 20
11.1711440652
 10
-159.1715833564
 20
7.3036436713
 10
-157.9170327351
 20
3.4622747393
 10
-156.3131964027
 20
-0.344466274
 10
-154.3636217733
 20
-4.1081595026
 10
-152.0726209757
 20
-7.820480295
 10
-149.4452613153
 20
-11.4732176268
 10
-146.4873540663
 20
-15.0582922621
 10
-143.2054416182
 20
-18.5677746235
 10
-139.6067830051
 20
-21.9939023309
 10
-135.6993378499
 20
-25.3290973703
 10
-131.4917487591
 20
-28.5659828558
 10
-126.9933222066
 20
-31.6973993451
 10
-122.2140079494
 20
-34.7164206758
 10
-117.1643770207
 20
-37.6163692843
 10
-111.8555983482
 20
-40.390830976
 10
-106.2994140505
 20
-43.0336691117
 10
-100.5081134656
 20
-45.5390381814
 10
-94.4945059689
 20
-47.9013967334
 10
-88.2718926408
 20
-50.1155196309
 10
-81.8540368474
 20
-52.1765096095
 10
-75.2551337979
 20
-54.0798081085
 10
-68.4897791474
 20
-55.8212053542
 10
-61.5729367138
 20
-57.3968496712
 10
-54.5199053802
 20
-58.8032560012
 10
-47.3462852564
 20
-60.0373136119
 10
-40.0679431743
 20
-61.0962929769
 10
-32.7009775931
 20
-61.9778518133
 10
-25.2616829919
 20
-62.6800402625
 10
-17.7665138296
 20
-63.2013052026
 10
-10.2320481498
 20
-63.5404936839
 10
-2.6749509139
 20
-63.696855479
 10
4.8880628602
 20
-63.6700447421
 10
12.4402650676
 20
-63.4601207739
 10
19.9649515173
 20
-63.0675478908
 10
27.445478878
 20
-62.4931943974
 10
34.8653014912
 20
-61.7383306662
 10
42.2080079668
 20
-60.804626328
 10
49.4573574826
 20
-59.6941465785
 10
56.5973157062
 20
-58.4093476106
 10
63.6120902601
 20
-56.9530711819
 10
70.486165652
 20
-55.328538329
 10
77.2043375921
 20
-53.5393422434
 10
83.7517466228
 20
-51.5894403234
 10
90.1139109851
 20
-49.4831454216
 10
96.2767586497
 20
-47.2251163054
 10
102.226658442
 20
-44.8203473524
 10
107.9504501923
 20
-42.274157504
 10
113.4354738433
 20
-39.5921785006
 10
118.6695974523
 20
-36.7803424251
 10
123.641244025
 20
-33.8448685824
 10
128.3394171219
 20
-30.7922497431
 10
132.7537251804
 20
-27.6292377827
 10
136.8744044991
 20
-24.3628287475
 10
140.6923408339
 20
-21.0002473807
 10
144.1990895568
 20
-17.5489311424
 10
147.3868943338
 20
-14.0165137591
 10
150.2487042812
 20
-10.4108083393
 10
152.7781895603
 20
-6.7397900923
 10
154.9697553784
 20
-3.0115786883
 10
156.8185543635
 20
0.765579701
  0
LWPOLYLINE
  5
38C
330
37A
100
AcDbEntity
  8
0
  6
CONTINUOUS
 62
     7
100
AcDbPolyline
 90
      134
 70
   128
 43
0.0
 10
-140.6225150226
 20
138.3348050909
 10
-143.9698918992
 20
134.871891469
 10
-146.9960156515
 20
131.3314252434
 10
-149.694133814
 20
127.7213065786
 10
-152.0582258302
 20
124.0495910612
 10
-154.0830164863
 20
120.3244717239
 10
-155.7639876827
 20
116.5542607649
 10
-157.0973885152
 20
112.7473709988
 10
-158.0802436453
 20
108.9122970854
 10
-158.7103599389
 20
105.0575965742
 10
-158.98633136
 20
101.1918708093
 10
-158.9075421086
 20
97.3237457365
 10
-158.4741679943
 20
93.4618526552
 10
-157.6871760442
 20
89.6148089592
 10
-156.548322345
 20
85.7911989071
 10
-155.0601481247
 20
81.999554468
 10
-153.2259740819
 20
78.2483362835
 10
-151.0498929761
 20
74.5459147879
 10
-148.536760495
 20
70.9005515315
 10
-145.6921844201
 20
67.3203807451
 10
-142.5225121127
 20
63.8133911895
 10
-139.0348163512
 20
60.3874083299
 10
-135.2368795487
 20
57.0500768736
 10
-131.1371763872
 20
53.8088437122
 10
-126.7448549076
 20
50.670941304
 10
-122.0697160965
 20
47.6433715365
 10
-117.1221920167
 20
44.7328901016
 10
-111.9133225292
 20
41.9459914215
 10
-106.4547306584
 20
39.2888941568
 10
-100.7585966572
 20
36.7675273306
 10
-94.837630828
 20
34.3875170982
 10
-88.7050451608
 20
32.1541741929
 10
-82.3745238521
 20
30.0724820762
 10
-75.8601927703
 20
28.1470858171
 10
-69.1765879355
 20
26.3822817276
 10
-62.3386230833
 20
24.7820077756
 10
-55.3615563872
 20
23.3498347981
 10
-48.2609564112
 20
22.0889585331
 10
-41.0526673702
 20
21.0021924884
 10
-33.7527737759
 20
20.0919616641
 10
-26.3775645451
 20
19.3602971411
 10
-18.9434966536
 20
18.808831549
 10
-11.4671584138
 20
18.4387954232
 10
-3.9652324596
 20
18.251014459
 10
3.5455414788
 20
18.2459076692
 10
11.0484039277
 20
18.4234864489
 10
18.5266130672
 20
18.7833545506
 10
25.9634820887
 20
19.3247089677
 10
33.3424164293
 20
20.0463417268
 10
40.6469508012
 20
20.9466425831
 10
47.860785932
 20
22.0236026134
 10
54.9678249347
 20
23.2748186987
 10
61.9522092263
 20
24.6974988867
 10
68.7983539144
 20
26.2884686215
 10
75.4909825732
 20
28.0441778276
 10
82.0151613312
 20
29.9607088312
 10
88.3563321944
 20
32.0337851023
 10
94.5003455312
 20
34.258780797
 10
100.4334916453
 20
36.63073108
 10
106.1425313677
 20
39.1443432027
 10
111.6147255986
 20
41.7940083135
 10
116.8378637327
 20
44.5738139735
 10
121.8002909065
 20
47.4775573493
 10
126.4909340046
 20
50.498759054
 10
130.8993263682
 20
53.6306776053
 10
135.0156311499
 20
56.8663244682
 10
138.8306632644
 20
60.1984796493
 10
142.3359098832
 20
63.6197078076
 10
145.5235494304
 20
67.1223748451
 10
148.3864690359
 20
70.6986649421
 10
150.9182804064
 20
74.340597997
 10
153.1133340808
 20
78.0400474331
 10
154.9667320361
 20
81.7887583321
 10
156.4743386167
 20
85.5783658542
 10
157.6327897628
 20
89.400413903
 10
158.4395005169
 20
93.2463739951
 10
158.8926707919
 20
97.1076642895
 10
158.9912893877
 20
100.9756687376
 10
158.7351362476
 20
104.8417563092
 10
158.1247829496
 20
108.6973002512
 10
157.1615914303
 20
112.5336973373
 10
155.8477109468
 20
116.3423870656
 10
154.1860732802
 20
120.1148707599
 10
152.1803861938
 20
123.8427305341
 10
149.8351251598
 20
127.5176480754
 10
147.1555233726
 20
131.1314232056
 10
144.1475600716
 20
134.6759921794
 10
140.8179471991
 20
138.1434456775
 10
137.1741144234
 20
141.5260464552
 10
133.2241925601
 20
144.8162466075
 10
128.9769954296
 20
148.0067044113
 10
124.4420001893
 20
151.0903007077
 10
119.629326187
 20
154.0601547877
 10
114.5497123801
 20
156.9096397455
 10
109.2144933733
 20
159.6323972659
 10
103.6355741265
 20
162.2223518123
 10
97.8254033899
 20
164.6737241833
 10
91.7969459264
 20
166.9810444086
 10
85.5636535818
 20
169.1391639546
 10
79.1394352687
 20
171.1432672128
 10
72.5386259302
 20
172.988882245
 10
65.775954553
 20
174.6718907625
 10
58.8665113014
 20
176.1885373152
 10
51.8257138448
 20
177.5354376715
 10
44.6692729556
 20
178.7095863702
 10
37.4131574518
 20
179.7083634263
 10
30.0735585642
 20
180.5295401777
 10
22.6668538081
 20
181.171284258
 10
15.2095704379
 20
181.6321636851
 10
7.7183485687
 20
181.9111500569
 10
0.2099040458
 20
182.0076208457
 10
-7.2990088551
 20
181.9213607874
 10
-14.7916348131
 20
181.6525623619
 10
-22.25125485
 20
181.2018253637
 10
-29.6612236366
 20
180.5701555632
 10
-37.0050066351
 20
179.7589624628
 10
-44.2662169939
 20
178.7700561514
 10
-51.4286521135
 20
177.6056432658
 10
-58.4763298005
 20
176.2683220663
 10
-65.3935239301
 20
174.7610766395
 10
-72.1647995375
 20
173.0872702394
 10
-78.775047259
 20
171.2506377824
 10
-85.2095170472
 20
169.2552775138
 10
-91.4538510841
 20
167.1056418625
 10
-97.4941158186
 20
164.8065275063
 10
-103.3168330583
 20
162.3630646683
 10
-108.9090100442
 20
159.7807056695
 10
-114.2581684428
 20
157.0652127626
 10
-119.3523721901
 20
154.2226452742
 10
-124.1802541255
 20
151.2593460837
 10
-128.7310413566
 20
148.1819274704
 10
-132.9945792977
 20
144.9972563586
 10
-136.9613543284
 20
141.7124389948
 10
-140.6225150226
 20
138.3348050909
  0
LWPOLYLINE
  5
38D
330
37A
100
AcDbEntity
  8
0
  6
CONTINUOUS
 62
     7
100
AcDbPolyline
 90
      133
 70
   128
 43
0.0
 10
-137.7256402099
 20
137.5474965893
 10
-141.027704388
 20
134.1299269293
 10
-144.0102954564
 20
130.6353061862
 10
-146.666656887
 20
127.0715508001
 10
-148.9907711668
 20
123.4467338231
 10
-150.9773734293
 20
119.7690666316
 10
-152.6219633816
 20
116.0468803246
 10
-153.9208154984
 20
112.2886068512
 10
-154.870987462
 20
108.5027599098
 10
-155.4703268272
 20
104.6979156612
 10
-155.7174758975
 20
100.8826933014
 10
-155.611874801
 20
97.0657355362
 10
-155.1537627579
 20
93.2556890026
 10
-154.3441775395
 20
89.4611846815
 10
-153.1849531166
 20
85.6908183455
 10
-151.6787155054
 20
81.9531310871
 10
-149.8288768186
 20
78.2565899701
 10
-147.6396275357
 20
74.6095688491
 10
-145.1159270106
 20
71.0203293999
 10
-142.2634922365
 20
67.4970024043
 10
-139.0887848957
 20
64.0475693311
 10
-135.5989967215
 20
60.6798442558
 10
-131.8020332065
 20
57.4014561587
 10
-127.7064956942
 20
54.2198316434
 10
-123.3216618944
 20
51.1421781127
 10
-118.657464866
 20
48.1754674417
 10
-113.7244705154
 20
45.3264201844
 10
-108.5338536615
 20
42.601490349
 10
-103.0973727208
 20
40.0068507782
 10
-97.4273430713
 20
37.5483791649
 10
-91.5366091538
 20
35.2316447383
 10
-85.4385153753
 20
33.0618956469
 10
-79.1468758795
 20
31.0440470702
 10
-72.6759432535
 20
29.1826700843
 10
-66.040376241
 20
27.4819813068
 10
-59.2552065355
 20
25.9458333447
 10
-52.3358047287
 20
24.5777060672
 10
-45.2978454912
 20
23.3806987227
 10
-38.1572720643
 20
22.3575229178
 10
-30.9302601436
 20
21.5104964747
 10
-23.6331812354
 20
20.8415381809
 10
-16.2825655704
 20
20.3521634419
 10
-8.8950646575
 20
20.0434808491
 10
-1.4874135621
 20
19.9161896676
 10
5.9236070034
 20
19.9705782531
 10
13.3212086938
 20
20.2065233979
 10
20.688633562
 20
20.6234906103
 10
28.009192021
 20
21.2205353254
 10
35.2663006513
 20
21.996305045
 10
42.4435197678
 20
22.9490424012
 10
49.5245906608
 20
24.0765891373
 10
56.4934724271
 20
25.3763909975
 10
63.3343783082
 20
26.8455035123
 10
70.0318114519
 20
28.4805986695
 10
76.5706000181
 20
30.2779724526
 10
82.9359315475
 20
32.2335532319
 10
89.1133865169
 20
34.3429109879
 10
95.088971004
 20
36.601267347
 10
100.8491483879
 20
39.0035064055
 10
106.3808700142
 20
41.5441863193
 10
111.6716047543
 20
44.2175516314
 10
116.7093673921
 20
47.0175463094
 10
121.4827457752
 20
49.9378274647
 10
125.980926666
 20
52.9717797214
 10
130.1937202383
 20
56.1125302017
 10
134.1115831594
 20
59.3529640957
 10
137.7256402099
 20
62.6857407782
 10
141.027704388
 20
66.1033104383
 10
144.0102954564
 20
69.5979311813
 10
146.666656887
 20
73.1616865674
 10
148.9907711668
 20
76.7865035444
 10
150.9773734293
 20
80.4641707359
 10
152.6219633816
 20
84.186357043
 10
153.9208154984
 20
87.9446305163
 10
154.870987462
 20
91.7304774578
 10
155.4703268272
 20
95.5353217064
 10
155.7174758975
 20
99.3505440662
 10
155.611874801
 20
103.1675018313
 10
155.1537627579
 20
106.9775483649
 10
154.3441775395
 20
110.7720526861
 10
153.1849531166
 20
114.542419022
 10
151.6787155054
 20
118.2801062804
 10
149.8288768186
 20
121.9766473974
 10
147.6396275357
 20
125.6236685184
 10
145.1159270106
 20
129.2129079676
 10
142.2634922365
 20
132.7362349632
 10
139.0887848957
 20
136.1856680364
 10
135.5989967215
 20
139.5533931118
 10
131.8020332065
 20
142.8317812089
 10
127.7064956942
 20
146.0134057242
 10
123.3216618944
 20
149.0910592549
 10
118.657464866
 20
152.0577699258
 10
113.7244705154
 20
154.9068171832
 10
108.5338536615
 20
157.6317470185
 10
103.0973727208
 20
160.2263865894
 10
97.4273430713
 20
162.6848582026
 10
91.5366091538
 20
165.0015926292
 10
85.4385153753
 20
167.1713417207
 10
79.1468758795
 20
169.1891902973
 10
72.6759432535
 20
171.0505672832
 10
66.040376241
 20
172.7512560608
 10
59.2552065355
 20
174.2874040229
 10
52.3358047287
 20
175.6555313003
 10
45.2978454912
 20
176.8525386449
 10
38.1572720643
 20
177.8757144498
 10
30.9302601436
 20
178.7227408928
 10
23.6331812354
 20
179.3916991867
 10
16.2825655704
 20
179.8810739256
 10
8.8950646575
 20
180.1897565185
 10
1.4874135621
 20
180.3170476999
 10
-5.9236070034
 20
180.2626591144
 10
-13.3212086938
 20
180.0267139697
 10
-20.688633562
 20
179.6097467573
 10
-28.009192021
 20
179.0127020421
 10
-35.2663006513
 20
178.2369323225
 10
-42.4435197678
 20
177.2841949664
 10
-49.5245906608
 20
176.1566482302
 10
-56.4934724271
 20
174.8568463701
 10
-63.3343783082
 20
173.3877338552
 10
-70.0318114519
 20
171.752638698
 10
-76.5706000181
 20
169.9552649149
 10
-82.9359315475
 20
167.9996841357
 10
-89.1133865169
 20
165.8903263796
 10
-95.088971004
 20
163.6319700206
 10
-100.8491483879
 20
161.2297309621
 10
-106.3808700142
 20
158.6890510482
 10
-111.6716047543
 20
156.0156857361
 10
-116.7093673921
 20
153.2156910582
 10
-121.4827457752
 20
150.2954099028
 10
-125.980926666
 20
147.2614576461
 10
-130.1937202383
 20
144.1207071658
 10
-134.1115831594
 20
140.8802732719
 10
-137.7256402099
 20
137.5474965893
  0
LWPOLYLINE
  5
38E
330
37A
100
AcDbEntity
  8
0
  6
CONTINUOUS
 62
     7
100
AcDbPolyline
 90
       13
 70
   128
 43
0.0
 10
-154.7057901235
 20
101.8284846008
 10
-154.7638024527
 20
100.2785894449
 10
-154.6588480977
 20
96.4850081905
 10
-154.2035417082
 20
92.6982958407
 10
-153.3989146997
 20
88.9270305169
 10
-152.246789811
 20
85.179755348
 10
-150.7497769757
 20
81.4649591175
 10
-148.9112674092
 20
77.7910570337
 10
-146.7354259272
 20
74.1663716664
 10
-144.2271815103
 20
70.5991140939
 10
-141.392216139
 20
67.0973653018
 10
-138.2369519215
 20
63.6690578775
 10
-137.7106700478
 20
63.1357128195
  0
LWPOLYLINE
  5
38F
330
37A
100
AcDbEntity
  8
0
  6
CONTINUOUS
 62
     7
100
AcDbPolyline
 90
       13
 70
   128
 43
0.0
 10
136.6191328179
 20
62.0599760044
 10
136.8821556557
 20
62.3155696841
 10
140.1639967285
 20
65.712208839
 10
143.1283212672
 20
69.1854271866
 10
145.7684141233
 20
72.7273567702
 10
148.0782946373
 20
76.3299739801
 10
150.052730187
 20
79.9851177296
 10
151.6872480407
 20
83.6845079425
 10
152.9781454898
 20
87.4197643101
 10
153.9224982365
 20
91.1824252754
 10
154.5181670179
 20
94.963967201
 10
154.7638024527
 20
98.7558236782
 10
154.7382528649
 20
101.1534585219
  0
LWPOLYLINE
  5
390
330
37A
100
AcDbEntity
  8
0
  6
CONTINUOUS
 62
     7
100
AcDbPolyline
 90
        3
 70
   128
 43
0.0
 10
-126.375609891
 20
-32.1191490918
 10
-124.8182170128
 20
-33.1303784522
 10
-121.8028847763
 20
-35.00012853
  0
SPLINE
  5
394
330
37A
100
AcDbEntity
  8
0
  6
CONTINUOUS
 62
     7
100
AcDbSpline
210
0.0
220
0.0
230
1.0
 70
     8
 71
     3
 72
    20
 73
    16
 74
     0
 42
0.00000001
 43
0.00000001
 40
0.0
 40
0.0
 40
0.0
 40
0.0
 40
0.250000000000001
 40
0.250000000000001
 40
0.3750000000000009
 40
0.3750000000000009
 40
0.5000000000000008
 40
0.5000000000000008
 40
0.6250000000000006
 40
0.6250000000000006
 40
0.7500000000000004
 40
0.7500000000000004
 40
0.8750000000000002
 40
0.8750000000000002
 40
1.0
 40
1.0
 40
1.0
 40
1.0
 10
159.6551822742223
 20
77.21551262565967
 30
0.0
 10
160.4875959659179
 20
77.52308867530941
 30
0.0
 10
161.3824258382414
 20
77.76472934112013
 30
0.0
 10
162.8159451635074
 20
78.03076950411514
 30
0.0
 10
163.3114949425916
 20
78.10312177091785
 30
0.0
 10
164.3039689688232
 20
78.21039193091265
 30
0.0
 10
164.8042707229084
 20
78.2461026626553
 30
0.0
 10
165.8129309257187
 20
78.28199640085904
 30
0.0
 10
166.3237454214032
 20
78.28208425762786
 30
0.0
 10
167.34287421376
 20
78.2454166399989
 30
0.0
 10
167.8445848393065
 20
78.20908555036388
 30
0.0
 10
168.8328277785933
 20
78.10164156337918
 30
0.0
 10
169.3193592810476
 20
78.0305268069298
 30
0.0
 10
170.2768860261178
 20
77.8526952317458
 30
0.0
 10
170.7474844199837
 20
77.7457997514018
 30
0.0
 10
171.2005159603339
 20
77.62267548602635
 30
0.0
  0
SPLINE
  5
39B
330
37A
100
AcDbEntity
  8
0
  6
CONTINUOUS
 62
     7
100
AcDbSpline
210
0.0
220
0.0
230
1.0
 70
     8
 71
     3
 72
     8
 73
     4
 74
     0
 42
0.00000001
 43
0.00000001
 40
0.0
 40
0.0
 40
0.0
 40
0.0
 40
1.0
 40
1.0
 40
1.0
 40
1.0
 10
171.2363866000507
 20
4.179330627294087
 30
0.0
 10
171.2373938303839
 20
4.034045912549196
 30
0.0
 10
171.234702523938
 20
3.889815046728924
 30
0.0
 10
171.2283120184036
 20
3.746638218549557
 30
0.0
  0
LWPOLYLINE
  5
3A4
330
37A
100
AcDbEntity
  8
0
  6
CONTINUOUS
 62
     7
100
AcDbPolyline
 90
       10
 70
   128
 43
0.0
 10
171.2363866001
 20
4.1793306273
 10
169.351312384
 20
4.553029267
 10
167.3512742099
 20
4.726126367
 10
165.3189309346
 20
4.6914680597
 10
163.3382765407
 20
4.4504867256
 10
161.4911687796
 20
4.0131417956
 10
159.8539461022
 20
3.3975081406
 10
158.4942726944
 20
2.629029062
 10
157.4683420083
 20
1.7394647545
 10
156.8185543635
 20
0.765579701
  0
SPLINE
  5
3A5
330
37A
100
AcDbEntity
  8
0
  6
CONTINUOUS
 62
     7
100
AcDbSpline
210
0.0
220
0.0
230
1.0
 70
     8
 71
     3
 72
    20
 73
    16
 74
     0
 42
0.00000001
 43
0.00000001
 40
0.0
 40
0.0
 40
0.0
 40
0.0
 40
0.1249999999999984
 40
0.1249999999999984
 40
0.2499999999999969
 40
0.2499999999999969
 40
0.499999999999998
 40
0.499999999999998
 40
0.7499999999999991
 40
0.7499999999999991
 40
0.8750000000000009
 40
0.8750000000000009
 40
0.9375000000000004
 40
0.9375000000000004
 40
1.0
 40
1.0
 40
1.0
 40
1.0
 10
160.2380477414499
 20
75.95202030752846
 30
0.0
 10
159.9649782294594
 20
75.85104285979358
 30
0.0
 10
159.7069308573478
 20
75.77337003313073
 30
0.0
 10
159.2165996932798
 20
75.64722649868612
 30
0.0
 10
158.9837978902383
 20
75.59890242308757
 30
0.0
 10
158.3247905121206
 20
75.4849220678746
 30
0.0
 10
157.9513979833868
 20
75.45106210342412
 30
0.0
 10
157.3037222458765
 20
75.41664243105309
 30
0.0
 10
157.0296876954335
 20
75.4173936657856
 30
0.0
 10
156.6961424539934
 20
75.425515650311
 30
0.0
 10
156.5973657653023
 20
75.42946239517038
 30
0.0
 10
156.4670090069462
 20
75.43530966984264
 30
0.0
 10
156.426532965156
 20
75.43724918803673
 30
0.0
 10
156.351492065906
 20
75.44080268036957
 30
0.0
 10
156.3167188948535
 20
75.44242558864376
 30
0.0
 10
156.2853538029526
 20
75.4437127537323
 30
0.0
  0
SPLINE
  5
3A6
330
37A
100
AcDbEntity
  8
0
  6
CONTINUOUS
 62
     7
100
AcDbSpline
210
0.0
220
0.0
230
1.0
 70
     8
 71
     3
 72
    20
 73
    16
 74
     0
 42
0.00000001
 43
0.00000001
 40
0.0
 40
0.0
 40
0.0
 40
0.0
 40
0.1249999999999994
 40
0.1249999999999994
 40
0.2499999999999987
 40
0.2499999999999987
 40
0.3749999999999981
 40
0.3749999999999981
 40
0.4999999999999974
 40
0.4999999999999974
 40
0.6249999999999968
 40
0.6249999999999968
 40
0.7499999999999962
 40
0.7499999999999962
 40
1.0
 40
1.0
 40
1.0
 40
1.0
 10
170.7338383417342
 20
76.31749662378478
 30
0.0
 10
170.3219921270881
 20
76.42988696075194
 30
0.0
 10
169.8941758882357
 20
76.52750033945452
 30
0.0
 10
169.023697150778
 20
76.68997359822005
 30
0.0
 10
168.5813955133295
 20
76.75499604091515
 30
0.0
 10
167.6829915345063
 20
76.85335603855751
 30
0.0
 10
167.226889931778
 20
76.8866952893563
 30
0.0
 10
166.3004062424417
 20
76.92058738128907
 30
0.0
 10
165.836027114546
 20
76.92075042229942
 30
0.0
 10
164.9190589329546
 20
76.88852814501669
 30
0.0
 10
164.4642368417867
 20
76.85623069862282
 30
0.0
 10
163.5619828606308
 20
76.75897057268374
 30
0.0
 10
163.1114802812342
 20
76.69328711614752
 30
0.0
 10
161.8082737218269
 20
76.45158321142723
 30
0.0
 10
160.9947889124539
 20
76.23185305592607
 30
0.0
 10
160.2380477414499
 20
75.95202030752846
 30
0.0
  0
SPLINE
  5
3A8
330
37A
100
AcDbEntity
  8
0
  6
CONTINUOUS
 62
     7
100
AcDbSpline
210
0.0
220
0.0
230
1.0
 70
     8
 71
     3
 72
    18
 73
    14
 74
     0
 42
0.00000001
 43
0.00000001
 40
0.0
 40
0.0
 40
0.0
 40
0.0
 40
0.1249999999999983
 40
0.1249999999999983
 40
0.2499999999999965
 40
0.2499999999999965
 40
0.4999999999999977
 40
0.4999999999999977
 40
0.7499999999999988
 40
0.7499999999999988
 40
0.8749999999999994
 40
0.8749999999999994
 40
1.0
 40
1.0
 40
1.0
 40
1.0
 10
159.6551822742223
 20
77.21551262565968
 30
0.0
 10
159.4283513818148
 20
77.09056902514111
 30
0.0
 10
159.2156686694633
 20
76.98229641299184
 30
0.0
 10
158.8135360904093
 20
76.7844422945779
 30
0.0
 10
158.6237307268213
 20
76.69490088325936
 30
0.0
 10
158.0875393908854
 20
76.4449743339306
 30
0.0
 10
157.7779892420019
 20
76.30446957324237
 30
0.0
 10
157.2311569155527
 20
76.04143105595752
 30
0.0
 10
156.9941172687859
 20
75.91944798117507
 30
0.0
 10
156.6908599372618
 20
75.74063971673729
 30
0.0
 10
156.5983077948329
 20
75.68168716184454
 30
0.0
 10
156.4295781092968
 20
75.56338409233557
 30
0.0
 10
156.3531611800674
 20
75.50382513921923
 30
0.0
 10
156.2853538029526
 20
75.44371275373238
 30
0.0
  0
LWPOLYLINE
  5
3AC
330
37A
100
AcDbEntity
  8
0
  6
CONTINUOUS
 62
     7
100
AcDbPolyline
 90
       25
 70
   128
 43
0.0
 10
33.2019807737
 20
21.9322694198
 10
32.6723980868
 20
22.8167732406
 10
31.3903419553
 20
24.4900775937
 10
29.7861784373
 20
26.0879945391
 10
27.8763684215
 20
27.5941272866
 10
25.680509143
 20
28.993020876
 10
23.2211330893
 20
30.2703207662
 10
20.5234767869
 20
31.4129201318
 10
17.61522184
 20
32.4090943572
 10
14.5262108798
 20
33.2486213467
 10
11.2881413389
 20
33.9228864173
 10
7.9342401926
 20
34.4249706971
 10
4.4989230051
 20
34.7497221218
 10
1.0174407796
 20
34.8938083025
 10
-2.4744817652
 20
34.8557507198
 10
-5.9410127785
 20
34.6359398962
 10
-9.3465809612
 20
34.236631388
 10
-12.6562405753
 20
33.661922641
 10
-15.8360300345
 20
32.9177109447
 10
-18.853320396
 20
32.011632918
 10
-21.6771501776
 20
30.9529861476
 10
-24.2785430645
 20
29.7526337821
 10
-26.6308052454
 20
28.422893061
 10
-28.7097993273
 20
26.9774089235
 10
-30.4941920175
 20
25.4310139929
  0
SPLINE
  5
3AE
330
37A
100
AcDbEntity
  8
0
  6
CONTINUOUS
 62
     7
100
AcDbSpline
210
0.0
220
0.0
230
1.0
 70
     8
 71
     3
 72
    12
 73
     8
 74
     0
 42
0.00000001
 43
0.00000001
 40
0.0
 40
0.0
 40
0.0
 40
0.0
 40
0.2470481848479117
 40
0.4940555490688683
 40
0.7423224641807802
 40
0.9542882360415281
 40
1.0
 40
1.0
 40
1.0
 40
1.0
 10
171.2283120184036
 20
3.746638218549557
 30
0.0
 10
170.1776242607177
 20
3.967282114979577
 30
0.0
 10
168.0764223541219
 20
4.408533450084649
 30
0.0
 10
164.6045655616783
 20
4.342305967026193
 30
0.0
 10
161.5419356662436
 20
3.759394307816695
 30
0.0
 10
159.6819036331784
 20
3.042739983413499
 30
0.0
 10
158.8117169769074
 20
2.638415267302394
 30
0.0
 10
158.6573466438288
 20
2.566688424965567
 30
0.0
  0
LWPOLYLINE
  5
3B0
330
37A
100
AcDbEntity
  8
0
  6
CONTINUOUS
 62
     7
100
AcDbPolyline
 90
       60
 70
   128
 43
0.0
 10
-156.4300775652
 20
81.9565114943
 10
-156.2203405268
 20
81.4611690751
 10
-154.4281817498
 20
77.7094243262
 10
-152.2965563139
 20
74.0050676566
 10
-149.8301499945
 20
70.3562420463
 10
-147.0343844881
 20
66.7709684058
 10
-143.9154054938
 20
63.2571279447
 10
-140.4800692046
 20
59.8224448469
 10
-136.735927235
 20
56.4744692913
 10
-132.6912100218
 20
53.2205608548
 10
-128.3548087311
 20
50.0678723344
 10
-123.7362557142
 20
47.0233340235
 10
-118.845703553
 20
44.0936384782
 10
-113.6939027424
 20
41.2852258052
 10
-108.2921780587
 20
38.6042695049
 10
-102.6524036652
 20
36.0566629011
 10
-96.78697701
 20
33.6480061862
 10
-90.7087915737
 20
31.3835941102
 10
-84.4312085271
 20
29.2684043424
 10
-77.9680273602
 20
27.3070865289
 10
-71.3334555479
 20
25.503952072
 10
-64.5420773189
 20
23.8629646525
 10
-57.6088215965
 20
22.387731517
 10
-50.5489291814
 20
21.0814955479
 10
-43.3779192495
 20
19.9471281355
 10
-36.1115552367
 20
18.9871228655
 10
-28.7658101884
 20
18.2035900379
 10
-21.3568316462
 20
17.5982520278
 10
-13.900906153
 20
17.1724394996
 10
-6.4144234513
 20
16.9270884817
 10
1.0861595454
 20
16.8627383088
 10
8.5843549276
 20
16.9795304365
 10
16.0636800347
 20
17.2772081304
 10
23.5076936867
 20
17.7551170304
 10
30.9000323262
 20
18.412206589
 10
38.2244459885
 20
19.2470323807
 10
45.4648340227
 20
20.2577592772
 10
52.6052804845
 20
21.4421654814
 10
59.630089123
 20
22.7976474115
 10
66.5238178841
 20
24.3212254241
 10
73.271312856
 20
26.0095503639
 10
79.8577415802
 20
27.8589109264
 10
86.268625657
 20
29.8652418156
 10
92.4898725719
 20
32.0241326809
 10
98.5078066739
 20
34.3308378115
 10
104.3091992379
 20
36.780286569
 10
109.8812975438
 20
39.3670945335
 10
115.2118529104
 20
42.0855753395
 10
120.28914762
 20
44.9297531763
 10
125.1020206769
 20
47.8933759238
 10
129.6398923417
 20
50.9699288959
 10
133.8927873876
 20
54.1526491616
 10
137.8513570282
 20
57.4345404108
 10
141.5068994684
 20
60.8083883345
 10
144.8513790325
 20
64.2667764826
 10
147.8774438286
 20
67.8021025675
 10
150.5784419096
 20
71.4065951751
 10
152.9484358954
 20
75.0723308483
 10
154.9822160249
 20
78.7912515047
 10
156.4178367294
 20
81.9271946106
  0
LWPOLYLINE
  5
3B2
330
37A
100
AcDbEntity
  8
0
  6
CONTINUOUS
 62
     7
100
AcDbPolyline
 90
       11
 70
   128
 43
0.0
 10
-136.8821556557
 20
136.7188434389
 10
-140.1639967285
 20
133.322204284
 10
-143.1283212672
 20
129.8489859364
 10
-145.7684141233
 20
126.3070563528
 10
-148.0782946373
 20
122.7044391429
 10
-150.052730187
 20
119.0492953934
 10
-151.6872480407
 20
115.3499051805
 10
-152.9781454898
 20
111.614648813
 10
-153.9224982365
 20
107.8519878477
 10
-154.5181670179
 20
104.0704459221
 10
-154.7057901235
 20
101.8284846008
  0
LWPOLYLINE
  5
3B3
330
37A
100
AcDbEntity
  8
0
  6
CONTINUOUS
 62
     7
100
AcDbPolyline
 90
       57
 70
   128
 43
0.0
 10
154.7382528649
 20
101.1534585219
 10
154.6588480977
 20
102.5494049326
 10
154.2035417082
 20
106.3361172823
 10
153.3989146997
 20
110.1073826061
 10
152.246789811
 20
113.8546577751
 10
150.7497769757
 20
117.5694540055
 10
148.9112674092
 20
121.2433560894
 10
146.7354259272
 20
124.8680414566
 10
144.2271815103
 20
128.4352990292
 10
141.392216139
 20
131.9370478212
 10
138.2369519215
 20
135.3653552455
 10
134.7685365463
 20
138.7124550831
 10
130.9948270896
 20
141.9707650762
 10
126.9243722172
 20
145.1329041047
 10
122.5663928186
 20
148.1917089068
 10
117.9307611186
 20
151.1402503057
 10
113.0279783142
 20
153.9718489068
 10
107.8691507853
 20
156.6800902285
 10
102.4659649355
 20
159.2588392332
 10
96.8306607185
 20
161.7022542249
 10
90.976003911
 20
164.0048000828
 10
84.9152571937
 20
166.1612608001
 10
78.6621501072
 20
168.1667512994
 10
72.2308479502
 20
170.0167285
 10
65.6359196908
 20
171.7070016083
 10
58.8923049625
 20
173.2337416121
 10
52.0152802217
 20
174.5934899543
 10
45.0204241414
 20
175.7831663675
 10
37.9235823202
 20
176.800075852
 10
30.7408313876
 20
177.6419147808
 10
23.4884425846
 20
178.3067761179
 10
16.1828449045
 20
178.7931537386
 10
8.8405878757
 20
179.0999458411
 10
1.4783040719
 20
179.2264574425
 10
-5.887328566
 20
179.1724019536
 10
-13.2396245112
 20
178.9379018272
 10
-20.5619284486
 20
178.5234882817
 10
-27.8376530046
 20
177.930100097
 10
-35.0503163231
 20
177.1590814882
 10
-42.1835794016
 20
176.2121790604
 10
-49.2212831052
 20
175.0915378522
 10
-56.1474847713
 20
173.7996964763
 10
-62.9464943254
 20
172.339581369
 10
-69.6029098242
 20
170.7145001606
 10
-76.1016523456
 20
168.9281341828
 10
-82.4280001475
 20
166.984530129
 10
-88.5676220174
 20
164.8880908875
 10
-94.5066097371
 20
162.6435655675
 10
-100.2315095892
 20
160.2560387407
 10
-105.7293528343
 20
157.7309189235
 10
-110.987685089
 20
155.0739263242
 10
-115.9945945396
 20
152.2910798857
 10
-120.7387389257
 20
149.3886836503
 10
-125.2093712345
 20
146.3733124789
 10
-129.3963640459
 20
143.2517971571
 10
-133.2902324744
 20
140.031208921
 10
-136.8821556557
 20
136.7188434389
  0
LWPOLYLINE
  5
3B5
330
37A
100
AcDbEntity
  8
0
  6
CONTINUOUS
 62
     7
100
AcDbPolyline
 90
       50
 70
   128
 43
0.0
 10
131.8343025342
 20
57.7797502751
 10
131.6444456332
 20
58.2608414288
 10
130.0816509812
 20
61.7045435578
 10
128.1794881542
 20
65.1026549658
 10
125.942919678
 20
68.4463103681
 10
123.3777805044
 20
71.7267865495
 10
120.4907627885
 20
74.9355251224
 10
117.2893984299
 20
78.064154854
 10
113.7820394227
 20
81.1045135067
 10
109.9778360662
 20
84.0486691319
 10
105.8867130924
 20
86.8889407636
 10
101.5193437742
 20
89.6179184576
 10
96.8871220794
 20
92.2284826226
 10
92.0021329455
 20
94.7138225947
 10
86.8771207514
 20
97.0674544058
 10
81.5254560687
 20
99.2832376991
 10
75.9611007797
 20
101.3553917492
 10
70.1985716518
 20
103.2785105426
 10
64.2529024656
 20
105.047576882
 10
58.1396047933
 20
106.6579754753
 10
51.8746275302
 20
108.1055049764
 10
45.474315287
 20
109.3863889462
 10
38.9553657473
 20
110.4972857046
 10
32.3347861063
 20
111.4352970489
 10
25.6298487002
 20
112.1979758145
 10
18.8580459453
 20
112.7833322596
 10
12.0370447017
 20
113.1898392561
 10
5.1846401828
 20
113.4164362736
 10
-1.6812904703
 20
113.4625321464
 10
-8.5428348286
 20
113.3280066157
 10
-15.3820919062
 20
113.0132106431
 10
-22.1812188623
 20
112.5189654954
 10
-28.9224775511
 20
111.8465606019
 10
-35.5882807982
 20
110.99775019
 10
-42.1612382841
 20
109.9747487092
 10
-48.6242019133
 20
108.7802250537
 10
-54.9603105515
 20
107.4172955991
 10
-61.1530340148
 20
105.8895160729
 10
-67.1862161946
 20
104.2008722774
 10
-73.0441172077
 20
102.3557696914
 10
-78.711454459
 20
100.3590219769
 10
-84.1734425128
 20
98.2158384208
 10
-89.4158316658
 20
95.9318103441
 10
-94.4249451234
 20
93.5128965155
 10
-99.1877146805
 20
90.9654076048
 10
-103.6917148151
 20
88.2959897198
 10
-107.9251951051
 20
85.5116070669
 10
-111.8771108838
 20
82.6195237826
 10
-115.5371520541
 20
79.627284982
 10
-118.8957699866
 20
76.5426970743
  0
LWPOLYLINE
  5
3B7
330
37A
100
AcDbEntity
  8
0
  6
CONTINUOUS
 62
     7
100
AcDbPolyline
 90
       46
 70
   128
 43
0.0
 10
112.9919445893
 20
45.2034332197
 10
112.6859073707
 20
45.8920171232
 10
111.0550824874
 20
49.0684513819
 10
109.0869869686
 20
52.1937920342
 10
106.7875978557
 20
55.2585475234
 10
104.1638983178
 20
58.2534102876
 10
101.2238564443
 20
61.1692850272
 10
97.9764010456
 20
63.9973163264
 10
94.4313945371
 20
66.728915547
 10
90.5996029871
 20
69.3557869121
 10
86.4926634205
 20
71.8699526996
 10
82.1230484778
 20
74.2637774707
 10
77.5040285359
 20
76.5299912581
 10
72.6496314068
 20
78.6617116452
 10
67.5745997347
 20
80.6524646672
 10
62.2943462243
 20
82.4962044725
 10
56.8249068317
 20
84.187331684
 10
51.1828920648
 20
85.7207104039
 10
45.3854365368
 20
87.0916838114
 10
39.4501469298
 20
88.2960883054
 10
33.3950485231
 20
89.330266149
 10
27.2385304517
 20
90.1910765781
 10
20.9992898585
 20
90.8759053397
 10
14.6962751121
 20
91.3826726313
 10
8.3486282613
 20
91.7098394174
 10
1.9756269009
 20
91.8564121031
 10
-4.4033743736
 20
91.8219455521
 10
-10.7690027447
 20
91.6065444381
 10
-17.1019260085
 20
91.2108629272
 10
-23.3829112851
 20
90.6361026912
 10
-29.5928834286
 20
89.884009258
 10
-35.7129829578
 20
88.9568667106
 10
-41.7246233314
 20
87.8574907506
 10
-47.6095473954
 20
86.5892201465
 10
-53.3498828287
 20
85.1559065945
 10
-58.9281964213
 20
83.5619030208
 10
-64.3275470181
 20
81.8120503617
 10
-69.5315369689
 20
79.9116628624
 10
-74.5243619271
 20
77.8665119372
 10
-79.2908588476
 20
75.6828086422
 10
-83.8165520357
 20
73.3671848126
 10
-88.0876971101
 20
70.9266729219
 10
-92.0913227435
 20
68.3686847243
 10
-95.8152700565
 20
65.7009887462
 10
-99.2482295434
 20
62.9316866923
 10
-102.3797754192
 20
60.0691888421
  0
LWPOLYLINE
  5
3B8
330
37A
100
AcDbEntity
  8
0
  6
CONTINUOUS
 62
     7
100
AcDbPolyline
 90
       11
 70
   128
 43
0.0
 10
-42.600971674
 20
42.6638530796
 10
-44.3757548903
 20
40.7348290586
 10
-45.8219955432
 20
38.7343671637
 10
-46.9289861727
 20
36.6772781151
 10
-47.6885310076
 20
34.5787918802
 10
-48.0950066437
 20
32.454444917
 10
-48.1454036775
 20
30.3199651471
 10
-47.8393489871
 20
28.191155512
 10
-47.1791084943
 20
26.0837769733
 10
-46.1695703888
 20
24.0134318246
 10
-45.9232384829
 20
23.6000804137
  0
LWPOLYLINE
  5
3B9
330
37A
100
AcDbEntity
  8
0
  6
CONTINUOUS
 62
     7
100
AcDbPolyline
 90
       36
 70
   128
 43
0.0
 10
45.9249899693
 20
23.6029312621
 10
46.4184690174
 20
24.4596859354
 10
47.3526016489
 20
26.5393991523
 10
47.936152185
 20
28.6527724918
 10
48.1648002217
 20
30.7841592772
 10
48.036852929
 20
32.9177794664
 10
47.5532575838
 20
35.037836482
 10
46.7175945568
 20
37.1286341637
 10
45.5360508048
 20
39.1746929769
 10
44.0173740644
 20
41.160864618
 10
42.1728080866
 20
43.0724441671
 10
40.0160093928
 20
44.895278958
 10
37.5629461658
 20
46.6158733596
 10
34.8317800275
 20
48.221488693
 10
31.8427315764
 20
49.7002375441
 10
28.6179306815
 20
51.0411717736
 10
25.1812526405
 20
52.2343635737
 10
21.558141415
 20
53.2709789699
 10
17.7754212529
 20
54.1433432242
 10
13.8610980911
 20
54.8449976572
 10
9.8441522085
 20
55.3707474647
 10
5.7543236671
 20
55.7167001793
 10
1.6218921266
 20
55.8802944879
 10
-2.5225473358
 20
55.8603191956
 10
-6.6483107403
 20
55.6569221925
 10
-10.7248523781
 20
55.2716093589
 10
-14.7219909612
 20
54.707233416
 10
-18.610133074
 20
53.967972806
 10
-22.3604922726
 20
53.0593007558
 10
-25.9453022097
 20
51.9879447552
 10
-29.3380222067
 20
50.7618367494
 10
-32.5135337517
 20
49.390054413
 10
-35.4483264683
 20
47.8827539424
 10
-38.120672178
 20
46.2510948631
 10
-40.5107857682
 20
44.5071574079
 10
-42.600971674
 20
42.6638530796
  0
LWPOLYLINE
  5
3BD
330
37A
100
AcDbEntity
  8
0
  6
CONTINUOUS
 62
     7
100
AcDbPolyline
 90
       32
 70
   128
 43
0.0
 10
45.2263186335
 20
28.3153982066
 10
45.22877505
 20
28.5870846162
 10
45.0470898503
 20
30.6457514967
 10
44.5128500955
 20
32.6880922971
 10
43.6302369359
 20
34.6981229317
 10
42.4061580162
 20
36.6601121854
 10
40.8501934136
 20
38.5587048321
 10
38.9745206609
 20
40.3790418102
 10
36.7938194403
 20
42.1068765146
 10
34.3251566957
 20
43.7286862963
 10
31.5878530603
 20
45.2317782946
 10
28.6033316462
 20
46.6043887768
 10
25.3949503802
 20
47.8357752048
 10
21.9878191957
 20
48.9163003101
 10
18.4086035138
 20
49.8375075188
 10
14.6853155501
 20
50.5921871355
 10
10.8470950811
 20
51.174432769
 10
6.9239813861
 20
51.5796875576
 10
2.9466781489
 20
51.8047798334
 10
-1.0536868401
 20
51.8479479439
 10
-5.045805301
 20
51.7088540402
 10
-8.998433494
 20
51.3885867207
 10
-12.8806367444
 20
50.8896525114
 10
-16.662031548
 20
50.2159562489
 10
-20.3130233636
 20
49.37277052
 10
-23.8050382299
 20
48.3666943962
 10
-27.110746396
 20
47.2056017872
 10
-30.2042762135
 20
45.8985798171
 10
-33.0614166171
 20
44.4558577048
 10
-35.6598066094
 20
42.888726707
 10
-37.9791102656
 20
41.2094517485
 10
-40.00117589
 20
39.4311754327
  0
LWPOLYLINE
  5
3BF
330
37A
100
AcDbEntity
  8
0
  6
CONTINUOUS
 62
     7
100
AcDbPolyline
 90
       29
 70
   128
 43
0.0
 10
44.3056737963
 20
24.0018306427
 10
43.4581673539
 20
25.9144854327
 10
42.238915975
 20
27.8687369638
 10
40.689087809
 20
29.7598419123
 10
38.8208123625
 20
31.5729998182
 10
36.6487114241
 20
33.2940202623
 10
34.1897846286
 20
34.9094339262
 10
31.4632764122
 20
36.4065980078
 10
28.4905253984
 20
37.7737951682
 10
25.2947973945
 20
39.0003252359
 10
21.901103305
 20
40.0765889502
 10
18.3360033875
 20
40.9941630881
 10
14.6273993827
 20
41.745866388
 10
10.8043161451
 20
42.3258157524
 10
6.8966744846
 20
42.7294722912
 10
2.9350569955
 20
42.9536768447
 10
-1.0495312942
 20
42.9966747081
 10
-5.0259055784
 20
42.858129365
 10
-8.9629453372
 20
42.5391251206
 10
-12.8298378962
 20
42.0421586155
 10
-16.5963195784
 20
41.3711192864
 10
-20.2329125578
 20
40.531258926
 10
-23.7111555636
 20
39.5291505803
 10
-27.0038266283
 20
38.3726371058
 10
-30.0851561365
 20
37.0707697885
 10
-32.9310285071
 20
35.6337375052
 10
-35.5191709299
 20
34.0727869821
 10
-37.8293276816
 20
32.4001347734
 10
-39.8434186533
 20
30.6288716504
  0
LWPOLYLINE
  5
3C1
330
37A
100
AcDbEntity
  8
0
  6
CONTINUOUS
 62
     7
100
AcDbPolyline
 90
       27
 70
   128
 43
0.0
 10
40.6853089941
 20
22.8696701184
 10
39.6145733978
 20
24.6305986608
 10
38.1276915387
 20
26.4817700507
 10
36.3155176589
 20
28.2543854891
 10
34.193512587
 20
29.9333216461
 10
31.7797805219
 20
31.5042544302
 10
29.0949145746
 20
32.953781197
 10
26.1618210748
 20
34.2695350951
 10
23.005524142
 20
35.4402905762
 10
19.6529521887
 20
36.4560591673
 10
16.1327081767
 20
37.3081746889
 10
12.4748255869
 20
37.9893671919
 10
8.7105121836
 20
38.493824982
 10
4.8718837616
 20
38.8172442032
 10
0.9916901452
 20
38.9568655567
 10
-2.896964222
 20
38.9114978425
 10
-6.7609027118
 20
38.6815281218
 10
-10.5671595635
 20
38.2689184152
 10
-14.2832611357
 20
37.6771889632
 10
-17.87750296
 20
36.9113881929
 10
-21.3192202325
 20
35.9780496464
 10
-24.5790494349
 20
34.8851362392
 10
-27.6291788539
 20
33.6419723231
 10
-30.4435858606
 20
32.2591641342
 10
-32.9982589269
 20
30.7485093045
 10
-35.2714024829
 20
29.1228962084
 10
-37.2436228693
 20
27.3961940036
  0
LINE
  5
3C2
330
37A
100
AcDbEntity
  8
0
  6
CONTINUOUS
 62
     7
100
AcDbLine
 10
160.059116029
 20
93.6765928257
 30
0.0
 11
159.9978003314
 21
99.6990386375
 31
0.0
  0
LINE
  5
3C3
330
37A
100
AcDbEntity
  8
0
  6
CONTINUOUS
 62
     7
100
AcDbLine
 10
-159.9978003314
 20
99.6990386375
 30
0.0
 11
-160.8137893292
 21
19.5523597185
 31
0.0
  0
LINE
  5
3C4
330
37A
100
AcDbEntity
  8
0
  6
CONTINUOUS
 62
     7
100
AcDbLine
 10
53.2287911889
 20
181.5695598816
 30
0.0
 11
49.6284621211
 21
178.0555283382
 31
0.0
  0
LINE
  5
3C5
330
37A
100
AcDbEntity
  8
0
  6
CONTINUOUS
 62
     7
100
AcDbLine
 10
53.9272693476
 20
181.7110958094
 30
0.0
 11
348.4538729118
 21
101.6650759024
 31
0.0
  0
LINE
  5
3C6
330
37A
100
AcDbEntity
  8
0
  6
CONTINUOUS
 62
     7
100
AcDbLine
 10
290.5795896665
 20
45.1780012368
 30
0.0
 11
348.4538729118
 21
101.6650759024
 31
0.0
  0
LINE
  5
3C7
330
37A
100
AcDbEntity
  8
0
  6
CONTINUOUS
 62
     7
100
AcDbLine
 10
171.2005159603
 20
77.622675486
 30
0.0
 11
290.5795896665
 21
45.1780012368
 31
0.0
  0
LINE
  5
3C8
330
37A
100
AcDbEntity
  8
0
  6
CONTINUOUS
 62
     7
100
AcDbLine
 10
290.4191583889
 20
-28.646879874
 30
0.0
 11
290.1129120479
 21
43.8728223746
 31
0.0
  0
LINE
  5
3C9
330
37A
100
AcDbEntity
  8
0
  6
CONTINUOUS
 62
     7
100
AcDbLine
 10
291.4639741122
 20
44.0879572947
 30
0.0
 11
291.7702204532
 21
-28.4317449539
 31
0.0
  0
LINE
  5
3CA
330
37A
100
AcDbEntity
  8
0
  6
CONTINUOUS
 62
     7
100
AcDbLine
 10
170.7338383417
 20
76.3174966238
 30
0.0
 11
171.2363866001
 21
4.1793306273
 31
0.0
  0
LINE
  5
3CB
330
37A
100
AcDbEntity
  8
0
  6
CONTINUOUS
 62
     7
100
AcDbLine
 10
290.1129120479
 20
43.8728223746
 30
0.0
 11
170.7338383417
 21
76.3174966238
 31
0.0
  0
LINE
  5
3CC
330
37A
100
AcDbEntity
  8
0
  6
CONTINUOUS
 62
     7
100
AcDbLine
 10
290.4191583889
 20
-28.646879874
 30
0.0
 11
171.2283120184
 21
3.7466382185
 31
0.0
  0
LINE
  5
3CD
330
37A
100
AcDbEntity
  8
0
  6
CONTINUOUS
 62
     7
100
AcDbLine
 10
349.3382573575
 20
100.5750319603
 30
0.0
 11
291.4639741122
 21
44.0879572947
 31
0.0
  0
LINE
  5
3CE
330
37A
100
AcDbEntity
  8
0
  6
CONTINUOUS
 62
     7
100
AcDbLine
 10
349.3382573575
 20
100.5750319603
 30
0.0
 11
349.9866535123
 21
28.389278419
 31
0.0
  0
LINE
  5
3CF
330
37A
100
AcDbEntity
  8
0
  6
CONTINUOUS
 62
     7
100
AcDbLine
 10
349.9866535123
 20
28.389278419
 30
0.0
 11
291.7702204532
 21
-28.4317449539
 31
0.0
  0
LINE
  5
3D0
330
37A
100
AcDbEntity
  8
0
  6
CONTINUOUS
 62
     7
100
AcDbLine
 10
-45.2263186335
 20
28.3153982066
 30
0.0
 11
-45.2194249017
 21
28.085282509
 31
0.0
  0
LINE
  5
3D1
330
37A
100
AcDbEntity
  8
0
  6
CONTINUOUS
 62
     7
100
AcDbLine
 10
45.2234151718
 20
28.2000566165
 30
0.0
 11
45.2263186335
 21
28.3153982066
 31
0.0
  0
LINE
  5
3D2
330
37A
100
AcDbEntity
  8
0
  6
CONTINUOUS
 62
     7
100
AcDbLine
 10
53.9272693476
 20
181.7110958094
 30
0.0
 11
50.1025425683
 21
177.9780452204
 31
0.0
  0
ARC
  5
3D3
330
37A
100
AcDbEntity
  8
0
  6
CONTINUOUS
 62
     7
100
AcDbCircle
 10
-115.7133035367
 20
99.2859391023
 30
0.0
 40
44.25115533525408
100
AcDbArc
 50
154.8199537191
 51
203.0550428614
  0
ARC
  5
3D4
330
37A
100
AcDbEntity
  8
0
  6
CONTINUOUS
 62
     7
100
AcDbCircle
 10
115.6724606194
 20
99.2868545952
 30
0.0
 40
44.28931551880501
100
AcDbArc
 50
336.9234606342
 51
25.3369718782
  0
ARC
  5
3D5
330
37A
100
AcDbEntity
  8
0
  6
CONTINUOUS
 62
     7
100
AcDbCircle
 10
117.1624264885
 20
93.2610809013
 30
0.0
 40
42.8987018882061
100
AcDbArc
 50
350.1106792477
 51
0.5549690509
  0
ARC
  5
3D6
330
37A
100
AcDbEntity
  8
0
  6
CONTINUOUS
 62
     7
100
AcDbCircle
 10
290.5665329449
 20
45.3740007142
 30
0.0
 40
1.568218200908229
100
AcDbArc
 50
253.1864140143
 51
304.9085354925
  0
ARC
  5
3D7
330
37A
100
AcDbEntity
  8
0
  6
CONTINUOUS
 62
     7
100
AcDbCircle
 10
290.8775388505
 20
-27.1755919265
 30
0.0
 40
1.541038893760147
100
AcDbArc
 50
252.6955522393
 51
305.3993972675
  0
ARC
  5
3D8
330
37A
100
AcDbEntity
  8
0
  6
CONTINUOUS
 62
     7
100
AcDbCircle
 10
292.1570582413
 20
43.8779424801
 30
0.0
 40
2.044152605747376
100
AcDbArc
 50
140.5066178709
 51
180.1435121531
  0
ARC
  5
3D9
330
37A
100
AcDbEntity
  8
0
  6
CONTINUOUS
 62
     7
100
AcDbCircle
 10
290.2504847513
 20
44.0072033997
 30
0.0
 40
1.216173351410861
100
AcDbArc
 50
3.807240193
 51
74.2996151607
  0
ARC
  5
3DA
330
37A
100
AcDbEntity
  8
0
  6
CONTINUOUS
 62
     7
100
AcDbCircle
 10
172.7779845352
 20
76.3226167293
 30
0.0
 40
2.044152605746956
100
AcDbArc
 50
140.5066178709
 51
180.1435121531
  0
ARC
  5
3DB
330
37A
100
AcDbEntity
  8
0
  6
CONTINUOUS
 62
     7
100
AcDbCircle
 10
348.1247679966
 20
100.4942780652
 30
0.0
 40
1.216173351410669
100
AcDbArc
 50
3.807240193
 51
74.2996151607
  0
ARC
  5
3DC
330
37A
100
AcDbEntity
  8
0
  6
CONTINUOUS
 62
     7
100
AcDbCircle
 10
158.5343145946
 20
75.9322538864
 30
0.0
 40
1.703847806290999
100
AcDbArc
 50
0.6647060297
 51
48.8642769962
  0
ARC
  5
3DD
330
37A
100
AcDbEntity
  8
0
  6
CONTINUOUS
 62
     7
100
AcDbCircle
 10
-20.5986226912
 20
14.9759480187
 30
0.0
 40
14.39550960602773
100
AcDbArc
 50
133.4251733181
 51
151.1967913757
  0
ARC
  5
3DE
330
37A
100
AcDbEntity
  8
0
  6
CONTINUOUS
 62
     7
100
AcDbCircle
 10
-0.000359047
 20
-22.8240484144
 30
0.0
 40
43.56116471464068
100
AcDbArc
 50
80.9350130362
 51
98.9557174057
  0
ARC
  5
3DF
330
37A
100
AcDbEntity
  8
0
  6
CONTINUOUS
 62
     7
100
AcDbCircle
 10
53.7013212924
 20
181.0318880743
 30
0.0
 40
0.7158042128315116
100
AcDbArc
 50
71.5995660063
 51
131.3104560648
  0
ARC
  5
3E0
330
37A
100
AcDbEntity
  8
0
  6
CONTINUOUS
 62
     7
100
AcDbCircle
 10
113.494727244
 20
93.9911337429
 30
0.0
 40
46.63737285327712
100
AcDbArc
 50
336.5658781806
 51
350.0009775524
  0
ARC
  5
3E1
330
37A
100
AcDbEntity
  8
0
  6
CONTINUOUS
 62
     7
100
AcDbCircle
 10
-82.2897363099
 20
37.4552534954
 30
0.0
 40
53.5521236467138
100
AcDbArc
 50
133.1223822465
 51
157.653954328
  0
ARC
  5
3E2
330
37A
100
AcDbEntity
  8
0
  6
CONTINUOUS
 62
     7
100
AcDbCircle
 10
-70.2635670887
 20
25.9238274516
 30
0.0
 40
46.87596977147339
100
AcDbArc
 50
133.2459578891
 51
155.764422742
  0
ARC
  5
3E3
330
37A
100
AcDbEntity
  8
0
  6
CONTINUOUS
 62
     7
100
AcDbCircle
 10
117.9291643021
 20
91.5531638837
 30
0.0
 40
44.12061671605356
100
AcDbArc
 50
341.0365522628
 51
20.2278929292
  0
ARC
  5
3E4
330
37A
100
AcDbEntity
  8
0
  6
CONTINUOUS
 62
     7
100
AcDbCircle
 10
-29.9916574659
 20
27.940078591
 30
0.0
 40
15.23928363498149
100
AcDbArc
 50
131.0580564922
 51
178.5887522683
  0
ARC
  5
3E5
330
37A
100
AcDbEntity
  8
0
  6
CONTINUOUS
 62
     7
100
AcDbCircle
 10
-27.9345693055
 20
17.7929745115
 30
0.0
 40
17.50945310821053
100
AcDbArc
 50
132.8544497962
 51
159.1416583081
  0
ARC
  5
3E6
330
37A
100
AcDbEntity
  8
0
  6
CONTINUOUS
 62
     7
100
AcDbCircle
 10
-25.1381417949
 20
14.6210039086
 30
0.0
 40
17.59966346282148
100
AcDbArc
 50
133.4581510193
 51
152.1164388659
  0
VIEWPORT
  5
455
330
37A
100
AcDbEntity
  8
0
100
AcDbViewport
 10
0.0
 20
0.0
 30
0.0
 40
205.6
 41
156.0
 68
     1
 69
     1
1001
ACAD
1000
MVIEW
1002
{
1070
    16
1010
0.0
1020
0.0
1030
0.0
1010
0.0
1020
0.0
1030
1.0
1040
0.0
1040
357.2134125294
1040
69.9628822539
1040
9.5919903727
1040
50.0
1040
0.0
1040
0.0
1070
     0
1070
   100
1070
     0
1070
     3
1070
     0
1070
     0
1070
     0
1070
     0
1040
0.0
1040
0.0
1040
0.0
1040
10.0
1040
10.0
1040
10.0
1040
10.0
1070
     0
1002
{
1002
}
1002
}
  0
ENDBLK
  5
37D
330
37A
100
AcDbEntity
  8
0
100
AcDbBlockEnd
  0
BLOCK
  5
3E9
330
3E7
100
AcDbEntity
  8
0
100
AcDbBlockBegin
  2
*PAPER_SPACE7
 70
     0
 10
0.0
 20
0.0
 30
0.0
  3
*PAPER_SPACE7
  1

  0
SPLINE
  5
3ED
330
3E7
100
AcDbEntity
  8
0
  6
CONTINUOUS
 62
     7
100
AcDbSpline
210
0.0
220
0.0
230
1.0
 70
     8
 71
     3
 72
    27
 73
    23
 74
     0
 42
0.00000001
 43
0.00000001
 40
0.0
 40
0.0
 40
0.0
 40
0.0
 40
0.0041056212338771
 40
0.0572520794598906
 40
0.1104036013352655
 40
0.1635610244267786
 40
0.2167252817696849
 40
0.2698974180053793
 40
0.3230786068144275
 40
0.3762701690826887
 40
0.4294735905978236
 40
0.4826905369783021
 40
0.5359228616919144
 40
0.5891725999478662
 40
0.6424419361820369
 40
0.6957331246133097
 40
0.7490483291624686
 40
0.8023893284797926
 40
0.8557570012077769
 40
0.9091504645427753
 40
0.9625656906750353
 40
1.0
 40
1.0
 40
1.0
 40
1.0
 10
-57.81087257387789
 20
159.5537177914149
 30
0.0
 10
-57.98268101422109
 20
159.5327482975447
 30
0.0
 10
-60.37851587527592
 20
159.240332835693
 30
0.0
 10
-64.89321837952987
 20
158.5841227969497
 30
0.0
 10
-71.33018306075765
 20
157.5797631298302
 30
0.0
 10
-77.61478815023547
 20
156.4699585607738
 30
0.0
 10
-83.74992303996125
 20
155.2703956617075
 30
0.0
 10
-89.71949748560358
 20
153.9797023485015
 30
0.0
 10
-95.51292833967099
 20
152.6012794149261
 30
0.0
 10
-101.118607239994
 20
151.1374382060162
 30
0.0
 10
-106.5256800683738
 20
149.5909586753713
 30
0.0
 10
-111.7235966226762
 20
147.9646568431073
 30
0.0
 10
-116.7022565936368
 20
146.2614839025211
 30
0.0
 10
-121.4519882318052
 20
144.4844799912321
 30
0.0
 10
-125.9635830236773
 20
142.6367670486394
 30
0.0
 10
-130.228250597009
 20
140.7215204210471
 30
0.0
 10
-134.2378048300139
 20
138.7419781476227
 30
0.0
 10
-137.983960018004
 20
136.7013181589622
 30
0.0
 10
-141.4608971202418
 20
134.6030364922334
 30
0.0
 10
-144.6555510797796
 20
132.4494868734842
 30
0.0
 10
-147.2914129871975
 20
130.4671542742547
 30
0.0
 10
-148.7792820759724
 20
129.1909171237903
 30
0.0
 10
-149.3923545746256
 20
128.665047002143
 30
0.0
  0
SPLINE
  5
3EE
330
3E7
100
AcDbEntity
  8
0
  6
CONTINUOUS
 62
     7
100
AcDbSpline
210
0.0
220
0.0
230
1.0
 70
     8
 71
     3
 72
    34
 73
    30
 74
     0
 42
0.00000001
 43
0.00000001
 40
0.0
 40
0.0
 40
0.0
 40
0.0
 40
0.023279451755945
 40
0.0617011239236354
 40
0.1003337174250947
 40
0.139143431134955
 40
0.1780813555166873
 40
0.2170997279260372
 40
0.2561603211156854
 40
0.2952363243124239
 40
0.3343075359191122
 40
0.3733654820004383
 40
0.4124064933657376
 40
0.4514294360623221
 40
0.4904346251073525
 40
0.5294231395948511
 40
0.5683964089954439
 40
0.6073559732122039
 40
0.646303350094399
 40
0.6852399676116053
 40
0.7241671339367339
 40
0.7630860290802383
 40
0.8019977082486089
 40
0.840903111125474
 40
0.8798030737222698
 40
0.9186983409187117
 40
0.9575895786901392
 40
0.9964773855341666
 40
1.0
 40
1.0
 40
1.0
 40
1.0
 10
158.4204311544921
 20
116.7386218081752
 30
0.0
 10
158.2239327559774
 20
117.2257077942891
 30
0.0
 10
157.7031227229637
 20
118.5167069598088
 30
0.0
 10
156.5093032525016
 20
120.5834677323999
 30
0.0
 10
154.8758243832921
 20
122.9399906497862
 30
0.0
 10
152.9185707573203
 20
125.2678325591122
 30
0.0
 10
150.6586859234541
 20
127.5627129668074
 30
0.0
 10
148.0968517938747
 20
129.8185654315455
 30
0.0
 10
145.2406304876312
 20
132.0303107982056
 30
0.0
 10
142.0966558317966
 20
134.1932235744212
 30
0.0
 10
138.6723357575614
 20
136.303115705788
 30
0.0
 10
134.9752154330029
 20
138.3561598043366
 30
0.0
 10
131.013007121581
 20
140.3488314850005
 30
0.0
 10
126.7937286917832
 20
142.2777417793706
 30
0.0
 10
122.3257728250436
 20
144.1395932456128
 30
0.0
 10
117.6179332026503
 20
145.9311676761708
 30
0.0
 10
112.6794218764635
 20
147.6493268611035
 30
0.0
 10
107.5198750810906
 20
149.291020414476
 30
0.0
 10
102.1493501217713
 20
150.853296146462
 30
0.0
 10
96.57831808766784
 20
152.3333142986951
 30
0.0
 10
90.81764303534067
 20
153.7283514178488
 30
0.0
 10
84.87859040017045
 20
155.0358419682038
 30
0.0
 10
78.77271069039053
 20
156.2532757359291
 30
0.0
 10
72.51217694701798
 20
157.3786288025415
 30
0.0
 10
66.10842049464961
 20
158.4087989187802
 30
0.0
 10
59.57710964943799
 20
159.3454822939489
 30
0.0
 10
52.91945539823558
 20
160.1732792486492
 30
0.0
 10
48.23106992035972
 20
160.7085889442962
 30
0.0
 10
45.74201767580632
 20
160.9381319653586
 30
0.0
 10
45.5352767104474
 20
160.9571978350564
 30
0.0
  0
SPLINE
  5
3EF
330
3E7
100
AcDbEntity
  8
0
  6
CONTINUOUS
 62
     7
100
AcDbSpline
210
0.0
220
0.0
230
1.0
 70
     8
 71
     3
 72
    13
 73
     9
 74
     0
 42
0.00000001
 43
0.00000001
 40
0.0
 40
0.0
 40
0.0
 40
0.0
 40
0.1031089527875412
 40
0.2995531321139697
 40
0.4958307497427492
 40
0.6916977186254034
 40
0.88690351249914
 40
1.0
 40
1.0
 40
1.0
 40
1.0
 10
-149.3923545746256
 20
128.665047002143
 30
0.0
 10
-149.8324846992374
 20
128.2684445868333
 30
0.0
 10
-151.1111550164198
 20
127.1162313939135
 30
0.0
 10
-153.0005128481521
 20
125.1750944911036
 30
0.0
 10
-154.9598951666731
 20
122.8323387402292
 30
0.0
 10
-156.5902281743078
 20
120.4543455983303
 30
0.0
 10
-157.7699765972589
 20
118.3872508517433
 30
0.0
 10
-158.2763039931546
 20
117.1032747703598
 30
0.0
 10
-158.4620432933827
 20
116.6322656549158
 30
0.0
  0
SPLINE
  5
3F0
330
3E7
100
AcDbEntity
  8
0
  6
CONTINUOUS
 62
     7
100
AcDbSpline
210
0.0
220
0.0
230
1.0
 70
     8
 71
     3
 72
    18
 73
    14
 74
     0
 42
0.00000001
 43
0.00000001
 40
0.0
 40
0.0
 40
0.0
 40
0.0
 40
0.0901127372735509
 40
0.1852444150399522
 40
0.2803311019011608
 40
0.3753694050384696
 40
0.4703575453971615
 40
0.5652969006437882
 40
0.6601944849834079
 40
0.7550667718523058
 40
0.8499379741849439
 40
0.9448484990177803
 40
1.0
 40
1.0
 40
1.0
 40
1.0
 10
-117.4259723606707
 20
76.1584616162755
 30
0.0
 10
-118.8443182156092
 20
76.71732090968138
 30
0.0
 10
-121.7600064542745
 20
77.8661658568984
 30
0.0
 10
-125.8649931765296
 20
79.68480860697379
 30
0.0
 10
-129.8048560245004
 20
81.58906320533023
 30
0.0
 10
-133.4725832598805
 20
83.54849624451005
 30
0.0
 10
-136.8672904877279
 20
85.55649632714804
 30
0.0
 10
-139.9807917778705
 20
87.60858607910124
 30
0.0
 10
-142.806342294672
 20
89.69955495292695
 30
0.0
 10
-145.3433925636527
 20
91.823974161712
 30
0.0
 10
-147.5701230165151
 20
93.9771942938162
 30
0.0
 10
-149.2720571434299
 20
95.84703027596028
 30
0.0
 10
-150.1076448291003
 20
97.00230157582548
 30
0.0
 10
-150.4147439423949
 20
97.42689231344332
 30
0.0
  0
SPLINE
  5
3F1
330
3E7
100
AcDbEntity
  8
0
  6
CONTINUOUS
 62
     7
100
AcDbSpline
210
0.0
220
0.0
230
1.0
 70
     8
 71
     3
 72
    17
 73
    13
 74
     0
 42
0.00000001
 43
0.00000001
 40
0.0
 40
0.0
 40
0.0
 40
0.0
 40
0.0861656864115218
 40
0.1900388307200624
 40
0.2937855357061114
 40
0.3974857194193213
 40
0.5011830980357631
 40
0.60490401136115
 40
0.7086665138168425
 40
0.8124784602098348
 40
0.9163416241107255
 40
1.0
 40
1.0
 40
1.0
 40
1.0
 10
149.1391864781062
 20
95.78892333333769
 30
0.0
 10
148.6190212474141
 20
95.1855539677133
 30
0.0
 10
147.4717943600213
 20
93.85481996545705
 30
0.0
 10
145.3337468475694
 20
91.82247768181134
 30
0.0
 10
142.8031169894564
 20
89.69523664679818
 30
0.0
 10
139.9733852489606
 20
87.60384054603173
 30
0.0
 10
136.8605093912378
 20
85.55217313127714
 30
0.0
 10
133.4665680097345
 20
83.54525342947922
 30
0.0
 10
129.8012145162575
 20
81.58699959304874
 30
0.0
 10
125.8622486371657
 20
79.68445780804196
 30
0.0
 10
121.9627582264881
 20
77.95307927178818
 30
0.0
 10
119.263626224666
 20
76.8879417674565
 30
0.0
 10
118.0594712255343
 20
76.41275542987175
 30
0.0
  0
SPLINE
  5
3F2
330
3E7
100
AcDbEntity
  8
0
  6
CONTINUOUS
 62
     7
100
AcDbSpline
210
0.0
220
0.0
230
1.0
 70
     8
 71
     3
 72
    10
 73
     6
 74
     0
 42
0.00000001
 43
0.00000001
 40
0.0
 40
0.0
 40
0.0
 40
0.0
 40
0.246599978890205
 40
0.8653997035771855
 40
0.9999999999999999
 40
0.9999999999999999
 40
0.9999999999999999
 40
0.9999999999999999
 10
148.6449587816271
 20
0.3950909997022176
 30
0.0
 10
149.0146228696436
 20
0.6886110103946075
 30
0.0
 10
150.311894644087
 20
1.718668398843402
 30
0.0
 10
151.6486977091349
 20
2.933823234945197
 30
0.0
 10
152.5174283967737
 20
3.866050688659695
 30
0.0
 10
152.6726333407496
 20
4.032599783546392
 30
0.0
  0
SPLINE
  5
3F3
330
3E7
100
AcDbEntity
  8
0
  6
CONTINUOUS
 62
     7
100
AcDbSpline
210
0.0
220
0.0
230
1.0
 70
     8
 71
     3
 72
     9
 73
     5
 74
     0
 42
0.00000001
 43
0.00000001
 40
0.0
 40
0.0
 40
0.0
 40
0.0
 40
0.40084286871054
 40
1.0
 40
1.0
 40
1.0
 40
1.0
 10
-151.1155962536823
 20
2.535698052140566
 30
0.0
 10
-150.6397100805092
 20
2.089090135979375
 30
0.0
 10
-149.4524963109244
 20
0.9749180974499699
 30
0.0
 10
-148.048355670776
 20
-0.1081078105272734
 30
0.0
 10
-147.2070547928977
 20
-0.757010506663075
 30
0.0
  0
SPLINE
  5
3F4
330
3E7
100
AcDbEntity
  8
0
  6
CONTINUOUS
 62
     7
100
AcDbSpline
210
0.0
220
0.0
230
1.0
 70
     8
 71
     3
 72
    11
 73
     7
 74
     0
 42
0.00000001
 43
0.00000001
 40
0.0
 40
0.0
 40
0.0
 40
0.0
 40
0.1561517211912361
 40
0.5175304638251998
 40
0.967513365710867
 40
1.0
 40
1.0
 40
1.0
 40
1.0
 10
160.050254554884
 20
15.67940419501614
 30
0.0
 10
160.0687012468752
 20
15.73890792757532
 30
0.0
 10
160.1298387418023
 20
15.9361199344348
 30
0.0
 10
160.4352223713199
 20
16.33726173664569
 30
0.0
 10
160.8168710903383
 20
16.57603405847874
 30
0.0
 10
160.9117994609365
 20
16.60136072708332
 30
0.0
 10
160.9181913738513
 20
16.60306607459033
 30
0.0
  0
LWPOLYLINE
  5
3F8
330
3E7
100
AcDbEntity
  8
0
  6
CONTINUOUS
 62
     7
100
AcDbPolyline
 90
        3
 70
   128
 43
0.0
 10
160.0246093724
 20
15.7166599235
 10
159.8720316044
 20
34.6478643848
 10
159.3627944268
 20
97.5814737108
  0
LWPOLYLINE
  5
3F9
330
3E7
100
AcDbEntity
  8
0
  6
CONTINUOUS
 62
     7
100
AcDbPolyline
 90
        9
 70
   128
 43
0.0
 10
-160.815234748
 20
21.1935757896
 10
-160.7329469806
 20
19.3055965246
 10
-160.312217173
 20
16.7884360089
 10
-159.5369039123
 20
14.2806530908
 10
-158.4087220601
 20
11.7877945612
 10
-156.9301669633
 20
9.3153742006
 10
-155.1045089353
 20
6.8688605838
 10
-152.9357860222
 20
4.4536649842
 10
-151.2823915736
 20
2.8456989804
  0
LWPOLYLINE
  5
3FB
330
3E7
100
AcDbEntity
  8
0
  6
CONTINUOUS
 62
     7
100
AcDbPolyline
 90
       38
 70
   128
 43
0.0
 10
-120.1129582295
 20
75.3921881389
 10
-118.9904776571
 20
74.9654509281
 10
-113.8773282335
 20
73.1315865679
 10
-108.510073962
 20
71.3802567545
 10
-102.9006912855
 20
69.7153693894
 10
-97.0616969302
 20
68.1406394875
 10
-91.0061199758
 20
66.6595808869
 10
-84.7474727822
 20
65.2754984084
 10
-78.2997208387
 20
63.9914804813
 10
-71.6772516009
 20
62.8103922517
 10
-64.8948423875
 20
61.7348691891
 10
-57.9676274052
 20
60.7673112062
 10
-50.9110639796
 20
59.909877303
 10
-43.7408980629
 20
59.1644807501
 10
-36.4731290988
 20
58.5327848184
 10
-29.123974322
 20
58.0161990686
 10
-21.7098325703
 20
57.6158762057
 10
-14.247247693
 20
57.3327095063
 10
-6.7528716352
 20
57.1673308261
 10
0.7565727198
 20
57.1201091896
 10
8.2643288652
 20
57.1911499668
 10
15.7536440613
 20
57.3802946379
 10
23.2078067175
 20
57.6871211472
 10
30.6101836822
 20
58.1109448447
 10
37.9442573578
 20
58.6508200141
 10
45.1936625581
 20
59.3055419828
 10
52.3422230255
 20
60.07364981
 10
59.3739875264
 20
60.9534295469
 10
66.2732654445
 20
61.9429180607
 10
73.024661793
 20
63.0399074158
 10
79.6131115667
 20
64.2419498
 10
86.023913358
 20
65.5463629866
 10
92.2427621613
 20
66.9502363198
 10
98.2557812932
 20
68.4504372092
 10
104.0495533567
 20
70.04361812
 10
109.611150181
 20
71.7262240427
 10
114.9281616688
 20
73.4945004254
 10
119.5859788989
 20
75.1906962098
  0
LWPOLYLINE
  5
3FD
330
3E7
100
AcDbEntity
  8
0
  6
CONTINUOUS
 62
     7
100
AcDbPolyline
 90
       38
 70
   128
 43
0.0
 10
-117.7871029832
 20
76.1647430069
 10
-115.685057073
 20
75.3710410594
 10
-110.5938272747
 20
73.5755604199
 10
-105.2520668869
 20
71.8628636069
 10
-99.6718767149
 20
70.2368304295
 10
-93.8658976843
 20
68.7011443757
 10
-87.847282205
 20
67.2592842686
 10
-81.6296643768
 20
65.9145163849
 10
-75.2271291039
 20
64.6698870565
 10
-68.654180188
 20
63.528215769
 10
-61.9257074725
 20
62.4920887752
 10
-55.0569531121
 20
61.563853236
 10
-48.0634770447
 20
60.7456119033
 10
-40.961121743
 20
60.0392183571
 10
-33.765976326
 20
59.4462728058
 10
-26.4943401124
 20
58.9681184618
 10
-19.162685697
 20
58.6058384986
 10
-11.787621635
 20
58.3602535968
 10
-4.3858548188
 20
58.2319200851
 10
3.0258473692
 20
58.2211286803
 10
10.4306950398
 20
58.3279038283
 10
17.8119138312
 20
58.5520036491
 10
25.1527829088
 20
58.8929204845
 10
32.4366728432
 20
59.3498820483
 10
39.6470832808
 20
59.9218531755
 10
46.767680323
 20
60.6075381676
 10
53.7823335272
 20
61.4053837274
 10
60.6751524477
 20
62.3135824783
 10
67.4305226327
 20
63.3300770579
 10
74.033140996
 20
64.452564779
 10
80.4680504834
 20
65.678502846
 10
86.7206739551
 20
67.0051141148
 10
92.7768472081
 20
68.4293933842
 10
98.6228510619
 20
69.9481142036
 10
104.2454424376
 20
71.5578361818
 10
109.6318843573
 20
73.2549127809
 10
114.7699747976
 20
75.0354995764
 10
118.4423413984
 20
76.4189507208
  0
LWPOLYLINE
  5
401
330
3E7
100
AcDbEntity
  8
0
  6
CONTINUOUS
 62
     7
100
AcDbPolyline
 90
       52
 70
   128
 43
0.0
 10
-146.8709217065
 20
-0.8694398618
 10
-145.957600244
 20
-1.5521504378
 10
-142.6796129797
 20
-3.814332224
 10
-139.0862888433
 20
-6.0226604016
 10
-135.1855694572
 20
-8.1722543344
 10
-130.9860758191
 20
-10.2583631948
 10
-126.4970892496
 20
-12.276376464
 10
-121.7285308784
 20
-14.2218341216
 10
-116.6909397186
 20
-16.0904365025
 10
-111.3954493736
 20
-17.8780538001
 10
-105.8537634311
 20
-19.5807351931
 10
-100.0781295968
 20
-21.1947175774
 10
-94.0813126257
 20
-22.7164338832
 10
-87.8765661108
 20
-24.1425209582
 10
-81.477603191
 20
-25.4698270007
 10
-74.8985662438
 20
-26.6954185256
 10
-68.1539956292
 20
-27.8165868473
 10
-61.2587975539
 20
-28.8308540666
 10
-54.228211127
 20
-29.7359785468
 10
-47.07777468
 20
-30.5299598681
 10
-39.8232914256
 20
-31.2110432487
 10
-32.4807945309
 20
-31.777723423
 10
-25.066511682
 20
-32.2287479687
 10
-17.5968292197
 20
-32.5631200743
 10
-10.0882559239
 20
-32.7801007424
 10
-2.5573865271
 20
-32.879210423
 10
4.9791349615
 20
-32.8602300735
 10
12.504652041
 20
-32.7232016423
 10
20.0025325311
 20
-32.4684279766
 10
27.4562053317
 20
-32.0964721529
 10
34.849197046
 20
-31.6081562325
 10
42.1651683888
 20
-31.0045594446
 10
49.3879502981
 20
-30.2870158014
 10
56.5015796702
 20
-29.4571111492
 10
63.4903346399
 20
-28.5166796642
 10
70.3387693276
 20
-27.4677997985
 10
77.0317479761
 20
-26.3127896861
 10
83.5544784024
 20
-25.0542020204
 10
89.8925446899
 20
-23.6948184117
 10
96.0319390488
 20
-22.2376432401
 10
101.9590927754
 20
-20.6858970151
 10
107.6609062399
 20
-19.0430092581
 10
113.1247778379
 20
-17.3126109232
 10
118.3386318415
 20
-15.4985263715
 10
123.290945088
 20
-13.6047649197
 10
127.970772447
 20
-11.6355119789
 10
132.3677710103
 20
-9.595119804
 10
136.4722229512
 20
-7.4880978751
 10
140.2750570014
 20
-5.3191029313
 10
143.7678684997
 20
-3.0929286781
 10
146.9429379675
 20
-0.8144951938
 10
148.3591603158
 20
0.3020509083
  0
SPLINE
  5
405
330
3E7
100
AcDbEntity
  8
0
  6
CONTINUOUS
 62
     7
100
AcDbSpline
210
0.0
220
0.0
230
1.0
 70
     8
 71
     3
 72
    20
 73
    16
 74
     0
 42
0.00000001
 43
0.00000001
 40
0.0
 40
0.0
 40
0.0
 40
0.0
 40
0.250000000000001
 40
0.250000000000001
 40
0.3750000000000009
 40
0.3750000000000009
 40
0.5000000000000008
 40
0.5000000000000008
 40
0.6250000000000006
 40
0.6250000000000006
 40
0.7500000000000004
 40
0.7500000000000004
 40
0.8750000000000002
 40
0.8750000000000002
 40
1.0
 40
1.0
 40
1.0
 40
1.0
 10
161.8718691865413
 20
98.08069290414988
 30
0.0
 10
162.6239018003447
 20
98.3125924198515
 30
0.0
 10
163.4537271246789
 20
98.50472413963624
 30
0.0
 10
164.8122255494406
 20
98.73476714594423
 30
0.0
 10
165.2865587450542
 20
98.80169337370224
 30
0.0
 10
166.2455918325047
 20
98.91156157492387
 30
0.0
 10
166.7334525471522
 20
98.95515217415762
 30
0.0
 10
167.7257128992587
 20
99.01984949790193
 30
0.0
 10
168.2325725531043
 20
99.04099652133718
 30
0.0
 10
169.2526715849505
 20
99.05952591366794
 30
0.0
 10
169.7592560830059
 20
99.05690817625883
 30
0.0
 10
170.7657285349885
 20
99.02870853680426
 30
0.0
 10
171.2656161309832
 20
99.00312540731626
 30
0.0
 10
172.2585368551685
 20
98.92845342297892
 30
0.0
 10
172.7512191580688
 20
98.87923344338515
 30
0.0
 10
173.2303728433849
 20
98.8188657533617
 30
0.0
  0
SPLINE
  5
40A
330
3E7
100
AcDbEntity
  8
0
  6
CONTINUOUS
 62
     7
100
AcDbSpline
210
0.0
220
0.0
230
1.0
 70
     8
 71
     3
 72
     8
 73
     4
 74
     0
 42
0.00000001
 43
0.00000001
 40
0.0
 40
0.0
 40
0.0
 40
0.0
 40
1.0
 40
1.0
 40
1.0
 40
1.0
 10
173.5104188078488
 20
18.50431597553089
 30
0.0
 10
173.5116896650219
 20
18.34507356437266
 30
0.0
 10
173.509048655975
 20
18.18637739026685
 30
0.0
 10
173.5024950801971
 20
18.02822755102994
 30
0.0
  0
LWPOLYLINE
  5
415
330
3E7
100
AcDbEntity
  8
0
  6
CONTINUOUS
 62
     7
100
AcDbPolyline
 90
       10
 70
   128
 43
0.0
 10
173.5104188078
 20
18.5043159755
 10
171.5456175824
 20
18.6581623773
 10
169.515905676
 20
18.6801910448
 10
167.5051683204
 20
18.5694915632
 10
165.5965065549
 20
18.3306389913
 10
163.8688027736
 20
17.9735047811
 10
162.3934606234
 20
17.5128488035
 10
161.2314539881
 20
16.9677093435
 10
160.4308070212
 20
16.3606162733
 10
160.0246093724
 20
15.7166599235
  0
SPLINE
  5
416
330
3E7
100
AcDbEntity
  8
0
  6
CONTINUOUS
 62
     7
100
AcDbSpline
210
0.0
220
0.0
230
1.0
 70
     8
 71
     3
 72
    20
 73
    16
 74
     0
 42
0.00000001
 43
0.00000001
 40
0.0
 40
0.0
 40
0.0
 40
0.0
 40
0.1249999999999984
 40
0.1249999999999984
 40
0.2499999999999969
 40
0.2499999999999969
 40
0.499999999999998
 40
0.499999999999998
 40
0.7499999999999991
 40
0.7499999999999991
 40
0.8750000000000009
 40
0.8750000000000009
 40
0.9375000000000004
 40
0.9375000000000004
 40
1.0
 40
1.0
 40
1.0
 40
1.0
 10
162.5508793007781
 20
96.90654553890155
 30
0.0
 10
162.3041786298658
 20
96.83038595854057
 30
0.0
 10
162.0735465067112
 20
96.7826912714375
 30
0.0
 10
161.6401679974244
 20
96.72490173183084
 30
0.0
 10
161.4369819340089
 20
96.71508826181436
 30
0.0
 10
160.8695783081259
 20
96.72718632413167
 30
0.0
 10
160.5588137038933
 20
96.7882434270665
 30
0.0
 10
160.0404627261161
 20
96.96027323715765
 30
0.0
 10
159.8334472029115
 20
97.07331495107998
 30
0.0
 10
159.6012341847666
 20
97.25643709167288
 30
0.0
 10
159.5364778090446
 20
97.31999732329743
 30
0.0
 10
159.4576199906643
 20
97.41714537591575
 30
0.0
 10
159.4343883872605
 20
97.44983271343179
 30
0.0
 10
159.3940113538047
 20
97.51551304041216
 30
0.0
 10
159.3767740651783
 20
97.54872583192312
 30
0.0
 10
159.3627944268166
 20
97.58147371076267
 30
0.0
  0
SPLINE
  5
417
330
3E7
100
AcDbEntity
  8
0
  6
CONTINUOUS
 62
     7
100
AcDbSpline
210
0.0
220
0.0
230
1.0
 70
     8
 71
     3
 72
    20
 73
    16
 74
     0
 42
0.00000001
 43
0.00000001
 40
0.0
 40
0.0
 40
0.0
 40
0.0
 40
0.1249999999999994
 40
0.1249999999999994
 40
0.2499999999999987
 40
0.2499999999999987
 40
0.3749999999999981
 40
0.3749999999999981
 40
0.4999999999999974
 40
0.4999999999999974
 40
0.6249999999999968
 40
0.6249999999999968
 40
0.7499999999999962
 40
0.7499999999999962
 40
1.0
 40
1.0
 40
1.0
 40
1.0
 10
172.8768329151025
 20
97.57249125872488
 30
0.0
 10
172.441238681726
 20
97.62787490892742
 30
0.0
 10
171.9933454860528
 20
97.67309828375915
 30
0.0
 10
171.0906890138551
 20
97.74186820592277
 30
0.0
 10
170.6362447637832
 20
97.76553412899524
 30
0.0
 10
169.7212671175051
 20
97.79191940998784
 30
0.0
 10
169.2607340472044
 20
97.79463988901895
 30
0.0
 10
168.3333670719734
 20
97.77840607658659
 30
0.0
 10
167.8725826932803
 20
97.75944749230025
 30
0.0
 10
166.9705225250752
 20
97.701078904576
 30
0.0
 10
166.5270100851176
 20
97.66163375168358
 30
0.0
 10
165.6551563980694
 20
97.56203623090467
 30
0.0
 10
165.2239414585006
 20
97.5012941959229
 30
0.0
 10
163.9889355585468
 20
97.2923293405712
 30
0.0
 10
163.2345460830298
 20
97.11760201900965
 30
0.0
 10
162.5508793007781
 20
96.90654553890154
 30
0.0
  0
SPLINE
  5
419
330
3E7
100
AcDbEntity
  8
0
  6
CONTINUOUS
 62
     7
100
AcDbSpline
210
0.0
220
0.0
230
1.0
 70
     8
 71
     3
 72
    18
 73
    14
 74
     0
 42
0.00000001
 43
0.00000001
 40
0.0
 40
0.0
 40
0.0
 40
0.0
 40
0.1249999999999983
 40
0.1249999999999983
 40
0.2499999999999965
 40
0.2499999999999965
 40
0.4999999999999977
 40
0.4999999999999977
 40
0.7499999999999988
 40
0.7499999999999988
 40
0.8749999999999994
 40
0.8749999999999994
 40
1.0
 40
1.0
 40
1.0
 40
1.0
 10
161.8718691865412
 20
98.0806929041499
 30
0.0
 10
161.6768335094291
 20
97.9910865237949
 30
0.0
 10
161.4968099345823
 20
97.92225243417616
 30
0.0
 10
161.1615746225448
 20
97.80944760165083
 30
0.0
 10
161.0060865258417
 20
97.76565168057591
 30
0.0
 10
160.5745268076796
 20
97.65988537018382
 30
0.0
 10
160.3360585047143
 20
97.62330304107778
 30
0.0
 10
159.9341921223216
 20
97.57928092278678
 30
0.0
 10
159.771182288894
 20
97.57273771866987
 30
0.0
 10
159.5796693664304
 20
97.57176311770974
 30
0.0
 10
159.5245461358387
 20
97.57297485826227
 30
0.0
 10
159.4310923640775
 20
97.57667235819429
 30
0.0
 10
159.392658030021
 20
97.57917351295337
 30
0.0
 10
159.3627944268166
 20
97.58147371076274
 30
0.0
  0
SPLINE
  5
41A
330
3E7
100
AcDbEntity
  8
0
  6
CONTINUOUS
 62
     7
100
AcDbSpline
210
0.0
220
0.0
230
1.0
 70
     8
 71
     3
 72
    12
 73
     8
 74
     0
 42
0.00000001
 43
0.00000001
 40
0.0
 40
0.0
 40
0.0
 40
0.0
 40
0.236683845706228
 40
0.4733285833211426
 40
0.7111800302624888
 40
0.914253265036409
 40
1.0
 40
1.0
 40
1.0
 40
1.0
 10
173.5024950801971
 20
18.02822755102994
 30
0.0
 10
172.4067650442327
 20
18.1265657514993
 30
0.0
 10
170.2154860235714
 20
18.32322590367667
 30
0.0
 10
166.7873375027413
 20
18.13707867386363
 30
0.0
 10
163.8846864351412
 20
17.63724624383094
 30
0.0
 10
162.0764929249744
 20
17.0511543467667
 30
0.0
 10
161.1838749695493
 20
16.70434129881142
 30
0.0
 10
160.9188687952284
 20
16.6013772048398
 30
0.0
  0
LWPOLYLINE
  5
41B
330
3E7
100
AcDbEntity
  8
0
  6
CONTINUOUS
 62
     7
100
AcDbPolyline
 90
       63
 70
   128
 43
0.0
 10
-158.674919729
 20
102.3352050949
 10
-158.0962249167
 20
100.9820704095
 10
-156.768998801
 20
98.5209770042
 10
-155.0971604026
 20
96.0833253047
 10
-153.0843847851
 20
93.6744737982
 10
-150.7350964661
 20
91.2997176634
 10
-148.0544596913
 20
88.9642771294
 10
-145.0483670821
 20
86.6732860015
 10
-141.7234266823
 20
84.4317803753
 10
-138.0869474327
 20
82.2446875668
 10
-134.1469231038
 20
80.1168152805
 10
-129.9120147243
 20
78.0528410416
 10
-125.3915315417
 20
76.0573019134
 10
-120.5954105593
 20
74.1345845239
 10
-115.5341946918
 20
72.2889154233
 10
-110.2190095901
 20
70.5243517929
 10
-104.6615391847
 20
68.8447725264
 10
-98.8740000016
 20
67.2538697035
 10
-92.869114308
 20
65.7551404741
 10
-86.660082146
 20
64.3518793701
 10
-80.2605523156
 20
63.0471710641
 10
-73.6845923725
 20
61.843883588
 10
-66.9466577036
 20
60.7446620288
 10
-60.0615597518
 20
59.7519227142
 10
-53.0444334565
 20
58.8678479006
 10
-45.9107039844
 20
58.0943809762
 10
-38.676052821
 20
57.4332221894
 10
-31.3563832996
 20
56.8858249104
 10
-23.9677856426
 20
56.4533924375
 10
-16.526501591
 20
56.136875351
 10
-9.0488887022
 20
55.9369694241
 10
-1.5513843921
 20
55.8541140935
 10
5.9495301975
 20
55.8884914932
 10
13.4373664286
 20
56.0400260541
 10
20.8956644119
 20
56.3083846705
 10
28.3080291899
 20
56.6929774318
 10
35.6581667762
 20
57.1929589198
 10
42.9299199729
 20
57.8072300665
 10
50.1073038886
 20
58.5344405706
 10
57.1745410756
 20
59.3729918658
 10
64.1160962128
 20
60.3210406341
 10
70.9167102555
 20
61.3765028588
 10
77.5614339781
 20
62.5370584047
 10
84.0356608358
 20
63.8001561188
 10
90.3251590728
 20
65.1630194384
 10
96.4161030071
 20
66.622652494
 10
102.2951034219
 20
68.1758466953
 10
107.9492369984
 20
69.8191877845
 10
113.3660747239
 20
71.5490633412
 10
118.5337092135
 20
73.3616707235
 10
123.440780885
 20
75.2530254269
 10
128.07650293
 20
77.2189698433
 10
132.4306850253
 20
79.2551824003
 10
136.4937557336
 20
81.3571870607
 10
140.2567835438
 20
83.5203631621
 10
143.711496504
 20
85.739955574
 10
146.8503004054
 20
88.0110851504
 10
149.6662954759
 20
90.3287594558
 10
152.153291547
 20
92.6878837389
 10
154.3058216616
 20
95.0832721327
 10
156.1191540915
 20
97.5096590535
 10
157.5893027384
 20
99.9617107763
 10
158.690526247
 20
102.3754952101
  0
LWPOLYLINE
  5
41D
330
3E7
100
AcDbEntity
  8
0
  6
CONTINUOUS
 62
     7
100
AcDbPolyline
 90
       55
 70
   128
 43
0.0
 10
-151.2823915736
 20
2.8456989804
 10
-150.4287950715
 20
2.0751294052
 10
-147.5890811222
 20
-0.2614852356
 10
-144.4229251404
 20
-2.5510107428
 10
-140.9373301263
 20
-4.788383074
 10
-137.1400056255
 20
-6.9686535406
 10
-133.039350676
 20
-9.0869997542
 10
-128.6444352317
 20
-11.1387362917
 10
-123.9649801006
 20
-13.1193250598
 10
-119.0113354443
 20
-15.0243853318
 10
-113.7944578853
 20
-16.8497034373
 10
-108.3258862724
 20
-18.591242082
 10
-102.6177161592
 20
-20.2451492775
 10
-96.6825730505
 20
-21.8077668615
 10
-90.533584477
 20
-23.2756385888
 10
-84.1843509591
 20
-24.6455177758
 10
-77.6489159253
 20
-25.9143744821
 10
-70.9417346502
 20
-27.0794022115
 10
-64.0776422819
 20
-28.1380241202
 10
-57.0718210294
 20
-29.0878987161
 10
-49.9397665819
 20
-29.9269250374
 10
-42.6972538351
 20
-30.6532473002
 10
-35.3603019994
 20
-31.2652590027
 10
-27.945139169
 20
-31.7616064788
 10
-20.4681664271
 20
-32.141191892
 10
-12.9459215703
 20
-32.4031756637
 10
-5.3950425291
 20
-32.5469783301
 10
2.1677694317
 20
-32.5722818242
 10
9.7257866539
 20
-32.4790301789
 10
17.2622920845
 20
-32.2674296511
 10
24.7606162508
 20
-31.9379482652
 10
32.2041741307
 20
-31.4913147782
 10
39.5765018356
 20
-30.9285170678
 10
46.8612930263
 20
-30.250799947
 10
54.0424349793
 20
-29.4596624113
 10
61.1040442258
 20
-28.5568543227
 10
68.030501683
 20
-27.5443725399
 10
74.8064872009
 20
-26.4244565008
 10
81.4170134481
 20
-25.1995832699
 10
87.8474590609
 20
-23.8724620593
 10
94.0836009836
 20
-22.4460282361
 10
100.111645927
 20
-20.9234368301
 10
105.9182608776
 20
-19.3080555555
 10
111.4906025872
 20
-17.6034573619
 10
116.8163459804
 20
-15.8134125316
 10
121.8837114155
 20
-13.9418803402
 10
126.681490739
 20
-11.9930003
 10
131.1990720762
 20
-9.971083003
 10
135.4264633029
 20
-7.8806005878
 10
139.3543141462
 20
-5.7261768472
 10
142.9739368657
 20
-3.5125770012
 10
146.2773254695
 20
-1.2446971576
 10
149.257173422
 20
1.0724465179
 10
151.9068898043
 20
3.4337288961
 10
152.8185405039
 20
4.3339386308
  0
LWPOLYLINE
  5
41E
330
3E7
100
AcDbEntity
  8
0
  6
CONTINUOUS
 62
     7
100
AcDbPolyline
 90
       24
 70
   128
 43
0.0
 10
-148.7309167469
 20
128.8578560438
 10
-151.2196994608
 20
126.4957057981
 10
-153.3710518949
 20
124.0970138827
 10
-155.1801735406
 20
121.6671327171
 10
-156.6430275402
 20
119.2114843162
 10
-157.7563496944
 20
116.735548192
 10
-158.517655746
 20
114.244849126
 10
-158.9252469236
 20
111.7449448418
 10
-158.978213732
 20
109.2414136033
 10
-158.6764379814
 20
106.7398417677
 10
-158.0205930515
 20
104.24581132
 10
-157.012142389
 20
101.7648874172
 10
-155.6533362414
 20
99.3026059708
 10
-153.9472066366
 20
96.8644612933
 10
-151.8975606169
 20
94.4558938391
 10
-149.5089717442
 20
92.0822780637
 10
-146.786769894
 20
89.7489104323
 10
-143.7370293632
 20
87.4609976004
 10
-140.3665553154
 20
85.223644796
 10
-136.6828685962
 20
83.0418444283
 10
-132.6941889511
 20
80.9204649469
 10
-128.4094166839
 20
78.8642399791
 10
-123.8381127971
 20
76.8777577666
 10
-120.1129582295
 20
75.3921881389
  0
LWPOLYLINE
  5
41F
330
3E7
100
AcDbEntity
  8
0
  6
CONTINUOUS
 62
     7
100
AcDbPolyline
 90
       45
 70
   128
 43
0.0
 10
119.5859788989
 20
75.1906962098
 10
119.9887234883
 20
75.3445015522
 10
124.7815435474
 20
77.2720993472
 10
129.2959271904
 20
79.2729925859
 10
133.5218010622
 20
81.3427164931
 10
137.4497355858
 20
83.4766527055
 10
141.0709660032
 20
85.6700395769
 10
144.3774119336
 20
87.9179828036
 10
147.361695403
 20
90.2154663453
 10
150.0171573083
 20
92.5573636177
 10
152.3378722754
 20
94.9384489325
 10
154.3186618819
 20
97.3534091571
 10
155.9551062117
 20
99.7968555709
 10
157.2435537174
 20
102.2633358897
 10
158.181129369
 20
104.7473464313
 10
158.7657410686
 20
107.243344397
 10
158.9960843188
 20
109.7457602392
 10
158.8716451337
 20
112.2490100898
 10
158.392701186
 20
114.7475082194
 10
157.5603211867
 20
117.2356795019
 10
156.3763625012
 20
119.7079718541
 10
154.8434670042
 20
122.158868625
 10
152.965055185
 20
124.5829009057
 10
150.7453185149
 20
126.9746597322
 10
148.1892100943
 20
129.3288081554
 10
145.3024336006
 20
131.6400931496
 10
142.0914305609
 20
133.9033573342
 10
138.5633659787
 20
136.1135504818
 10
134.7261123456
 20
138.2657407874
 10
130.5882320748
 20
140.3551258727
 10
126.1589583953
 20
142.3770435027
 10
121.4481747486
 20
144.3269819885
 10
116.466392735
 20
146.2005902548
 10
111.2247286581
 20
147.993687549
 10
105.7348787203
 20
149.7022727699
 10
100.0090929233
 20
151.3225333958
 10
94.0601477341
 20
152.8508539917
 10
87.9013175756
 20
154.2838242766
 10
81.5463452062
 20
155.6182467336
 10
75.0094110542
 20
156.8511437444
 10
68.3051015758
 20
157.9797642336
 10
61.4483767068
 20
159.0015898077
 10
54.4545364817
 20
159.9143403741
 10
47.3391868928
 20
160.7159792296
 10
45.3713833372
 20
160.9159015154
  0
LWPOLYLINE
  5
420
330
3E7
100
AcDbEntity
  8
0
  6
CONTINUOUS
 62
     7
100
AcDbPolyline
 90
       19
 70
   128
 43
0.0
 10
-57.4619793192
 20
159.5373920353
 10
-62.8411568297
 20
158.8044512071
 10
-69.6683985094
 20
157.7609211666
 10
-76.3401827501
 20
156.6110845353
 10
-82.8416221923
 20
155.3575070485
 10
-89.1582095824
 20
154.0029859276
 10
-95.275850144
 20
152.550543639
 10
-101.180893029
 20
151.0034211493
 10
-106.8601617775
 20
149.3650706937
 10
-112.3009837204
 20
147.6391480728
 10
-117.4912182563
 20
145.8295044948
 10
-122.4192839426
 20
143.9401779821
 10
-127.0741843376
 20
141.975384361
 10
-131.4455325385
 20
139.9395078543
 10
-135.5235743581
 20
137.8370912985
 10
-139.2992100905
 20
135.6728260071
 10
-142.764014816
 20
133.4515413023
 10
-145.9102572005
 20
131.1781937387
 10
-148.7309167469
 20
128.8578560438
  0
LWPOLYLINE
  5
421
330
3E7
100
AcDbEntity
  8
0
  6
CONTINUOUS
 62
     7
100
AcDbPolyline
 90
       24
 70
   128
 43
0.0
 10
-145.6670059177
 20
128.4718395633
 10
-148.1217299162
 20
126.1406808748
 10
-150.2409105556
 20
123.7732291081
 10
-152.0197472099
 20
121.374847303
 10
-153.4542102421
 20
118.9509685657
 10
-154.541050132
 20
116.5070837611
 10
-155.2778048376
 20
114.0487290744
 10
-155.6628053728
 20
111.5814734696
 10
-155.6951795872
 20
109.1109060742
 10
-155.3748541431
 20
106.6426235179
 10
-154.7025546805
 20
104.1822172547
 10
-153.679804174
 20
101.7352608961
 10
-152.3089194823
 20
99.3072975852
 10
-150.5930061003
 20
96.9038274399
 10
-148.5359511237
 20
94.530295093
 10
-146.1424144435
 20
92.1920773589
 10
-143.4178181903
 20
89.8944710526
 10
-140.3683344508
 20
87.6426809915
 10
-137.0008712866
 20
85.4418082042
 10
-133.3230570847
 20
83.2968383756
 10
-129.3432232774
 20
81.2126305522
 10
-125.0703854681
 20
79.193906135
 10
-120.5142230089
 20
77.2452381842
 10
-117.7871029832
 20
76.1647430069
  0
LWPOLYLINE
  5
422
330
3E7
100
AcDbEntity
  8
0
  6
CONTINUOUS
 62
     7
100
AcDbPolyline
 90
       43
 70
   128
 43
0.0
 10
118.4423413984
 20
76.4189507208
 10
119.6480743311
 20
76.8955629666
 10
124.2551324933
 20
78.8308893097
 10
128.5807128158
 20
80.837094469
 10
132.6150164678
 20
82.9096337445
 10
136.348904454
 20
85.0438121683
 10
139.7739183171
 20
87.2347951398
 10
142.8822992993
 20
89.4776193778
 10
145.6670059177
 20
91.767204164
 10
148.1217299162
 20
94.0983628526
 10
150.2409105556
 20
96.4658146193
 10
152.0197472099
 20
98.8641964243
 10
153.4542102421
 20
101.2880751616
 10
154.541050132
 20
103.7319599662
 10
155.2778048376
 20
106.1903146529
 10
155.6628053728
 20
108.6575702577
 10
155.6951795872
 20
111.1281376532
 10
155.3748541431
 20
113.5964202094
 10
154.7025546805
 20
116.0568264726
 10
153.679804174
 20
118.5037828313
 10
152.3089194823
 20
120.9317461422
 10
150.5930061003
 20
123.3352162875
 10
148.5359511237
 20
125.7087486343
 10
146.1424144435
 20
128.0469663685
 10
143.4178181903
 20
130.3445726747
 10
140.3683344508
 20
132.5963627359
 10
137.0008712866
 20
134.7972355231
 10
133.3230570847
 20
136.9422053517
 10
129.3432232774
 20
139.0264131752
 10
125.0703854681
 20
141.0451375923
 10
120.5142230089
 20
142.9938055431
 10
115.685057073
 20
144.8680026679
 10
110.5938272747
 20
146.6634833074
 10
105.2520668869
 20
148.3761801204
 10
99.6718767149
 20
150.0022132979
 10
93.8658976843
 20
151.5378993516
 10
87.847282205
 20
152.9797594587
 10
81.6296643768
 20
154.3245273424
 10
75.2271291039
 20
155.5691566708
 10
68.654180188
 20
156.7108279583
 10
61.9257074725
 20
157.7469549521
 10
55.0569531121
 20
158.6751904913
 10
50.8252677303
 20
159.18516593
  0
LWPOLYLINE
  5
423
330
3E7
100
AcDbEntity
  8
0
  6
CONTINUOUS
 62
     7
100
AcDbPolyline
 90
       20
 70
   128
 43
0.0
 10
-50.9841346869
 20
159.1668490068
 10
-53.7823335272
 20
158.8336599999
 10
-60.6751524477
 20
157.925461249
 10
-67.4305226327
 20
156.9089666695
 10
-74.033140996
 20
155.7864789483
 10
-80.4680504834
 20
154.5605408813
 10
-86.7206739551
 20
153.2339296125
 10
-92.7768472081
 20
151.8096503431
 10
-98.6228510619
 20
150.2909295237
 10
-104.2454424376
 20
148.6812075455
 10
-109.6318843573
 20
146.9841309465
 10
-114.7699747976
 20
145.2035441509
 10
-119.6480743311
 20
143.3434807607
 10
-124.2551324933
 20
141.4081544176
 10
-128.5807128158
 20
139.4019492583
 10
-132.6150164678
 20
137.3294099828
 10
-136.348904454
 20
135.195231559
 10
-139.7739183171
 20
133.0042485876
 10
-142.8822992993
 20
130.7614243496
 10
-145.6670059177
 20
128.4718395633
  0
LWPOLYLINE
  5
424
330
3E7
100
AcDbEntity
  8
0
  6
CONTINUOUS
 62
     7
100
AcDbPolyline
 90
        9
 70
   128
 43
0.0
 10
-144.7748853992
 20
127.7001420479
 10
-147.2145757281
 20
125.3832602677
 10
-149.3207776938
 20
123.0303076821
 10
-151.0887200714
 20
120.6466144855
 10
-152.5143979027
 20
118.2375805097
 10
-153.594581569
 20
115.8086629914
 10
-154.3268241067
 20
113.36536421
 10
-154.7094667512
 20
110.9132190232
 10
-154.7575651502
 20
110.1364820395
  0
LWPOLYLINE
  5
425
330
3E7
100
AcDbEntity
  8
0
  6
CONTINUOUS
 62
     7
100
AcDbPolyline
 90
       60
 70
   128
 43
0.0
 10
154.7500823659
 20
110.3055966441
 10
154.7416426936
 20
110.4626596089
 10
154.4232790451
 20
112.9158254577
 10
153.7550970018
 20
115.3611632509
 10
152.738610211
 20
117.7931335119
 10
151.3761213421
 20
120.2062270458
 10
149.6707168706
 20
122.5949774197
 10
147.6262600863
 20
124.9539733456
 10
145.2473823412
 20
127.2778709391
 10
142.5394725587
 20
129.5614058247
 10
139.5086650252
 20
131.7994050613
 10
136.1618254948
 20
133.9867988609
 10
132.5065356353
 20
136.118632073
 10
128.551075854
 20
138.1900754097
 10
124.3044065395
 20
140.1964363856
 10
119.7761477637
 20
142.1331699477
 10
114.9765574891
 20
143.9958887717
 10
109.9165083314
 20
145.7803732003
 10
104.6074629295
 20
147.4825808023
 10
99.0614479787
 20
149.0986555299
 10
93.2910269867
 20
150.6249364543
 10
87.309271813
 20
152.057966058
 10
81.1297330571
 20
153.3944980683
 10
74.7664093617
 20
154.6315048102
 10
68.2337157016
 20
155.7661840655
 10
61.5464507293
 20
156.7959654209
 10
54.7197632505
 20
157.7185160903
 10
47.7691179083
 20
158.5317461997
 10
40.7102601499
 20
159.2338135215
 10
33.5591805584
 20
159.8231276472
 10
26.3320786292
 20
160.2983535908
 10
19.0453260726
 20
160.6584148128
 10
11.7154297268
 20
160.9024956587
 10
4.3589941646
 20
161.0300432068
 10
-3.0073159214
 20
161.0407685209
 10
-10.3668134696
 20
160.9346473048
 10
-17.7028268509
 20
160.7119199571
 10
-24.9987376356
 20
160.3730910269
 10
-32.2380182391
 20
159.9189280707
 10
-39.4042693624
 20
159.3504599137
 10
-46.4812571419
 20
158.6689743191
 10
-53.452949924
 20
157.8760150709
 10
-60.3035545823
 20
156.9733784769
 10
-67.0175522937
 20
155.9631092994
 10
-73.5797336941
 20
154.8474961228
 10
-79.9752333319
 20
153.6290661699
 10
-86.1895633435
 20
152.3105795765
 10
-92.2086462726
 20
150.8950231387
 10
-98.0188469604
 20
149.3856035471
 10
-103.6070034338
 20
147.7857401226
 10
-108.9604567207
 20
146.0990570704
 10
-114.0670795279
 20
144.3293752702
 10
-118.915303712
 20
142.4807036204
 10
-123.4941464861
 20
140.5572299569
 10
-127.7932352984
 20
138.5633115661
 10
-131.8028313302
 20
136.5034653146
 10
-135.5138515567
 20
134.3823574167
 10
-138.9178893235
 20
132.2047928638
 10
-142.0072333904
 20
129.9757045402
 10
-144.7748853992
 20
127.7001420479
  0
LWPOLYLINE
  5
426
330
3E7
100
AcDbEntity
  8
0
  6
CONTINUOUS
 62
     7
100
AcDbPolyline
 90
       40
 70
   128
 43
0.0
 10
111.2596076759
 20
73.800802489
 10
108.249043386
 20
75.2203905782
 10
104.0375003314
 20
77.0281491368
 10
99.5545353173
 20
78.7618682811
 10
94.8118438875
 20
80.4170249357
 10
89.8217991825
 20
81.9893009859
 10
84.5974196591
 20
83.4745945431
 10
79.152335127
 20
84.8690306458
 10
73.5007511901
 20
86.1689713696
 10
67.6574121856
 20
87.3710253175
 10
61.6375627176
 20
88.4720564681
 10
55.4569078862
 20
89.4691923566
 10
49.1315723142
 20
90.3598315696
 10
42.6780580797
 20
91.1416505309
 10
36.1132016646
 20
91.8126095642
 10
29.4541300297
 20
92.3709582139
 10
22.7182159326
 20
92.8152398122
 10
15.9230326041
 20
93.1442952791
 10
9.0863079015
 20
93.3572661464
 10
2.2258780591
 20
93.4535967976
 10
-4.640358845
 20
93.4330359168
 10
-11.4944895827
 20
93.2956371452
 10
-18.3186325095
 20
93.0417589404
 10
-25.0949842156
 20
92.6720636417
 10
-31.8058659733
 20
92.1875157419
 10
-38.4337698582
 20
91.5893793711
 10
-44.9614044258
 20
90.8792149988
 10
-51.371739823
 20
90.0588753628
 10
-57.6480522164
 20
89.1305006356
 10
-63.7739674238
 20
88.0965128407
 10
-69.7335036318
 20
86.9596095344
 10
-75.5111130909
 20
85.7227567675
 10
-81.0917226777
 20
84.3891813476
 10
-86.4607732189
 20
82.9623624209
 10
-91.6042574748
 20
81.4460223948
 10
-96.5087566821
 20
79.8441172275
 10
-101.1614755625
 20
78.1608261066
 10
-105.5502757036
 20
76.4005405464
 10
-109.663707227
 20
74.5678529311
 10
-111.2596076759
 20
73.800802489
  0
LWPOLYLINE
  5
427
330
3E7
100
AcDbEntity
  8
0
  6
CONTINUOUS
 62
     7
100
AcDbPolyline
 90
       27
 70
   128
 43
0.0
 10
75.4912992807
 20
64.7185815612
 10
71.3851811832
 20
65.8423758061
 10
66.2567165961
 20
67.1070666585
 10
60.9270325384
 20
68.2756652227
 10
55.4123150854
 20
69.3446225031
 10
49.7293122526
 20
70.3106921117
 10
43.895283133
 20
71.1709401267
 10
37.9279454812
 20
71.9227540033
 10
31.8454219055
 20
72.5638505074
 10
25.6661848301
 20
73.0922826499
 10
19.409000395
 20
73.5064455999
 10
13.0928714636
 20
73.8050815581
 10
6.7369799119
 20
73.9872835768
 10
0.3606283736
 20
74.0524983146
 10
-6.0168183812
 20
74.0005277164
 10
-12.3759922564
 20
73.8315296153
 10
-18.6975806498
 20
73.5460172528
 10
-24.9623851053
 20
73.1448577207
 10
-31.1513796177
 20
72.6292693273
 10
-37.245768414
 20
72.0008178976
 10
-43.2270430358
 20
71.2614120179
 10
-49.0770385486
 20
70.4132972395
 10
-54.7779887084
 20
69.4590492593
 10
-60.3125799168
 20
68.4015660968
 10
-65.6640038023
 20
67.2440592939
 10
-70.8160082663
 20
65.9900441604
 10
-75.4912992807
 20
64.7185815612
  0
LINE
  5
429
330
3E7
100
AcDbEntity
  8
0
  6
CONTINUOUS
 62
     7
100
AcDbLine
 10
160.0605546646
 20
102.725213077
 30
0.0
 11
159.999238416
 21
109.3494956757
 31
0.0
  0
LINE
  5
42A
330
3E7
100
AcDbEntity
  8
0
  6
CONTINUOUS
 62
     7
100
AcDbLine
 10
-159.999238416
 20
109.3494956757
 30
0.0
 11
-160.815234748
 21
21.1935757896
 31
0.0
  0
LINE
  5
42B
330
3E7
100
AcDbEntity
  8
0
  6
CONTINUOUS
 62
     7
100
AcDbLine
 10
93.5235594353
 20
153.0512685431
 30
0.0
 11
343.336627581
 21
121.5777803413
 31
0.0
  0
LINE
  5
42C
330
3E7
100
AcDbEntity
  8
0
  6
CONTINUOUS
 62
     7
100
AcDbLine
 10
299.4929352065
 20
82.9112781465
 30
0.0
 11
343.336627581
 21
121.5777803413
 31
0.0
  0
LINE
  5
42D
330
3E7
100
AcDbEntity
  8
0
  6
CONTINUOUS
 62
     7
100
AcDbLine
 10
173.2303728434
 20
98.8188657534
 30
0.0
 11
299.4929352065
 21
82.9112781465
 31
0.0
  0
LINE
  5
42E
330
3E7
100
AcDbEntity
  8
0
  6
CONTINUOUS
 62
     7
100
AcDbLine
 10
299.5659767756
 20
2.1457217507
 30
0.0
 11
299.1393952782
 21
81.6649036519
 31
0.0
  0
LINE
  5
42F
330
3E7
100
AcDbEntity
  8
0
  6
CONTINUOUS
 62
     7
100
AcDbLine
 10
300.4283139355
 20
81.8588499188
 30
0.0
 11
300.8548954329
 21
2.3396680176
 31
0.0
  0
LINE
  5
430
330
3E7
100
AcDbEntity
  8
0
  6
CONTINUOUS
 62
     7
100
AcDbLine
 10
172.8768329151
 20
97.5724912587
 30
0.0
 11
173.5104188078
 21
18.5043159755
 31
0.0
  0
LINE
  5
431
330
3E7
100
AcDbEntity
  8
0
  6
CONTINUOUS
 62
     7
100
AcDbLine
 10
299.1393952782
 20
81.6649036519
 30
0.0
 11
172.8768329151
 21
97.5724912587
 31
0.0
  0
LINE
  5
432
330
3E7
100
AcDbEntity
  8
0
  6
CONTINUOUS
 62
     7
100
AcDbLine
 10
299.5659767756
 20
2.1457217507
 30
0.0
 11
173.5024950802
 21
18.028227551
 31
0.0
  0
LINE
  5
433
330
3E7
100
AcDbEntity
  8
0
  6
CONTINUOUS
 62
     7
100
AcDbLine
 10
344.27200631
 20
120.5253521136
 30
0.0
 11
300.4283139355
 21
81.8588499188
 31
0.0
  0
LINE
  5
434
330
3E7
100
AcDbEntity
  8
0
  6
CONTINUOUS
 62
     7
100
AcDbLine
 10
344.27200631
 20
120.5253521136
 30
0.0
 11
344.9577894828
 21
41.2347646033
 31
0.0
  0
LINE
  5
435
330
3E7
100
AcDbEntity
  8
0
  6
CONTINUOUS
 62
     7
100
AcDbLine
 10
344.9577894828
 20
41.2347646033
 30
0.0
 11
300.8548954329
 21
2.3396680176
 31
0.0
  0
LINE
  5
436
330
3E7
100
AcDbEntity
  8
0
  6
CONTINUOUS
 62
     7
100
AcDbLine
 10
159.3627944268
 20
97.5814737108
 30
0.0
 11
159.8434996837
 21
99.7780965091
 31
0.0
  0
ARC
  5
437
330
3E7
100
AcDbEntity
  8
0
  6
CONTINUOUS
 62
     7
100
AcDbCircle
 10
-141.3958272114
 20
109.1881039949
 30
0.0
 40
18.58841740346771
100
AcDbArc
 50
157.4615617346
 51
201.6333079079
  0
ARC
  5
438
330
3E7
100
AcDbEntity
  8
0
  6
CONTINUOUS
 62
     7
100
AcDbCircle
 10
141.38305756
 20
109.1896968547
 30
0.0
 40
18.60058645315534
100
AcDbArc
 50
338.5097202103
 51
22.8557273637
  0
ARC
  5
439
330
3E7
100
AcDbEntity
  8
0
  6
CONTINUOUS
 62
     7
100
AcDbCircle
 10
142.1093625686
 20
102.5657661071
 30
0.0
 40
17.95190020595851
100
AcDbArc
 50
351.0666459641
 51
0.5089020353
  0
ARC
  5
43A
330
3E7
100
AcDbEntity
  8
0
  6
CONTINUOUS
 62
     7
100
AcDbCircle
 10
133.3528852434
 20
24.6294139147
 30
0.0
 40
28.12148736684272
100
AcDbArc
 50
313.8044031123
 51
341.5221812135
  0
ARC
  5
43B
330
3E7
100
AcDbEntity
  8
0
  6
CONTINUOUS
 62
     7
100
AcDbCircle
 10
0.1003277627
 20
-298.2216780482
 30
0.0
 40
461.3640487081263
100
AcDbArc
 50
84.3688265629
 51
97.167212765
  0
ARC
  5
43C
330
3E7
100
AcDbEntity
  8
0
  6
CONTINUOUS
 62
     7
100
AcDbCircle
 10
0.0015948336
 20
-291.1967915572
 30
0.0
 40
453.240502776128
100
AcDbArc
 50
83.5616537138
 51
96.4589628965
  0
ARC
  5
43D
330
3E7
100
AcDbEntity
  8
0
  6
CONTINUOUS
 62
     7
100
AcDbCircle
 10
-134.1707818003
 20
109.9473151884
 30
0.0
 40
20.58765243525619
100
AcDbArc
 50
179.4735380956
 51
218.2797017753
  0
ARC
  5
43E
330
3E7
100
AcDbEntity
  8
0
  6
CONTINUOUS
 62
     7
100
AcDbCircle
 10
133.3659500503
 20
110.0960669099
 30
0.0
 40
21.38515881636307
100
AcDbArc
 50
317.0125735819
 51
0.5613875325
  0
ARC
  5
43F
330
3E7
100
AcDbEntity
  8
0
  6
CONTINUOUS
 62
     7
100
AcDbCircle
 10
299.49794134
 20
83.6619852533
 30
0.0
 40
2.029012124465508
100
AcDbArc
 50
259.8218343204
 51
297.2925988434
  0
ARC
  5
440
330
3E7
100
AcDbEntity
  8
0
  6
CONTINUOUS
 62
     7
100
AcDbCircle
 10
299.9340109183
 20
4.0797479257
 30
0.0
 40
1.96873217469772
100
AcDbArc
 50
259.225759568
 51
297.8886735958
  0
ARC
  5
441
330
3E7
100
AcDbEntity
  8
0
  6
CONTINUOUS
 62
     7
100
AcDbCircle
 10
301.0980309161
 20
81.7826564048
 30
0.0
 40
1.962172080357664
100
AcDbArc
 50
144.887061517
 51
183.4404688546
  0
ARC
  5
442
330
3E7
100
AcDbEntity
  8
0
  6
CONTINUOUS
 62
     7
100
AcDbCircle
 10
299.3361623019
 20
81.8300535263
 30
0.0
 40
1.09253120005327
100
AcDbArc
 50
1.5103484933
 51
81.7498549023
  0
ARC
  5
443
330
3E7
100
AcDbEntity
  8
0
  6
CONTINUOUS
 62
     7
100
AcDbCircle
 10
174.835468553
 20
97.6902440117
 30
0.0
 40
1.96217208035756
100
AcDbArc
 50
144.887061517
 51
183.4404688546
  0
ARC
  5
444
330
3E7
100
AcDbEntity
  8
0
  6
CONTINUOUS
 62
     7
100
AcDbCircle
 10
343.1798546763
 20
120.4965557211
 30
0.0
 40
1.092531200053328
100
AcDbArc
 50
1.5103484933
 51
81.7498549023
  0
ARC
  5
445
330
3E7
100
AcDbEntity
  8
0
  6
CONTINUOUS
 62
     7
100
AcDbCircle
 10
161.2727374459
 20
96.9508050074
 30
0.0
 40
1.27890793330307
100
AcDbArc
 50
358.016755433
 51
62.0648850276
  0
ARC
  5
446
330
3E7
100
AcDbEntity
  8
0
  6
CONTINUOUS
 62
     7
100
AcDbCircle
 10
142.8099634064
 20
100.6506219083
 30
0.0
 40
19.23436474276046
100
AcDbArc
 50
352.3216726541
 51
26.6569652226
  0
VIEWPORT
  5
457
330
3E7
100
AcDbEntity
  8
0
100
AcDbViewport
 10
0.0
 20
0.0
 30
0.0
 40
205.6
 41
156.0
 68
     1
 69
     1
1001
ACAD
1000
MVIEW
1002
{
1070
    16
1010
0.0
1020
0.0
1030
0.0
1010
0.0
1020
0.0
1030
1.0
1040
0.0
1040
357.2134125294
1040
69.9628822539
1040
9.5919903727
1040
50.0
1040
0.0
1040
0.0
1070
     0
1070
   100
1070
     0
1070
     3
1070
     0
1070
     0
1070
     0
1070
     0
1040
0.0
1040
0.0
1040
0.0
1040
10.0
1040
10.0
1040
10.0
1040
10.0
1070
     0
1002
{
1002
}
1002
}
  0
ENDBLK
  5
3EA
330
3E7
100
AcDbEntity
  8
0
100
AcDbBlockEnd
  0
ENDSEC
  0
SECTION
  2
ENTITIES
  0
SPLINE
  5
65
330
1F
100
AcDbEntity
  8
0
  6
CONTINUOUS
 62
     7
100
AcDbSpline
210
0.0
220
0.0
230
1.0
 70
     8
 71
     3
 72
    10
 73
     6
 74
     0
 42
0.00000001
 43
0.00000001
 40
0.0
 40
0.0
 40
0.0
 40
0.0
 40
0.3499721515245388
 40
0.7799499748297686
 40
1.0
 40
1.0
 40
1.0
 40
1.0
 10
-39.65831489814523
 20
156.6615751180977
 30
0.0
 10
-40.02024347105719
 20
156.3988426961846
 30
0.0
 10
-40.82683959621505
 20
155.8133156907774
 30
0.0
 10
-41.99122946710609
 20
155.2520191999526
 30
0.0
 10
-42.79663511998483
 20
155.0470179549382
 30
0.0
 10
-43.06928426048531
 20
154.9776201141671
 30
0.0
  0
SPLINE
  5
66
330
1F
100
AcDbEntity
  8
0
  6
CONTINUOUS
 62
     7
100
AcDbSpline
210
0.0
220
0.0
230
1.0
 70
     8
 71
     3
 72
    14
 73
    10
 74
     0
 42
0.00000001
 43
0.00000001
 40
0.0
 40
0.0
 40
0.0
 40
0.0
 40
0.0389352264290699
 40
0.1573985536025017
 40
0.342406232461836
 40
0.5657558989233394
 40
0.7586650483466033
 40
0.9643449778824028
 40
1.0
 40
1.0
 40
1.0
 40
1.0
 10
-35.89309857306609
 20
162.8680014138372
 30
0.0
 10
-35.90708013951537
 20
162.7783288085011
 30
0.0
 10
-35.96360166354509
 20
162.4158206206165
 30
0.0
 10
-36.17867891806534
 20
161.5826103747424
 30
0.0
 10
-36.6295255837327
 20
160.3582840466689
 30
0.0
 10
-37.35981583244366
 20
159.0390942142104
 30
0.0
 10
-38.32552621563357
 20
157.8305045021149
 30
0.0
 10
-39.08548719408225
 20
157.045595239079
 30
0.0
 10
-39.58457871130828
 20
156.7110073979769
 30
0.0
 10
-39.65831489814523
 20
156.6615751180977
 30
0.0
  0
CIRCLE
  5
68
330
1F
100
AcDbEntity
  8
0
  6
CONTINUOUS
 62
     7
100
AcDbCircle
 10
0.0
 20
0.0
 30
0.0
 40
155.7245796237927
  0
CIRCLE
  5
69
330
1F
100
AcDbEntity
  8
0
  6
CONTINUOUS
 62
     7
100
AcDbCircle
 10
0.0
 20
0.0
 30
0.0
 40
159.0000380769358
  0
CIRCLE
  5
6A
330
1F
100
AcDbEntity
  8
0
  6
CONTINUOUS
 62
     7
100
AcDbCircle
 10
0.0
 20
0.0
 30
0.0
 40
154.7708626730445
  0
CIRCLE
  5
6B
330
1F
100
AcDbEntity
  8
0
  6
CONTINUOUS
 62
     7
100
AcDbCircle
 10
0.0
 20
0.0
 30
0.0
 40
159.9999999999999
  0
CIRCLE
  5
6C
330
1F
100
AcDbEntity
  8
0
  6
CONTINUOUS
 62
     7
100
AcDbCircle
 10
0.0
 20
0.0
 30
0.0
 40
134.4338916994191
  0
LWPOLYLINE
  5
6D
330
1F
100
AcDbEntity
  8
0
  6
CONTINUOUS
 62
     7
100
AcDbPolyline
 90
        3
 70
   128
 43
0.0
 10
-42.3373479416
 20
154.3605325915
 10
-42.5043351619
 20
154.4956541138
 10
-43.0595379036
 20
154.9440612641
  0
LWPOLYLINE
  5
6F
330
1F
100
AcDbEntity
  8
0
  6
CONTINUOUS
 62
     7
100
AcDbPolyline
 90
        3
 70
   128
 43
0.0
 10
155.3230344628
 20
41.6718237033
 10
155.0988264158
 20
41.83346734
 10
154.3513994773
 20
42.3706328967
  0
SPLINE
  5
71
330
1F
100
AcDbEntity
  8
0
  6
CONTINUOUS
 62
     7
100
AcDbSpline
210
0.0
220
0.0
230
1.0
 70
     8
 71
     3
 72
    18
 73
    14
 74
     0
 42
0.00000001
 43
0.00000001
 40
0.0
 40
0.0
 40
0.0
 40
0.0
 40
0.1250000000000027
 40
0.1250000000000027
 40
0.2500000000000055
 40
0.2500000000000055
 40
0.5000000000000038
 40
0.5000000000000038
 40
0.7500000000000021
 40
0.7500000000000021
 40
0.8750000000000011
 40
0.8750000000000011
 40
1.0
 40
1.0
 40
1.0
 40
1.0
 10
-35.76168383494461
 20
158.0662759887193
 30
0.0
 10
-35.99300301760723
 20
157.8272376341527
 30
0.0
 10
-36.23295801058143
 20
157.6020465225042
 30
0.0
 10
-36.72828516480975
 20
157.1742579636079
 30
0.0
 10
-36.98427157332797
 20
156.9712669298174
 30
0.0
 10
-37.76944766273779
 20
156.3948438343957
 30
0.0
 10
-38.3090343745541
 20
156.0578056526514
 30
0.0
 10
-39.41890445129498
 20
155.4545191362561
 30
0.0
 10
-39.99037875915889
 20
155.1884653632829
 30
0.0
 10
-40.85907825805621
 20
154.8410999502361
 30
0.0
 10
-41.15105703672302
 20
154.7337232517968
 30
0.0
 10
-41.74021333106348
 20
154.535079097153
 30
0.0
 10
-42.03845462351519
 20
154.44351929821
 30
0.0
 10
-42.33734794164194
 20
154.3605325915483
 30
0.0
  0
SPLINE
  5
72
330
1F
100
AcDbEntity
  8
0
  6
CONTINUOUS
 62
     7
100
AcDbSpline
210
0.0
220
0.0
230
1.0
 70
     8
 71
     3
 72
    20
 73
    16
 74
     0
 42
0.00000001
 43
0.00000001
 40
0.0
 40
0.0
 40
0.0
 40
0.0
 40
0.1249999999999973
 40
0.1249999999999973
 40
0.2499999999999945
 40
0.2499999999999945
 40
0.4999999999999977
 40
0.4999999999999977
 40
0.7500000000000008
 40
0.7500000000000008
 40
0.8750000000000014
 40
0.8750000000000014
 40
0.9375000000000007
 40
0.9375000000000007
 40
1.0
 40
1.0
 40
1.0
 40
1.0
 10
-36.60226325789942
 20
158.6078538282537
 30
0.0
 10
-36.7845701747388
 20
158.3248958649933
 30
0.0
 10
-36.97710441200922
 20
158.0565914392114
 30
0.0
 10
-37.38229408897872
 20
157.544904936528
 30
0.0
 10
-37.59555529054587
 20
157.3009465367666
 30
0.0
 10
-38.26188037680198
 20
156.6075037209068
 30
0.0
 10
-38.72616087113252
 20
156.2103442385916
 30
0.0
 10
-39.69866768502545
 20
155.5130404448117
 30
0.0
 10
-40.20949917383393
 20
155.2130346479452
 30
0.0
 10
-40.99089146845144
 20
154.8397631370379
 30
0.0
 10
-41.25470340918264
 20
154.7275760822851
 30
0.0
 10
-41.65618735058968
 20
154.5768114384547
 30
0.0
 10
-41.79097763254308
 20
154.5294839905554
 30
0.0
 10
-42.06262834945751
 20
154.4406350822317
 30
0.0
 10
-42.20040202606842
 20
154.3988598484723
 30
0.0
 10
-42.33734794164193
 20
154.3605325915483
 30
0.0
  0
SPLINE
  5
76
330
1F
100
AcDbEntity
  8
0
  6
CONTINUOUS
 62
     7
100
AcDbSpline
210
0.0
220
0.0
230
1.0
 70
     8
 71
     3
 72
    14
 73
    10
 74
     0
 42
0.00000001
 43
0.00000001
 40
0.0
 40
0.0
 40
0.0
 40
0.0
 40
0.25
 40
0.25
 40
0.5
 40
0.5
 40
0.75
 40
0.75
 40
1.0
 40
1.0
 40
1.0
 40
1.0
 10
-36.60226325789942
 20
158.6078538282537
 30
0.0
 10
-36.34254147255855
 20
159.0109671531264
 30
0.0
 10
-36.11386201882149
 20
159.4292619568584
 30
0.0
 10
-35.71737193866101
 20
160.2956199086225
 30
0.0
 10
-35.5488651532189
 20
160.7466239143528
 30
0.0
 10
-35.28006773073539
 20
161.6611550137821
 30
0.0
 10
-35.17908322603752
 20
162.1249577934193
 30
0.0
 10
-35.0433311606721
 20
163.065518183368
 30
0.0
 10
-35.00864792788316
 20
163.5442575244579
 30
0.0
 10
-35.0086507124692
 20
164.0237942346885
 30
0.0
  0
SPLINE
  5
78
330
1F
100
AcDbEntity
  8
0
  6
CONTINUOUS
 62
     7
100
AcDbSpline
210
0.0
220
0.0
230
1.0
 70
     8
 71
     3
 72
    20
 73
    16
 74
     0
 42
0.00000001
 43
0.00000001
 40
0.0
 40
0.0
 40
0.0
 40
0.0
 40
0.1249999999999984
 40
0.1249999999999984
 40
0.2499999999999969
 40
0.2499999999999969
 40
0.499999999999998
 40
0.499999999999998
 40
0.7499999999999991
 40
0.7499999999999991
 40
0.8750000000000009
 40
0.8750000000000009
 40
0.9375000000000004
 40
0.9375000000000004
 40
1.0
 40
1.0
 40
1.0
 40
1.0
 10
155.0810366189636
 20
49.45746020768539
 30
0.0
 10
154.9309580393285
 20
49.15675593716021
 30
0.0
 10
154.7985438268706
 20
48.85476486034822
 30
0.0
 10
154.5652445536424
 20
48.24623718729364
 30
0.0
 10
154.4641814694778
 20
47.93892800152583
 30
0.0
 10
154.2073657272476
 20
47.01353878191667
 30
0.0
 10
154.1022653195928
 20
46.41263328711168
 30
0.0
 10
153.9979250575608
 20
45.22257370623198
 30
0.0
 10
154.0001262873645
 20
44.63122147838128
 30
0.0
 10
154.0772533362274
 20
43.77036488828949
 30
0.0
 10
154.1152087620359
 20
43.48678558103395
 30
0.0
 10
154.1901736705828
 20
43.06540348335407
 30
0.0
 10
154.2181749025159
 20
42.92561029000213
 30
0.0
 10
154.2802361609092
 20
42.64720813752961
 30
0.0
 10
154.3145446846761
 20
42.50768190104978
 30
0.0
 10
154.3513994773448
 20
42.37063289665664
 30
0.0
  0
SPLINE
  5
79
330
1F
100
AcDbEntity
  8
0
  6
CONTINUOUS
 62
     7
100
AcDbSpline
210
0.0
220
0.0
230
1.0
 70
     8
 71
     3
 72
    18
 73
    14
 74
     0
 42
0.00000001
 43
0.00000001
 40
0.0
 40
0.0
 40
0.0
 40
0.0
 40
0.1249999999999983
 40
0.1249999999999983
 40
0.2499999999999965
 40
0.2499999999999965
 40
0.4999999999999977
 40
0.4999999999999977
 40
0.7499999999999988
 40
0.7499999999999988
 40
0.8749999999999994
 40
0.8749999999999994
 40
1.0
 40
1.0
 40
1.0
 40
1.0
 10
154.1863751600972
 20
49.90398131053528
 30
0.0
 10
154.0989779083843
 20
49.58356850433541
 30
0.0
 10
154.0277591523786
 20
49.26281205915168
 30
0.0
 10
153.9124926044005
 20
48.61959002970954
 30
0.0
 10
153.8684182626101
 20
48.29641302692539
 30
0.0
 10
153.7728730320219
 20
47.32856673300878
 30
0.0
 10
153.757940971754
 20
46.69358303439557
 30
0.0
 10
153.8046471200859
 20
45.43336040443543
 30
0.0
 10
153.8670558884763
 20
44.80718088902861
 30
0.0
 10
154.0110798390255
 20
43.88444898817873
 30
0.0
 10
154.0675638528948
 20
43.57909429374584
 30
0.0
 10
154.1970642608079
 20
42.97214123661671
 30
0.0
 10
154.2703728782294
 20
42.66947615291868
 30
0.0
 10
154.3513994773448
 20
42.37063289665664
 30
0.0
  0
SPLINE
  5
7C
330
1F
100
AcDbEntity
  8
0
  6
CONTINUOUS
 62
     7
100
AcDbSpline
210
0.0
220
0.0
230
1.0
 70
     8
 71
     3
 72
    20
 73
    16
 74
     0
 42
0.00000001
 43
0.00000001
 40
0.0
 40
0.0
 40
0.0
 40
0.0
 40
0.1249999999999994
 40
0.1249999999999994
 40
0.2499999999999987
 40
0.2499999999999987
 40
0.3749999999999981
 40
0.3749999999999981
 40
0.4999999999999974
 40
0.4999999999999974
 40
0.6249999999999968
 40
0.6249999999999968
 40
0.7499999999999962
 40
0.7499999999999962
 40
1.0
 40
1.0
 40
1.0
 40
1.0
 10
164.0283318969726
 20
54.9913492875308
 30
0.0
 10
163.5626603166228
 20
54.99135393674202
 30
0.0
 10
163.0962329688015
 20
54.95857144015819
 30
0.0
 10
162.1798697603101
 20
54.82994255019376
 30
0.0
 10
161.7301058979325
 20
54.73454343517761
 30
0.0
 10
160.8470276694881
 20
54.48300122260647
 30
0.0
 10
160.413712423005
 20
54.3268613762142
 30
0.0
 10
159.5641032912778
 20
53.95172594302406
 30
0.0
 10
159.1534681652914
 20
53.73486933060272
 30
0.0
 10
158.3720490929608
 20
53.2508984177646
 30
0.0
 10
157.9992118028049
 20
52.9828905516407
 30
0.0
 10
157.2896048104165
 20
52.39435956476228
 30
0.0
 10
156.9507724808679
 20
52.07116561317996
 30
0.0
 10
156.0173458183594
 20
51.04765624248948
 30
0.0
 10
155.4969403911121
 20
50.2907839286105
 30
0.0
 10
155.0810366189635
 20
49.4574602076854
 30
0.0
  0
SPLINE
  5
86
330
1F
100
AcDbEntity
  8
0
  6
CONTINUOUS
 62
     7
100
AcDbSpline
210
0.0
220
0.0
230
1.0
 70
     8
 71
     3
 72
    20
 73
    16
 74
     0
 42
0.00000001
 43
0.00000001
 40
0.0
 40
0.0
 40
0.0
 40
0.0
 40
0.250000000000001
 40
0.250000000000001
 40
0.3750000000000009
 40
0.3750000000000009
 40
0.5000000000000008
 40
0.5000000000000008
 40
0.6250000000000006
 40
0.6250000000000006
 40
0.7500000000000004
 40
0.7500000000000004
 40
0.8750000000000002
 40
0.8750000000000002
 40
1.0
 40
1.0
 40
1.0
 40
1.0
 10
154.1863751600973
 20
49.90398131053527
 30
0.0
 10
154.6438706760916
 20
50.82063139303296
 30
0.0
 10
155.2163147268359
 20
51.65318725155485
 30
0.0
 10
156.2430761887707
 20
52.7790455611805
 30
0.0
 10
156.6157882808442
 20
53.13455893161768
 30
0.0
 10
157.3963487646467
 20
53.78194520638694
 30
0.0
 10
157.8064658638594
 20
54.07675583189408
 30
0.0
 10
158.6660185583884
 20
54.60912925817068
 30
0.0
 10
159.1177125448615
 20
54.84767489465127
 30
0.0
 10
160.0522744258772
 20
55.26033234429769
 30
0.0
 10
160.5289173629963
 20
55.43209100377906
 30
0.0
 10
161.5002963685918
 20
55.70879770966116
 30
0.0
 10
161.9950334041523
 20
55.81374218501144
 30
0.0
 10
163.00302729445
 20
55.95524493716457
 30
0.0
 10
163.5160950609714
 20
55.99131121059497
 30
0.0
 10
164.0283318969726
 20
55.99131121059497
 30
0.0
  0
SPLINE
  5
87
330
1F
100
AcDbEntity
  8
0
  6
CONTINUOUS
 62
     7
100
AcDbSpline
210
0.0
220
0.0
230
1.0
 70
     8
 71
     3
 72
    12
 73
     8
 74
     0
 42
0.00000001
 43
0.00000001
 40
0.0
 40
0.0
 40
0.0
 40
0.0
 40
0.5
 40
0.5
 40
0.75
 40
0.75
 40
1.0
 40
1.0
 40
1.0
 40
1.0
 10
-34.00868878940503
 20
164.0237942346885
 30
0.0
 10
-34.00868878940502
 20
162.9665918545532
 30
0.0
 10
-34.15800770051883
 20
161.9348183625644
 30
0.0
 10
-34.60100445802103
 20
160.4244567769822
 30
0.0
 10
-34.78660527389962
 20
159.9269002651703
 30
0.0
 10
-35.22338120758442
 20
158.971761781967
 30
0.0
 10
-35.47538785482838
 20
158.510634107152
 30
0.0
 10
-35.76168383494461
 20
158.0662759887192
 30
0.0
  0
SPLINE
  5
93
330
1F
100
AcDbEntity
  8
0
  6
CONTINUOUS
 62
     7
100
AcDbSpline
210
0.0
220
0.0
230
1.0
 70
     8
 71
     3
 72
     8
 73
     4
 74
     0
 42
0.00000001
 43
0.00000001
 40
0.0
 40
0.0
 40
0.0
 40
0.0
 40
1.0
 40
1.0
 40
1.0
 40
1.0
 10
164.9810983388893
 20
54.26261774934166
 30
0.0
 10
164.9830116668639
 20
54.26115008624381
 30
0.0
 10
164.9807428477758
 20
54.2596829156957
 30
0.0
 10
164.9742911327139
 20
54.2582162377855
 30
0.0
  0
SPLINE
  5
95
330
1F
100
AcDbEntity
  8
0
  6
CONTINUOUS
 62
     7
100
AcDbSpline
210
0.0
220
0.0
230
1.0
 70
     8
 71
     3
 72
     8
 73
     4
 74
     0
 42
0.00000001
 43
0.00000001
 40
0.0
 40
0.0
 40
0.0
 40
0.0
 40
1.0
 40
1.0
 40
1.0
 40
1.0
 10
-35.74178376221448
 20
164.5693294512295
 30
0.0
 10
-35.74031726116708
 20
164.5765982653396
 30
0.0
 10
-35.73885009075996
 20
164.5796759461487
 30
0.0
 10
-35.73738225065834
 20
164.5785603973746
 30
0.0
  0
CIRCLE
  5
98
330
1F
100
AcDbEntity
  8
0
  6
CONTINUOUS
 62
     7
100
AcDbCircle
 10
0.0
 20
0.0
 30
0.0
 40
115.7594727084466
  0
CIRCLE
  5
99
330
1F
100
AcDbEntity
  8
0
  6
CONTINUOUS
 62
     7
100
AcDbCircle
 10
0.0
 20
0.0
 30
0.0
 40
48.16836135518233
  0
CIRCLE
  5
9A
330
1F
100
AcDbEntity
  8
0
  6
CONTINUOUS
 62
     7
100
AcDbCircle
 10
0.0
 20
0.0
 30
0.0
 40
45.22880627331196
  0
CIRCLE
  5
9B
330
1F
100
AcDbEntity
  8
0
  6
CONTINUOUS
 62
     7
100
AcDbCircle
 10
0.0
 20
0.0
 30
0.0
 40
45.05043222968462
  0
CIRCLE
  5
9C
330
1F
100
AcDbEntity
  8
0
  6
CONTINUOUS
 62
     7
100
AcDbCircle
 10
0.0
 20
0.0
 30
0.0
 40
42.1108771478142
  0
CIRCLE
  5
9F
330
1F
100
AcDbEntity
  8
0
  6
CONTINUOUS
 62
     7
100
AcDbCircle
 10
0.0
 20
0.0
 30
0.0
 40
34.47938398148553
  0
CIRCLE
  5
A0
330
1F
100
AcDbEntity
  8
0
  6
CONTINUOUS
 62
     7
100
AcDbCircle
 10
0.0
 20
0.0
 30
0.0
 40
23.00000000000001
  0
LWPOLYLINE
  5
A1
330
1F
100
AcDbEntity
  8
0
  6
CONTINUOUS
 62
     7
100
AcDbPolyline
 90
        3
 70
   128
 43
0.0
 10
164.9810983389
 20
54.2626177493
 10
162.958814172
 20
54.0557816546
 10
162.3154680778
 20
53.9004940815
  0
LINE
  5
A2
330
1F
100
AcDbEntity
  8
0
  6
CONTINUOUS
 62
     7
100
AcDbLine
 10
162.3244659082
 20
53.890477117
 30
0.0
 11
162.7747669434
 21
54.0123970859
 31
0.0
  0
LINE
  5
A3
330
1F
100
AcDbEntity
  8
0
  6
CONTINUOUS
 62
     7
100
AcDbLine
 10
-35.7616838349
 20
158.0662759887
 30
0.0
 11
-36.6022632579
 21
158.6078538283
 31
0.0
  0
LINE
  5
A4
330
1F
100
AcDbEntity
  8
0
  6
CONTINUOUS
 62
     7
100
AcDbLine
 10
-35.7373822507
 20
164.5785603974
 30
0.0
 11
-35.0086507125
 21
164.0237942347
 31
0.0
  0
LINE
  5
A5
330
1F
100
AcDbEntity
  8
0
  6
CONTINUOUS
 62
     7
100
AcDbLine
 10
155.081036619
 20
49.4574602077
 30
0.0
 11
154.1863751601
 21
49.9039813105
 31
0.0
  0
LINE
  5
A6
330
1F
100
AcDbEntity
  8
0
  6
CONTINUOUS
 62
     7
100
AcDbLine
 10
164.028331897
 20
54.9913492875
 30
0.0
 11
164.9810983389
 21
54.2626177493
 31
0.0
  0
LINE
  5
A7
330
1F
100
AcDbEntity
  8
0
  6
CONTINUOUS
 62
     7
100
AcDbLine
 10
300.0086507125
 20
180.0
 30
0.0
 11
300.0086507125
 21
55.9913112106
 31
0.0
  0
LINE
  5
A8
330
1F
100
AcDbEntity
  8
0
  6
CONTINUOUS
 62
     7
100
AcDbLine
 10
164.028331897
 20
55.9913112106
 30
0.0
 11
300.0086507125
 21
55.9913112106
 31
0.0
  0
LINE
  5
A9
330
1F
100
AcDbEntity
  8
0
  6
CONTINUOUS
 62
     7
100
AcDbLine
 10
299.0086887894
 20
54.9913492875
 30
0.0
 11
299.0086887894
 21
180.0
 31
0.0
  0
LINE
  5
AA
330
1F
100
AcDbEntity
  8
0
  6
CONTINUOUS
 62
     7
100
AcDbLine
 10
-35.7417837622
 20
180.0
 30
0.0
 11
300.7417837622
 21
180.0
 31
0.0
  0
LINE
  5
AB
330
1F
100
AcDbEntity
  8
0
  6
CONTINUOUS
 62
     7
100
AcDbLine
 10
299.0086887894
 20
54.9913492875
 30
0.0
 11
164.028331897
 21
54.9913492875
 31
0.0
  0
LINE
  5
AC
330
1F
100
AcDbEntity
  8
0
  6
CONTINUOUS
 62
     7
100
AcDbLine
 10
164.028331897
 20
54.9913492875
 30
0.0
 11
164.028331897
 21
55.9913112106
 31
0.0
  0
LINE
  5
AD
330
1F
100
AcDbEntity
  8
0
  6
CONTINUOUS
 62
     7
100
AcDbLine
 10
-34.0086887894
 20
180.0
 30
0.0
 11
-34.0086887894
 21
164.0237942347
 31
0.0
  0
LINE
  5
AE
330
1F
100
AcDbEntity
  8
0
  6
CONTINUOUS
 62
     7
100
AcDbLine
 10
-34.0086887894
 20
164.0237942347
 30
0.0
 11
-35.0086507125
 21
164.0237942347
 31
0.0
  0
LINE
  5
AF
330
1F
100
AcDbEntity
  8
0
  6
CONTINUOUS
 62
     7
100
AcDbLine
 10
-35.0086507125
 20
164.0237942347
 30
0.0
 11
-35.0086507125
 21
180.0
 31
0.0
  0
LINE
  5
B0
330
1F
100
AcDbEntity
  8
0
  6
CONTINUOUS
 62
     7
100
AcDbLine
 10
299.7418218392
 20
54.2582162378
 30
0.0
 11
299.0086887894
 21
54.9913492875
 31
0.0
  0
LINE
  5
B1
330
1F
100
AcDbEntity
  8
0
  6
CONTINUOUS
 62
     7
100
AcDbLine
 10
300.0086507125
 20
55.9913112106
 30
0.0
 11
300.7417837622
 21
55.2581781608
 31
0.0
  0
LINE
  5
B2
330
1F
100
AcDbEntity
  8
0
  6
CONTINUOUS
 62
     7
100
AcDbLine
 10
300.7417837622
 20
180.0
 30
0.0
 11
300.7417837622
 21
55.2581781608
 31
0.0
  0
LINE
  5
B3
330
1F
100
AcDbEntity
  8
0
  6
CONTINUOUS
 62
     7
100
AcDbLine
 10
299.7418218392
 20
54.2582162378
 30
0.0
 11
164.9742911327
 21
54.2582162378
 31
0.0
  0
LINE
  5
B4
330
1F
100
AcDbEntity
  8
0
  6
CONTINUOUS
 62
     7
100
AcDbLine
 10
-35.7417837622
 20
164.5693294512
 30
0.0
 11
-35.7417837622
 21
180.0
 31
0.0
  0
LINE
  5
B5
330
1F
100
AcDbEntity
  8
0
  6
CONTINUOUS
 62
     7
100
AcDbLine
 10
-36.0283146901
 20
162.8910872349
 30
0.0
 11
-35.7417837622
 21
164.5693294512
 31
0.0
  0
LINE
  5
B6
330
1F
100
AcDbEntity
  8
0
  6
CONTINUOUS
 62
     7
100
AcDbLine
 10
164.9742911327
 20
54.2582162378
 30
0.0
 11
162.7962454677
 21
53.8865337322
 31
0.0
  0
ARC
  5
B7
330
1F
100
AcDbEntity
  8
0
  6
CONTINUOUS
 62
     7
100
AcDbCircle
 10
0.0
 20
0.0
 30
0.0
 40
160.8160192545639
100
AcDbArc
 50
105.532034145
 51
15.0184032869
  0
ARC
  5
B8
330
1F
100
AcDbEntity
  8
0
  6
CONTINUOUS
 62
     7
100
AcDbCircle
 10
0.0
 20
0.0
 30
0.0
 40
160.0613165405001
100
AcDbArc
 50
15.3500192968
 51
105.3376641706
  0
ARC
  5
B9
330
1F
100
AcDbEntity
  8
0
  6
CONTINUOUS
 62
     7
100
AcDbCircle
 10
0.0
 20
0.0
 30
0.0
 40
160.8160002160957
100
AcDbArc
 50
105.5308121985
 51
15.0182883906
  0
ARC
  5
BA
330
1F
100
AcDbEntity
  8
0
  6
CONTINUOUS
 62
     7
100
AcDbCircle
 10
-45.7378438285
 20
164.5792005757
 30
0.0
 40
10.00046159829876
100
AcDbArc
 50
285.5344799805
 51
359.996332218
  0
ARC
  5
BB
330
1F
100
AcDbEntity
  8
0
  6
CONTINUOUS
 62
     7
100
AcDbCircle
 10
164.9824323612
 20
44.2620116792
 30
0.0
 40
10.00065205417821
100
AcDbArc
 50
105.4667454962
 51
195.0108472207
  0
ARC
  5
BC
330
1F
100
AcDbEntity
  8
0
  6
CONTINUOUS
 62
     7
100
AcDbCircle
 10
0.0
 20
0.0
 30
0.0
 40
162.0612403866278
100
AcDbArc
 50
17.934699132
 51
102.7482542078
  0
ARC
  5
BD
330
1F
100
AcDbEntity
  8
0
  6
CONTINUOUS
 62
     7
100
AcDbCircle
 10
299.0085995962
 20
55.9914004038
 30
0.0
 40
1.000051120240249
100
AcDbArc
 50
270.0051101326
 51
359.9948898674
  0
ARC
  5
BE
330
1F
100
AcDbEntity
  8
0
  6
CONTINUOUS
 62
     7
100
AcDbCircle
 10
299.741834877
 20
55.258165123
 30
0.0
 40
0.9999488852722772
100
AcDbArc
 50
269.9992529465
 51
0.0007470535
  0
SPLINE
  5
CE
330
1B
100
AcDbEntity
 67
     1
  8
0
  6
CONTINUOUS
 62
     7
100
AcDbSpline
210
0.0
220
0.0
230
1.0
 70
     8
 71
     3
 72
     8
 73
     4
 74
     0
 42
0.00000001
 43
0.00000001
 40
0.0
 40
0.0
 40
0.0
 40
0.0
 40
1.0
 40
1.0
 40
1.0
 40
1.0
 10
164.9810983388893
 20
22.30375424050178
 30
0.0
 10
164.9830116668639
 20
22.13557670727535
 30
0.0
 10
164.9807428477758
 20
21.96745561465664
 30
0.0
 10
164.9742911327139
 20
21.79939097275269
 30
0.0
  0
SPLINE
  5
CF
330
1B
100
AcDbEntity
 67
     1
  8
0
  6
CONTINUOUS
 62
     7
100
AcDbSpline
210
0.0
220
0.0
230
1.0
 70
    24
 71
     3
 72
     9
 73
     5
 74
     0
 42
0.00000001
 43
0.00000001
 40
0.0
 40
0.0
 40
0.0
 40
0.0
 40
0.7363099956148161
 40
1.0
 40
1.0
 40
1.0
 40
1.0
 10
164.9742911327139
 20
21.79939097275269
 30
0.0
 10
163.8203829009977
 20
21.79939097275269
 30
0.0
 10
162.2532328709987
 20
21.79939097275269
 30
0.0
 10
160.9402793449252
 20
21.79939097275269
 30
0.0
 10
160.5940666238773
 20
21.79939097275269
 30
0.0
  0
SPLINE
  5
D1
330
1B
100
AcDbEntity
 67
     1
  8
0
  6
CONTINUOUS
 62
     7
100
AcDbSpline
210
0.0
220
0.0
230
1.0
 70
    24
 71
     3
 72
     9
 73
     5
 74
     0
 42
0.00000001
 43
0.00000001
 40
0.0
 40
0.0
 40
0.0
 40
0.0
 40
0.7402165652853759
 40
1.0
 40
1.0
 40
1.0
 40
1.0
 10
160.0786179654383
 20
106.7993909727527
 30
0.0
 10
161.0319753125763
 20
106.7993909727527
 30
0.0
 10
162.3199191277361
 20
106.7993909727527
 30
0.0
 10
163.6760353633997
 20
106.7993909727527
 30
0.0
 10
164.0283318969726
 20
106.7993909727527
 30
0.0
  0
LWPOLYLINE
  5
E0
330
1B
100
AcDbEntity
 67
     1
  8
0
  6
CONTINUOUS
 62
     7
100
AcDbPolyline
 90
        4
 70
   128
 43
0.0
 10
164.9810983389
 20
22.3037542405
 10
162.958814172
 20
22.2825520793
 10
161.0201082585
 20
22.265832733
 10
160.8147859356
 20
22.2642940332
  0
SPLINE
  5
E1
330
1B
100
AcDbEntity
 67
     1
  8
0
  6
CONTINUOUS
 62
     7
100
AcDbSpline
210
0.0
220
0.0
230
1.0
 70
     8
 71
     3
 72
     9
 73
     5
 74
     0
 42
0.00000001
 43
0.00000001
 40
0.0
 40
0.0
 40
0.0
 40
0.0
 40
0.2364963335232241
 40
1.0
 40
1.0
 40
1.0
 40
1.0
 10
164.0283318969726
 20
105.8081175082511
 30
0.0
 10
163.7081833466425
 20
105.8084774666013
 30
0.0
 10
162.3544687010045
 20
105.8099995128205
 30
0.0
 10
161.0688275590588
 20
105.8110664808708
 30
0.0
 10
160.0872358334099
 20
105.8118811148893
 30
0.0
  0
LINE
  5
E2
330
1B
100
AcDbEntity
 67
     1
  8
0
  6
CONTINUOUS
 62
     7
100
AcDbLine
 10
160.8160002161
 20
22.3037542405
 30
0.0
 11
160.0
 21
115.8081175083
 31
0.0
  0
LINE
  5
E3
330
1B
100
AcDbEntity
 67
     1
  8
0
  6
CONTINUOUS
 62
     7
100
AcDbLine
 10
-160.0
 20
115.8081175083
 30
0.0
 11
-160.8160002161
 21
22.3037542405
 31
0.0
  0
LINE
  5
E4
330
1B
100
AcDbEntity
 67
     1
  8
0
  6
CONTINUOUS
 62
     7
100
AcDbLine
 10
-60.0
 20
6.7993909728
 30
0.0
 11
-60.0
 21
1.0
 31
0.0
  0
LINE
  5
E5
330
1B
100
AcDbEntity
 67
     1
  8
0
  6
CONTINUOUS
 62
     7
100
AcDbLine
 10
60.0
 20
1.0
 30
0.0
 11
60.0
 21
6.7993909728
 31
0.0
  0
LINE
  5
E6
330
1B
100
AcDbEntity
 67
     1
  8
0
  6
CONTINUOUS
 62
     7
100
AcDbLine
 10
-160.3160192546
 20
21.7993909728
 30
0.0
 11
160.3160192546
 21
21.7993909728
 31
0.0
  0
LINE
  5
E7
330
1B
100
AcDbEntity
 67
     1
  8
0
  6
CONTINUOUS
 62
     7
100
AcDbLine
 10
-159.0000380769
 20
116.7993909728
 30
0.0
 11
159.0000380769
 21
116.7993909728
 31
0.0
  0
LINE
  5
E8
330
1B
100
AcDbEntity
 67
     1
  8
0
  6
CONTINUOUS
 62
     7
100
AcDbLine
 10
-59.0
 20
0.0
 30
0.0
 11
58.9999999924
 21
0.0
 31
0.0
  0
LINE
  5
E9
330
1B
100
AcDbEntity
 67
     1
  8
0
  6
CONTINUOUS
 62
     7
100
AcDbLine
 10
164.028331897
 20
105.8081175083
 30
0.0
 11
164.9810983389
 21
22.3037542405
 31
0.0
  0
LINE
  5
EA
330
1B
100
AcDbEntity
 67
     1
  8
0
  6
CONTINUOUS
 62
     7
100
AcDbLine
 10
164.028331897
 20
105.8081175083
 30
0.0
 11
164.028331897
 21
106.7993909728
 31
0.0
  0
LINE
  5
EB
330
1B
100
AcDbEntity
 67
     1
  8
0
  6
CONTINUOUS
 62
     7
100
AcDbLine
 10
299.0086887894
 20
105.8081175083
 30
0.0
 11
164.028331897
 21
105.8081175083
 31
0.0
  0
LINE
  5
EC
330
1B
100
AcDbEntity
 67
     1
  8
0
  6
CONTINUOUS
 62
     7
100
AcDbLine
 10
299.7418218392
 20
21.7993909728
 30
0.0
 11
299.0086887894
 21
105.8081175083
 31
0.0
  0
LINE
  5
ED
330
1B
100
AcDbEntity
 67
     1
  8
0
  6
CONTINUOUS
 62
     7
100
AcDbLine
 10
300.7417837622
 20
21.7993909728
 30
0.0
 11
164.9742911327
 21
21.7993909728
 31
0.0
  0
LINE
  5
EE
330
1B
100
AcDbEntity
 67
     1
  8
0
  6
CONTINUOUS
 62
     7
100
AcDbLine
 10
300.0086507125
 20
105.8081175083
 30
0.0
 11
300.7417837622
 21
21.7993909728
 31
0.0
  0
LINE
  5
EF
330
1B
100
AcDbEntity
 67
     1
  8
0
  6
CONTINUOUS
 62
     7
100
AcDbLine
 10
299.0086887894
 20
105.8081175083
 30
0.0
 11
299.0086887894
 21
106.7993909728
 31
0.0
  0
LINE
  5
F0
330
1B
100
AcDbEntity
 67
     1
  8
0
  6
CONTINUOUS
 62
     7
100
AcDbLine
 10
164.028331897
 20
106.7993909728
 30
0.0
 11
299.0086887894
 21
106.7993909728
 31
0.0
  0
LINE
  5
F1
330
1B
100
AcDbEntity
 67
     1
  8
0
  6
CONTINUOUS
 62
     7
100
AcDbLine
 10
-160.8160002161
 20
22.3037542405
 30
0.0
 11
160.8160002161
 21
22.3037542405
 31
0.0
  0
LINE
  5
F2
330
1B
100
AcDbEntity
 67
     1
  8
0
  6
CONTINUOUS
 62
     7
100
AcDbLine
 10
-160.0
 20
115.8081175083
 30
0.0
 11
160.0
 21
115.8081175083
 31
0.0
  0
LINE
  5
F3
330
1B
100
AcDbEntity
 67
     1
  8
0
  6
CONTINUOUS
 62
     7
100
AcDbLine
 10
-60.0
 20
6.7993909728
 30
0.0
 11
60.0
 21
6.7993909728
 31
0.0
  0
LINE
  5
F4
330
1B
100
AcDbEntity
 67
     1
  8
0
  6
CONTINUOUS
 62
     7
100
AcDbLine
 10
-60.0
 20
1.0
 30
0.0
 11
60.0
 21
1.0
 31
0.0
  0
ARC
  5
F5
330
1B
100
AcDbEntity
 67
     1
  8
0
  6
CONTINUOUS
 62
     7
100
AcDbCircle
 10
-160.3160192546
 20
22.2993909728
 30
0.0
 40
0.5000000000000592
100
AcDbArc
 50
179.5
 51
270.0
  0
ARC
  5
F6
330
1B
100
AcDbEntity
 67
     1
  8
0
  6
CONTINUOUS
 62
     7
100
AcDbCircle
 10
160.3160192546
 20
22.2993909728
 30
0.0
 40
0.5000000000000028
100
AcDbArc
 50
270.0
 51
0.5
  0
ARC
  5
F7
330
1B
100
AcDbEntity
 67
     1
  8
0
  6
CONTINUOUS
 62
     7
100
AcDbCircle
 10
-159.0000380769
 20
115.7993909728
 30
0.0
 40
1.000000000000014
100
AcDbArc
 50
90.0
 51
179.5
  0
ARC
  5
F8
330
1B
100
AcDbEntity
 67
     1
  8
0
  6
CONTINUOUS
 62
     7
100
AcDbCircle
 10
159.0000380769
 20
115.7993909728
 30
0.0
 40
1.000000000000034
100
AcDbArc
 50
0.5
 51
90.0
  0
ARC
  5
F9
330
1B
100
AcDbEntity
 67
     1
  8
0
  6
CONTINUOUS
 62
     7
100
AcDbCircle
 10
-75.0
 20
6.7993909728
 30
0.0
 40
14.99999999999999
100
AcDbArc
 50
0.0
 51
90.0
  0
ARC
  5
FA
330
1B
100
AcDbEntity
 67
     1
  8
0
  6
CONTINUOUS
 62
     7
100
AcDbCircle
 10
75.0
 20
6.7993909728
 30
0.0
 40
14.99999999999996
100
AcDbArc
 50
90.0
 51
180.0
  0
ARC
  5
FB
330
1B
100
AcDbEntity
 67
     1
  8
0
  6
CONTINUOUS
 62
     7
100
AcDbCircle
 10
-59.0
 20
1.0
 30
0.0
 40
0.9999999999999787
100
AcDbArc
 50
180.0
 51
270.0
  0
ARC
  5
FC
330
1B
100
AcDbEntity
 67
     1
  8
0
  6
CONTINUOUS
 62
     7
100
AcDbCircle
 10
59.0
 20
1.0
 30
0.0
 40
1.0
100
AcDbArc
 50
270.0
 51
0.0
  0
ARC
  5
FD
330
1B
100
AcDbEntity
 67
     1
  8
0
  6
CONTINUOUS
 62
     7
100
AcDbCircle
 10
299.5086697509
 20
77.1584295006
 30
0.0
 40
28.6540503924927
100
AcDbArc
 50
89.0002023313
 51
90.9997976687
  0
ARC
  5
FE
330
1B
100
AcDbEntity
 67
     1
  8
0
  6
CONTINUOUS
 62
     7
100
AcDbCircle
 10
299.0086887894
 20
105.7993909728
 30
0.0
 40
1.000000000000177
100
AcDbArc
 50
0.5
 51
90.0
  0
VIEWPORT
  5
447
330
1B
100
AcDbEntity
 67
     1
  8
0
100
AcDbViewport
 10
0.0
 20
0.0
 30
0.0
 40
205.6
 41
156.0
 68
     1
 69
     1
1001
ACAD
1000
MVIEW
1002
{
1070
    16
1010
0.0
1020
0.0
1030
0.0
1010
0.0
1020
0.0
1030
1.0
1040
0.0
1040
357.2134125294
1040
69.9628822539
1040
9.5919903727
1040
50.0
1040
0.0
1040
0.0
1070
     0
1070
   100
1070
     0
1070
     3
1070
     0
1070
     0
1070
     0
1070
     0
1040
0.0
1040
0.0
1040
0.0
1040
10.0
1040
10.0
1040
10.0
1040
10.0
1070
     0
1002
{
1002
}
1002
}
  0
ENDSEC
  0
SECTION
  2
OBJECTS
  0
DICTIONARY
  5
C
330
0
100
AcDbDictionary
  3
ACAD_GROUP
350
D
  3
ACAD_MLINESTYLE
350
17
  3
ACAD_SCALELIST
350
47
  3
DWGPROPS
350
459
  0
DICTIONARY
  5
D
102
{ACAD_REACTORS
330
C
102
}
330
C
100
AcDbDictionary
  0
DICTIONARY
  5
17
102
{ACAD_REACTORS
330
C
102
}
330
C
100
AcDbDictionary
  3
STANDARD
350
18
  0
DICTIONARY
  5
47
102
{ACAD_REACTORS
330
C
102
}
330
C
100
AcDbDictionary
  0
XRECORD
  5
459
102
{ACAD_REACTORS
330
C
102
}
330
C
100
AcDbXrecord
  1
DWGPROPS COOKIE
  2

  3

  4

  6

  7

  8
m.jentzsch
  9

300
=
301
=
302
=
303
=
304
=
305
=
306
=
307
=
308
=
309
=
 40
0.0
 41
2460389.426334977
 42
2460389.426360845
  1

 90
        0
  0
MLINESTYLE
  5
18
102
{ACAD_REACTORS
330
17
102
}
330
17
100
AcDbMlineStyle
  2
Standard
 70
     0
  3

 62
   256
 51
90.0
 52
90.0
 71
     2
 49
0.5
 62
   256
  6
BYLAYER
 49
-0.5
 62
   256
  6
BYLAYER
  0
ENDSEC
  0
EOF
