  0
SECTION
  2
HEADER
  9
$ACADVER
  1
AC1014
  9
$ACADMAINTVER
 70
     9
  9
$DWGCODEPAGE
  3
ANSI_1252
  9
$INSBASE
 10
0.0
 20
0.0
 30
0.0
  9
$EXTMIN
 10
-159.8970819122
 20
-160.8160192546
 30
0.0
  9
$EXTMAX
 10
301.6607211047
 20
180.0
 30
0.0
  9
$LIMMIN
 10
0.0
 20
0.0
  9
$LIMMAX
 10
420.0
 20
297.0
  9
$ORTHOMODE
 70
     0
  9
$REGENMODE
 70
     1
  9
$FILLMODE
 70
     1
  9
$QTEXTMODE
 70
     0
  9
$MIRRTEXT
 70
     1
  9
$DRAGMODE
 70
     2
  9
$LTSCALE
 40
1.0
  9
$OSMODE
 70
    37
  9
$ATTMODE
 70
     1
  9
$TEXTSIZE
 40
3.5
  9
$TRACEWID
 40
1.0
  9
$TEXTSTYLE
  7
STANDARD
  9
$CLAYER
  8
0
  9
$CELTYPE
  6
BYLAYER
  9
$CECOLOR
 62
   256
  9
$CELTSCALE
 40
1.0
  9
$DELOBJ
 70
     1
  9
$DISPSILH
 70
     0
  9
$DIMSCALE
 40
1.0
  9
$DIMASZ
 40
6.0
  9
$DIMEXO
 40
0.0
  9
$DIMDLI
 40
3.75
  9
$DIMRND
 40
0.0
  9
$DIMDLE
 40
0.0
  9
$DIMEXE
 40
1.0
  9
$DIMTP
 40
0.0
  9
$DIMTM
 40
0.0
  9
$DIMTXT
 40
3.5
  9
$DIMCEN
 40
2.5
  9
$DIMTSZ
 40
0.0
  9
$DIMTOL
 70
     0
  9
$DIMLIM
 70
     0
  9
$DIMTIH
 70
     1
  9
$DIMTOH
 70
     1
  9
$DIMSE1
 70
     0
  9
$DIMSE2
 70
     0
  9
$DIMTAD
 70
     1
  9
$DIMZIN
 70
     0
  9
$DIMBLK
  1

  9
$DIMASO
 70
     1
  9
$DIMSHO
 70
     1
  9
$DIMPOST
  1

  9
$DIMAPOST
  1

  9
$DIMALT
 70
     0
  9
$DIMALTD
 70
     3
  9
$DIMALTF
 40
0.0393700787
  9
$DIMLFAC
 40
1.0
  9
$DIMTOFL
 70
     1
  9
$DIMTVP
 40
0.0
  9
$DIMTIX
 70
     0
  9
$DIMSOXD
 70
     0
  9
$DIMSAH
 70
     0
  9
$DIMBLK1
  1

  9
$DIMBLK2
  1

  9
$DIMSTYLE
  2
ISO-25
  9
$DIMCLRD
 70
     0
  9
$DIMCLRE
 70
     0
  9
$DIMCLRT
 70
     0
  9
$DIMTFAC
 40
1.0
  9
$DIMGAP
 40
1.524
  9
$DIMJUST
 70
     0
  9
$DIMSD1
 70
     0
  9
$DIMSD2
 70
     0
  9
$DIMTOLJ
 70
     0
  9
$DIMTZIN
 70
     0
  9
$DIMALTZ
 70
     0
  9
$DIMALTTZ
 70
     0
  9
$DIMFIT
 70
     3
  9
$DIMUPT
 70
     0
  9
$DIMUNIT
 70
     2
  9
$DIMDEC
 70
     2
  9
$DIMTDEC
 70
     2
  9
$DIMALTU
 70
     2
  9
$DIMALTTD
 70
     3
  9
$DIMTXSTY
  7
STANDARD
  9
$DIMAUNIT
 70
     0
  9
$LUNITS
 70
     2
  9
$LUPREC
 70
     2
  9
$SKETCHINC
 40
1.0
  9
$FILLETRAD
 40
0.0
  9
$AUNITS
 70
     0
  9
$AUPREC
 70
     2
  9
$MENU
  1
.
  9
$ELEVATION
 40
0.0
  9
$PELEVATION
 40
0.0
  9
$THICKNESS
 40
0.0
  9
$LIMCHECK
 70
     0
  9
$CHAMFERA
 40
0.0
  9
$CHAMFERB
 40
0.0
  9
$CHAMFERC
 40
0.0
  9
$CHAMFERD
 40
0.0
  9
$SKPOLY
 70
     0
  9
$TDCREATE
 40
2460389.478259305
  9
$TDUPDATE
 40
2460389.47829456
  9
$TDINDWG
 40
0.0000000116
  9
$TDUSRTIMER
 40
0.0000000116
  9
$USRTIMER
 70
     1
  9
$ANGBASE
 50
0.0
  9
$ANGDIR
 70
     0
  9
$PDMODE
 70
     0
  9
$PDSIZE
 40
-1.0
  9
$PLINEWID
 40
0.0
  9
$COORDS
 70
     1
  9
$SPLFRAME
 70
     0
  9
$SPLINETYPE
 70
     6
  9
$SPLINESEGS
 70
     8
  9
$ATTDIA
 70
     0
  9
$ATTREQ
 70
     1
  9
$HANDLING
 70
     1
  9
$HANDSEED
  5
38B
  9
$SURFTAB1
 70
     6
  9
$SURFTAB2
 70
     6
  9
$SURFTYPE
 70
     6
  9
$SURFU
 70
     6
  9
$SURFV
 70
     6
  9
$UCSNAME
  2

  9
$UCSORG
 10
0.0
 20
0.0
 30
0.0
  9
$UCSXDIR
 10
1.0
 20
0.0
 30
0.0
  9
$UCSYDIR
 10
0.0
 20
1.0
 30
0.0
  9
$PUCSNAME
  2

  9
$PUCSORG
 10
0.0
 20
0.0
 30
0.0
  9
$PUCSXDIR
 10
1.0
 20
0.0
 30
0.0
  9
$PUCSYDIR
 10
0.0
 20
1.0
 30
0.0
  9
$USERI1
 70
     0
  9
$USERI2
 70
     0
  9
$USERI3
 70
     0
  9
$USERI4
 70
     0
  9
$USERI5
 70
     0
  9
$USERR1
 40
0.0
  9
$USERR2
 40
0.0
  9
$USERR3
 40
0.0
  9
$USERR4
 40
0.0
  9
$USERR5
 40
0.0
  9
$WORLDVIEW
 70
     1
  9
$SHADEDGE
 70
     3
  9
$SHADEDIF
 70
    70
  9
$TILEMODE
 70
     1
  9
$MAXACTVP
 70
    64
  9
$PINSBASE
 10
0.0
 20
0.0
 30
0.0
  9
$PLIMCHECK
 70
     0
  9
$PEXTMIN
 10
-159.8970819121
 20
0.0
 30
0.0
  9
$PEXTMAX
 10
301.6607211047
 20
116.7993909728
 30
0.0
  9
$PLIMMIN
 10
-195.8159770885
 20
-13.4695856912
  9
$PLIMMAX
 10
337.5796162811
 20
363.6788136611
  9
$UNITMODE
 70
     0
  9
$VISRETAIN
 70
     1
  9
$PLINEGEN
 70
     0
  9
$PSLTSCALE
 70
     1
  9
$TREEDEPTH
 70
  3020
  9
$PICKSTYLE
 70
     1
  9
$CMLSTYLE
  2
STANDARD
  9
$CMLJUST
 70
     0
  9
$CMLSCALE
 40
20.0
  9
$PROXYGRAPHICS
 70
     1
  9
$MEASUREMENT
 70
     1
  0
ENDSEC
  0
SECTION
  2
CLASSES
  0
CLASS
  1
ACDBDICTIONARYWDFLT
  2
AcDbDictionaryWithDefault
  3
ObjectDBX Classes
 90
        0
280
     0
281
     0
  0
CLASS
  1
VISUALSTYLE
  2
AcDbVisualStyle
  3
ObjectDBX Classes
 90
     4095
280
     0
281
     0
  0
CLASS
  1
MATERIAL
  2
AcDbMaterial
  3
ObjectDBX Classes
 90
     1153
280
     0
281
     0
  0
CLASS
  1
SCALE
  2
AcDbScale
  3
ObjectDBX Classes
 90
     1153
280
     0
281
     0
  0
CLASS
  1
TABLESTYLE
  2
AcDbTableStyle
  3
ObjectDBX Classes
 90
     4095
280
     0
281
     0
  0
CLASS
  1
MLEADERSTYLE
  2
AcDbMLeaderStyle
  3
ACDB_MLEADERSTYLE_CLASS
 90
     4095
280
     0
281
     0
  0
CLASS
  1
SUN
  2
AcDbSun
  3
SCENEOE
 90
     1153
280
     0
281
     0
  0
CLASS
  1
XRECORD
  2
AcDbXrecord
  3
ObjectDBX Classes
 90
        0
280
     0
281
     0
  0
CLASS
  1
LWPOLYLINE
  2
AcDbPolyline
  3
ObjectDBX Classes
 90
        0
280
     0
281
     1
  0
CLASS
  1
HATCH
  2
AcDbHatch
  3
ObjectDBX Classes
 90
        0
280
     0
281
     1
  0
ENDSEC
  0
SECTION
  2
TABLES
  0
TABLE
  2
VPORT
  5
8
330
0
100
AcDbSymbolTable
 70
     1
  0
VPORT
  5
29
330
8
100
AcDbSymbolTableRecord
100
AcDbViewportTableRecord
  2
*ACTIVE
 70
     0
 10
0.0
 20
0.0
 11
1.0
 21
1.0
 12
70.8818195963
 22
9.5919903727
 13
0.0
 23
0.0
 14
10.0
 24
10.0
 15
10.0
 25
10.0
 16
0.0
 26
0.0
 36
1.0
 17
0.0
 27
0.0
 37
0.0
 40
347.6323396397
 41
1.3542726191
 42
50.0
 43
0.0
 44
0.0
 50
0.0
 51
0.0
 71
     0
 72
   100
 73
     1
 74
     3
 75
     0
 76
     0
 77
     0
 78
     0
  0
ENDTAB
  0
TABLE
  2
LTYPE
  5
5
330
0
100
AcDbSymbolTable
 70
     6
  0
LTYPE
  5
14
330
5
100
AcDbSymbolTableRecord
100
AcDbLinetypeTableRecord
  2
BYBLOCK
 70
     0
  3

 72
    65
 73
     0
 40
0.0
  0
LTYPE
  5
15
330
5
100
AcDbSymbolTableRecord
100
AcDbLinetypeTableRecord
  2
BYLAYER
 70
     0
  3

 72
    65
 73
     0
 40
0.0
  0
LTYPE
  5
16
330
5
100
AcDbSymbolTableRecord
100
AcDbLinetypeTableRecord
  2
CONTINUOUS
 70
     0
  3
Solid line
 72
    65
 73
     0
 40
0.0
  0
LTYPE
  5
5E
330
5
100
AcDbSymbolTableRecord
100
AcDbLinetypeTableRecord
  2
HIDDEN
 70
     0
  3
Hidden __ __ __ __ __ __ __ __ __ __ __ __ __ __
 72
    65
 73
     2
 40
1.905
 49
1.27
 74
     0
 49
-0.635
 74
     0
  0
LTYPE
  5
5F
330
5
100
AcDbSymbolTableRecord
100
AcDbLinetypeTableRecord
  2
PHANTOM
 70
     0
  3
Phantom ______  __  __  ______  __  __  ______
 72
    65
 73
     6
 40
12.7
 49
6.35
 74
     0
 49
-1.27
 74
     0
 49
1.27
 74
     0
 49
-1.27
 74
     0
 49
1.27
 74
     0
 49
-1.27
 74
     0
  0
LTYPE
  5
60
330
5
100
AcDbSymbolTableRecord
100
AcDbLinetypeTableRecord
  2
CENTER
 70
     0
  3
Center ____ _ ____ _ ____ _ ____ _ ____ _ ____
 72
    65
 73
     4
 40
10.16
 49
6.35
 74
     0
 49
-1.27
 74
     0
 49
1.27
 74
     0
 49
-1.27
 74
     0
  0
LTYPE
  5
61
330
5
100
AcDbSymbolTableRecord
100
AcDbLinetypeTableRecord
  2
CENTERX2
 70
     0
  3
Center (2x) ________  __  ________  __  _____
 72
    65
 73
     4
 40
20.32
 49
12.7
 74
     0
 49
-2.54
 74
     0
 49
2.54
 74
     0
 49
-2.54
 74
     0
  0
LTYPE
  5
62
330
5
100
AcDbSymbolTableRecord
100
AcDbLinetypeTableRecord
  2
DOT2
 70
     0
  3
Dot (.5x) ........................................
 72
    65
 73
     2
 40
0.635
 49
0.0
 74
     0
 49
-0.635
 74
     0
  0
ENDTAB
  0
TABLE
  2
LAYER
  5
2
330
0
100
AcDbSymbolTable
 70
     1
  0
LAYER
  5
10
330
2
100
AcDbSymbolTableRecord
100
AcDbLayerTableRecord
  2
0
 70
     0
 62
     7
  6
CONTINUOUS
  0
ENDTAB
  0
TABLE
  2
STYLE
  5
3
330
0
100
AcDbSymbolTable
 70
     1
  0
STYLE
  5
11
330
3
100
AcDbSymbolTableRecord
100
AcDbTextStyleTableRecord
  2
STANDARD
 70
     0
 40
0.0
 41
1.0
 50
0.0
 71
     0
 42
3.5
  3
txt
  4

  0
ENDTAB
  0
TABLE
  2
VIEW
  5
6
330
0
100
AcDbSymbolTable
 70
     0
  0
ENDTAB
  0
TABLE
  2
UCS
  5
7
330
0
100
AcDbSymbolTable
 70
     0
  0
ENDTAB
  0
TABLE
  2
APPID
  5
9
330
0
100
AcDbSymbolTable
 70
     1
  0
APPID
  5
12
330
9
100
AcDbSymbolTableRecord
100
AcDbRegAppTableRecord
  2
ACAD
 70
     0
  0
ENDTAB
  0
TABLE
  2
DIMSTYLE
  5
A
330
0
100
AcDbSymbolTable
 70
     1
  0
DIMSTYLE
105
27
330
A
100
AcDbSymbolTableRecord
100
AcDbDimStyleTableRecord
  2
ISO-25
 70
     0
  3

  4

  5

  6

  7

 40
1.0
 41
2.5
 42
0.625
 43
3.75
 44
1.25
 45
0.0
 46
0.0
 47
0.0
 48
0.0
140
2.5
141
2.5
142
0.0
143
0.0393700787
144
1.0
145
0.0
146
1.0
147
0.625
 71
     0
 72
     0
 73
     0
 74
     0
 75
     0
 76
     0
 77
     1
 78
     8
170
     0
171
     3
172
     1
173
     0
174
     0
175
     0
176
     0
177
     0
178
     0
270
     2
271
     2
272
     2
273
     2
274
     3
340
11
275
     0
280
     0
281
     0
282
     0
283
     0
284
     8
285
     0
286
     0
287
     3
288
     0
  0
ENDTAB
  0
TABLE
  2
BLOCK_RECORD
  5
1
330
0
100
AcDbSymbolTable
 70
     8
  0
BLOCK_RECORD
  5
1F
330
1
100
AcDbSymbolTableRecord
100
AcDbBlockTableRecord
  2
*MODEL_SPACE
  0
BLOCK_RECORD
  5
1B
330
1
100
AcDbSymbolTableRecord
100
AcDbBlockTableRecord
  2
*PAPER_SPACE
  0
BLOCK_RECORD
  5
23
330
1
100
AcDbSymbolTableRecord
100
AcDbBlockTableRecord
  2
*PAPER_SPACE0
  0
BLOCK_RECORD
  5
109
330
1
100
AcDbSymbolTableRecord
100
AcDbBlockTableRecord
  2
*PAPER_SPACE1
  0
BLOCK_RECORD
  5
143
330
1
100
AcDbSymbolTableRecord
100
AcDbBlockTableRecord
  2
*PAPER_SPACE2
  0
BLOCK_RECORD
  5
176
330
1
100
AcDbSymbolTableRecord
100
AcDbBlockTableRecord
  2
*PAPER_SPACE3
  0
BLOCK_RECORD
  5
1B1
330
1
100
AcDbSymbolTableRecord
100
AcDbBlockTableRecord
  2
*PAPER_SPACE4
  0
BLOCK_RECORD
  5
299
330
1
100
AcDbSymbolTableRecord
100
AcDbBlockTableRecord
  2
*PAPER_SPACE5
  0
BLOCK_RECORD
  5
2E3
330
1
100
AcDbSymbolTableRecord
100
AcDbBlockTableRecord
  2
*PAPER_SPACE6
  0
BLOCK_RECORD
  5
32A
330
1
100
AcDbSymbolTableRecord
100
AcDbBlockTableRecord
  2
*PAPER_SPACE7
  0
ENDTAB
  0
ENDSEC
  0
SECTION
  2
BLOCKS
  0
BLOCK
  5
20
330
1F
100
AcDbEntity
  8
0
100
AcDbBlockBegin
  2
*MODEL_SPACE
 70
     0
 10
0.0
 20
0.0
 30
0.0
  3
*MODEL_SPACE
  1

  0
ENDBLK
  5
21
330
1F
100
AcDbEntity
  8
0
100
AcDbBlockEnd
  0
BLOCK
  5
1C
330
1B
100
AcDbEntity
 67
     1
  8
0
100
AcDbBlockBegin
  2
*PAPER_SPACE
 70
     0
 10
0.0
 20
0.0
 30
0.0
  3
*PAPER_SPACE
  1

  0
ENDBLK
  5
1D
330
1B
100
AcDbEntity
 67
     1
  8
0
100
AcDbBlockEnd
  0
BLOCK
  5
24
330
23
100
AcDbEntity
  8
0
100
AcDbBlockBegin
  2
*PAPER_SPACE0
 70
     0
 10
0.0
 20
0.0
 30
0.0
  3
*PAPER_SPACE0
  1

  0
SPLINE
  5
DF
330
23
100
AcDbEntity
  8
0
  6
CONTINUOUS
 62
     7
100
AcDbSpline
210
0.0
220
0.0
230
1.0
 70
     8
 71
     3
 72
    10
 73
     6
 74
     0
 42
0.00000001
 43
0.00000001
 40
0.0
 40
0.0
 40
0.0
 40
0.0
 40
0.5
 40
0.5
 40
1.0
 40
1.0
 40
1.0
 40
1.0
 10
156.7948514313328
 20
22.30375424050182
 30
0.0
 10
156.795789218925
 20
22.16904579958345
 30
0.0
 10
156.7385530643898
 20
22.03744801084719
 30
0.0
 10
156.5476083752259
 20
21.85253482032191
 30
0.0
 10
156.4141915839032
 20
21.79939097275265
 30
0.0
 10
156.2809998788234
 20
21.79939097275265
 30
0.0
  0
SPLINE
  5
E1
330
23
100
AcDbEntity
  8
0
  6
CONTINUOUS
 62
     7
100
AcDbSpline
210
0.0
220
0.0
230
1.0
 70
     8
 71
     3
 72
    12
 73
     8
 74
     0
 42
0.00000001
 43
0.00000001
 40
0.0
 40
0.0
 40
0.0
 40
0.0
 40
0.2499999999999952
 40
0.2499999999999952
 40
0.4999999999999905
 40
0.4999999999999905
 40
1.0
 40
1.0
 40
1.0
 40
1.0
 10
156.4243363947891
 20
106.7993909727527
 30
0.0
 10
156.3961202480693
 20
106.7993909727527
 30
0.0
 10
156.3685135024163
 20
106.774431579851
 30
0.0
 10
156.3166568206813
 20
106.6768904861272
 30
0.0
 10
156.2929373956087
 20
106.6047603522306
 30
0.0
 10
156.2335434524396
 20
106.3321636246244
 30
0.0
 10
156.2105877305838
 20
106.0739116772739
 30
0.0
 10
156.2124449845302
 20
105.808117508251
 30
0.0
  0
LINE
  5
F3
330
23
100
AcDbEntity
  8
0
  6
CONTINUOUS
 62
     7
100
AcDbLine
 10
160.0786179654
 20
106.7993909728
 30
0.0
 11
160.0
 21
115.8081175083
 31
0.0
  0
LINE
  5
F4
330
23
100
AcDbEntity
  8
0
  6
CONTINUOUS
 62
     7
100
AcDbLine
 10
-160.0
 20
115.8081175083
 30
0.0
 11
-160.8160002161
 21
22.3037542405
 31
0.0
  0
LINE
  5
F5
330
23
100
AcDbEntity
  8
0
  6
CONTINUOUS
 62
     7
100
AcDbLine
 10
-60.0
 20
6.7993909728
 30
0.0
 11
-60.0
 21
1.0
 31
0.0
  0
LINE
  5
F6
330
23
100
AcDbEntity
  8
0
  6
CONTINUOUS
 62
     7
100
AcDbLine
 10
60.0
 20
1.0
 30
0.0
 11
60.0
 21
6.7993909728
 31
0.0
  0
LINE
  5
F7
330
23
100
AcDbEntity
  8
0
  6
CONTINUOUS
 62
     7
100
AcDbLine
 10
180.0
 20
21.7993909728
 30
0.0
 11
-160.3160192546
 21
21.7993909728
 31
0.0
  0
LINE
  5
F8
330
23
100
AcDbEntity
  8
0
  6
CONTINUOUS
 62
     7
100
AcDbLine
 10
156.2124449845
 20
105.8081175083
 30
0.0
 11
156.7948514313
 21
22.3037542405
 31
0.0
  0
LINE
  5
F9
330
23
100
AcDbEntity
  8
0
  6
CONTINUOUS
 62
     7
100
AcDbLine
 10
159.0000380769
 20
116.7993909728
 30
0.0
 11
-159.0000380769
 21
116.7993909728
 31
0.0
  0
LINE
  5
FA
330
23
100
AcDbEntity
  8
0
  6
CONTINUOUS
 62
     7
100
AcDbLine
 10
59.0
 20
0.0
 30
0.0
 11
-59.0
 21
0.0
 31
0.0
  0
LINE
  5
FB
330
23
100
AcDbEntity
  8
0
  6
CONTINUOUS
 62
     7
100
AcDbLine
 10
156.2124449845
 20
105.8081175083
 30
0.0
 11
180.0
 21
105.8081175083
 31
0.0
  0
LINE
  5
FC
330
23
100
AcDbEntity
  8
0
  6
CONTINUOUS
 62
     7
100
AcDbLine
 10
180.0
 20
106.7993909728
 30
0.0
 11
180.0
 21
21.7993909728
 31
0.0
  0
LINE
  5
FD
330
23
100
AcDbEntity
  8
0
  6
CONTINUOUS
 62
     7
100
AcDbLine
 10
180.0
 20
106.7993909728
 30
0.0
 11
156.4243363948
 21
106.7993909728
 31
0.0
  0
LINE
  5
FE
330
23
100
AcDbEntity
  8
0
  6
CONTINUOUS
 62
     7
100
AcDbLine
 10
156.7948514313
 20
22.3037542405
 30
0.0
 11
-160.8160002161
 21
22.3037542405
 31
0.0
  0
LINE
  5
FF
330
23
100
AcDbEntity
  8
0
  6
CONTINUOUS
 62
     7
100
AcDbLine
 10
160.0
 20
115.8081175083
 30
0.0
 11
-160.0
 21
115.8081175083
 31
0.0
  0
LINE
  5
100
330
23
100
AcDbEntity
  8
0
  6
CONTINUOUS
 62
     7
100
AcDbLine
 10
60.0
 20
6.7993909728
 30
0.0
 11
-60.0
 21
6.7993909728
 31
0.0
  0
LINE
  5
101
330
23
100
AcDbEntity
  8
0
  6
CONTINUOUS
 62
     7
100
AcDbLine
 10
60.0
 20
1.0
 30
0.0
 11
-60.0
 21
1.0
 31
0.0
  0
ARC
  5
102
330
23
100
AcDbEntity
  8
0
  6
CONTINUOUS
 62
     7
100
AcDbCircle
 10
-160.3160192546
 20
22.2993909728
 30
0.0
 40
0.5000000000000593
100
AcDbArc
 50
179.5
 51
270.0
  0
ARC
  5
103
330
23
100
AcDbEntity
  8
0
  6
CONTINUOUS
 62
     7
100
AcDbCircle
 10
-159.0000380769
 20
115.7993909728
 30
0.0
 40
1.000000000000014
100
AcDbArc
 50
90.0
 51
179.5
  0
ARC
  5
104
330
23
100
AcDbEntity
  8
0
  6
CONTINUOUS
 62
     7
100
AcDbCircle
 10
159.0000380769
 20
115.7993909728
 30
0.0
 40
1.000000000000034
100
AcDbArc
 50
0.5
 51
90.0
  0
ARC
  5
105
330
23
100
AcDbEntity
  8
0
  6
CONTINUOUS
 62
     7
100
AcDbCircle
 10
-75.0
 20
6.7993909728
 30
0.0
 40
14.99999999999997
100
AcDbArc
 50
0.0
 51
90.0
  0
ARC
  5
106
330
23
100
AcDbEntity
  8
0
  6
CONTINUOUS
 62
     7
100
AcDbCircle
 10
75.0
 20
6.7993909728
 30
0.0
 40
15.0
100
AcDbArc
 50
90.0
 51
180.0
  0
ARC
  5
107
330
23
100
AcDbEntity
  8
0
  6
CONTINUOUS
 62
     7
100
AcDbCircle
 10
-59.0
 20
1.0
 30
0.0
 40
1.000000000000036
100
AcDbArc
 50
180.0
 51
270.0
  0
ARC
  5
108
330
23
100
AcDbEntity
  8
0
  6
CONTINUOUS
 62
     7
100
AcDbCircle
 10
59.0
 20
1.0
 30
0.0
 40
1.0
100
AcDbArc
 50
270.0
 51
0.0
  0
VIEWPORT
  5
37A
330
23
100
AcDbEntity
  8
0
100
AcDbViewport
 10
0.0
 20
0.0
 30
0.0
 40
205.6
 41
156.0
 68
     1
 69
     1
1001
ACAD
1000
MVIEW
1002
{
1070
    16
1010
0.0
1020
0.0
1030
0.0
1010
0.0
1020
0.0
1030
1.0
1040
0.0
1040
357.2134125294
1040
70.8818195963
1040
9.5919903727
1040
50.0
1040
0.0
1040
0.0
1070
     0
1070
   100
1070
     0
1070
     3
1070
     0
1070
     0
1070
     0
1070
     0
1040
0.0
1040
0.0
1040
0.0
1040
10.0
1040
10.0
1040
10.0
1040
10.0
1070
     0
1002
{
1002
}
1002
}
  0
ENDBLK
  5
25
330
23
100
AcDbEntity
  8
0
100
AcDbBlockEnd
  0
BLOCK
  5
10B
330
109
100
AcDbEntity
  8
0
100
AcDbBlockBegin
  2
*PAPER_SPACE1
 70
     0
 10
0.0
 20
0.0
 30
0.0
  3
*PAPER_SPACE1
  1

  0
LINE
  5
129
330
109
100
AcDbEntity
  8
0
  6
CONTINUOUS
 62
     7
100
AcDbLine
 10
301.6607020662
 20
22.3037542405
 30
0.0
 11
300.8447018501
 21
115.8081175083
 31
0.0
  0
LINE
  5
12A
330
109
100
AcDbEntity
  8
0
  6
CONTINUOUS
 62
     7
100
AcDbLine
 10
-19.1552981499
 20
115.8081175083
 30
0.0
 11
-19.9712983659
 21
22.3037542405
 31
0.0
  0
LINE
  5
12B
330
109
100
AcDbEntity
  8
0
  6
CONTINUOUS
 62
     7
100
AcDbLine
 10
80.8447018501
 20
6.7993909728
 30
0.0
 11
80.8447018501
 21
1.0
 31
0.0
  0
LINE
  5
12C
330
109
100
AcDbEntity
  8
0
  6
CONTINUOUS
 62
     7
100
AcDbLine
 10
200.8447018501
 20
1.0
 30
0.0
 11
200.8447018501
 21
6.7993909728
 31
0.0
  0
LINE
  5
12D
330
109
100
AcDbEntity
  8
0
  6
CONTINUOUS
 62
     7
100
AcDbLine
 10
301.1607211047
 20
21.7993909728
 30
0.0
 11
-159.8970819121
 21
21.7993909728
 31
0.0
  0
LINE
  5
12E
330
109
100
AcDbEntity
  8
0
  6
CONTINUOUS
 62
     7
100
AcDbLine
 10
299.8447399271
 20
116.7993909728
 30
0.0
 11
-18.1553362267
 21
116.7993909728
 31
0.0
  0
LINE
  5
12F
330
109
100
AcDbEntity
  8
0
  6
CONTINUOUS
 62
     7
100
AcDbLine
 10
199.8447018501
 20
0.0
 30
0.0
 11
81.8447018577
 21
0.0
 31
0.0
  0
LINE
  5
130
330
109
100
AcDbEntity
  8
0
  6
CONTINUOUS
 62
     7
100
AcDbLine
 10
-158.897119989
 20
21.7993909728
 30
0.0
 11
-158.1639869393
 21
105.8081175083
 31
0.0
  0
LINE
  5
131
330
109
100
AcDbEntity
  8
0
  6
CONTINUOUS
 62
     7
100
AcDbLine
 10
-159.1639488623
 20
105.8081175083
 30
0.0
 11
-159.8970819121
 21
21.7993909728
 31
0.0
  0
LINE
  5
132
330
109
100
AcDbEntity
  8
0
  6
CONTINUOUS
 62
     7
100
AcDbLine
 10
-158.1639869393
 20
106.7993909728
 30
0.0
 11
-158.1639869393
 21
105.8081175083
 31
0.0
  0
LINE
  5
133
330
109
100
AcDbEntity
  8
0
  6
CONTINUOUS
 62
     7
100
AcDbLine
 10
-19.2339161153
 20
106.7993909728
 30
0.0
 11
-158.1639869393
 21
106.7993909728
 31
0.0
  0
LINE
  5
134
330
109
100
AcDbEntity
  8
0
  6
CONTINUOUS
 62
     7
100
AcDbLine
 10
301.6607020662
 20
22.3037542405
 30
0.0
 11
-19.9712983659
 21
22.3037542405
 31
0.0
  0
LINE
  5
135
330
109
100
AcDbEntity
  8
0
  6
CONTINUOUS
 62
     7
100
AcDbLine
 10
300.8447018501
 20
115.8081175083
 30
0.0
 11
-19.1552981499
 21
115.8081175083
 31
0.0
  0
LINE
  5
136
330
109
100
AcDbEntity
  8
0
  6
CONTINUOUS
 62
     7
100
AcDbLine
 10
200.8447018501
 20
6.7993909728
 30
0.0
 11
80.8447018501
 21
6.7993909728
 31
0.0
  0
LINE
  5
137
330
109
100
AcDbEntity
  8
0
  6
CONTINUOUS
 62
     7
100
AcDbLine
 10
200.8447018501
 20
1.0
 30
0.0
 11
80.8447018501
 21
1.0
 31
0.0
  0
LINE
  5
138
330
109
100
AcDbEntity
  8
0
  6
CONTINUOUS
 62
     7
100
AcDbLine
 10
-158.1639869393
 20
105.8081175083
 30
0.0
 11
-19.2425668278
 21
105.8081175083
 31
0.0
  0
ARC
  5
139
330
109
100
AcDbEntity
  8
0
  6
CONTINUOUS
 62
     7
100
AcDbCircle
 10
-19.4713174044
 20
22.2993909728
 30
0.0
 40
0.4999999999999822
100
AcDbArc
 50
179.5
 51
270.0
  0
ARC
  5
13A
330
109
100
AcDbEntity
  8
0
  6
CONTINUOUS
 62
     7
100
AcDbCircle
 10
301.1607211047
 20
22.2993909728
 30
0.0
 40
0.5000000000000888
100
AcDbArc
 50
270.0
 51
0.5
  0
ARC
  5
13B
330
109
100
AcDbEntity
  8
0
  6
CONTINUOUS
 62
     7
100
AcDbCircle
 10
-18.1553362268
 20
115.7993909728
 30
0.0
 40
1.0
100
AcDbArc
 50
90.0
 51
179.5
  0
ARC
  5
13C
330
109
100
AcDbEntity
  8
0
  6
CONTINUOUS
 62
     7
100
AcDbCircle
 10
299.8447399271
 20
115.7993909728
 30
0.0
 40
1.000000000000063
100
AcDbArc
 50
0.5
 51
90.0
  0
ARC
  5
13D
330
109
100
AcDbEntity
  8
0
  6
CONTINUOUS
 62
     7
100
AcDbCircle
 10
65.8447018501
 20
6.7993909728
 30
0.0
 40
14.99999999999996
100
AcDbArc
 50
0.0
 51
90.0
  0
ARC
  5
13E
330
109
100
AcDbEntity
  8
0
  6
CONTINUOUS
 62
     7
100
AcDbCircle
 10
215.8447018501
 20
6.7993909728
 30
0.0
 40
15.00000000000001
100
AcDbArc
 50
90.0
 51
180.0
  0
ARC
  5
13F
330
109
100
AcDbEntity
  8
0
  6
CONTINUOUS
 62
     7
100
AcDbCircle
 10
81.8447018501
 20
1.0
 30
0.0
 40
1.000000000000028
100
AcDbArc
 50
180.0
 51
270.0
  0
ARC
  5
140
330
109
100
AcDbEntity
  8
0
  6
CONTINUOUS
 62
     7
100
AcDbCircle
 10
199.8447018501
 20
1.0
 30
0.0
 40
1.000000000000028
100
AcDbArc
 50
270.0
 51
0.0
  0
ARC
  5
141
330
109
100
AcDbEntity
  8
0
  6
CONTINUOUS
 62
     7
100
AcDbCircle
 10
-158.6639679008
 20
77.1584295006
 30
0.0
 40
28.65405039249231
100
AcDbArc
 50
89.0002023313
 51
90.9997976687
  0
ARC
  5
142
330
109
100
AcDbEntity
  8
0
  6
CONTINUOUS
 62
     7
100
AcDbCircle
 10
-158.1639869393
 20
105.7993909728
 30
0.0
 40
1.000000000000014
100
AcDbArc
 50
90.0
 51
179.5
  0
VIEWPORT
  5
37C
330
109
100
AcDbEntity
  8
0
100
AcDbViewport
 10
0.0
 20
0.0
 30
0.0
 40
205.6
 41
156.0
 68
     1
 69
     1
1001
ACAD
1000
MVIEW
1002
{
1070
    16
1010
0.0
1020
0.0
1030
0.0
1010
0.0
1020
0.0
1030
1.0
1040
0.0
1040
357.2134125294
1040
70.8818195963
1040
9.5919903727
1040
50.0
1040
0.0
1040
0.0
1070
     0
1070
   100
1070
     0
1070
     3
1070
     0
1070
     0
1070
     0
1070
     0
1040
0.0
1040
0.0
1040
0.0
1040
10.0
1040
10.0
1040
10.0
1040
10.0
1070
     0
1002
{
1002
}
1002
}
  0
ENDBLK
  5
10C
330
109
100
AcDbEntity
  8
0
100
AcDbBlockEnd
  0
BLOCK
  5
145
330
143
100
AcDbEntity
  8
0
100
AcDbBlockBegin
  2
*PAPER_SPACE2
 70
     0
 10
0.0
 20
0.0
 30
0.0
  3
*PAPER_SPACE2
  1

  0
LINE
  5
15F
330
143
100
AcDbEntity
  8
0
  6
CONTINUOUS
 62
     7
100
AcDbLine
 10
19.2339161153
 20
106.7993909728
 30
0.0
 11
19.1552981499
 21
115.8081175083
 31
0.0
  0
LINE
  5
160
330
143
100
AcDbEntity
  8
0
  6
CONTINUOUS
 62
     7
100
AcDbLine
 10
-300.8447018501
 20
115.8081175083
 30
0.0
 11
-301.6607020662
 21
22.3037542405
 31
0.0
  0
LINE
  5
161
330
143
100
AcDbEntity
  8
0
  6
CONTINUOUS
 62
     7
100
AcDbLine
 10
-200.8447018501
 20
6.7993909728
 30
0.0
 11
-200.8447018501
 21
1.0
 31
0.0
  0
LINE
  5
162
330
143
100
AcDbEntity
  8
0
  6
CONTINUOUS
 62
     7
100
AcDbLine
 10
-80.8447018501
 20
1.0
 30
0.0
 11
-80.8447018501
 21
6.7993909728
 31
0.0
  0
LINE
  5
163
330
143
100
AcDbEntity
  8
0
  6
CONTINUOUS
 62
     7
100
AcDbLine
 10
-174.8533906396
 20
106.7993909728
 30
0.0
 11
158.1639869393
 21
106.7993909728
 31
0.0
  0
LINE
  5
164
330
143
100
AcDbEntity
  8
0
  6
CONTINUOUS
 62
     7
100
AcDbLine
 10
-301.1607211047
 20
21.7993909728
 30
0.0
 11
159.8970819121
 21
21.7993909728
 31
0.0
  0
LINE
  5
165
330
143
100
AcDbEntity
  8
0
  6
CONTINUOUS
 62
     7
100
AcDbLine
 10
-175.8533525626
 20
105.8081175083
 30
0.0
 11
-176.5864856124
 21
21.7993909728
 31
0.0
  0
LINE
  5
166
330
143
100
AcDbEntity
  8
0
  6
CONTINUOUS
 62
     7
100
AcDbLine
 10
159.1639488623
 20
105.8081175083
 30
0.0
 11
159.8970819121
 21
21.7993909728
 31
0.0
  0
LINE
  5
167
330
143
100
AcDbEntity
  8
0
  6
CONTINUOUS
 62
     7
100
AcDbLine
 10
18.1553362267
 20
116.7993909728
 30
0.0
 11
-299.8447399271
 21
116.7993909728
 31
0.0
  0
LINE
  5
168
330
143
100
AcDbEntity
  8
0
  6
CONTINUOUS
 62
     7
100
AcDbLine
 10
-81.8447018577
 20
0.0
 30
0.0
 11
-199.8447018501
 21
0.0
 31
0.0
  0
LINE
  5
169
330
143
100
AcDbEntity
  8
0
  6
CONTINUOUS
 62
     7
100
AcDbLine
 10
19.1552981499
 20
115.8081175083
 30
0.0
 11
-300.8447018501
 21
115.8081175083
 31
0.0
  0
LINE
  5
16A
330
143
100
AcDbEntity
  8
0
  6
CONTINUOUS
 62
     7
100
AcDbLine
 10
-176.5820841008
 20
22.3037542405
 30
0.0
 11
-301.6607020662
 21
22.3037542405
 31
0.0
  0
LINE
  5
16B
330
143
100
AcDbEntity
  8
0
  6
CONTINUOUS
 62
     7
100
AcDbLine
 10
-80.8447018501
 20
6.7993909728
 30
0.0
 11
-200.8447018501
 21
6.7993909728
 31
0.0
  0
LINE
  5
16C
330
143
100
AcDbEntity
  8
0
  6
CONTINUOUS
 62
     7
100
AcDbLine
 10
-80.8447018501
 20
1.0
 30
0.0
 11
-200.8447018501
 21
1.0
 31
0.0
  0
ARC
  5
16D
330
143
100
AcDbEntity
  8
0
  6
CONTINUOUS
 62
     7
100
AcDbCircle
 10
-299.8447399271
 20
115.7993909728
 30
0.0
 40
0.9999999999999574
100
AcDbArc
 50
90.0
 51
179.5
  0
ARC
  5
16E
330
143
100
AcDbEntity
  8
0
  6
CONTINUOUS
 62
     7
100
AcDbCircle
 10
18.1553362268
 20
115.7993909728
 30
0.0
 40
1.000000000000028
100
AcDbArc
 50
0.5
 51
90.0
  0
ARC
  5
16F
330
143
100
AcDbEntity
  8
0
  6
CONTINUOUS
 62
     7
100
AcDbCircle
 10
-301.1607211047
 20
22.2993909728
 30
0.0
 40
0.4999999999999746
100
AcDbArc
 50
179.5
 51
270.0
  0
ARC
  5
170
330
143
100
AcDbEntity
  8
0
  6
CONTINUOUS
 62
     7
100
AcDbCircle
 10
-215.8447018501
 20
6.7993909728
 30
0.0
 40
14.99999999999997
100
AcDbArc
 50
0.0
 51
90.0
  0
ARC
  5
171
330
143
100
AcDbEntity
  8
0
  6
CONTINUOUS
 62
     7
100
AcDbCircle
 10
-65.8447018501
 20
6.7993909728
 30
0.0
 40
14.99999999999996
100
AcDbArc
 50
90.0
 51
180.0
  0
ARC
  5
172
330
143
100
AcDbEntity
  8
0
  6
CONTINUOUS
 62
     7
100
AcDbCircle
 10
-199.8447018501
 20
1.0
 30
0.0
 40
1.000000000000011
100
AcDbArc
 50
180.0
 51
270.0
  0
ARC
  5
173
330
143
100
AcDbEntity
  8
0
  6
CONTINUOUS
 62
     7
100
AcDbCircle
 10
-81.8447018501
 20
1.0
 30
0.0
 40
1.000000000000017
100
AcDbArc
 50
270.0
 51
0.0
  0
ARC
  5
174
330
143
100
AcDbEntity
  8
0
  6
CONTINUOUS
 62
     7
100
AcDbCircle
 10
-174.8533906396
 20
105.7993909728
 30
0.0
 40
1.000000000000014
100
AcDbArc
 50
90.0
 51
179.5
  0
ARC
  5
175
330
143
100
AcDbEntity
  8
0
  6
CONTINUOUS
 62
     7
100
AcDbCircle
 10
158.1639869393
 20
105.7993909728
 30
0.0
 40
1.000000000000014
100
AcDbArc
 50
0.5
 51
90.0
  0
VIEWPORT
  5
37E
330
143
100
AcDbEntity
  8
0
100
AcDbViewport
 10
0.0
 20
0.0
 30
0.0
 40
205.6
 41
156.0
 68
     1
 69
     1
1001
ACAD
1000
MVIEW
1002
{
1070
    16
1010
0.0
1020
0.0
1030
0.0
1010
0.0
1020
0.0
1030
1.0
1040
0.0
1040
357.2134125294
1040
70.8818195963
1040
9.5919903727
1040
50.0
1040
0.0
1040
0.0
1070
     0
1070
   100
1070
     0
1070
     3
1070
     0
1070
     0
1070
     0
1070
     0
1040
0.0
1040
0.0
1040
0.0
1040
10.0
1040
10.0
1040
10.0
1040
10.0
1070
     0
1002
{
1002
}
1002
}
  0
ENDBLK
  5
146
330
143
100
AcDbEntity
  8
0
100
AcDbBlockEnd
  0
BLOCK
  5
178
330
176
100
AcDbEntity
  8
0
100
AcDbBlockBegin
  2
*PAPER_SPACE3
 70
     0
 10
0.0
 20
0.0
 30
0.0
  3
*PAPER_SPACE3
  1

  0
LINE
  5
197
330
176
100
AcDbEntity
  8
0
  6
CONTINUOUS
 62
     7
100
AcDbLine
 10
160.8160002161
 20
22.3037542405
 30
0.0
 11
160.0
 21
115.8081175083
 31
0.0
  0
LINE
  5
198
330
176
100
AcDbEntity
  8
0
  6
CONTINUOUS
 62
     7
100
AcDbLine
 10
-160.0
 20
115.8081175083
 30
0.0
 11
-160.0786179654
 21
106.7993909728
 31
0.0
  0
LINE
  5
199
330
176
100
AcDbEntity
  8
0
  6
CONTINUOUS
 62
     7
100
AcDbLine
 10
-60.0
 20
6.7993909728
 30
0.0
 11
-60.0
 21
1.0
 31
0.0
  0
LINE
  5
19A
330
176
100
AcDbEntity
  8
0
  6
CONTINUOUS
 62
     7
100
AcDbLine
 10
60.0
 20
1.0
 30
0.0
 11
60.0
 21
6.7993909728
 31
0.0
  0
LINE
  5
19B
330
176
100
AcDbEntity
  8
0
  6
CONTINUOUS
 62
     7
100
AcDbLine
 10
-180.0
 20
105.8081175083
 30
0.0
 11
-55.9913112106
 21
105.8081175083
 31
0.0
  0
LINE
  5
19C
330
176
100
AcDbEntity
  8
0
  6
CONTINUOUS
 62
     7
100
AcDbLine
 10
-55.9913112106
 20
105.8081175083
 30
0.0
 11
-55.2581781608
 21
21.7993909728
 31
0.0
  0
LINE
  5
19D
330
176
100
AcDbEntity
  8
0
  6
CONTINUOUS
 62
     7
100
AcDbLine
 10
160.3160192546
 20
21.7993909728
 30
0.0
 11
-180.0
 21
21.7993909728
 31
0.0
  0
LINE
  5
19E
330
176
100
AcDbEntity
  8
0
  6
CONTINUOUS
 62
     7
100
AcDbLine
 10
-180.0
 20
106.7993909728
 30
0.0
 11
-180.0
 21
21.7993909728
 31
0.0
  0
LINE
  5
19F
330
176
100
AcDbEntity
  8
0
  6
CONTINUOUS
 62
     7
100
AcDbLine
 10
-54.2582162378
 20
21.7993909728
 30
0.0
 11
-54.9913492875
 21
105.8081175083
 31
0.0
  0
LINE
  5
1A0
330
176
100
AcDbEntity
  8
0
  6
CONTINUOUS
 62
     7
100
AcDbLine
 10
-55.9913112106
 20
106.7993909728
 30
0.0
 11
-180.0
 21
106.7993909728
 31
0.0
  0
LINE
  5
1A1
330
176
100
AcDbEntity
  8
0
  6
CONTINUOUS
 62
     7
100
AcDbLine
 10
-55.9913112106
 20
106.7993909728
 30
0.0
 11
-55.9913112106
 21
105.8081175083
 31
0.0
  0
LINE
  5
1A2
330
176
100
AcDbEntity
  8
0
  6
CONTINUOUS
 62
     7
100
AcDbLine
 10
159.0000380769
 20
116.7993909728
 30
0.0
 11
-159.0000380769
 21
116.7993909728
 31
0.0
  0
LINE
  5
1A3
330
176
100
AcDbEntity
  8
0
  6
CONTINUOUS
 62
     7
100
AcDbLine
 10
59.0
 20
0.0
 30
0.0
 11
-59.0
 21
0.0
 31
0.0
  0
LINE
  5
1A4
330
176
100
AcDbEntity
  8
0
  6
CONTINUOUS
 62
     7
100
AcDbLine
 10
160.8160002161
 20
22.3037542405
 30
0.0
 11
-54.2626177493
 21
22.3037542405
 31
0.0
  0
LINE
  5
1A5
330
176
100
AcDbEntity
  8
0
  6
CONTINUOUS
 62
     7
100
AcDbLine
 10
160.0
 20
115.8081175083
 30
0.0
 11
-160.0
 21
115.8081175083
 31
0.0
  0
LINE
  5
1A6
330
176
100
AcDbEntity
  8
0
  6
CONTINUOUS
 62
     7
100
AcDbLine
 10
60.0
 20
6.7993909728
 30
0.0
 11
-60.0
 21
6.7993909728
 31
0.0
  0
LINE
  5
1A7
330
176
100
AcDbEntity
  8
0
  6
CONTINUOUS
 62
     7
100
AcDbLine
 10
60.0
 20
1.0
 30
0.0
 11
-60.0
 21
1.0
 31
0.0
  0
ARC
  5
1A8
330
176
100
AcDbEntity
  8
0
  6
CONTINUOUS
 62
     7
100
AcDbCircle
 10
160.3160192546
 20
22.2993909728
 30
0.0
 40
0.500000000000031
100
AcDbArc
 50
270.0
 51
0.5
  0
ARC
  5
1A9
330
176
100
AcDbEntity
  8
0
  6
CONTINUOUS
 62
     7
100
AcDbCircle
 10
-159.0000380769
 20
115.7993909728
 30
0.0
 40
1.000000000000014
100
AcDbArc
 50
90.0
 51
179.5
  0
ARC
  5
1AA
330
176
100
AcDbEntity
  8
0
  6
CONTINUOUS
 62
     7
100
AcDbCircle
 10
159.0000380769
 20
115.7993909728
 30
0.0
 40
1.000000000000034
100
AcDbArc
 50
0.5
 51
90.0
  0
ARC
  5
1AB
330
176
100
AcDbEntity
  8
0
  6
CONTINUOUS
 62
     7
100
AcDbCircle
 10
-75.0
 20
6.7993909728
 30
0.0
 40
14.99999999999997
100
AcDbArc
 50
0.0
 51
90.0
  0
ARC
  5
1AC
330
176
100
AcDbEntity
  8
0
  6
CONTINUOUS
 62
     7
100
AcDbCircle
 10
75.0
 20
6.7993909728
 30
0.0
 40
15.0
100
AcDbArc
 50
90.0
 51
180.0
  0
ARC
  5
1AD
330
176
100
AcDbEntity
  8
0
  6
CONTINUOUS
 62
     7
100
AcDbCircle
 10
-59.0
 20
1.0
 30
0.0
 40
1.000000000000014
100
AcDbArc
 50
180.0
 51
270.0
  0
ARC
  5
1AE
330
176
100
AcDbEntity
  8
0
  6
CONTINUOUS
 62
     7
100
AcDbCircle
 10
59.0
 20
1.0
 30
0.0
 40
1.000000000000021
100
AcDbArc
 50
270.0
 51
0.0
  0
ARC
  5
1AF
330
176
100
AcDbEntity
  8
0
  6
CONTINUOUS
 62
     7
100
AcDbCircle
 10
-55.4913302491
 20
77.1584295008
 30
0.0
 40
28.65405039236397
100
AcDbArc
 50
89.0002023313
 51
90.9997976687
  0
ARC
  5
1B0
330
176
100
AcDbEntity
  8
0
  6
CONTINUOUS
 62
     7
100
AcDbCircle
 10
-55.9913112106
 20
105.7993909728
 30
0.0
 40
1.0
100
AcDbArc
 50
0.5
 51
90.0
  0
VIEWPORT
  5
380
330
176
100
AcDbEntity
  8
0
100
AcDbViewport
 10
0.0
 20
0.0
 30
0.0
 40
205.6
 41
156.0
 68
     1
 69
     1
1001
ACAD
1000
MVIEW
1002
{
1070
    16
1010
0.0
1020
0.0
1030
0.0
1010
0.0
1020
0.0
1030
1.0
1040
0.0
1040
357.2134125294
1040
70.8818195963
1040
9.5919903727
1040
50.0
1040
0.0
1040
0.0
1070
     0
1070
   100
1070
     0
1070
     3
1070
     0
1070
     0
1070
     0
1070
     0
1040
0.0
1040
0.0
1040
0.0
1040
10.0
1040
10.0
1040
10.0
1040
10.0
1070
     0
1002
{
1002
}
1002
}
  0
ENDBLK
  5
179
330
176
100
AcDbEntity
  8
0
100
AcDbBlockEnd
  0
BLOCK
  5
1B3
330
1B1
100
AcDbEntity
  8
0
100
AcDbBlockBegin
  2
*PAPER_SPACE4
 70
     0
 10
0.0
 20
0.0
 30
0.0
  3
*PAPER_SPACE4
  1

  0
CIRCLE
  5
1B5
330
1B1
100
AcDbEntity
  8
0
  6
CONTINUOUS
 62
     7
100
AcDbCircle
 10
140.8447018501
 20
0.0
 30
0.0
 40
59.0
  0
CIRCLE
  5
1B6
330
1B1
100
AcDbEntity
  8
0
  6
CONTINUOUS
 62
     7
100
AcDbCircle
 10
140.8447018501
 20
0.0
 30
0.0
 40
22.99999999999989
  0
CIRCLE
  5
1B7
330
1B1
100
AcDbEntity
  8
0
  6
CONTINUOUS
 62
     7
100
AcDbCircle
 10
140.8447018501
 20
0.0
 30
0.0
 40
59.99999999999997
  0
CIRCLE
  5
1B8
330
1B1
100
AcDbEntity
  8
0
  6
CONTINUOUS
 62
     7
100
AcDbCircle
 10
140.8447018501
 20
0.0
 30
0.0
 40
74.99999999999991
  0
CIRCLE
  5
1CE
330
1B1
100
AcDbEntity
  8
0
  6
CONTINUOUS
 62
     7
100
AcDbCircle
 10
-62.8970819121
 20
-145.0
 30
0.0
 40
4.000000000000014
  0
CIRCLE
  5
1CF
330
1B1
100
AcDbEntity
  8
0
  6
CONTINUOUS
 62
     7
100
AcDbCircle
 10
-62.8970819121
 20
-85.0
 30
0.0
 40
4.000000000000007
  0
LINE
  5
232
330
1B1
100
AcDbEntity
  8
0
  6
CONTINUOUS
 62
     7
100
AcDbLine
 10
176.5864856124
 20
-180.0
 30
0.0
 11
-159.8970819121
 21
-180.0
 31
0.0
  0
LINE
  5
233
330
1B1
100
AcDbEntity
  8
0
  6
CONTINUOUS
 62
     7
100
AcDbLine
 10
-159.8970819121
 20
-180.0
 30
0.0
 11
-159.8970819121
 21
-55.2581781608
 31
0.0
  0
LINE
  5
234
330
1B1
100
AcDbEntity
  8
0
  6
CONTINUOUS
 62
     7
100
AcDbLine
 10
-151.8453956539
 20
-78.2582162378
 30
0.0
 11
-151.8453956539
 21
-156.0
 31
0.0
  0
LINE
  5
235
330
1B1
100
AcDbEntity
  8
0
  6
CONTINUOUS
 62
     7
100
AcDbLine
 10
-135.8970819121
 20
-171.9483137418
 30
0.0
 11
-86.9432853698
 21
-171.9483137418
 31
0.0
  0
LINE
  5
236
330
1B1
100
AcDbEntity
  8
0
  6
CONTINUOUS
 62
     7
100
AcDbLine
 10
-70.9487681702
 20
-155.9537965422
 30
0.0
 11
-70.9487681702
 21
-78.3044196956
 31
0.0
  0
LINE
  5
237
330
1B1
100
AcDbEntity
  8
0
  6
CONTINUOUS
 62
     7
100
AcDbLine
 10
-86.9432853698
 20
-62.3099024959
 30
0.0
 11
-135.8970819121
 21
-62.3099024959
 31
0.0
  0
LINE
  5
238
330
1B1
100
AcDbEntity
  8
0
  6
CONTINUOUS
 62
     7
100
AcDbLine
 10
-10.4272321165
 20
-62.3099024959
 30
0.0
 11
-38.8508784543
 21
-62.3099024959
 31
0.0
  0
LINE
  5
239
330
1B1
100
AcDbEntity
  8
0
  6
CONTINUOUS
 62
     7
100
AcDbLine
 10
-54.8453956539
 20
-78.3044196956
 30
0.0
 11
-54.8453956539
 21
-155.9537965422
 31
0.0
  0
LINE
  5
23A
330
1B1
100
AcDbEntity
  8
0
  6
CONTINUOUS
 62
     7
100
AcDbLine
 10
-38.8508784543
 20
-171.9483137418
 30
0.0
 11
72.495989977
 21
-171.9483137418
 31
0.0
  0
LINE
  5
23B
330
1B1
100
AcDbEntity
  8
0
  6
CONTINUOUS
 62
     7
100
AcDbLine
 10
176.5864856124
 20
-156.2809998788
 30
0.0
 11
176.5864856124
 21
-180.0
 31
0.0
  0
LINE
  5
23C
330
1B1
100
AcDbEntity
  8
0
  6
CONTINUOUS
 62
     7
100
AcDbLine
 10
-158.897119989
 20
-54.2582162378
 30
0.0
 11
-10.0104339601
 21
-54.2582162378
 31
0.0
  0
LINE
  5
23D
330
1B1
100
AcDbEntity
  8
0
  6
CONTINUOUS
 62
     7
100
AcDbLine
 10
73.4483053577
 20
-153.8264228349
 30
0.0
 11
78.8961319341
 21
-141.3922317195
 31
0.0
  0
LINE
  5
23E
330
1B1
100
AcDbEntity
  8
0
  6
CONTINUOUS
 62
     7
100
AcDbLine
 10
72.495989977
 20
-171.9483137418
 30
0.0
 11
72.495989977
 21
-158.3730449378
 31
0.0
  0
LINE
  5
23F
330
1B1
100
AcDbEntity
  8
0
  6
CONTINUOUS
 62
     7
100
AcDbLine
 10
-8.3195319794
 20
-77.1678298801
 30
0.0
 11
3.7378022343
 21
-70.9301528477
 31
0.0
  0
LINE
  5
240
330
1B1
100
AcDbEntity
  8
0
  6
CONTINUOUS
 62
     7
100
AcDbLine
 10
72.495989977
 20
-169.9489990919
 30
0.0
 11
-38.8508784543
 21
-169.9489990919
 31
0.0
  0
LINE
  5
241
330
1B1
100
AcDbEntity
  8
0
  6
CONTINUOUS
 62
     7
100
AcDbLine
 10
-38.8508784543
 20
-171.9483137418
 30
0.0
 11
-38.8508784543
 21
-169.9489990919
 31
0.0
  0
LINE
  5
242
330
1B1
100
AcDbEntity
  8
0
  6
CONTINUOUS
 62
     7
100
AcDbLine
 10
-10.4272321165
 20
-75.8851713
 30
0.0
 11
-10.4272321165
 21
-62.3099024959
 31
0.0
  0
LINE
  5
243
330
1B1
100
AcDbEntity
  8
0
  6
CONTINUOUS
 62
     7
100
AcDbLine
 10
-38.8508784543
 20
-64.3092171459
 30
0.0
 11
-10.4272321165
 21
-64.3092171459
 31
0.0
  0
LINE
  5
244
330
1B1
100
AcDbEntity
  8
0
  6
CONTINUOUS
 62
     7
100
AcDbLine
 10
-38.8508784543
 20
-64.3092171459
 30
0.0
 11
-38.8508784543
 21
-62.3099024959
 31
0.0
  0
LINE
  5
245
330
1B1
100
AcDbEntity
  8
0
  6
CONTINUOUS
 62
     7
100
AcDbLine
 10
-52.846081004
 20
-78.3044196956
 30
0.0
 11
-54.8453956539
 21
-78.3044196956
 31
0.0
  0
LINE
  5
246
330
1B1
100
AcDbEntity
  8
0
  6
CONTINUOUS
 62
     7
100
AcDbLine
 10
-52.846081004
 20
-155.9537965422
 30
0.0
 11
-52.846081004
 21
-78.3044196956
 31
0.0
  0
LINE
  5
247
330
1B1
100
AcDbEntity
  8
0
  6
CONTINUOUS
 62
     7
100
AcDbLine
 10
-54.8453956539
 20
-155.9537965422
 30
0.0
 11
-52.846081004
 21
-155.9537965422
 31
0.0
  0
LINE
  5
248
330
1B1
100
AcDbEntity
  8
0
  6
CONTINUOUS
 62
     7
100
AcDbLine
 10
-72.9480828202
 20
-78.3044196956
 30
0.0
 11
-72.9480828202
 21
-155.9537965422
 31
0.0
  0
LINE
  5
249
330
1B1
100
AcDbEntity
  8
0
  6
CONTINUOUS
 62
     7
100
AcDbLine
 10
-70.9487681702
 20
-78.3044196956
 30
0.0
 11
-72.9480828202
 21
-78.3044196956
 31
0.0
  0
LINE
  5
24A
330
1B1
100
AcDbEntity
  8
0
  6
CONTINUOUS
 62
     7
100
AcDbLine
 10
-70.9487681702
 20
-155.9537965422
 30
0.0
 11
-72.9480828202
 21
-155.9537965422
 31
0.0
  0
LINE
  5
24B
330
1B1
100
AcDbEntity
  8
0
  6
CONTINUOUS
 62
     7
100
AcDbLine
 10
-135.8970819121
 20
-64.3092171459
 30
0.0
 11
-86.9432853698
 21
-64.3092171459
 31
0.0
  0
LINE
  5
24C
330
1B1
100
AcDbEntity
  8
0
  6
CONTINUOUS
 62
     7
100
AcDbLine
 10
-135.8970819121
 20
-75.8851713
 30
0.0
 11
-135.8970819121
 21
-62.3099024959
 31
0.0
  0
LINE
  5
24D
330
1B1
100
AcDbEntity
  8
0
  6
CONTINUOUS
 62
     7
100
AcDbLine
 10
-86.9432853698
 20
-62.3099024959
 30
0.0
 11
-86.9432853698
 21
-64.3092171459
 31
0.0
  0
LINE
  5
24E
330
1B1
100
AcDbEntity
  8
0
  6
CONTINUOUS
 62
     7
100
AcDbLine
 10
-135.8970819121
 20
-171.9483137418
 30
0.0
 11
-135.8970819121
 21
-158.3730449378
 31
0.0
  0
LINE
  5
24F
330
1B1
100
AcDbEntity
  8
0
  6
CONTINUOUS
 62
     7
100
AcDbLine
 10
-86.9432853698
 20
-169.9489990919
 30
0.0
 11
-135.8970819121
 21
-169.9489990919
 31
0.0
  0
LINE
  5
250
330
1B1
100
AcDbEntity
  8
0
  6
CONTINUOUS
 62
     7
100
AcDbLine
 10
-86.9432853698
 20
-169.9489990919
 30
0.0
 11
-86.9432853698
 21
-171.9483137418
 31
0.0
  0
LINE
  5
251
330
1B1
100
AcDbEntity
  8
0
  6
CONTINUOUS
 62
     7
100
AcDbLine
 10
-138.2701268499
 20
-78.2582162378
 30
0.0
 11
-151.8453956539
 21
-78.2582162378
 31
0.0
  0
LINE
  5
252
330
1B1
100
AcDbEntity
  8
0
  6
CONTINUOUS
 62
     7
100
AcDbLine
 10
-149.846081004
 20
-156.0
 30
0.0
 11
-149.846081004
 21
-78.2582162378
 31
0.0
  0
LINE
  5
253
330
1B1
100
AcDbEntity
  8
0
  6
CONTINUOUS
 62
     7
100
AcDbLine
 10
-138.2701268499
 20
-156.0
 30
0.0
 11
-151.8453956539
 21
-156.0
 31
0.0
  0
LINE
  5
254
330
1B1
100
AcDbEntity
  8
0
  6
CONTINUOUS
 62
     7
100
AcDbLine
 10
-37.27149755
 20
-65.8885980502
 30
0.0
 11
-38.8508784543
 21
-64.3092171459
 31
0.0
  0
LINE
  5
255
330
1B1
100
AcDbEntity
  8
0
  6
CONTINUOUS
 62
     7
100
AcDbLine
 10
-52.846081004
 20
-78.3044196956
 30
0.0
 11
-51.2667000996
 21
-79.8838005999
 31
0.0
  0
LINE
  5
256
330
1B1
100
AcDbEntity
  8
0
  6
CONTINUOUS
 62
     7
100
AcDbLine
 10
-51.2667000996
 20
-154.3744156379
 30
0.0
 11
-52.846081004
 21
-155.9537965422
 31
0.0
  0
LINE
  5
257
330
1B1
100
AcDbEntity
  8
0
  6
CONTINUOUS
 62
     7
100
AcDbLine
 10
-38.8508784543
 20
-169.9489990919
 30
0.0
 11
-37.27149755
 21
-168.3696181876
 31
0.0
  0
LINE
  5
258
330
1B1
100
AcDbEntity
  8
0
  6
CONTINUOUS
 62
     7
100
AcDbLine
 10
-74.5274637245
 20
-79.8838005999
 30
0.0
 11
-72.9480828202
 21
-78.3044196956
 31
0.0
  0
LINE
  5
259
330
1B1
100
AcDbEntity
  8
0
  6
CONTINUOUS
 62
     7
100
AcDbLine
 10
-86.9432853698
 20
-64.3092171459
 30
0.0
 11
-88.5226662742
 21
-65.8885980502
 31
0.0
  0
LINE
  5
25A
330
1B1
100
AcDbEntity
  8
0
  6
CONTINUOUS
 62
     7
100
AcDbLine
 10
-88.5226662742
 20
-168.3696181876
 30
0.0
 11
-86.9432853698
 21
-169.9489990919
 31
0.0
  0
LINE
  5
25B
330
1B1
100
AcDbEntity
  8
0
  6
CONTINUOUS
 62
     7
100
AcDbLine
 10
-72.9480828202
 20
-155.9537965422
 30
0.0
 11
-74.5274637245
 21
-154.3744156379
 31
0.0
  0
LINE
  5
25C
330
1B1
100
AcDbEntity
  8
0
  6
CONTINUOUS
 62
     7
100
AcDbLine
 10
-37.27149755
 20
-168.3696181876
 30
0.0
 11
72.495989977
 21
-168.3696181876
 31
0.0
  0
LINE
  5
25D
330
1B1
100
AcDbEntity
  8
0
  6
CONTINUOUS
 62
     7
100
AcDbLine
 10
-10.4272321165
 20
-65.8885980502
 30
0.0
 11
-37.27149755
 21
-65.8885980502
 31
0.0
  0
LINE
  5
25E
330
1B1
100
AcDbEntity
  8
0
  6
CONTINUOUS
 62
     7
100
AcDbLine
 10
-51.2667000996
 20
-79.8838005999
 30
0.0
 11
-51.2667000996
 21
-154.3744156379
 31
0.0
  0
LINE
  5
25F
330
1B1
100
AcDbEntity
  8
0
  6
CONTINUOUS
 62
     7
100
AcDbLine
 10
-74.5274637245
 20
-154.3744156379
 30
0.0
 11
-74.5274637245
 21
-79.8838005999
 31
0.0
  0
LINE
  5
260
330
1B1
100
AcDbEntity
  8
0
  6
CONTINUOUS
 62
     7
100
AcDbLine
 10
-135.8970819121
 20
-168.3696181876
 30
0.0
 11
-88.5226662742
 21
-168.3696181876
 31
0.0
  0
LINE
  5
261
330
1B1
100
AcDbEntity
  8
0
  6
CONTINUOUS
 62
     7
100
AcDbLine
 10
-88.5226662742
 20
-65.8885980502
 30
0.0
 11
-135.8970819121
 21
-65.8885980502
 31
0.0
  0
LINE
  5
262
330
1B1
100
AcDbEntity
  8
0
  6
CONTINUOUS
 62
     7
100
AcDbLine
 10
-148.2667000996
 20
-78.2582162378
 30
0.0
 11
-148.2667000996
 21
-156.0
 31
0.0
  0
LINE
  5
263
330
1B1
100
AcDbEntity
  8
0
  6
CONTINUOUS
 62
     7
100
AcDbLine
 10
72.495989977
 20
-158.3730449378
 30
0.0
 11
-37.27149755
 21
-158.3730449378
 31
0.0
  0
LINE
  5
264
330
1B1
100
AcDbEntity
  8
0
  6
CONTINUOUS
 62
     7
100
AcDbLine
 10
-37.27149755
 20
-168.3696181876
 30
0.0
 11
-37.27149755
 21
-158.3730449378
 31
0.0
  0
LINE
  5
265
330
1B1
100
AcDbEntity
  8
0
  6
CONTINUOUS
 62
     7
100
AcDbLine
 10
-37.27149755
 20
-75.8851713
 30
0.0
 11
-10.4272321165
 21
-75.8851713
 31
0.0
  0
LINE
  5
266
330
1B1
100
AcDbEntity
  8
0
  6
CONTINUOUS
 62
     7
100
AcDbLine
 10
-37.27149755
 20
-75.8851713
 30
0.0
 11
-37.27149755
 21
-65.8885980502
 31
0.0
  0
LINE
  5
267
330
1B1
100
AcDbEntity
  8
0
  6
CONTINUOUS
 62
     7
100
AcDbLine
 10
-88.5226662742
 20
-75.8851713
 30
0.0
 11
-88.5226662742
 21
-65.8885980502
 31
0.0
  0
LINE
  5
268
330
1B1
100
AcDbEntity
  8
0
  6
CONTINUOUS
 62
     7
100
AcDbLine
 10
-135.8970819121
 20
-75.8851713
 30
0.0
 11
-88.5226662742
 21
-75.8851713
 31
0.0
  0
LINE
  5
269
330
1B1
100
AcDbEntity
  8
0
  6
CONTINUOUS
 62
     7
100
AcDbLine
 10
-88.5226662742
 20
-158.3730449378
 30
0.0
 11
-135.8970819121
 21
-158.3730449378
 31
0.0
  0
LINE
  5
26A
330
1B1
100
AcDbEntity
  8
0
  6
CONTINUOUS
 62
     7
100
AcDbLine
 10
-88.5226662742
 20
-168.3696181876
 30
0.0
 11
-88.5226662742
 21
-158.3730449378
 31
0.0
  0
LINE
  5
26B
330
1B1
100
AcDbEntity
  8
0
  6
CONTINUOUS
 62
     7
100
AcDbLine
 10
-138.2701268499
 20
-156.0
 30
0.0
 11
-138.2701268499
 21
-78.2582162378
 31
0.0
  0
LINE
  5
26C
330
1B1
100
AcDbEntity
  8
0
  6
CONTINUOUS
 62
     7
100
AcDbLine
 10
-41.2701268499
 20
-154.3744156379
 30
0.0
 11
-41.2701268499
 21
-79.8838005999
 31
0.0
  0
LINE
  5
26D
330
1B1
100
AcDbEntity
  8
0
  6
CONTINUOUS
 62
     7
100
AcDbLine
 10
-51.2667000996
 20
-154.3744156379
 30
0.0
 11
-41.2701268499
 21
-154.3744156379
 31
0.0
  0
LINE
  5
26E
330
1B1
100
AcDbEntity
  8
0
  6
CONTINUOUS
 62
     7
100
AcDbLine
 10
-51.2667000996
 20
-79.8838005999
 30
0.0
 11
-41.2701268499
 21
-79.8838005999
 31
0.0
  0
LINE
  5
26F
330
1B1
100
AcDbEntity
  8
0
  6
CONTINUOUS
 62
     7
100
AcDbLine
 10
-84.5240369743
 20
-79.8838005999
 30
0.0
 11
-84.5240369743
 21
-154.3744156379
 31
0.0
  0
LINE
  5
270
330
1B1
100
AcDbEntity
  8
0
  6
CONTINUOUS
 62
     7
100
AcDbLine
 10
-74.5274637245
 20
-79.8838005999
 30
0.0
 11
-84.5240369743
 21
-79.8838005999
 31
0.0
  0
LINE
  5
271
330
1B1
100
AcDbEntity
  8
0
  6
CONTINUOUS
 62
     7
100
AcDbLine
 10
-74.5274637245
 20
-154.3744156379
 30
0.0
 11
-84.5240369743
 21
-154.3744156379
 31
0.0
  0
ARC
  5
272
330
1B1
100
AcDbEntity
  8
0
  6
CONTINUOUS
 62
     7
100
AcDbCircle
 10
140.8447018501
 20
0.0
 30
0.0
 40
160.3160192545639
100
AcDbArc
 50
282.8821133762
 51
199.7821865645
  0
ARC
  5
273
330
1B1
100
AcDbEntity
  8
0
  6
CONTINUOUS
 62
     7
100
AcDbCircle
 10
140.8447018501
 20
0.0
 30
0.0
 40
160.8160002160962
100
AcDbArc
 50
282.8397686729
 51
199.71979566
  0
ARC
  5
274
330
1B1
100
AcDbEntity
  8
0
  6
CONTINUOUS
 62
     7
100
AcDbCircle
 10
-158.8971330269
 20
-55.258165123
 30
0.0
 40
0.9999488852723909
100
AcDbArc
 50
89.9992529465
 51
180.0007470535
  0
ARC
  5
275
330
1B1
100
AcDbEntity
  8
0
  6
CONTINUOUS
 62
     7
100
AcDbCircle
 10
-135.8970819121
 20
-78.2582162378
 30
0.0
 40
15.94831374184344
100
AcDbArc
 50
90.0
 51
180.0
  0
ARC
  5
276
330
1B1
100
AcDbEntity
  8
0
  6
CONTINUOUS
 62
     7
100
AcDbCircle
 10
-135.8970819121
 20
-156.0
 30
0.0
 40
15.94831374184335
100
AcDbArc
 50
180.0
 51
270.0
  0
ARC
  5
277
330
1B1
100
AcDbEntity
  8
0
  6
CONTINUOUS
 62
     7
100
AcDbCircle
 10
-86.9415794201
 20
-155.955502492
 30
0.0
 40
15.99281134085844
100
AcDbArc
 50
269.9938882715
 51
0.0061117285
  0
ARC
  5
278
330
1B1
100
AcDbEntity
  8
0
  6
CONTINUOUS
 62
     7
100
AcDbCircle
 10
-86.9415794201
 20
-78.3027137458
 30
0.0
 40
15.99281134085844
100
AcDbArc
 50
359.9938882715
 51
90.0061117285
  0
ARC
  5
279
330
1B1
100
AcDbEntity
  8
0
  6
CONTINUOUS
 62
     7
100
AcDbCircle
 10
140.8447018501
 20
0.0
 30
0.0
 40
154.3677055127225
100
AcDbArc
 50
207.3540926414
 51
246.340198949
  0
ARC
  5
27A
330
1B1
100
AcDbEntity
  8
0
  6
CONTINUOUS
 62
     7
100
AcDbCircle
 10
-10.4272321165
 20
-78.2582162378
 30
0.0
 40
15.94831374184344
100
AcDbArc
 50
27.3540926413
 51
90.0
  0
ARC
  5
27B
330
1B1
100
AcDbEntity
  8
0
  6
CONTINUOUS
 62
     7
100
AcDbCircle
 10
-38.852584404
 20
-78.3027137458
 30
0.0
 40
15.99281134085842
100
AcDbArc
 50
89.9938882715
 51
180.0061117285
  0
ARC
  5
27C
330
1B1
100
AcDbEntity
  8
0
  6
CONTINUOUS
 62
     7
100
AcDbCircle
 10
-38.852584404
 20
-155.955502492
 30
0.0
 40
15.99281134085842
100
AcDbArc
 50
179.9938882715
 51
270.0061117285
  0
ARC
  5
27D
330
1B1
100
AcDbEntity
  8
0
  6
CONTINUOUS
 62
     7
100
AcDbCircle
 10
72.495989977
 20
-156.0
 30
0.0
 40
15.94831374184338
100
AcDbArc
 50
270.0
 51
66.340198949
  0
ARC
  5
27E
330
1B1
100
AcDbEntity
  8
0
  6
CONTINUOUS
 62
     7
100
AcDbCircle
 10
72.495989977
 20
-156.0
 30
0.0
 40
13.94899909189227
100
AcDbArc
 50
270.0
 51
66.340198949
  0
ARC
  5
27F
330
1B1
100
AcDbEntity
  8
0
  6
CONTINUOUS
 62
     7
100
AcDbCircle
 10
140.8447018501
 20
0.0
 30
0.0
 40
156.3670201626725
100
AcDbArc
 50
207.3540926414
 51
246.340198949
  0
ARC
  5
280
330
1B1
100
AcDbEntity
  8
0
  6
CONTINUOUS
 62
     7
100
AcDbCircle
 10
-10.4272321165
 20
-78.2582162378
 30
0.0
 40
13.94899909189237
100
AcDbArc
 50
27.3540926413
 51
90.0
  0
ARC
  5
281
330
1B1
100
AcDbEntity
  8
0
  6
CONTINUOUS
 62
     7
100
AcDbCircle
 10
-38.8542439298
 20
-78.3010542201
 30
0.0
 40
13.99183747895126
100
AcDbArc
 50
89.9862185691
 51
180.0137814309
  0
ARC
  5
282
330
1B1
100
AcDbEntity
  8
0
  6
CONTINUOUS
 62
     7
100
AcDbCircle
 10
-38.8542439298
 20
-155.9571620177
 30
0.0
 40
13.99183747895125
100
AcDbArc
 50
179.9862185691
 51
270.0137814309
  0
ARC
  5
283
330
1B1
100
AcDbEntity
  8
0
  6
CONTINUOUS
 62
     7
100
AcDbCircle
 10
-86.9399198944
 20
-78.3010542201
 30
0.0
 40
13.99183747895126
100
AcDbArc
 50
359.9862185691
 51
90.0137814309
  0
ARC
  5
284
330
1B1
100
AcDbEntity
  8
0
  6
CONTINUOUS
 62
     7
100
AcDbCircle
 10
-86.9399198944
 20
-155.9571620177
 30
0.0
 40
13.99183747895132
100
AcDbArc
 50
269.9862185691
 51
0.0137814309
  0
ARC
  5
285
330
1B1
100
AcDbEntity
  8
0
  6
CONTINUOUS
 62
     7
100
AcDbCircle
 10
-135.8970819121
 20
-78.2582162378
 30
0.0
 40
13.94899909189226
100
AcDbArc
 50
90.0
 51
180.0
  0
ARC
  5
286
330
1B1
100
AcDbEntity
  8
0
  6
CONTINUOUS
 62
     7
100
AcDbCircle
 10
-135.8970819121
 20
-156.0
 30
0.0
 40
13.94899909189212
100
AcDbArc
 50
180.0
 51
270.0
  0
ARC
  5
287
330
1B1
100
AcDbEntity
  8
0
  6
CONTINUOUS
 62
     7
100
AcDbCircle
 10
-37.2639803165
 20
-79.8913178333
 30
0.0
 40
14.00272180088792
100
AcDbArc
 50
90.030758718
 51
179.969241282
  0
ARC
  5
288
330
1B1
100
AcDbEntity
  8
0
  6
CONTINUOUS
 62
     7
100
AcDbCircle
 10
-37.2639803165
 20
-154.3668984044
 30
0.0
 40
14.00272180088797
100
AcDbArc
 50
180.030758718
 51
269.969241282
  0
ARC
  5
289
330
1B1
100
AcDbEntity
  8
0
  6
CONTINUOUS
 62
     7
100
AcDbCircle
 10
-88.5301835076
 20
-79.8913178333
 30
0.0
 40
14.00272180088792
100
AcDbArc
 50
0.030758718
 51
89.969241282
  0
ARC
  5
28A
330
1B1
100
AcDbEntity
  8
0
  6
CONTINUOUS
 62
     7
100
AcDbCircle
 10
-88.5301835076
 20
-154.3668984044
 30
0.0
 40
14.00272180088797
100
AcDbArc
 50
270.030758718
 51
359.969241282
  0
ARC
  5
28B
330
1B1
100
AcDbEntity
  8
0
  6
CONTINUOUS
 62
     7
100
AcDbCircle
 10
72.495989977
 20
-156.0
 30
0.0
 40
12.36961818755734
100
AcDbArc
 50
270.0
 51
66.340198949
  0
ARC
  5
28C
330
1B1
100
AcDbEntity
  8
0
  6
CONTINUOUS
 62
     7
100
AcDbCircle
 10
140.8447018501
 20
0.0
 30
0.0
 40
157.946401067008
100
AcDbArc
 50
207.3540926414
 51
246.340198949
  0
ARC
  5
28D
330
1B1
100
AcDbEntity
  8
0
  6
CONTINUOUS
 62
     7
100
AcDbCircle
 10
-10.4272321165
 20
-78.2582162378
 30
0.0
 40
12.36961818755707
100
AcDbArc
 50
27.3540926413
 51
90.0
  0
ARC
  5
28E
330
1B1
100
AcDbEntity
  8
0
  6
CONTINUOUS
 62
     7
100
AcDbCircle
 10
-135.8970819121
 20
-156.0
 30
0.0
 40
12.36961818755734
100
AcDbArc
 50
180.0
 51
270.0
  0
ARC
  5
28F
330
1B1
100
AcDbEntity
  8
0
  6
CONTINUOUS
 62
     7
100
AcDbCircle
 10
-135.8970819121
 20
-78.2582162378
 30
0.0
 40
12.36961818755742
100
AcDbArc
 50
90.0
 51
180.0
  0
ARC
  5
290
330
1B1
100
AcDbEntity
  8
0
  6
CONTINUOUS
 62
     7
100
AcDbCircle
 10
-10.4272321165
 20
-78.2582162378
 30
0.0
 40
2.373044937801637
100
AcDbArc
 50
27.3540926413
 51
90.0
  0
ARC
  5
291
330
1B1
100
AcDbEntity
  8
0
  6
CONTINUOUS
 62
     7
100
AcDbCircle
 10
72.495989977
 20
-156.0
 30
0.0
 40
2.373044937801761
100
AcDbArc
 50
270.0
 51
66.340198949
  0
ARC
  5
292
330
1B1
100
AcDbEntity
  8
0
  6
CONTINUOUS
 62
     7
100
AcDbCircle
 10
140.8447018501
 20
0.0
 30
0.0
 40
167.9429743167634
100
AcDbArc
 50
207.3540926414
 51
246.340198949
  0
ARC
  5
293
330
1B1
100
AcDbEntity
  8
0
  6
CONTINUOUS
 62
     7
100
AcDbCircle
 10
-135.8970819121
 20
-78.2582162378
 30
0.0
 40
2.373044937801779
100
AcDbArc
 50
90.0
 51
180.0
  0
ARC
  5
294
330
1B1
100
AcDbEntity
  8
0
  6
CONTINUOUS
 62
     7
100
AcDbCircle
 10
-135.8970819121
 20
-156.0
 30
0.0
 40
2.373044937801836
100
AcDbArc
 50
180.0
 51
270.0
  0
ARC
  5
295
330
1B1
100
AcDbEntity
  8
0
  6
CONTINUOUS
 62
     7
100
AcDbCircle
 10
-88.5221973478
 20
-79.8833316735
 30
0.0
 40
3.998160401043958
100
AcDbArc
 50
359.9932800342
 51
90.0067199658
  0
ARC
  5
296
330
1B1
100
AcDbEntity
  8
0
  6
CONTINUOUS
 62
     7
100
AcDbCircle
 10
-37.2719664763
 20
-79.8833316735
 30
0.0
 40
3.998160401043944
100
AcDbArc
 50
89.9932800342
 51
180.0067199658
  0
ARC
  5
297
330
1B1
100
AcDbEntity
  8
0
  6
CONTINUOUS
 62
     7
100
AcDbCircle
 10
-37.2719664763
 20
-154.3748845643
 30
0.0
 40
3.998160401043973
100
AcDbArc
 50
179.9932800342
 51
270.0067199658
  0
ARC
  5
298
330
1B1
100
AcDbEntity
  8
0
  6
CONTINUOUS
 62
     7
100
AcDbCircle
 10
-88.5221973478
 20
-154.3748845643
 30
0.0
 40
3.998160401044001
100
AcDbArc
 50
269.9932800342
 51
0.0067199658
  0
VIEWPORT
  5
382
330
1B1
100
AcDbEntity
  8
0
100
AcDbViewport
 10
0.0
 20
0.0
 30
0.0
 40
205.6
 41
156.0
 68
     1
 69
     1
1001
ACAD
1000
MVIEW
1002
{
1070
    16
1010
0.0
1020
0.0
1030
0.0
1010
0.0
1020
0.0
1030
1.0
1040
0.0
1040
357.2134125294
1040
70.8818195963
1040
9.5919903727
1040
50.0
1040
0.0
1040
0.0
1070
     0
1070
   100
1070
     0
1070
     3
1070
     0
1070
     0
1070
     0
1070
     0
1040
0.0
1040
0.0
1040
0.0
1040
10.0
1040
10.0
1040
10.0
1040
10.0
1070
     0
1002
{
1002
}
1002
}
  0
ENDBLK
  5
1B4
330
1B1
100
AcDbEntity
  8
0
100
AcDbBlockEnd
  0
BLOCK
  5
29B
330
299
100
AcDbEntity
  8
0
100
AcDbBlockBegin
  2
*PAPER_SPACE5
 70
     0
 10
0.0
 20
0.0
 30
0.0
  3
*PAPER_SPACE5
  1

  0
SPLINE
  5
29F
330
299
100
AcDbEntity
  8
0
  6
CONTINUOUS
 62
     7
100
AcDbSpline
210
0.0
220
0.0
230
1.0
 70
     8
 71
     3
 72
    66
 73
    62
 74
     0
 42
0.00000001
 43
0.00000001
 40
0.0
 40
0.0
 40
0.0
 40
0.0
 40
0.0103823469637203
 40
0.0275107064579506
 40
0.0446517099778659
 40
0.0618041565689056
 40
0.0789664802889611
 40
0.096136961029803
 40
0.113313888624476
 40
0.1304956750652367
 40
0.1476809197032041
 40
0.1648684372881196
 40
0.1820572598344618
 40
0.1992466221317929
 40
0.2164357816995976
 40
0.2336243484322402
 40
0.2508120537683971
 40
0.2679987242220435
 40
0.2851842613256005
 40
0.3023686248634086
 40
0.3195518191938858
 40
0.3367338823080747
 40
0.3539148772212274
 40
0.3710948853001835
 40
0.388274001164755
 40
0.4054523288487425
 40
0.4226299789557022
 40
0.4398070665906378
 40
0.4569837098892157
 40
0.474160028999622
 40
0.4913361453993957
 40
0.5085121814503696
 40
0.5256882597446293
 40
0.5428644629537834
 40
0.5600409146928299
 40
0.5772177386478726
 40
0.5943950582734165
 40
0.6115729963344418
 40
0.6287516742031662
 40
0.6459312108109377
 40
0.6631117211338853
 40
0.680293314062587
 40
0.6974760894709473
 40
0.7146601342572477
 40
0.7318455170820444
 40
0.7490322814753748
 40
0.7662204369352251
 40
0.7834099476002229
 40
0.8006007180696315
 40
0.8177925759914987
 40
0.8349852511885208
 40
0.8521783448341235
 40
0.8693711061183953
 40
0.886562752533038
 40
0.9037522905914029
 40
0.9209384995341211
 40
0.938119931524367
 40
0.955294938443387
 40
0.9724617367391749
 40
0.9896185207427808
 40
0.9999999999999999
 40
0.9999999999999999
 40
0.9999999999999999
 40
0.9999999999999999
 10
253.4561247934191
 20
62.46841338393897
 30
0.0
 10
253.0661598319709
 20
63.27220164392913
 30
0.0
 10
252.0328470732304
 20
65.4020459799166
 30
0.0
 10
250.0172804038951
 20
68.79607718038886
 30
0.0
 10
247.449077393961
 20
72.647999169912
 30
0.0
 10
244.5746269435395
 20
76.42726416047088
 30
0.0
 10
241.4163771718398
 20
80.12914767668852
 30
0.0
 10
237.9761485960623
 20
83.7453490402124
 30
0.0
 10
234.2620791210277
 20
87.26877114284142
 30
0.0
 10
230.2813532691559
 20
90.6922760053009
 30
0.0
 10
226.0421070612892
 20
94.00904418373283
 30
0.0
 10
221.5528754884287
 20
97.21249489114857
 30
0.0
 10
216.8227031973328
 20
100.2963175925202
 30
0.0
 10
211.8610968949782
 20
103.2544610597047
 30
0.0
 10
206.677996525927
 20
106.0811518743755
 30
0.0
 10
201.2837510863317
 20
108.7708968967176
 30
0.0
 10
195.6890816493308
 20
111.3184936917487
 30
0.0
 10
189.9050823686122
 20
113.7190235426468
 30
0.0
 10
183.9432017835926
 20
115.9678569817442
 30
0.0
 10
177.8152231210952
 20
118.060659986198
 30
0.0
 10
171.5332438265783
 20
119.9934004777002
 30
0.0
 10
165.1096542181249
 20
121.7623549265706
 30
0.0
 10
158.557115251983
 20
123.3641148819103
 30
0.0
 10
151.8885354254184
 20
124.7955932726596
 30
0.0
 10
145.1170468732912
 20
126.0540303506426
 30
0.0
 10
138.2559807312395
 20
127.1369991710279
 30
0.0
 10
131.3188418477728
 20
128.0424105271583
 30
0.0
 10
124.3192829317523
 20
128.7685172748472
 30
0.0
 10
117.2710782229112
 20
129.3139179961712
 30
0.0
 10
110.1880967725809
 20
129.6775599648648
 30
0.0
 10
103.0842754201643
 20
129.8587413851271
 30
0.0
 10
95.97359160085075
 20
129.8571128835751
 30
0.0
 10
88.87004152043873
 20
129.6726783916457
 30
0.0
 10
81.78760703512775
 20
129.3057956100471
 30
0.0
 10
74.74022801771073
 20
128.7571751814469
 30
0.0
 10
67.74176951565349
 20
128.0278782995268
 30
0.0
 10
60.80600022884411
 20
127.1193144900147
 30
0.0
 10
53.94656564892743
 20
126.0332384869364
 30
0.0
 10
47.17696154704864
 20
124.7717463645958
 30
0.0
 10
40.51050789911449
 20
123.3372709475774
 30
0.0
 10
33.96032333829521
 20
121.7325765299758
 30
0.0
 10
27.53930022739934
 20
119.9607529464451
 30
0.0
 10
21.26008044578313
 20
118.025209052247
 30
0.0
 10
15.13503198586907
 20
115.9296656880924
 30
0.0
 10
9.176226452541854
 20
113.6781482289392
 30
0.0
 10
3.395417549243267
 20
111.274978845264
 30
0.0
 10
-2.19597937332678
 20
108.7247686388869
 30
0.0
 10
-7.586906686257791
 20
106.0324098604722
 30
0.0
 10
-12.7666826897202
 20
103.203068440653
 30
0.0
 10
-17.72501904495743
 20
100.2421771761475
 30
0.0
 10
-22.45203584484373
 20
97.15543007945449
 30
0.0
 10
-26.9382627085238
 20
93.94879087436821
 30
0.0
 10
-31.17466211739757
 20
90.62848125630933
 30
0.0
 10
-35.1526856754879
 20
87.2009863246065
 30
0.0
 10
-38.86416736098631
 20
83.67301613247065
 30
0.0
 10
-42.30185515162269
 20
80.05160668516132
 30
0.0
 10
-45.45748844663704
 20
76.34377763531785
 30
0.0
 10
-48.3291009059468
 20
72.55780041822383
 30
0.0
 10
-50.89393554033247
 20
68.69844083805934
 30
0.0
 10
-52.9053129315388
 20
65.2989623298878
 30
0.0
 10
-53.9351394387657
 20
63.16620400501591
 30
0.0
 10
-54.32336735357829
 20
62.36218865732994
 30
0.0
  0
SPLINE
  5
2A0
330
299
100
AcDbEntity
  8
0
  6
CONTINUOUS
 62
     7
100
AcDbSpline
210
0.0
220
0.0
230
1.0
 70
     8
 71
     3
 72
    12
 73
     8
 74
     0
 42
0.00000001
 43
0.00000001
 40
0.0
 40
0.0
 40
0.0
 40
0.0
 40
0.1508403284079453
 40
0.3839197940018105
 40
0.6169757608341864
 40
0.8500204185238285
 40
1.0
 40
1.0
 40
1.0
 40
1.0
 10
228.1393009096116
 20
-12.32984163657372
 30
0.0
 10
227.3029731379019
 20
-13.04935888707337
 30
0.0
 10
225.1743462035687
 20
-14.88067891606121
 30
0.0
 10
221.4597025680229
 20
-17.70803836458661
 30
0.0
 10
217.0373207412965
 20
-20.8146995129373
 30
0.0
 10
212.9308282702358
 20
-23.45188952134964
 30
0.0
 10
210.2542499169626
 20
-25.02415786518815
 30
0.0
 10
209.2061906555269
 20
-25.63980597323133
 30
0.0
  0
SPLINE
  5
2A1
330
299
100
AcDbEntity
  8
0
  6
CONTINUOUS
 62
     7
100
AcDbSpline
210
0.0
220
0.0
230
1.0
 70
     8
 71
     3
 72
    48
 73
    44
 74
     0
 42
0.00000001
 43
0.00000001
 40
0.0
 40
0.0
 40
0.0
 40
0.0
 40
0.0131793876043194
 40
0.0382416048318139
 40
0.0633066642861846
 40
0.0883731135941337
 40
0.1134411972906356
 40
0.138511048138766
 40
0.1635827124902318
 40
0.1886561710293833
 40
0.2137313552244255
 40
0.2388081601744562
 40
0.2638864544997043
 40
0.2889660878488554
 40
0.3140468965129455
 40
0.339128707553165
 40
0.3642113417760726
 40
0.3892946158265305
 40
0.4143783436169887
 40
0.4394623372704665
 40
0.4645464077236681
 40
0.4896303272884231
 40
0.5147138801868398
 40
0.5397968759516851
 40
0.5648791244149544
 40
0.5899604363790806
 40
0.6150406246686188
 40
0.6401195057132764
 40
0.6651969018518471
 40
0.6902726445912831
 40
0.7153465791111226
 40
0.7404185703709988
 40
0.7654885112575587
 40
0.7905563332933523
 40
0.8156220205169421
 40
0.8406856272163783
 40
0.8657473002316034
 40
0.8908073064934291
 40
0.9158660662707616
 40
0.9409241921553927
 40
0.9659822994903233
 40
0.9910413468275636
 40
1.0
 40
1.0
 40
1.0
 40
1.0
 10
209.2061906555269
 20
-25.63980597323133
 30
0.0
 10
208.3360633099231
 20
-26.13498531258335
 30
0.0
 10
205.8112824094033
 20
-27.57180872084043
 30
0.0
 10
201.4636631883005
 20
-29.85146711494858
 30
0.0
 10
196.1031550557289
 20
-32.42946481591041
 30
0.0
 10
190.542057135348
 20
-34.86450391626351
 30
0.0
 10
184.7957143064199
 20
-37.15359066896927
 30
0.0
 10
178.8747817375558
 20
-39.29136484980445
 30
0.0
 10
172.7916157531265
 20
-41.27351087962518
 30
0.0
 10
166.5585617240473
 20
-43.09584134330414
 30
0.0
 10
160.1883775869011
 20
-44.75455534378793
 30
0.0
 10
153.6940846233736
 20
-46.24618045873019
 30
0.0
 10
147.0889713849515
 20
-47.5675980783362
 30
0.0
 10
140.3865563045232
 20
-48.71604512761031
 30
0.0
 10
133.6005611472195
 20
-49.68912095195269
 30
0.0
 10
126.7448813563173
 20
-50.48479173546578
 30
0.0
 10
119.8335570582815
 20
-51.10139455787342
 30
0.0
 10
112.880743745568
 20
-51.53764057076636
 30
0.0
 10
105.9006829292521
 20
-51.79261746507847
 30
0.0
 10
98.90767271562865
 20
-51.86579120738921
 30
0.0
 10
91.91604186659711
 20
-51.75700712266812
 30
0.0
 10
84.94011915065315
 20
-51.46649067493679
 30
0.0
 10
77.99420139740008
 20
-50.99484727024627
 30
0.0
 10
71.09252053543493
 20
-50.34306071674391
 30
0.0
 10
64.24921547560356
 20
-49.51249114129115
 30
0.0
 10
57.47830528451425
 20
-48.50487263293128
 30
0.0
 10
50.79366013703551
 20
-47.32231009213201
 30
0.0
 10
44.20897242588824
 20
-45.96727537589714
 30
0.0
 10
37.737728056436
 20
-44.44260272102345
 30
0.0
 10
31.39317791181104
 20
-42.75148343234746
 30
0.0
 10
25.18830961302586
 20
-40.89745976132314
 30
0.0
 10
19.13581916291264
 20
-38.88441806921183
 30
0.0
 10
13.24808405444293
 20
-36.71658065797575
 30
0.0
 10
7.537131999417052
 20
-34.39849820097948
 30
0.0
 10
2.01462717308401
 20
-31.93503506166585
 30
0.0
 10
-3.308207565810614
 20
-29.33137561552492
 30
0.0
 10
-8.420427898283775
 20
-26.59294581429732
 30
0.0
 10
-13.31210075791656
 20
-23.72564361199815
 30
0.0
 10
-17.97169226676514
 20
-20.7349081670151
 30
0.0
 10
-22.39591947519201
 20
-17.62912217082505
 30
0.0
 10
-26.55305158103623
 20
-14.40685767070744
 30
0.0
 10
-29.67031735480821
 20
-11.81173680680007
 30
0.0
 10
-31.30670681485648
 20
-10.26107634080292
 30
0.0
 10
-31.73765439238105
 20
-9.852705725066393
 30
0.0
  0
SPLINE
  5
2A2
330
299
100
AcDbEntity
  8
0
  6
CONTINUOUS
 62
     7
100
AcDbSpline
210
0.0
220
0.0
230
1.0
 70
     8
 71
     3
 72
    20
 73
    16
 74
     0
 42
0.00000001
 43
0.00000001
 40
0.0
 40
0.0
 40
0.0
 40
0.0
 40
0.0681585587000037
 40
0.1599746189951735
 40
0.250609965704346
 40
0.3394965640331434
 40
0.4267690344398145
 40
0.5128568711991591
 40
0.5981945536099085
 40
0.6831191868580327
 40
0.7678619313527862
 40
0.8031849588217264
 40
0.8474918191534305
 40
0.9321878610245805
 40
1.0
 40
1.0
 40
1.0
 40
1.0
 10
144.790076773072
 20
-30.47844830465531
 30
0.0
 10
144.7795105354972
 20
-30.98054366386514
 30
0.0
 10
144.7547105710836
 20
-32.15900922007464
 30
0.0
 10
144.3479577223335
 20
-34.00832121482796
 30
0.0
 10
143.6288761653687
 20
-36.01353541610015
 30
0.0
 10
142.5965611114745
 20
-37.9794917293432
 30
0.0
 10
141.2766582454526
 20
-39.89146464136596
 30
0.0
 10
139.6765792215203
 20
-41.73947463041753
 30
0.0
 10
137.8064220374147
 20
-43.51436799952309
 30
0.0
 10
135.6758439885538
 20
-45.20592271263722
 30
0.0
 10
133.7574699357834
 20
-46.49267816837717
 30
0.0
 10
132.111888305406
 20
-47.4760438044204
 30
0.0
 10
130.3947314259201
 20
-48.42350826142107
 30
0.0
 10
128.2242144981555
 20
-49.5008628360359
 30
0.0
 10
126.3925732991787
 20
-50.23277035091296
 30
0.0
 10
125.5781415300196
 20
-50.55821003447939
 30
0.0
  0
SPLINE
  5
2A3
330
299
100
AcDbEntity
  8
0
  6
CONTINUOUS
 62
     7
100
AcDbSpline
210
0.0
220
0.0
230
1.0
 70
     8
 71
     3
 72
    20
 73
    16
 74
     0
 42
0.00000001
 43
0.00000001
 40
0.0
 40
0.0
 40
0.0
 40
0.0
 40
0.0455382524250618
 40
0.130693285424733
 40
0.2157072979780776
 40
0.300600957169595
 40
0.3854244965957688
 40
0.4702476200687639
 40
0.555196230748838
 40
0.6404872595241504
 40
0.726436112955754
 40
0.8134537549648531
 40
0.9019813127828507
 40
0.9922957133446278
 40
1.0
 40
1.0
 40
1.0
 40
1.0
 10
73.60947408638229
 20
-50.55004074507448
 30
0.0
 10
73.05814437961025
 20
-50.33820335075306
 30
0.0
 10
71.47584626993053
 20
-49.73023700234653
 30
0.0
 10
69.07070339293475
 20
-48.57793685881265
 30
0.0
 10
66.40662010238707
 20
-47.11934019778044
 30
0.0
 10
63.98702494780323
 20
-45.54761904370953
 30
0.0
 10
61.81568733627646
 20
-43.88583588551058
 30
0.0
 10
59.90796367954076
 20
-42.14658208384854
 30
0.0
 10
58.27236784557032
 20
-40.34518802122206
 30
0.0
 10
56.91412720477084
 20
-38.49470495345898
 30
0.0
 10
55.83891373568338
 20
-36.60543564642597
 30
0.0
 10
55.03800889898086
 20
-34.68340545222286
 30
0.0
 10
54.55473238109658
 20
-32.73008402187104
 30
0.0
 10
54.33960550647159
 20
-31.362465559526
 30
0.0
 10
54.37560044219691
 20
-30.64390731822039
 30
0.0
 10
54.37842965069625
 20
-30.58742850967101
 30
0.0
  0
LWPOLYLINE
  5
2A9
330
299
100
AcDbEntity
  8
0
  6
CONTINUOUS
 62
     7
100
AcDbPolyline
 90
       70
 70
   128
 43
0.0
 10
260.4051830894
 20
-38.7086643301
 10
260.408010496
 20
-39.4396535937
 10
260.21819496
 20
-43.7935290795
 10
259.674871145
 20
-48.1374743128
 10
258.7792348072
 20
-52.4619290661
 10
257.5332570779
 20
-56.7573760073
 10
255.9396801259
 20
-61.0143616448
 10
254.0020111219
 20
-65.2235171335
 10
251.7245145203
 20
-69.3755788936
 10
249.1122026736
 20
-73.4614089982
 10
246.1708248015
 20
-77.472015284
 10
242.9068543375
 20
-81.3985711418
 10
239.3274746824
 20
-85.2324349416
 10
235.4405633948
 20
-88.965169052
 10
231.2546748541
 20
-92.5885584094
 10
226.7790214337
 20
-96.0946285977
 10
222.0234532265
 20
-99.4756633993
 10
216.9984363666
 20
-102.724221776
 10
211.715029995
 20
-105.8331542464
 10
206.1848619209
 20
-108.7956186199
 10
200.4201030306
 20
-111.6050950553
 10
194.4334405018
 20
-114.25540041
 10
188.2380498816
 20
-116.7407018476
 10
181.8475660891
 20
-119.0555296751
 10
175.2760534081
 20
-121.1947893808
 10
168.5379745333
 20
-123.1537728462
 10
161.6481587416
 20
-124.9281687076
 10
154.6217692547
 20
-126.514071845
 10
147.474269868
 20
-127.9079919762
 10
140.2213909178
 20
-129.1068613386
 10
132.8790946612
 20
-130.1080414404
 10
125.4635401466
 20
-130.9093288676
 10
117.9910476504
 20
-131.5089601336
 10
110.478062759
 20
-131.9056155597
 10
102.9411201752
 20
-132.0984221802
 10
95.3968073282
 20
-132.0869556629
 10
87.8617278678
 20
-131.8712412436
 10
80.352465123
 20
-131.4517536702
 10
72.8855456048
 20
-130.8294161579
 10
65.4774026343
 20
-130.0055983575
 10
58.1443401767
 20
-128.9821133411
 10
50.9024969582
 20
-127.7612136115
 10
43.7678109487
 20
-126.3455861453
 10
36.7559842842
 20
-124.7383464792
 10
29.8824487102
 20
-122.9430318529
 10
23.1623316187
 20
-120.9635934251
 10
16.6104227558
 20
-118.8043875768
 10
10.2411416719
 20
-116.4701663244
 10
4.0685059875
 20
-113.966066861
 10
-1.8938994577
 20
-111.2976002507
 10
-7.6329525021
 20
-108.4706392993
 10
-13.1360225417
 20
-105.4914056298
 10
-18.3909983281
 20
-102.3664559894
 10
-23.3863146227
 20
-99.1026678196
 10
-28.1109776497
 20
-95.70722412
 10
-32.554589292
 20
-92.1875976397
 10
-36.7073699746
 20
-88.5515344317
 10
-40.5601801884
 20
-84.8070368046
 10
-44.1045406042
 20
-80.9623457113
 10
-47.3326507345
 20
-77.0259226124
 10
-50.2374061004
 20
-73.0064308536
 10
-52.8124138678
 20
-68.9127165996
 10
-55.0520069165
 20
-64.7537893651
 10
-56.9512563128
 20
-60.5388021868
 10
-58.5059821567
 20
-56.2770314788
 10
-59.7127627816
 20
-51.9778566175
 10
-60.5689422846
 20
-47.6507392987
 10
-61.0726363715
 20
-43.3052027146
 10
-61.222736504
 20
-38.9508105947
 10
-61.2206955445
 20
-38.7086643301
  0
LWPOLYLINE
  5
2AA
330
299
100
AcDbEntity
  8
0
  6
CONTINUOUS
 62
     7
100
AcDbPolyline
 90
      134
 70
   128
 43
0.0
 10
212.0222489056
 20
-27.0263694493
 10
206.5873689919
 20
-30.0190316097
 10
200.9137411164
 20
-32.8601887403
 10
195.0140253612
 20
-35.5435011086
 10
188.9013862993
 20
-38.0629811954
 10
182.5894636184
 20
-40.4130070555
 10
176.0923416863
 20
-42.5883348622
 10
169.4245181224
 20
-44.5841106087
 10
162.6008714485
 20
-46.3958809388
 10
155.6366278884
 20
-48.0196030845
 10
148.5473273927
 20
-49.4516538868
 10
141.3487889628
 20
-50.6888378804
 10
134.0570753529
 20
-51.7283944239
 10
126.6884572272
 20
-52.5680038604
 10
119.2593768541
 20
-53.2057926927
 10
111.7864114167
 20
-53.6403377647
 10
104.2862360232
 20
-53.8706694363
 10
96.7755864974
 20
-53.8962737476
 10
89.2712220355
 20
-53.7170935654
 10
81.7898878087
 20
-53.3335287105
 10
74.3482775993
 20
-52.7464350663
 10
66.9629965494
 20
-51.9571226683
 10
59.6505241088
 20
-50.9673527809
 10
52.4271772628
 20
-49.779333968
 10
45.3090741229
 20
-48.3957171638
 10
38.3120979605
 20
-46.8195897587
 10
31.4518617652
 20
-45.0544687092
 10
24.7436734067
 20
-43.1042926904
 10
18.2025014762
 20
-40.9734133077
 10
11.842941886
 20
-38.6665853862
 10
5.6791853002
 20
-36.1889563609
 10
-0.2750145299
 20
-33.5460547912
 10
-6.0063714564
 20
-30.7437780237
 10
-11.5020965808
 20
-27.7883790338
 10
-16.7499267915
 20
-24.6864524722
 10
-21.7381521272
 20
-21.44491995
 10
-26.4556419067
 20
-18.0710145937
 10
-30.8918695657
 20
-14.5722649055
 10
-35.0369361455
 20
-10.956477964
 10
-38.8815923819
 20
-7.2317220038
 10
-42.4172593433
 20
-3.4063084118
 10
-45.6360475744
 20
0.5112268184
 10
-48.5307746999
 20
4.5121421338
 10
-51.0949814516
 20
8.5875099279
 10
-53.3229460818
 20
12.7282364617
 10
-55.2096971301
 20
16.9250821551
 10
-56.7510245171
 20
21.1686822043
 10
-57.9434889388
 20
25.4495674782
 10
-58.7844295407
 20
29.7581856479
 10
-59.2719698556
 20
34.0849225015
 10
-59.4050219903
 20
38.4201233972
 10
-59.1832890535
 20
42.7541148066
 10
-58.6072658182
 20
47.0772259002
 10
-57.6782376174
 20
51.3798101268
 10
-56.3982774762
 20
55.6522667384
 10
-54.7702414862
 20
59.8850622139
 10
-52.7977624324
 20
64.0687515313
 10
-50.4852416868
 20
68.1939992439
 10
-47.8378393874
 20
72.2516003109
 10
-44.8614629239
 20
76.2325006378
 10
-41.5627537561
 20
80.1278172794
 10
-37.949072594
 20
83.9288582609
 10
-34.0284829732
 20
87.6271419738
 10
-29.8097332624
 20
91.2144161008
 10
-25.3022371416
 20
94.6826760309
 10
-20.5160525974
 20
98.0241827197
 10
-15.4618594788
 20
101.2314799595
 10
-10.1509356672
 20
104.2974110158
 10
-4.5951319101
 20
107.2151345976
 10
1.1931546218
 20
109.9781401228
 10
7.2010079979
 20
112.5802622456
 10
13.4150223481
 20
115.015694614
 10
19.8213317765
 20
117.2790028262
 10
26.4056413018
 20
119.3651365565
 10
33.1532587549
 20
121.2694408248
 10
40.0491275628
 20
122.9876663837
 10
47.0778603456
 20
124.5159792001
 10
54.2237732521
 20
125.8509690105
 10
61.4709209565
 20
126.9896569306
 10
68.8031322384
 20
127.9295021024
 10
76.2040460674
 20
128.6684073639
 10
83.6571481107
 20
129.2047239284
 10
91.1458075835
 20
129.5372550641
 10
98.6533143582
 20
129.6652587638
 10
106.1629162515
 20
129.5884494014
 10
113.6578564053
 20
129.3069983684
 10
121.1214106773
 20
128.8215336924
 10
128.5369249595
 20
128.1331386346
 10
135.88785234
 20
127.2433492738
 10
143.1577900253
 20
126.1541510779
 10
150.3305159419
 20
124.8679744739
 10
157.3900249334
 20
123.3876894249
 10
164.3205644748
 20
121.7165990255
 10
171.1066698226
 20
119.8584321319
 10
177.733198522
 20
117.817335041
 10
184.1853641965
 20
115.5978622386
 10
190.4487695415
 20
113.2049662363
 10
196.5094384506
 20
110.6439865207
 10
202.3538472014
 20
107.9206376392
 10
207.9689546329
 20
105.0409964477
 10
213.3422312447
 20
102.011488552
 10
218.4616871556
 20
98.8388739687
 10
223.3158988576
 20
95.5302320414
 10
227.8940347064
 20
92.0929456442
 10
232.1858790907
 20
88.5346847069
 10
236.1818552274
 20
84.8633891012
 10
239.8730465313
 20
81.0872509231
 10
243.2512165113
 20
77.2146962134
 10
246.3088271491
 20
73.2543661559
 10
249.0390557199
 20
69.2150977955
 10
251.4358100162
 20
65.1059043195
 10
253.4937419418
 20
60.9359549452
 10
255.208259446
 20
56.7145544603
 10
256.5755367699
 20
52.4511224598
 10
257.592522983
 20
48.1551723278
 10
258.2569487915
 20
43.8362900087
 10
258.5673316015
 20
39.5041126178
 10
258.5229788277
 20
35.1683069368
 10
258.1239894385
 20
30.8385478436
 10
257.3712537352
 20
26.5244967238
 10
256.2664513654
 20
22.2357799123
 10
254.8120475753
 20
17.9819672133
 10
253.0112877084
 20
13.7725505462
 10
250.8681899642
 20
9.6169227657
 10
248.3875364316
 20
5.5243567023
 10
245.5748624188
 20
1.503984471
 10
242.4364441012
 20
-2.4352229054
 10
238.9792845174
 20
-6.2844755152
 10
235.2110979421
 20
-10.0351841706
 10
231.1402926732
 20
-13.6789795738
 10
226.7759522688
 20
-17.2077309927
 10
222.127815279
 20
-20.613564403
 10
217.206253515
 20
-23.8888800585
 10
212.0222489056
 20
-27.0263694493
  0
LWPOLYLINE
  5
2AB
330
299
100
AcDbEntity
  8
0
  6
CONTINUOUS
 62
     7
100
AcDbPolyline
 90
      133
 70
   128
 43
0.0
 10
209.7061500218
 20
-25.6893140237
 10
204.3419976966
 20
-28.641972629
 10
198.7405534877
 20
-31.4439418952
 10
192.9145064678
 20
-34.0888744605
 10
186.8770545073
 20
-36.570778702
 10
180.6418743768
 20
-38.8840323085
 10
174.2230907645
 20
-41.0233950164
 10
167.6352442801
 20
-42.9840204811
 10
160.8932585145
 20
-44.7614672553
 10
154.0124062341
 20
-46.3517088504
 10
147.0082747823
 20
-47.7511428577
 10
139.8967307697
 20
-48.9565991091
 10
132.6938841307
 20
-49.9653468585
 10
125.4160516297
 20
-50.7751009677
 10
118.0797198981
 20
-51.3840270833
 10
110.7015080868
 20
-51.7907457917
 10
103.2981302188
 20
-51.9943357442
 10
95.8863573261
 20
-51.9943357442
 10
88.482979458
 20
-51.7907457917
 10
81.1047676468
 20
-51.3840270833
 10
73.7684359152
 20
-50.7751009677
 10
66.4906034142
 20
-49.9653468585
 10
59.2877567752
 20
-48.9565991091
 10
52.1762127626
 20
-47.7511428577
 10
45.1720813108
 20
-46.3517088504
 10
38.2912290304
 20
-44.7614672553
 10
31.5492432648
 20
-42.9840204811
 10
24.9613967803
 20
-41.0233950164
 10
18.5426131681
 20
-38.8840323085
 10
12.3074330375
 20
-36.570778702
 10
6.269981077
 20
-34.0888744605
 10
0.4439340571
 20
-31.4439418952
 10
-5.1575101518
 20
-28.641972629
 10
-10.521662477
 20
-25.6893140237
 10
-15.6363713881
 20
-22.5926548006
 10
-20.4900504245
 20
-19.3590098889
 10
-25.071704442
 20
-15.9957045343
 10
-29.3709545206
 20
-12.5103577052
 10
-33.3780614762
 20
-8.9108648332
 10
-37.0839479226
 20
-5.2053799273
 10
-40.480218835
 20
-1.4022971027
 10
-43.5591805677
 20
2.4897684348
 10
-46.3138582818
 20
6.461999905
 10
-48.7380117464
 20
10.5053989259
 10
-50.8261494742
 20
14.6108058984
 10
-52.5735411616
 20
18.7689207551
 10
-53.9762284045
 20
22.9703240285
 10
-55.0310336651
 20
27.205498189
 10
-55.7355674701
 20
31.4648492048
 10
-56.088233824
 20
35.7387282759
 10
-56.088233824
 20
40.0174536917
 10
-55.7355674701
 20
44.2913327628
 10
-55.0310336651
 20
48.5506837786
 10
-53.9762284045
 20
52.785857939
 10
-52.5735411616
 20
56.9872612125
 10
-50.8261494742
 20
61.1453760692
 10
-48.7380117464
 20
65.2507830417
 10
-46.3138582818
 20
69.2941820626
 10
-43.5591805677
 20
73.2664135328
 10
-40.480218835
 20
77.1584790703
 10
-37.0839479226
 20
80.9615618949
 10
-33.3780614762
 20
84.6670468007
 10
-29.3709545206
 20
88.2665396728
 10
-25.071704442
 20
91.7518865019
 10
-20.4900504245
 20
95.1151918565
 10
-15.6363713881
 20
98.3488367682
 10
-10.521662477
 20
101.4454959913
 10
-5.1575101518
 20
104.3981545966
 10
0.4439340571
 20
107.2001238627
 10
6.269981077
 20
109.8450564281
 10
12.3074330375
 20
112.3269606696
 10
18.5426131681
 20
114.6402142761
 10
24.9613967803
 20
116.779576984
 10
31.5492432648
 20
118.7402024487
 10
38.2912290304
 20
120.5176492229
 10
45.1720813108
 20
122.107890818
 10
52.1762127626
 20
123.5073248253
 10
59.2877567752
 20
124.7127810767
 10
66.4906034142
 20
125.7215288261
 10
73.7684359152
 20
126.5312829353
 10
81.1047676468
 20
127.1402090509
 10
88.482979458
 20
127.5469277593
 10
95.8863573261
 20
127.7505177118
 10
103.2981302188
 20
127.7505177118
 10
110.7015080868
 20
127.5469277593
 10
118.0797198981
 20
127.1402090509
 10
125.4160516297
 20
126.5312829353
 10
132.6938841307
 20
125.7215288261
 10
139.8967307697
 20
124.7127810767
 10
147.0082747823
 20
123.5073248253
 10
154.0124062341
 20
122.107890818
 10
160.8932585145
 20
120.5176492229
 10
167.6352442801
 20
118.7402024487
 10
174.2230907645
 20
116.779576984
 10
180.6418743768
 20
114.6402142761
 10
186.8770545073
 20
112.3269606696
 10
192.9145064678
 20
109.8450564281
 10
198.7405534877
 20
107.2001238627
 10
204.3419976966
 20
104.3981545966
 10
209.7061500218
 20
101.4454959913
 10
214.820858933
 20
98.3488367682
 10
219.6745379694
 20
95.1151918565
 10
224.2561919869
 20
91.7518865019
 10
228.5554420655
 20
88.2665396728
 10
232.5625490211
 20
84.6670468007
 10
236.2684354674
 20
80.9615618949
 10
239.6647063799
 20
77.1584790703
 10
242.7436681125
 20
73.2664135328
 10
245.4983458267
 20
69.2941820626
 10
247.9224992913
 20
65.2507830417
 10
250.0106370191
 20
61.1453760692
 10
251.7580287065
 20
56.9872612125
 10
253.1607159494
 20
52.785857939
 10
254.2155212099
 20
48.5506837786
 10
254.920055015
 20
44.2913327628
 10
255.2727213689
 20
40.0174536917
 10
255.2727213689
 20
35.7387282759
 10
254.920055015
 20
31.4648492048
 10
254.2155212099
 20
27.205498189
 10
253.1607159494
 20
22.9703240285
 10
251.7580287065
 20
18.7689207551
 10
250.0106370191
 20
14.6108058984
 10
247.9224992913
 20
10.5053989259
 10
245.4983458267
 20
6.461999905
 10
242.7436681125
 20
2.4897684348
 10
239.6647063799
 20
-1.4022971027
 10
236.2684354674
 20
-5.2053799273
 10
232.562549021
 20
-8.9108648332
 10
228.5554420655
 20
-12.5103577052
 10
224.2561919869
 20
-15.9957045343
 10
219.6745379694
 20
-19.3590098889
 10
214.820858933
 20
-22.5926548006
 10
209.7061500218
 20
-25.6893140237
  0
LWPOLYLINE
  5
2AC
330
299
100
AcDbEntity
  8
0
  6
CONTINUOUS
 62
     7
100
AcDbPolyline
 90
       15
 70
   128
 43
0.0
 10
-31.6408815698
 20
-10.0582572405
 10
-32.5637004141
 20
-9.195313607
 10
-36.2468905929
 20
-5.5125225095
 10
-39.6223614419
 20
-1.7327312203
 10
-42.682466434
 20
2.1354978177
 10
-45.420273447
 20
6.0834018214
 10
-47.8295804677
 20
10.1020375186
 10
-49.9049296405
 20
14.1823014068
 10
-51.6416196322
 20
18.314950376
 10
-53.0357162813
 20
22.4906226472
 10
-54.0840615106
 20
26.6998589795
 10
-54.7842804808
 20
30.9331240988
 10
-55.1347869709
 20
35.1808282981
 10
-55.1347869709
 20
39.4333491611
 10
-55.0839194006
 20
40.4321555852
  0
LWPOLYLINE
  5
2AD
330
299
100
AcDbEntity
  8
0
  6
CONTINUOUS
 62
     7
100
AcDbPolyline
 90
       15
 70
   128
 43
0.0
 10
254.3145106783
 20
39.5458977142
 10
254.3192745158
 20
39.4333491611
 10
254.3192745158
 20
35.1808282981
 10
253.9687680257
 20
30.9331240988
 10
253.2685490554
 20
26.6998589795
 10
252.2202038262
 20
22.4906226472
 10
250.8261071771
 20
18.314950376
 10
249.0894171854
 20
14.1823014068
 10
247.0140680125
 20
10.1020375186
 10
244.6047609919
 20
6.0834018214
 10
241.8669539789
 20
2.1354978177
 10
238.8068489868
 20
-1.7327312203
 10
235.4313781378
 20
-5.5125225095
 10
231.7481879589
 20
-9.195313607
 10
228.070659293
 20
-12.5115921735
  0
LWPOLYLINE
  5
2AE
330
299
100
AcDbEntity
  8
0
  6
CONTINUOUS
 62
     7
100
AcDbPolyline
 90
       33
 70
   128
 43
0.0
 10
213.6648493909
 20
-104.7212727847
 10
211.2701414216
 20
-106.0920976884
 10
205.7524759024
 20
-109.0428932225
 10
200.0011373432
 20
-111.8410408848
 10
194.0287852187
 20
-114.4803815736
 10
187.8485654843
 20
-116.9551057427
 10
181.4740816401
 20
-119.2597661893
 10
174.9193647879
 20
-121.3892900438
 10
168.1988427466
 20
-123.338989936
 10
161.3273082949
 20
-125.1045743126
 10
154.3198866102
 20
-126.6821568832
 10
147.1920019762
 20
-128.0682651753
 10
139.9593438316
 20
-129.2598481767
 10
132.6378322359
 20
-130.2542830521
 10
125.2435828273
 20
-131.0493809156
 10
117.7928713495
 20
-131.6433916493
 10
110.3020978268
 20
-132.0350077552
 10
102.7877504658
 20
-132.2233672331
 10
95.266369362
 20
-132.2080554784
 10
87.7545100933
 20
-131.9891061943
 10
80.2687072788
 20
-131.5670013178
 10
72.8254381835
 20
-130.9426699589
 10
65.4410864502
 20
-130.1174863554
 10
58.1319060367
 20
-129.0932668482
 10
50.9139854383
 20
-127.8722658829
 10
43.8032122752
 20
-126.457171048
 10
36.8152383216
 20
-124.8510971588
 10
29.9654450539
 20
-123.0575794012
 10
23.2689097945
 20
-121.0805655506
 10
16.7403725236
 20
-118.9244072821
 10
10.3942034355
 20
-116.5938505918
 10
4.2443713074
 20
-114.0940253505
 10
-0.3288086686
 20
-112.0664016691
  0
LWPOLYLINE
  5
2B0
330
299
100
AcDbEntity
  8
0
  6
CONTINUOUS
 62
     7
100
AcDbPolyline
 90
       39
 70
   128
 43
0.0
 10
66.8259619268
 20
-47.3586291031
 10
66.0053190631
 20
-45.6619417138
 10
65.3891369902
 20
-43.6772719934
 10
65.123925077
 20
-41.6667979487
 10
65.2124047568
 20
-39.651149764
 10
65.6536681082
 20
-37.6510107174
 10
66.4431871721
 20
-35.6869049419
 10
67.5728604146
 20
-33.7789868208
 10
69.0310958595
 20
-31.9468341759
 10
70.8029300379
 20
-30.2092473724
 10
72.8701815333
 20
-28.5840564025
 10
75.211637548
 20
-27.0879379246
 10
77.8032715748
 20
-25.7362441389
 10
80.6184899416
 20
-24.5428452528
 10
83.6284046982
 20
-23.5199871538
 10
86.8021300463
 20
-22.6781657501
 10
90.107099269
 20
-22.0260192686
 10
93.5093989097
 20
-21.5702396145
 10
96.9741167702
 20
-21.3155037039
 10
100.4657001565
 20
-21.264425472
 10
103.9483206984
 20
-21.4175290506
 10
107.3862419964
 20
-21.7732433897
 10
110.7441863256
 20
-22.3279183789
 10
113.9876966332
 20
-23.0758623022
 10
117.0834901142
 20
-24.0094002428
 10
119.9997997384
 20
-25.1189528381
 10
122.7067002226
 20
-26.3931345771
 10
125.1764151047
 20
-27.8188706309
 10
127.383601768
 20
-29.3815310183
 10
129.3056114906
 20
-31.065080729
 10
130.9227218517
 20
-32.8522442647
 10
132.2183391109
 20
-34.7246829093
 10
133.1791684817
 20
-36.6631829084
 10
133.7953505547
 20
-38.6478526289
 10
134.0605624678
 20
-40.6583266736
 10
133.9720827881
 20
-42.6739748582
 10
133.5308194367
 20
-44.6741139049
 10
132.7413003728
 20
-46.6382196804
 10
132.335532337
 20
-47.3990058659
  0
LWPOLYLINE
  5
2B1
330
299
100
AcDbEntity
  8
0
  6
CONTINUOUS
 62
     7
100
AcDbPolyline
 90
       29
 70
   128
 43
0.0
 10
76.8109894801
 20
-50.8546294172
 10
76.6943185866
 20
-50.277300817
 10
76.603592884
 20
-48.6107066001
 10
76.8754119387
 20
-46.9506896691
 10
77.5054890019
 20
-45.3234294828
 10
78.4838873817
 20
-43.7545889063
 10
79.7951771513
 20
-42.2689094928
 10
81.4186784878
 20
-40.889821294
 10
83.3287878051
 20
-39.6390733547
 10
85.4953815384
 20
-38.5363907171
 10
87.8842912102
 20
-37.599163345
 10
90.4578422878
 20
-36.842171874
 10
93.1754483335
 20
-36.2773545118
 10
95.9942510765
 20
-35.9136187656
 10
98.8697963136
 20
-35.7567009654
 10
101.7567349788
 20
-35.8090757986
 10
104.6095383246
 20
-36.0699172829
 10
107.3832159381
 20
-36.5351117922
 10
110.0340252664
 20
-37.1973229312
 10
112.520161463
 20
-38.0461072347
 10
114.8024166749
 20
-39.0680788671
 10
116.8447983739
 20
-40.2471207254
 10
118.6150969808
 20
-41.564638615
 10
120.0853938288
 20
-42.9998544919
 10
121.2325014584
 20
-44.5301341442
 10
122.038329297
 20
-46.1313441478
 10
122.4901689583
 20
-47.7782324643
 10
122.5808946608
 20
-49.4448266812
 10
122.3726577195
 20
-50.8581183416
  0
LWPOLYLINE
  5
2B4
330
299
100
AcDbEntity
  8
0
  6
CONTINUOUS
 62
     7
100
AcDbPolyline
 90
       19
 70
   128
 43
0.0
 10
79.5003235101
 20
-51.0309851476
 10
79.7951771513
 20
-50.734521401
 10
81.4186784878
 20
-49.3554332022
 10
83.3287878051
 20
-48.1046852629
 10
85.4953815384
 20
-47.0020026252
 10
87.8842912102
 20
-46.0647752532
 10
90.4578422878
 20
-45.3077837822
 10
93.1754483335
 20
-44.74296642
 10
95.9942510765
 20
-44.3792306738
 10
98.8697963136
 20
-44.2223128736
 10
101.7567349788
 20
-44.2746877068
 10
104.6095383246
 20
-44.5355291911
 10
107.3832159381
 20
-45.0007237004
 10
110.0340252664
 20
-45.6629348394
 10
112.520161463
 20
-46.5117191429
 10
114.8024166749
 20
-47.5336907753
 10
116.8447983739
 20
-48.7127326336
 10
118.6150969808
 20
-50.0302505232
 10
119.7071774876
 20
-51.0548878514
  0
LWPOLYLINE
  5
2BC
330
299
100
AcDbEntity
  8
0
  6
CONTINUOUS
 62
     7
100
AcDbPolyline
 90
       46
 70
   128
 43
0.0
 10
212.7293287623
 20
-28.2439732015
 10
207.3019876862
 20
-31.233539137
 10
201.6378772168
 20
-34.0729619806
 10
195.7494482984
 20
-36.7560000647
 10
189.6496449755
 20
-39.2767554893
 10
183.3518759397
 20
-41.629687087
 10
176.8699850542
 20
-43.8096226033
 10
170.2182209219
 20
-45.811770067
 10
163.411205564
 20
-47.6317283233
 10
156.4639022775
 20
-49.2654967091
 10
149.3915827429
 20
-50.7094838469
 10
142.2097934533
 20
-51.9605155395
 10
134.9343215402
 20
-53.0158417478
 10
127.5811600701
 20
-53.8731426357
 10
120.1664728874
 20
-54.5305336699
 10
112.706559084
 20
-54.9865697621
 10
105.2178171694
 20
-55.2402484461
 10
97.7167090235
 20
-55.291012081
 10
90.2197237101
 20
-55.1387490774
 10
82.7433412298
 20
-54.7837941424
 10
75.3039962941
 20
-54.226927544
 10
67.9180421975
 20
-53.4693733958
 10
60.6017148702
 20
-52.5127969662
 10
53.3710971875
 20
-51.3593010179
 10
46.2420836163
 20
-50.0114211853
 10
39.2303452756
 20
-48.4721204007
 10
32.3512954881
 20
-46.7447823814
 10
25.6200558981
 20
-44.8332041913
 10
19.0514232311
 20
-42.741587894
 10
12.6598367674
 20
-40.4745313161
 10
6.459346601
 20
-38.03701794
 10
0.4635827552
 20
-35.4344059491
 10
-5.31427478
 20
-32.6724164494
 10
-10.8615250197
 20
-29.7571208932
 10
-16.165973904
 20
-26.6949277329
 10
-21.2159611029
 20
-23.4925683337
 10
-26.0003856488
 20
-20.1570821765
 10
-30.5087303379
 20
-16.6958013837
 10
-34.7310848504
 20
-13.1163346017
 10
-38.6581675345
 20
-9.4265502755
 10
-42.2813458103
 20
-5.6345593517
 10
-45.5926551455
 20
-1.7486974492
 10
-48.5848165637
 20
2.2224934639
 10
-51.2512526446
 20
6.2702838483
 10
-53.586101983
 20
10.3857757823
 10
-55.3481656597
 20
14.0243399817
  0
LWPOLYLINE
  5
2BD
330
299
100
AcDbEntity
  8
0
  6
CONTINUOUS
 62
     7
100
AcDbPolyline
 90
       13
 70
   128
 43
0.0
 10
254.5270573619
 20
14.0118049717
 10
253.8120364685
 20
12.4660879944
 10
251.6449512068
 20
8.3201292867
 10
249.1436210943
 20
4.2373661234
 10
246.3135445977
 20
0.226773304
 10
243.160942839
 20
-3.7028330182
 10
239.6927459214
 20
-7.5428147154
 10
235.9165776941
 20
-11.2847306747
 10
231.8407389947
 20
-14.9203553526
 10
227.474189401
 20
-18.441696857
 10
222.8265275369
 20
-21.8410145151
 10
217.9079699716
 20
-25.110835889
 10
212.7293287623
 20
-28.2439732015
  0
LWPOLYLINE
  5
2BE
330
299
100
AcDbEntity
  8
0
  6
CONTINUOUS
 62
     7
100
AcDbPolyline
 90
       66
 70
   128
 43
0.0
 10
-55.0839194006
 20
40.4321555852
 10
-54.7842804808
 20
43.6810533604
 10
-54.0840615106
 20
47.9143184797
 10
-53.0357162813
 20
52.123554812
 10
-51.6416196322
 20
56.2992270831
 10
-49.9049296405
 20
60.4318760523
 10
-47.8295804677
 20
64.5121399406
 10
-45.420273447
 20
68.5307756378
 10
-42.682466434
 20
72.4786796415
 10
-39.6223614419
 20
76.3469086794
 10
-36.2468905929
 20
80.1266999686
 10
-32.563700414
 20
83.8094910662
 10
-28.5811345158
 20
87.3869392656
 10
-24.3082146908
 20
90.8509404963
 10
-19.7546204768
 20
94.1936476811
 10
-14.9306672292
 20
97.4074885133
 10
-9.8472827538
 20
100.4851826096
 10
-4.5159825513
 20
103.4197580031
 10
1.0511562686
 20
106.2045669366
 10
6.8415223458
 20
108.8333009222
 10
12.8419986388
 20
111.3000050319
 10
19.0389921389
 20
113.5990913875
 10
25.4184646626
 20
115.725351819
 10
31.9659646528
 20
117.6739696627
 10
38.6666599161
 20
119.4405306723
 10
45.5053712226
 20
121.021033019
 10
52.4666066915
 20
122.4118963566
 10
59.5345968857
 20
123.6099699324
 10
66.693330534
 20
124.6125397243
 10
73.9265908021
 20
125.4173345893
 10
81.2179920292
 20
126.0225314082
 10
88.5510168463
 20
126.4267592155
 10
95.9090535936
 20
126.6291023052
 10
103.2754339513
 20
126.6291023052
 10
110.6334706986
 20
126.4267592155
 10
117.9664955156
 20
126.0225314082
 10
125.2578967427
 20
125.4173345893
 10
132.4911570109
 20
124.6125397243
 10
139.6498906592
 20
123.6099699324
 10
146.7178808533
 20
122.4118963566
 10
153.6791163223
 20
121.021033019
 10
160.5178276288
 20
119.4405306723
 10
167.2185228921
 20
117.6739696627
 10
173.7660228823
 20
115.725351819
 10
180.145495406
 20
113.5990913875
 10
186.3424889061
 20
111.3000050319
 10
192.3429651991
 20
108.8333009222
 10
198.1333312763
 20
106.2045669366
 10
203.7004700962
 20
103.4197580031
 10
209.0317702986
 20
100.4851826096
 10
214.1151547741
 20
97.4074885133
 10
218.9391080216
 20
94.1936476811
 10
223.4927022357
 20
90.8509404963
 10
227.7656220607
 20
87.3869392656
 10
231.7481879589
 20
83.8094910662
 10
235.4313781378
 20
80.1266999686
 10
238.8068489868
 20
76.3469086794
 10
241.8669539789
 20
72.4786796415
 10
244.6047609919
 20
68.5307756378
 10
247.0140680125
 20
64.5121399406
 10
249.0894171854
 20
60.4318760523
 10
250.8261071771
 20
56.2992270831
 10
252.2202038262
 20
52.123554812
 10
253.2685490554
 20
47.9143184797
 10
253.9687680257
 20
43.6810533604
 10
254.3145106783
 20
39.5458977142
  0
LWPOLYLINE
  5
2BF
330
299
100
AcDbEntity
  8
0
  6
CONTINUOUS
 62
     7
100
AcDbPolyline
 90
       59
 70
   128
 43
0.0
 10
-34.1739052575
 20
-7.6348145533
 10
-33.3944656093
 20
-4.0036297871
 10
-32.2165036617
 20
-0.0984407832
 10
-30.6946677417
 20
3.7669317485
 10
-28.8329281455
 20
7.5824034924
 10
-26.6361419392
 20
11.3380203184
 10
-24.1100402872
 20
15.0239842509
 10
-21.2612135001
 20
18.630679031
 10
-18.0970938419
 20
22.1486952038
 10
-14.6259361395
 20
25.5688546667
 10
-10.8567962469
 20
28.8822346142
 10
-6.7995074198
 20
32.0801908164
 10
-2.4646546615
 20
35.1543801707
 10
2.1364528921
 20
38.096782468
 10
6.9918114768
 20
40.8997213167
 10
12.0887540163
 20
43.5558841694
 10
17.4139831697
 20
46.0583414004
 10
22.9536060219
 20
48.4005643847
 10
28.6931703296
 20
50.5764425298
 10
34.6177022247
 20
52.5802992181
 10
40.71174528
 20
54.4069066164
 10
46.959400833
 20
56.0514993144
 10
53.3443694637
 20
57.5097867576
 10
59.849993518
 20
58.7779644406
 10
66.4593005655
 20
59.8527238326
 10
73.1550476787
 20
60.731261009
 10
79.919766418
 20
61.4112839667
 10
86.7358084045
 20
61.8910186033
 10
93.5853913629
 20
62.1692133462
 10
100.4506455135
 20
62.2451424168
 10
107.3136601919
 20
62.1186077249
 10
114.1565305765
 20
61.7899393851
 10
120.9614043998
 20
61.2599948556
 10
127.7105285228
 20
60.5301567011
 10
134.3862952515
 20
59.6023289861
 10
140.9712882726
 20
58.478932307
 10
147.4483280912
 20
57.1628974777
 10
153.8005168499
 20
55.6576578826
 10
160.0112824136
 20
53.9671405201
 10
166.064421604
 20
52.0957557568
 10
171.9441424722
 20
50.0483858221
 10
177.6351054976
 20
47.8303720702
 10
183.1224636077
 20
45.4475010458
 10
188.3919009115
 20
42.9059893873
 10
193.4296700489
 20
40.2124676085
 10
198.2226280553
 20
37.3739628002
 10
202.7582706507
 20
34.3978802972
 10
207.0247648612
 20
31.2919843591
 10
211.0109798907
 20
28.0643779137
 10
214.7065161592
 20
24.7234814177
 10
218.1017324347
 20
21.2780108886
 10
221.1877709855
 20
17.7369551656
 10
223.9565806894
 20
14.1095524588
 10
226.400938038
 20
10.4052662477
 10
228.5144659821
 20
6.633760592
 10
230.2916505685
 20
2.8048749195
 10
231.7278553257
 20
-1.0714016445
 10
232.8193333594
 20
-4.9849563369
 10
233.3583928024
 20
-7.6348145533
  0
LWPOLYLINE
  5
2C0
330
299
100
AcDbEntity
  8
0
  6
CONTINUOUS
 62
     7
100
AcDbPolyline
 90
       56
 70
   128
 43
0.0
 10
-15.8782841529
 20
-22.0583949408
 10
-15.2782632957
 20
-18.5111408909
 10
-14.3150550559
 20
-14.8706396442
 10
-13.0059140934
 20
-11.2662978933
 10
-11.3548162262
 20
-7.7090619056
 10
-9.3667757842
 20
-4.2097348898
 10
-7.047830381
 20
-0.7789441872
 10
-4.4050225774
 20
2.5728910037
 10
-1.446378494
 20
5.8355912696
 10
1.8191165645
 20
8.999247897
 10
5.3815453968
 20
12.0542529647
 10
9.2300890237
 20
14.9913285226
 10
13.3530595446
 20
17.801554769
 10
17.7379356337
 20
20.476397139
 10
22.3714005663
 20
23.0077322242
 10
27.2393826618
 20
25.3878724432
 10
32.3270980184
 20
27.6095893885
 10
37.6190954119
 20
29.6661357785
 10
43.0993032202
 20
31.5512659497
 10
48.7510782321
 20
33.2592548235
 10
54.5572561928
 20
34.7849152939
 10
60.5002039307
 20
36.1236139802
 10
66.5618729087
 20
37.2712852984
 10
72.7238540375
 20
38.2244438086
 10
78.9674335828
 20
38.9801947997
 10
85.2736499988
 20
39.5362430807
 10
91.6233515134
 20
39.8908999512
 10
97.997254292
 20
40.04308833
 10
104.3760010012
 20
39.9923460261
 10
110.7402195969
 20
39.7388271421
 10
117.0705821564
 20
39.2833016065
 10
123.3478635767
 20
38.6271528354
 10
129.5529999604
 20
37.7723735311
 10
135.6671465123
 20
36.7215596302
 10
141.6717347702
 20
35.47790242
 10
147.548528997
 20
34.0451788465
 10
153.2796815617
 20
32.4277400443
 10
158.8477871424
 20
30.6304981217
 10
164.2359355854
 20
28.6589112434
 10
169.4277632609
 20
26.518967054
 10
174.4075027591
 20
24.2171644936
 10
179.1600307746
 20
21.7604940609
 10
183.6709140361
 20
19.1564165834
 10
187.9264531395
 20
16.4128405587
 10
191.9137241522
 20
13.538098137
 10
195.6206178633
 20
10.5409198167
 10
199.0358765584
 20
7.4304079296
 10
202.1491282091
 20
4.2160089983
 10
204.9509179725
 20
0.9074850466
 10
207.4327369051
 20
-2.485116047
 10
209.5870478045
 20
-5.9514910644
 10
211.4073080991
 20
-9.4811127387
 10
212.8879897184
 20
-13.0632617248
 10
214.0245958809
 20
-16.6870591541
 10
214.813674751
 20
-20.3414996727
 10
215.0709616315
 20
-22.1256672904
  0
LWPOLYLINE
  5
2C1
330
299
100
AcDbEntity
  8
0
  6
CONTINUOUS
 62
     7
100
AcDbPolyline
 90
        3
 70
   128
 43
0.0
 10
133.6524187253
 20
-47.5434276214
 10
130.5983578312
 20
-49.1609250253
 10
127.9946473012
 20
-50.3395101533
  0
LWPOLYLINE
  5
2C2
330
299
100
AcDbEntity
  8
0
  6
CONTINUOUS
 62
     7
100
AcDbPolyline
 90
       59
 70
   128
 43
0.0
 10
71.3577216126
 20
-50.4099459727
 10
69.3864353764
 20
-49.5411250244
 10
66.2727957256
 20
-47.9619364931
 10
63.4058416107
 20
-46.2340750464
 10
60.8067989569
 20
-44.3703331657
 10
58.4949101666
 20
-42.3845093439
 10
56.4872916557
 20
-40.2913059259
 10
54.7988071292
 20
-38.1062202573
 10
53.4419575357
 20
-35.845429948
 10
52.426788515
 20
-33.5256730985
 10
51.7608160233
 20
-31.1641243768
 10
51.4489706878
 20
-28.7782678634
 10
51.4935613025
 20
-26.3857676053
 10
51.8942577339
 20
-24.0043368373
 10
52.6480933658
 20
-21.6516068395
 10
53.7494870631
 20
-19.3449964018
 10
55.190284492
 20
-17.1015828609
 10
56.9598184926
 20
-14.9379756656
 10
59.0449880542
 20
-12.8701934067
 10
61.4303553109
 20
-10.9135452205
 10
64.0982598381
 20
-9.0825174458
 10
67.0289494041
 20
-7.3906663714
 10
70.2007262088
 20
-5.8505178708
 10
73.5901075262
 20
-4.4734746647
 10
77.1719995631
 20
-3.2697318992
 10
80.9198832439
 20
-2.2482016645
 10
84.8060105493
 20
-1.4164470132
 10
88.8016099521
 20
-0.7806259656
 10
92.8770994325
 20
-0.3454459183
 10
97.0023054921
 20
-0.1141287922
 10
101.1466865486
 20
-0.0883871783
 10
105.2795590547
 20
-0.2684116585
 10
109.3703246682
 20
-0.6528693946
 10
113.3886967918
 20
-1.2389139959
 10
117.3049248042
 20
-2.0222065934
 10
121.0900143234
 20
-2.9969479626
 10
124.7159418708
 20
-4.1559214595
 10
128.1558623475
 20
-5.4905464498
 10
131.3843077858
 20
-6.990941837
 10
134.3773759052
 20
-8.6459992187
 10
137.1129070766
 20
-10.443465129
 10
139.5706483842
 20
-12.3700317591
 10
141.7324035712
 20
-14.4114354839
 10
143.5821677587
 20
-16.5525624643
 10
145.1062459396
 20
-18.7775605454
 10
146.2933543725
 20
-21.0699566197
 10
147.1347041218
 20
-23.4127785888
 10
147.6240661283
 20
-25.7886810185
 10
147.7578173269
 20
-28.1800735585
 10
147.5349674705
 20
-30.5692511751
 10
146.9571664616
 20
-32.938525233
 10
146.0286921367
 20
-35.2703544562
 10
144.7564185947
 20
-37.5474747969
 10
143.1497653039
 20
-39.7530272527
 10
141.2206273631
 20
-41.870682685
 10
138.9832874347
 20
-43.8847627138
 10
136.4543100007
 20
-45.7803557952
 10
133.6524187253
 20
-47.5434276214
 10
133.6524187253
 20
-47.5434276214
  0
LWPOLYLINE
  5
2C3
330
299
100
AcDbEntity
  8
0
  6
CONTINUOUS
 62
     7
100
AcDbPolyline
 90
       38
 70
   128
 43
0.0
 10
54.3663764426
 20
-30.5849363209
 10
54.388340452
 20
-29.4209636768
 10
54.6978616547
 20
-27.1180167811
 10
55.3587422675
 20
-24.8398737297
 10
56.3658100036
 20
-22.6043640809
 10
57.7111831925
 20
-20.4289837286
 10
59.3843324649
 20
-18.3307579737
 10
61.3721631592
 20
-16.3261082774
 10
63.6591178049
 20
-14.4307237418
 10
66.2272978813
 20
-12.6594383207
 10
69.0566038972
 20
-11.026114724
 10
72.1248926968
 20
-9.5435359235
 10
75.4081507602
 20
-8.2233051084
 10
78.8806821414
 20
-7.0757548749
 10
82.5153095742
 20
-6.1098663594
 10
86.2835871708
 20
-5.3331989493
 10
90.1560230499
 20
-4.75183112
 10
94.1023101503
 20
-4.3703128631
 10
98.0915634247
 20
-4.1916300762
 10
102.0925615576
 20
-4.2171811943
 10
106.0739913138
 20
-4.4467662453
 10
110.0046926071
 20
-4.878588415
 10
113.8539023706
 20
-5.5092681093
 10
117.5914953189
 20
-6.3338694045
 10
121.1882197196
 20
-7.3459386775
 10
124.6159263276
 20
-8.537555114
 10
127.8477886912
 20
-9.8993926997
 10
130.8585131056
 20
-11.4207932091
 10
133.62453657
 20
-13.0898496204
 10
136.1242112006
 20
-14.8934993042
 10
138.3379736542
 20
-16.8176262561
 10
140.2484982381
 20
-18.8471715741
 10
141.840832507
 20
-20.9662513142
 10
143.1025142863
 20
-23.1582808043
 10
144.0236692055
 20
-25.4061044416
 10
144.5970879782
 20
-27.6921299584
 10
144.8182828252
 20
-29.9984661055
 10
144.8200863386
 20
-30.4577333257
  0
LWPOLYLINE
  5
2C4
330
299
100
AcDbEntity
  8
0
  6
CONTINUOUS
 62
     7
100
AcDbPolyline
 90
       34
 70
   128
 43
0.0
 10
55.0338565904
 20
-34.7982766501
 10
55.5331910133
 20
-33.2056222693
 10
56.5362870606
 20
-30.9789290569
 10
57.8763543465
 20
-28.8121280022
 10
59.5429050278
 20
-26.7221772614
 10
61.5228960856
 20
-24.7254335327
 10
63.8008314053
 20
-22.837524043
 10
66.3588830547
 20
-21.0732242438
 10
69.1770308111
 20
-19.4463421732
 10
72.2332188474
 20
-17.9696103892
 10
75.5035283485
 20
-16.6545863201
 10
78.9623647084
 20
-15.5115618124
 10
82.5826578431
 20
-14.5494825826
 10
86.3360740501
 20
-13.775878205
 10
90.1932377586
 20
-13.1968031829
 10
94.1239614327
 20
-12.8167895634
 10
98.0974818304
 20
-12.6388114683
 10
102.0827007669
 20
-12.6642618175
 10
106.0484285007
 20
-12.8929414276
 10
109.9636278354
 20
-13.3230605705
 10
113.7976570278
 20
-13.9512529808
 10
117.5205096011
 20
-14.7726022011
 10
121.1030491862
 20
-15.7806800602
 10
124.5172375535
 20
-16.9675969819
 10
127.7363540499
 20
-18.3240637322
 10
130.7352047242
 20
-19.8394641194
 10
133.4903195039
 20
-21.501938081
 10
135.9801358803
 20
-23.2984745041
 10
138.1851676644
 20
-25.2150130554
 10
140.0881574928
 20
-27.2365542222
 10
141.67421189
 20
-29.3472767039
 10
142.9309178298
 20
-31.5306612352
 10
143.8484398843
 20
-33.769619872
 10
144.1574380473
 20
-34.8247397356
  0
LWPOLYLINE
  5
2C5
330
299
100
AcDbEntity
  8
0
  6
CONTINUOUS
 62
     7
100
AcDbPolyline
 90
       34
 70
   128
 43
0.0
 10
57.5666525582
 20
-39.4915291142
 10
57.8851917919
 20
-37.6793401101
 10
58.5999134542
 20
-35.4721248836
 10
59.6643672253
 20
-33.3123951764
 10
61.069471561
 20
-31.2185770407
 10
62.8032386063
 20
-29.2085341947
 10
64.8508764724
 20
-27.2994156152
 10
67.1949154347
 20
-25.5075092288
 10
69.8153569795
 20
-23.8481029489
 10
72.6898444234
 20
-22.3353542449
 10
75.7938536529
 20
-20.9821693552
 10
79.1009023559
 20
-19.8000931764
 10
82.5827759589
 20
-18.7992107655
 10
86.2097683438
 20
-17.9880612983
 10
89.9509352906
 20
-17.3735652162
 10
93.7743584819
 20
-16.960965183
 10
97.6474178191
 20
-16.7537813567
 10
101.5370697257
 20
-16.7537813567
 10
105.410129063
 20
-16.960965183
 10
109.2335522543
 20
-17.3735652162
 10
112.9747192011
 20
-17.9880612983
 10
116.601711586
 20
-18.7992107655
 10
120.0835851889
 20
-19.8000931764
 10
123.3906338919
 20
-20.9821693552
 10
126.4946431215
 20
-22.3353542449
 10
129.3691305654
 20
-23.8481029489
 10
131.9895721101
 20
-25.5075092288
 10
134.3336110725
 20
-27.2994156152
 10
136.3812489385
 20
-29.2085341947
 10
138.1150159839
 20
-31.2185770407
 10
139.5201203195
 20
-33.3123951764
 10
140.5845740906
 20
-35.4721248836
 10
141.2992957529
 20
-37.6793401101
 10
141.6166106053
 20
-39.4804797601
  0
LINE
  5
2CC
330
299
100
AcDbEntity
  8
0
  6
CONTINUOUS
 62
     7
100
AcDbLine
 10
260.4051830894
 20
-38.7086643301
 30
0.0
 11
259.5891984047
 21
37.6385579673
 31
0.0
  0
LINE
  5
2CD
330
299
100
AcDbEntity
  8
0
  6
CONTINUOUS
 62
     7
100
AcDbLine
 10
-60.4047108598
 20
37.6385579673
 30
0.0
 11
-61.2206955445
 21
-38.7086643301
 31
0.0
  0
LINE
  5
2CE
330
299
100
AcDbEntity
  8
0
  6
CONTINUOUS
 62
     7
100
AcDbLine
 10
-73.2468776543
 20
173.823694735
 30
0.0
 11
-74.2837289555
 21
105.2241902227
 31
0.0
  0
LINE
  5
2CF
330
299
100
AcDbEntity
  8
0
  6
CONTINUOUS
 62
     7
100
AcDbLine
 10
14.940433543
 20
225.295480496
 30
0.0
 11
-72.746951226
 21
174.674630764
 31
0.0
  0
LINE
  5
2D0
330
299
100
AcDbEntity
  8
0
  6
CONTINUOUS
 62
     7
100
AcDbLine
 10
144.8200863386
 20
-30.4577333257
 30
0.0
 11
144.8176059641
 21
-30.6095011988
 31
0.0
  0
LINE
  5
2D1
330
299
100
AcDbEntity
  8
0
  6
CONTINUOUS
 62
     7
100
AcDbLine
 10
-72.2469918597
 20
174.6251227135
 30
0.0
 11
15.4403929093
 21
225.2459724456
 31
0.0
  0
LINE
  5
2D2
330
299
100
AcDbEntity
  8
0
  6
CONTINUOUS
 62
     7
100
AcDbLine
 10
250.9192388483
 20
89.3069282289
 30
0.0
 11
15.4403929093
 21
225.2459724456
 31
0.0
  0
LINE
  5
2D3
330
299
100
AcDbEntity
  8
0
  6
CONTINUOUS
 62
     7
100
AcDbLine
 10
251.626318705
 20
88.0893244767
 30
0.0
 11
251.7950417167
 21
65.666030908
 31
0.0
  0
LINE
  5
2D4
330
299
100
AcDbEntity
  8
0
  6
CONTINUOUS
 62
     7
100
AcDbLine
 10
-73.9908784184
 20
104.8109651904
 30
0.0
 11
-72.9540717164
 21
173.4075189612
 31
0.0
  0
LINE
  5
2D5
330
299
100
AcDbEntity
  8
0
  6
CONTINUOUS
 62
     7
100
AcDbLine
 10
-73.9908784184
 20
104.8109651904
 30
0.0
 11
-38.2628637751
 21
84.1856213596
 31
0.0
  0
LINE
  5
2D6
330
299
100
AcDbEntity
  8
0
  6
CONTINUOUS
 62
     7
100
AcDbLine
 10
250.9192388483
 20
89.3069282289
 30
0.0
 11
239.1102360616
 21
82.4897360282
 31
0.0
  0
LINE
  5
2D7
330
299
100
AcDbEntity
  8
0
  6
CONTINUOUS
 62
     7
100
AcDbLine
 10
24.2571537822
 20
118.9144652691
 30
0.0
 11
-72.2469918597
 21
174.6251227135
 31
0.0
  0
LINE
  5
2D8
330
299
100
AcDbEntity
  8
0
  6
CONTINUOUS
 62
     7
100
AcDbLine
 10
240.1085528408
 20
81.4402597726
 30
0.0
 11
251.626318705
 21
88.0893244767
 31
0.0
  0
LINE
  5
2D9
330
299
100
AcDbEntity
  8
0
  6
CONTINUOUS
 62
     7
100
AcDbLine
 10
-72.9540717164
 20
173.4075189612
 30
0.0
 11
22.4212100103
 21
118.3485407837
 31
0.0
  0
ARC
  5
2DA
330
299
100
AcDbEntity
  8
0
  6
CONTINUOUS
 62
     7
100
AcDbCircle
 10
-72.2469918597
 20
173.8085819016
 30
0.0
 40
1.000000000000099
100
AcDbArc
 50
119.9973117337
 51
179.1340654612
  0
ARC
  5
2DB
330
299
100
AcDbEntity
  8
0
  6
CONTINUOUS
 62
     7
100
AcDbCircle
 10
-4.7357661134
 20
37.0943150968
 30
0.0
 40
55.62228635759271
100
AcDbArc
 50
153.2898087848
 51
204.5042890632
  0
ARC
  5
2DC
330
299
100
AcDbEntity
  8
0
  6
CONTINUOUS
 62
     7
100
AcDbCircle
 10
204.0507398291
 20
37.0985261029
 30
0.0
 40
55.50545310384219
100
AcDbArc
 50
335.421719637
 51
26.8873430491
  0
ARC
  5
2DD
330
299
100
AcDbEntity
  8
0
  6
CONTINUOUS
 62
     7
100
AcDbCircle
 10
250.0895139382
 20
88.0109875928
 30
0.0
 40
1.538800038578005
100
AcDbArc
 50
2.918061902
 51
57.3706303071
  0
ARC
  5
2DE
330
299
100
AcDbEntity
  8
0
  6
CONTINUOUS
 62
     7
100
AcDbCircle
 10
-71.4172669496
 20
173.3291820774
 30
0.0
 40
1.538800038578273
100
AcDbArc
 50
122.6293696929
 51
177.081938098
  0
ARC
  5
2DF
330
299
100
AcDbEntity
  8
0
  6
CONTINUOUS
 62
     7
100
AcDbCircle
 10
-73.794069502
 20
105.2608260762
 30
0.0
 40
0.4910280705883838
100
AcDbArc
 50
184.2788433162
 51
246.3711804178
  0
ARC
  5
2E0
330
299
100
AcDbEntity
  8
0
  6
CONTINUOUS
 62
     7
100
AcDbCircle
 10
15.1501160077
 20
224.8637831228
 30
0.0
 40
0.4799264089900186
100
AcDbArc
 50
52.7829387071
 51
115.9066028638
  0
ARC
  5
2E1
330
299
100
AcDbEntity
  8
0
  6
CONTINUOUS
 62
     7
100
AcDbCircle
 10
-72.7643865678
 20
173.8520660624
 30
0.0
 40
0.4833245087936974
100
AcDbArc
 50
183.3652179389
 51
246.8923953789
  0
ARC
  5
2E2
330
299
100
AcDbEntity
  8
0
  6
CONTINUOUS
 62
     7
100
AcDbCircle
 10
-72.5372687614
 20
174.2429333907
 30
0.0
 40
0.4799264089889325
100
AcDbArc
 50
52.782938707
 51
115.9066028639
  0
VIEWPORT
  5
384
330
299
100
AcDbEntity
  8
0
100
AcDbViewport
 10
0.0
 20
0.0
 30
0.0
 40
205.6
 41
156.0
 68
     1
 69
     1
1001
ACAD
1000
MVIEW
1002
{
1070
    16
1010
0.0
1020
0.0
1030
0.0
1010
0.0
1020
0.0
1030
1.0
1040
0.0
1040
357.2134125294
1040
70.8818195963
1040
9.5919903727
1040
50.0
1040
0.0
1040
0.0
1070
     0
1070
   100
1070
     0
1070
     3
1070
     0
1070
     0
1070
     0
1070
     0
1040
0.0
1040
0.0
1040
0.0
1040
10.0
1040
10.0
1040
10.0
1040
10.0
1070
     0
1002
{
1002
}
1002
}
  0
ENDBLK
  5
29C
330
299
100
AcDbEntity
  8
0
100
AcDbBlockEnd
  0
BLOCK
  5
2E5
330
2E3
100
AcDbEntity
  8
0
100
AcDbBlockBegin
  2
*PAPER_SPACE6
 70
     0
 10
0.0
 20
0.0
 30
0.0
  3
*PAPER_SPACE6
  1

  0
SPLINE
  5
2E9
330
2E3
100
AcDbEntity
  8
0
  6
CONTINUOUS
 62
     7
100
AcDbSpline
210
0.0
220
0.0
230
1.0
 70
     8
 71
     3
 72
    68
 73
    64
 74
     0
 42
0.00000001
 43
0.00000001
 40
0.0
 40
0.0
 40
0.0
 40
0.0
 40
0.0067052785019998
 40
0.023240940747235
 40
0.039796635172832
 40
0.0563706738229228
 40
0.0729604679422631
 40
0.0895630317767529
 40
0.1061753750637435
 40
0.1227947609194145
 40
0.1394188421316345
 40
0.1560457058189288
 40
0.1726738588514152
 40
0.1893019963095351
 40
0.2059292868315792
 40
0.2225552481017644
 40
0.2391795781326871
 40
0.2558021110728347
 40
0.2724227816061426
 40
0.2890415970860556
 40
0.3056586162152396
 40
0.3222739330429643
 40
0.3388876651623796
 40
0.3554999451575875
 40
0.372110914527018
 40
0.3887207194710134
 40
0.4053295080691754
 40
0.4219374284848686
 40
0.4385446279228961
 40
0.4551512521347144
 40
0.4717574453175864
 40
0.488363350292812
 40
0.5049691088765159
 40
0.5215748623765067
 40
0.538180717259847
 40
0.5547868032299021
 40
0.5713932632139281
 40
0.5880002417375656
 40
0.6046078853749425
 40
0.621216343046379
 40
0.6378257660849456
 40
0.6544363079705872
 40
0.6710481235965748
 40
0.6876613678870003
 40
0.7042761935228966
 40
0.7208927474545999
 40
0.7375111657754866
 40
0.7541315664038877
 40
0.7707540388648543
 40
0.7873786302855343
 40
0.8040053265317763
 40
0.8206340272528524
 40
0.8372645135325465
 40
0.8538964069880113
 40
0.8705291197112495
 40
0.8871614953292764
 40
0.9037921704316149
 40
0.9204194219033283
 40
0.9370410758996827
 40
0.9536545134726725
 40
0.9702567517015515
 40
0.9868446346886983
 40
1.0
 40
1.0
 40
1.0
 40
1.0
 10
280.3334613888686
 20
84.30328372243908
 30
0.0
 10
280.1236585585926
 20
84.79091606402756
 30
0.0
 10
279.396468010789
 20
86.48108215540057
 30
0.0
 10
277.8300525512005
 20
89.33052002675285
 30
0.0
 10
275.644376348936
 20
92.84478230284127
 30
0.0
 10
273.1398982469747
 20
96.30235140432565
 30
0.0
 10
270.3456032910506
 20
99.69929066122961
 30
0.0
 10
267.2606361994517
 20
103.0277104425034
 30
0.0
 10
263.8930287610954
 20
106.2809909964031
 30
0.0
 10
260.2492374584071
 20
109.4524420618142
 30
0.0
 10
256.336880002044
 20
112.5356974321697
 30
0.0
 10
252.1639397866613
 20
115.5246240120598
 30
0.0
 10
247.7389458529728
 20
118.413337735741
 30
0.0
 10
243.0708805254245
 20
121.1962035778517
 30
0.0
 10
238.1691624664327
 20
123.8678387681709
 30
0.0
 10
233.0436042022912
 20
126.4231163730368
 30
0.0
 10
227.704411357835
 20
128.8571532583548
 30
0.0
 10
222.1621786742745
 20
131.1653054886714
 30
0.0
 10
216.4278748985012
 20
133.3431720984851
 30
0.0
 10
210.5128264738528
 20
135.3866002404342
 30
0.0
 10
204.4286999297699
 20
137.2916912705135
 30
0.0
 10
198.1874828783799
 20
139.0548073683935
 30
0.0
 10
191.8014636663578
 20
140.6725783676949
 30
0.0
 10
185.2832097744879
 20
142.141908539494
 30
0.0
 10
178.6455450866931
 20
143.4599831335989
 30
0.0
 10
171.901526158496
 20
144.6242745317867
 30
0.0
 10
165.0644176143063
 20
145.6325479061843
 30
0.0
 10
158.1476667970706
 20
146.4828663056061
 30
0.0
 10
151.1648777860355
 20
147.1735951147176
 30
0.0
 10
144.1297848901977
 20
147.7034058470383
 30
0.0
 10
137.056225717526
 20
148.0712792444682
 30
0.0
 10
129.9581139132779
 20
148.2765076643689
 30
0.0
 10
122.8494116563252
 20
148.3186967412241
 30
0.0
 10
115.7441069729648
 20
148.1977663987387
 30
0.0
 10
108.656182724027
 20
147.9139515367709
 30
0.0
 10
101.5995869867996
 20
147.4678015838329
 30
0.0
 10
94.58820041161299
 20
146.8601785964137
 30
0.0
 10
87.63581198811082
 20
146.0922550505287
 30
0.0
 10
80.7560935062957
 20
145.1655111226895
 30
0.0
 10
73.96257260591074
 20
144.0817311623498
 30
0.0
 10
67.26860623414143
 20
142.8429994328995
 30
0.0
 10
60.6873546065318
 20
141.4516951341124
 30
0.0
 10
54.23175577313751
 20
139.9104867262551
 30
0.0
 10
47.9145009011119
 20
138.2223255867066
 30
0.0
 10
41.74801039561447
 20
136.3904390452241
 30
0.0
 10
35.74441099253757
 20
134.4183228657936
 30
0.0
 10
29.91551396857623
 20
132.3097332735516
 30
0.0
 10
24.27279462218628
 20
130.0686786677874
 30
0.0
 10
18.82737318786369
 20
127.6994112186353
 30
0.0
 10
13.58999731742359
 20
125.2064186236356
 30
0.0
 10
8.571026305774769
 20
122.5944163864554
 30
0.0
 10
3.780416891282293
 20
119.8683411363647
 30
0.0
 10
-0.7722886243071159
 20
117.0333454917551
 30
0.0
 10
-5.077975294191239
 20
114.0947956430934
 30
0.0
 10
-9.127934275919584
 20
111.0582891547507
 30
0.0
 10
-12.91391823014006
 20
107.9296584296506
 30
0.0
 10
-16.42806303658621
 20
104.7149648502744
 30
0.0
 10
-19.66329686393829
 20
101.4205444549012
 30
0.0
 10
-22.61197292452456
 20
98.05283793303244
 30
0.0
 10
-25.27105973738547
 20
94.61912446494996
 30
0.0
 10
-27.62296997086629
 20
91.12484545133869
 30
0.0
 10
-29.5642355659685
 20
87.8266237897344
 30
0.0
 10
-30.57623409452763
 20
85.67438595980046
 30
0.0
 10
-31.02383854593484
 20
84.7224564796885
 30
0.0
  0
SPLINE
  5
2EA
330
2E3
100
AcDbEntity
  8
0
  6
CONTINUOUS
 62
     7
100
AcDbSpline
210
0.0
220
0.0
230
1.0
 70
     8
 71
     3
 72
    56
 73
    52
 74
     0
 42
0.00000001
 43
0.00000001
 40
0.0
 40
0.0
 40
0.0
 40
0.0
 40
0.0108393989536323
 40
0.031461180913018
 40
0.0520809720939438
 40
0.0726980151776724
 40
0.0933140725164458
 40
0.1139301546271647
 40
0.1345471805303241
 40
0.1551658447263844
 40
0.1757865873918755
 40
0.1964096569789198
 40
0.2170351604571208
 40
0.2376631025299141
 40
0.2582934155883168
 40
0.2789259821739006
 40
0.2995606515424719
 40
0.3201972516713001
 40
0.340835597798515
 40
0.3614754983539303
 40
0.3821167589464486
 40
0.4027591849156089
 40
0.423402582830831
 40
0.4440467612257452
 40
0.4646915307821272
 40
0.4853367041235363
 40
0.5059820953388593
 40
0.5266275193276538
 40
0.5472727332858065
 40
0.5679175473138169
 40
0.5885617735702284
 40
0.6092052217471807
 40
0.6298476985588134
 40
0.6504890074876791
 40
0.6711289489073146
 40
0.6917673207391909
 40
0.712403919856193
 40
0.7330385445171852
 40
0.753670998212649
 40
0.7743010954251857
 40
0.7949286699660916
 40
0.8155535867439607
 40
0.836175758052951
 40
0.856795165727561
 40
0.8774118907695623
 40
0.8980261522519034
 40
0.9186383573289923
 40
0.9392491638322384
 40
0.9598595061394225
 40
0.980470318678857
 40
1.0
 40
1.0
 40
1.0
 40
1.0
 10
261.5927687097544
 20
28.6899420787205
 30
0.0
 10
261.01773695492
 20
28.13828846011697
 30
0.0
 10
259.3487165464119
 20
26.53712271555404
 30
0.0
 10
256.3740450246933
 20
23.94358488742804
 30
0.0
 10
252.5858369808611
 20
20.94197059992867
 30
0.0
 10
248.5325727989011
 20
18.03044859511467
 30
0.0
 10
244.2273199296252
 20
15.21399848991127
 30
0.0
 10
239.6773758092105
 20
12.4988209898613
 30
0.0
 10
234.892228456783
 20
9.890526806869346
 30
0.0
 10
229.8814216385998
 20
7.394619064539826
 30
0.0
 10
224.6551107476865
 20
5.016347914364859
 30
0.0
 10
219.2238942928665
 20
2.760732931240933
 30
0.0
 10
213.5988265460156
 20
0.6325368656171158
 30
0.0
 10
207.7913786068922
 20
-1.363745454882527
 30
0.0
 10
201.8134128591628
 20
-3.223899497555041
 30
0.0
 10
195.6771536862916
 20
-4.944000776479419
 30
0.0
 10
189.3951591614795
 20
-6.52042344855161
 30
0.0
 10
182.9802924809621
 20
-7.949847691841441
 30
0.0
 10
176.4456934570647
 20
-9.22926613231597
 30
0.0
 10
169.8047499544812
 20
-10.35598942977994
 30
0.0
 10
163.0710692672836
 20
-11.32765112247425
 30
0.0
 10
156.2584494104129
 20
-12.14221179271703
 30
0.0
 10
149.3808503166385
 20
-12.79796259651886
 30
0.0
 10
142.4523649373746
 20
-13.29352818447865
 30
0.0
 10
135.4871902554479
 20
-13.62786903119183
 30
0.0
 10
128.4995982252676
 20
-13.800283183766
 30
0.0
 10
121.5039066636673
 20
-13.81040743619762
 30
0.0
 10
114.5144566322326
 20
-13.65821807598298
 30
0.0
 10
107.5455771785526
 20
-13.34403148255518
 30
0.0
 10
100.6115556424993
 20
-12.86850362729766
 30
0.0
 10
93.72660217144387
 20
-12.23262817044911
 30
0.0
 10
86.90482688783413
 20
-11.43773490552671
 30
0.0
 10
80.1602115256208
 20
-10.48548759713642
 30
0.0
 10
73.50658078313359
 20
-9.377881254223897
 30
0.0
 10
66.95757384427078
 20
-8.117238860217938
 30
0.0
 10
60.52661607713051
 20
-6.706207558443755
 30
0.0
 10
54.22689091302247
 20
-5.14775428357217
 30
0.0
 10
48.07131188399075
 20
-3.445160822304103
 30
0.0
 10
42.07249483285081
 20
-1.602018257746487
 30
0.0
 10
36.24273011390998
 20
0.3777792269006319
 30
0.0
 10
30.59395527062349
 20
2.490041414277458
 30
0.0
 10
25.13772612972538
 20
4.730289631990084
 30
0.0
 10
19.88519372554507
 20
7.093766917764407
 30
0.0
 10
14.84705914118775
 20
9.575444106849268
 30
0.0
 10
10.03361028964751
 20
12.17004819967915
 30
0.0
 10
5.454452639864909
 20
14.87201667199381
 30
0.0
 10
1.119382336370947
 20
17.67573980893775
 30
0.0
 10
-2.964998311048531
 20
20.57474082490092
 30
0.0
 10
-6.782738724276219
 20
23.56481167848175
 30
0.0
 10
-10.29280594168089
 20
26.57862925127155
 30
0.0
 10
-12.38381332128315
 20
28.63180631701825
 30
0.0
 10
-13.40115774922245
 20
29.63074504281441
 30
0.0
  0
SPLINE
  5
2EB
330
2E3
100
AcDbEntity
  8
0
  6
CONTINUOUS
 62
     7
100
AcDbSpline
210
0.0
220
0.0
230
1.0
 70
     8
 71
     3
 72
    11
 73
     7
 74
     0
 42
0.00000001
 43
0.00000001
 40
0.0
 40
0.0
 40
0.0
 40
0.0
 40
0.2918492979124671
 40
0.6435539986011375
 40
0.9854307551711446
 40
1.0
 40
1.0
 40
1.0
 40
1.0
 10
169.771117035502
 20
-5.491743858622715
 30
0.0
 10
169.7532295957191
 20
-5.975498498213362
 30
0.0
 10
169.7137861792733
 20
-7.042221066597916
 30
0.0
 10
169.2422406087538
 20
-8.69364454180374
 30
0.0
 10
168.8008907425976
 20
-9.894923500231336
 30
0.0
 10
168.4211126263836
 20
-10.50487806666845
 30
0.0
 10
168.40558971314
 20
-10.52980912881538
 30
0.0
  0
SPLINE
  5
2EC
330
2E3
100
AcDbEntity
  8
0
  6
CONTINUOUS
 62
     7
100
AcDbSpline
210
0.0
220
0.0
230
1.0
 70
     8
 71
     3
 72
    11
 73
     7
 74
     0
 42
0.00000001
 43
0.00000001
 40
0.0
 40
0.0
 40
0.0
 40
0.0
 40
0.0346011461023662
 40
0.3598526913733094
 40
0.6934112701027717
 40
1.0
 40
1.0
 40
1.0
 40
1.0
 10
80.73767692277427
 20
-10.53898095979439
 30
0.0
 10
80.70180150406406
 20
-10.48044619190182
 30
0.0
 10
80.32869634914204
 20
-9.871683299980873
 30
0.0
 10
79.89449451323631
 20
-8.709086637564715
 30
0.0
 10
79.4345078374764
 20
-7.108670492950518
 30
0.0
 10
79.38016574445976
 20
-6.059323691864529
 30
0.0
 10
79.35413943293206
 20
-5.556755144545525
 30
0.0
  0
LWPOLYLINE
  5
2F2
330
2E3
100
AcDbEntity
  8
0
  6
CONTINUOUS
 62
     7
100
AcDbPolyline
 90
       69
 70
   128
 43
0.0
 10
285.3793959877
 20
-14.3019030532
 10
285.3079043867
 20
-17.2435368749
 10
284.9027025291
 20
-21.1235502352
 10
284.1446281102
 20
-24.9895062391
 10
283.0353495127
 20
-28.8328966258
 10
281.5773080557
 20
-32.6452627976
 10
279.773712621
 20
-36.4182144353
 10
277.6285325917
 20
-40.1434479638
 10
275.1464891159
 20
-43.8127648269
 10
272.3330447164
 20
-47.4180895307
 10
269.1943912686
 20
-50.9514874163
 10
265.7374363734
 20
-54.4051821226
 10
261.9697881551
 20
-57.7715727005
 10
257.8997385169
 20
-61.0432503413
 10
253.5362448919
 20
-64.2130146822
 10
248.88891053
 20
-67.2738896528
 10
243.9679633623
 20
-70.2191388284
 10
238.7842334916
 20
-73.0422802552
 10
233.3491293573
 20
-75.7371007165
 10
227.6746126275
 20
-78.2976694062
 10
221.7731718734
 20
-80.7183509821
 10
215.6577950844
 20
-82.9938179676
 10
209.3419410842
 20
-85.119062477
 10
202.8395099097
 20
-87.0894072366
 10
196.1648122203
 20
-88.9005158787
 10
189.3325378022
 20
-90.5484024851
 10
182.3577232391
 20
-92.0294403595
 10
175.2557188196
 20
-93.3403700089
 10
168.0421547537
 20
-94.4783063174
 10
160.7329067739
 20
-95.4407448958
 10
153.3440611953
 20
-96.2255675931
 10
145.8918795128
 20
-96.8310471585
 10
138.3927626124
 20
-97.2558510424
 10
130.863214676
 20
-97.4990443293
 10
123.3198068586
 20
-97.5600917953
 10
115.7791408182
 20
-97.4388590862
 10
108.2578121788
 20
-97.135613013
 10
100.7723740061
 20
-96.6510209646
 10
93.3393003776
 20
-95.9861494394
 10
85.9749501261
 20
-95.1424616977
 10
78.6955308367
 20
-94.1218145416
 10
71.5170631771
 20
-92.9264542284
 10
64.4553456389
 20
-91.5590115272
 10
57.5259197682
 20
-90.0224959286
 10
50.7440359613
 20
-88.3202890219
 10
44.1246199014
 20
-86.4561370524
 10
37.6822397102
 20
-84.4341426771
 10
31.4310738855
 20
-82.258755935
 10
25.3848800978
 20
-79.9347644535
 10
19.5569649113
 20
-77.467282912
 10
13.9601544993
 20
-74.8617417851
 10
8.6067664156
 20
-72.1238753912
 10
3.5085824864
 20
-69.2597092726
 10
-1.3231771201
 20
-66.2755469339
 10
-5.8778785864
 20
-63.1779559694
 10
-10.1454978494
 20
-59.9737536092
 10
-14.1166426613
 20
-56.6699917153
 10
-17.7825732602
 20
-53.2739412623
 10
-21.1352216047
 20
-49.7930763346
 10
-24.1672091304
 20
-46.2350576781
 10
-26.8718629883
 20
-42.6077158397
 10
-29.243230731
 20
-38.9190339339
 10
-31.2760934128
 20
-35.1771300736
 10
-32.9659770755
 20
-31.3902395034
 10
-34.3091625949
 20
-27.5666964752
 10
-35.3026938657
 20
-23.7149159066
 10
-35.9443843079
 20
-19.8433748606
 10
-36.2328216783
 20
-15.9605938895
 10
-36.2481826707
 20
-14.3019030532
  0
LWPOLYLINE
  5
2F3
330
2E3
100
AcDbEntity
  8
0
  6
CONTINUOUS
 62
     7
100
AcDbPolyline
 90
      134
 70
   128
 43
0.0
 10
265.1881216812
 20
28.0441695049
 10
261.5269609869
 20
24.6665356011
 10
257.5601859562
 20
21.3817182372
 10
253.2966480151
 20
18.1970471254
 10
248.745860784
 20
15.1196285121
 10
243.9179788486
 20
12.1563293217
 10
238.8237751014
 20
9.3137618332
 10
233.4746167028
 20
6.5982689263
 10
227.8824397168
 20
4.0159099275
 10
222.0597224771
 20
1.5724470895
 10
216.0194577426
 20
-0.7266672667
 10
209.7751237058
 20
-2.876302918
 10
203.3406539175
 20
-4.8716631866
 10
196.730406196
 20
-6.7082956435
 10
189.9591305886
 20
-8.3821020437
 10
183.041936459
 20
-9.8893474705
 10
175.994258772
 20
-11.22666867
 10
168.8318236524
 20
-12.3910815556
 10
161.5706132936
 20
-13.379987867
 10
154.2268302951
 20
-14.1911809674
 10
146.8168615085
 20
-14.8228507679
 10
139.3572414716
 20
-15.2735877661
 10
131.8646155136
 20
-15.5423861916
 10
124.3557026127
 20
-15.6286462498
 10
116.8472580898
 20
-15.5321754611
 10
109.3560362207
 20
-15.2531890893
 10
101.8987528504
 20
-14.7923096621
 10
94.4920480943
 20
-14.1505655819
 10
87.1524492068
 20
-13.3293888305
 10
79.8963337029
 20
-12.3306117743
 10
72.7398928137
 20
-11.1564630757
 10
65.6990953572
 20
-9.8095627193
 10
58.7896521055
 20
-8.2929161666
 10
52.0269807283
 20
-6.6099076491
 10
45.4261713898
 20
-4.7642926169
 10
39.0019530767
 20
-2.7601893588
 10
32.7686607322
 20
-0.6020698128
 10
26.7402032686
 20
1.7052504126
 10
20.930032532
 20
4.1566227836
 10
15.3511132852
 20
6.7465773299
 10
10.0158942784
 20
9.4693348504
 10
4.9362804716
 20
12.3188198081
 10
0.1236064692
 20
15.2886738881
 10
-4.4113887711
 20
18.3722701846
 10
-8.6585859016
 20
21.5627279884
 10
-12.6085077649
 20
24.8529281407
 10
-16.2523405406
 20
28.2355289184
 10
-19.5819534131
 20
31.7029824164
 10
-22.5899167141
 20
35.2475513903
 10
-25.2695185013
 20
38.8613265205
 10
-27.6147795353
 20
42.5362440617
 10
-29.6204666217
 20
46.2641038359
 10
-31.2821042883
 20
50.0365875303
 10
-32.5959847718
 20
53.8452772585
 10
-33.559176291
 20
57.6816743447
 10
-34.1695295891
 20
61.5372182866
 10
-34.4256827292
 20
65.4033058582
 10
-34.3270641334
 20
69.2713103064
 10
-33.8738938584
 20
73.1326006007
 10
-33.0671831042
 20
76.9785606928
 10
-31.9087319582
 20
80.8006087417
 10
-30.4011253776
 20
84.5902162637
 10
-28.5477274223
 20
88.3389271627
 10
-26.3526737478
 20
92.0383765988
 10
-23.8208623773
 20
95.6803096537
 10
-20.9579427719
 20
99.2565997507
 10
-17.7703032247
 20
102.7592667883
 10
-14.2650566059
 20
106.1804949465
 10
-10.4500244914
 20
109.5126501276
 10
-6.3337197096
 20
112.7482969905
 10
-1.9253273461
 20
115.8802155418
 10
2.765315752
 20
118.9014172465
 10
7.7277429259
 20
121.8051606224
 10
12.95088106
 20
124.5849662824
 10
18.4230752908
 20
127.2346313932
 10
24.1321150132
 20
129.7482435158
 10
30.0652611273
 20
132.1201937988
 10
36.2092744641
 20
134.3451894935
 10
42.5504453273
 20
136.4182657646
 10
49.0746240853
 20
138.3347967682
 10
55.7672527441
 20
140.0905059743
 10
62.6133974322
 20
141.6814757091
 10
69.5977817238
 20
143.1041558971
 10
76.7048207265
 20
144.3553719824
 10
83.9186558573
 20
145.4323320127
 10
91.2231902292
 20
146.332632869
 10
98.6021245699
 20
147.0542656282
 10
106.0389935913
 20
147.5956200453
 10
113.5172027309
 20
147.9554881469
 10
121.0200651798
 20
148.1330669266
 10
128.5308391181
 20
148.1279601368
 10
136.0327650723
 20
147.9401791726
 10
143.5091033121
 20
147.5701430468
 10
150.9431712036
 20
147.0186774547
 10
158.3183804344
 20
146.2870129317
 10
165.6182740288
 20
145.3767821074
 10
172.8265630697
 20
144.2900160628
 10
179.9271630457
 20
143.0291397977
 10
186.9042297418
 20
141.5969668202
 10
193.742194594
 20
139.9966928682
 10
200.4257994289
 20
138.2318887787
 10
206.9401305106
 20
136.3064925196
 10
213.2706518193
 20
134.2248004029
 10
219.4032374866
 20
131.9914574977
 10
225.3242033157
 20
129.6114472652
 10
231.0203373169
 20
127.090080439
 10
236.4789291877
 20
124.4329831743
 10
241.6877986753
 20
121.6460844942
 10
246.635322755
 20
118.7356030593
 10
251.3104615661
 20
115.7080332918
 10
255.7027830457
 20
112.5701308837
 10
259.8024862072
 20
109.3288977222
 10
263.6004230098
 20
105.9915662659
 10
267.0881187712
 20
102.5655834063
 10
270.2577910786
 20
99.0585938508
 10
273.1023671536
 20
95.4784230643
 10
275.6154996346
 20
91.8330598079
 10
277.7915807404
 20
88.1306383124
 10
279.6257547833
 20
84.3794201278
 10
281.1139290035
 20
80.5877756888
 10
282.2527827027
 20
76.7641656366
 10
283.0397746528
 20
72.9171219406
 10
283.4731487672
 20
69.0552288594
 10
283.5519380186
 20
65.1871037865
 10
283.2759665974
 20
61.3213780216
 10
282.6458503038
 20
57.4666775104
 10
281.6629951737
 20
53.631603597
 10
280.3295943412
 20
49.824713831
 10
278.6486231448
 20
46.0545028719
 10
276.6238324887
 20
42.3293835347
 10
274.2597404726
 20
38.6576680172
 10
271.56162231
 20
35.0475493524
 10
268.5354985578
 20
31.5070831268
 10
265.1881216812
 20
28.0441695049
  0
LWPOLYLINE
  5
2F4
330
2E3
100
AcDbEntity
  8
0
  6
CONTINUOUS
 62
     7
100
AcDbPolyline
 90
      133
 70
   128
 43
0.0
 10
262.2912468684
 20
28.8314780065
 10
258.6771898179
 20
25.498701324
 10
254.7593268968
 20
22.25826743
 10
250.5465333246
 20
19.1175169497
 10
246.0483524337
 20
16.083564693
 10
241.2749740507
 20
13.1632835377
 10
236.2372114128
 20
10.3632888597
 10
230.9464766728
 20
7.6899235476
 10
225.4147550465
 20
5.1492436338
 10
219.6545776625
 20
2.7470045753
 10
213.6789931755
 20
0.4886482162
 10
207.501538206
 20
-1.6207095398
 10
201.1362066766
 20
-3.5762903191
 10
194.5974181104
 20
-5.3736641022
 10
187.8999849667
 20
-7.0087592594
 10
181.0590790857
 20
-8.4778717742
 10
174.0901973193
 20
-9.7776736344
 10
167.0091264264
 20
-10.9052203705
 10
159.8319073098
 20
-11.8579577267
 10
152.5747986795
 20
-12.6337274463
 10
145.2542402205
 20
-13.2307721614
 10
137.8868153523
 20
-13.6477393738
 10
130.4892136619
 20
-13.8836845186
 10
123.0781930964
 20
-13.9380731041
 10
115.6705420011
 20
-13.8107819226
 10
108.2830410881
 20
-13.5020993298
 10
100.9324254231
 20
-13.0127245908
 10
93.6353465149
 20
-12.343766297
 10
86.4083345942
 20
-11.4967398539
 10
79.2677611673
 20
-10.473564049
 10
72.2298019298
 20
-9.2765567045
 10
65.310400123
 20
-7.908429427
 10
58.5252304175
 20
-6.3722814649
 10
51.889663405
 20
-4.6715926874
 10
45.4187307791
 20
-2.8102157015
 10
39.1270912833
 20
-0.7923671248
 10
33.0289975047
 20
1.3773819666
 10
27.1382635872
 20
3.6941163932
 10
21.4682339377
 20
6.1525880065
 10
16.031752997
 20
8.7472275773
 10
10.8411361431
 20
11.4721574127
 10
5.9081417925
 20
14.32120467
 10
1.2439447641
 20
17.287915341
 10
-3.1408890357
 20
20.3655688717
 10
-7.2364265479
 20
23.547193387
 10
-11.033390063
 20
26.8255814841
 10
-14.5231782372
 20
30.1933065594
 10
-17.697885578
 20
33.6427396326
 10
-20.550320352
 20
37.1660666282
 10
-23.0740208772
 20
40.7553060774
 10
-25.2632701601
 20
44.4023271984
 10
-27.1131088469
 20
48.0988683154
 10
-28.6193464581
 20
51.8365555738
 10
-29.778570881
 20
55.6069219098
 10
-30.5881560994
 20
59.4014262309
 10
-31.0462681425
 20
63.2114727645
 10
-31.151869239
 20
67.0284305297
 10
-30.9047201686
 20
70.8436528895
 10
-30.3053808035
 20
74.6484971381
 10
-29.3552088399
 20
78.4343440795
 10
-28.0563567231
 20
82.1926175529
 10
-26.4117667708
 20
85.9148038599
 10
-24.4251645082
 20
89.5924710514
 10
-22.1010502285
 20
93.2172880284
 10
-19.4446887979
 20
96.7810434145
 10
-16.4620977295
 20
100.2756641576
 10
-13.1600335514
 20
103.6932338176
 10
-9.5459765009
 20
107.0260105002
 10
-5.6281135797
 20
110.2664443941
 10
-1.4153200075
 20
113.4071948744
 10
3.0828608834
 20
116.4411471311
 10
7.8562392664
 20
119.3614282865
 10
12.8940019043
 20
122.1614229644
 10
18.1847366443
 20
124.8347882765
 10
23.7164582706
 20
127.3754681904
 10
29.4766356545
 20
129.7777072489
 10
35.4522201416
 20
132.0360636079
 10
41.629675111
 20
134.145421364
 10
47.9950066405
 20
136.1010021432
 10
54.5337952066
 20
137.8983759263
 10
61.2312283503
 20
139.5334710835
 10
68.0721342314
 20
141.0025835984
 10
75.0410159977
 20
142.3023854585
 10
82.1220868907
 20
143.4299321947
 10
89.2993060072
 20
144.3826695508
 10
96.5564146376
 20
145.1584392704
 10
103.8769730965
 20
145.7554839856
 10
111.2443979647
 20
146.172451198
 10
118.6419996551
 20
146.4083963427
 10
126.0530202206
 20
146.4627849282
 10
133.460671316
 20
146.3354937468
 10
140.848172229
 20
146.0268111539
 10
148.1987878939
 20
145.537436415
 10
155.4958668021
 20
144.8684781211
 10
162.7228787229
 20
144.0214516781
 10
169.8634521497
 20
142.9982758731
 10
176.9014113872
 20
141.8012685286
 10
183.820813194
 20
140.4331412512
 10
190.6059828995
 20
138.8969932891
 10
197.241549912
 20
137.1963045115
 10
203.712482538
 20
135.3349275256
 10
210.0041220338
 20
133.317078949
 10
216.1022158123
 20
131.1473298575
 10
221.9929497298
 20
128.8305954309
 10
227.6629793793
 20
126.3721238177
 10
233.09946032
 20
123.7774842468
 10
238.290077174
 20
121.0525544115
 10
243.2230715246
 20
118.2035071541
 10
247.887268553
 20
115.2367964831
 10
252.2721023527
 20
112.1591429525
 10
256.367639865
 20
108.9775184372
 10
260.16460338
 20
105.6991303401
 10
263.6543915543
 20
102.3314052647
 10
266.829098895
 20
98.8819721915
 10
269.6815336691
 20
95.3586451959
 10
272.2052341942
 20
91.7694057467
 10
274.3944834771
 20
88.1223846257
 10
276.244322164
 20
84.4258435087
 10
277.7505597751
 20
80.6881562503
 10
278.909784198
 20
76.9177899143
 10
279.7193694164
 20
73.1232855932
 10
280.1774814595
 20
69.3132390596
 10
280.2830825561
 20
65.4962812945
 10
280.0359334857
 20
61.6810589347
 10
279.4365941205
 20
57.8762146861
 10
278.486422157
 20
54.0903677446
 10
277.1875700401
 20
50.3320942712
 10
275.5429800878
 20
46.6099079642
 10
273.5563778253
 20
42.9322407727
 10
271.2322635455
 20
39.3074237957
 10
268.5759021149
 20
35.7436684096
 10
265.5933110465
 20
32.2490476666
 10
262.2912468684
 20
28.8314780065
  0
LWPOLYLINE
  5
2F6
330
2E3
100
AcDbEntity
  8
0
  6
CONTINUOUS
 62
     7
100
AcDbPolyline
 90
       13
 70
   128
 43
0.0
 10
-13.272003186
 20
29.4091900014
 10
-13.671345263
 20
29.8147951058
 10
-16.8266094805
 20
33.2431025301
 10
-19.6615748518
 20
36.7448513222
 10
-22.1698192687
 20
40.3121088947
 10
-24.3456607507
 20
43.936794262
 10
-26.1841703171
 20
47.6106963458
 10
-27.6811831525
 20
51.3254925763
 10
-28.8333080411
 20
55.0727677452
 10
-29.6379350497
 20
58.844033069
 10
-30.0932414392
 20
62.6307454188
 10
-30.1981957942
 20
66.4243266732
 10
-30.1509754884
 20
67.773917759
  0
LWPOLYLINE
  5
2F7
330
2E3
100
AcDbEntity
  8
0
  6
CONTINUOUS
 62
     7
100
AcDbPolyline
 90
       12
 70
   128
 43
0.0
 10
279.285483429
 20
67.7088617794
 10
279.3294091113
 20
64.9015609065
 10
279.0837736764
 20
61.1097044293
 10
278.488104895
 20
57.3281625037
 10
277.5437521484
 20
53.5655015384
 10
276.2528546992
 20
49.8302451708
 10
274.6183368455
 20
46.1308549579
 10
272.6439012958
 20
42.4757112084
 10
270.3340207818
 20
38.8730939985
 10
267.6939279257
 20
35.3311644149
 10
264.729603387
 20
31.8579460673
 10
261.4477623142
 20
28.4613069124
  0
LWPOLYLINE
  5
2F8
330
2E3
100
AcDbEntity
  8
0
  6
CONTINUOUS
 62
     7
100
AcDbPolyline
 90
       42
 70
   128
 43
0.0
 10
253.6397971654
 20
-64.1407221645
 10
253.0540401482
 20
-64.5476327599
 10
248.4157878135
 20
-67.5971841393
 10
243.5049244666
 20
-70.5313329715
 10
238.3322595826
 20
-73.3436207977
 10
232.9091788968
 20
-76.0278573917
 10
227.2476193441
 20
-78.5781343856
 10
221.3600427832
 20
-80.9888382745
 10
215.259408567
 20
-83.2546627728
 10
208.9591450172
 20
-85.370620494
 10
202.4731198666
 20
-87.332053929
 10
195.8156097345
 20
-89.1346456971
 10
189.0012687018
 20
-90.7744280499
 10
182.0450960554
 20
-92.2477916046
 10
174.9624032729
 20
-93.5514932884
 10
167.7687803197
 20
-94.6826634776
 10
160.4800613336
 20
-95.6388123134
 10
153.1122897717
 20
-96.4178351829
 10
145.6816830964
 20
-97.0180173513
 10
138.2045970788
 20
-97.4380377363
 10
130.6974897971
 20
-97.6769718163
 10
123.1768854107
 20
-97.734293665
 10
115.6593377878
 20
-97.6098771092
 10
108.1613940681
 20
-97.3039960067
 10
100.6995582407
 20
-96.8173236431
 10
93.2902548161
 20
-96.1509312503
 10
85.9497926742
 20
-95.3062856479
 10
78.6943291656
 20
-94.2852460155
 10
71.5398345475
 20
-93.0900597992
 10
64.502056831
 20
-91.7233577659
 10
57.5964871174
 20
-90.1881482117
 10
50.8383255003
 20
-88.4878103406
 10
44.2424476082
 20
-86.6260868263
 10
37.8233718611
 20
-84.6070755744
 10
31.5952275136
 20
-82.4352207018
 10
25.5717235543
 20
-80.1153027552
 10
19.7661185307
 20
-77.6524281879
 10
14.1911913654
 20
-75.0520181202
 10
8.8592132275
 20
-72.3197964066
 10
3.7819205228
 20
-69.4617770369
 10
-1.0295109405
 20
-66.4842508987
 10
-2.9819037592
 20
-65.1905315171
  0
LWPOLYLINE
  5
2F9
330
2E3
100
AcDbEntity
  8
0
  6
CONTINUOUS
 62
     7
100
AcDbPolyline
 90
       28
 70
   128
 43
0.0
 10
91.3619450182
 20
-11.9250857064
 10
91.456463673
 20
-11.7544259477
 10
92.5999336261
 20
-10.0546863978
 10
94.071414641
 20
-8.4232487788
 10
95.8558073312
 20
-6.8768538482
 10
97.9348014131
 20
-5.4313697107
 10
100.287063594
 20
-4.1016289896
 10
102.8884564809
 20
-2.9012766241
 10
105.7122862625
 20
-1.8426298537
 10
108.729576624
 20
-0.936551827
 10
111.9093660832
 20
-0.1923401307
 10
115.2190256973
 20
0.3823686163
 10
118.62459388
 20
0.7816771245
 10
122.0911248934
 20
1.0014879481
 10
125.5830474381
 20
1.0395455308
 10
129.0645296636
 20
0.8954593501
 10
132.4998468511
 20
0.5707079254
 10
135.8537479974
 20
0.0686236456
 10
139.0918175384
 20
-0.605641425
 10
142.1808284985
 20
-1.4451684145
 10
145.0890834455
 20
-2.4413426399
 10
147.7867397478
 20
-3.5839420055
 10
150.2461158015
 20
-4.8612418957
 10
152.4419750801
 20
-6.2601354851
 10
154.3517850959
 20
-7.7662682326
 10
155.9559486138
 20
-9.364185178
 10
157.2380047453
 20
-11.0374895311
 10
157.7722567927
 20
-11.9305890797
  0
LWPOLYLINE
  5
302
330
2E3
100
AcDbEntity
  8
0
  6
CONTINUOUS
 62
     7
100
AcDbPolyline
 90
        7
 70
   128
 43
0.0
 10
-115.7426970842
 20
82.053406268
 10
-115.7373717925
 20
81.996561215
 10
-115.6981068407
 20
81.8976470231
 10
-115.6221278652
 20
81.8045789495
 10
-115.5123544133
 20
81.7209332023
 10
-115.3730046094
 20
81.64992393
 10
-115.2094330709
 20
81.5942797154
  0
LWPOLYLINE
  5
304
330
2E3
100
AcDbEntity
  8
0
  6
CONTINUOUS
 62
     7
100
AcDbPolyline
 90
       53
 70
   128
 43
0.0
 10
266.0725061269
 20
26.9541255628
 10
262.4169636867
 20
23.5802776391
 10
258.4583940461
 20
20.2983863899
 10
254.2054990002
 20
17.1156661242
 10
249.6676273355
 20
14.0391131521
 10
244.8547542785
 20
11.0754904046
 10
239.7774595689
 20
8.2313125678
 10
234.4469042024
 20
5.5128317618
 10
228.8748058964
 20
2.9260237973
 10
223.0734133325
 20
0.4765750398
 10
217.0554792304
 20
-1.8301300908
 10
210.8342323156
 20
-3.9890209561
 10
204.4233482387
 20
-5.9953518453
 10
197.8369195145
 20
-7.8447124078
 10
191.0894245426
 20
-9.5330373476
 10
184.1956957815
 20
-11.0566153602
 10
177.170887143
 20
-12.4120972903
 10
170.0304406812
 20
-13.5965034945
 10
162.790052647
 20
-14.607230391
 10
155.4656389848
 20
-15.4420561827
 10
148.0733003453
 20
-16.0991457413
 10
140.6292866932
 20
-16.5770546413
 10
133.1499615861
 20
-16.8747323352
 10
125.6517662039
 20
-16.9915244629
 10
118.1511832073
 20
-16.92717429
 10
110.6647005055
 20
-16.6818232721
 10
103.2087750123
 20
-16.2560107439
 10
95.7997964701
 20
-15.6506727338
 10
88.4540514218
 20
-14.8671399062
 10
81.1876874091
 20
-13.9071346362
 10
74.0166774771
 20
-12.7727672238
 10
66.956785062
 20
-11.4665312547
 10
60.0235293396
 20
-9.9912981192
 10
53.2321511106
 20
-8.3503106997
 10
46.5975792983
 20
-6.5471762428
 10
40.1343981314
 20
-4.5858584293
 10
33.8568150848
 20
-2.4706686615
 10
27.7786296486
 20
-0.2062565855
 10
21.9132029933
 20
2.2024001294
 10
16.2734285998
 20
4.7500067332
 10
10.8717039161
 20
7.4309630335
 10
5.7199031056
 20
10.2393757065
 10
0.8293509443
 20
13.1690712518
 10
-3.7892020726
 20
16.2136095627
 10
-8.1256033633
 20
19.3662980831
 10
-12.1703205765
 20
22.6202065196
 10
-15.9144625461
 20
25.9681820752
 10
-19.3497988353
 20
29.402865173
 10
-22.4687778296
 20
32.9167056341
 10
-25.264543336
 20
36.5019792746
 10
-27.7309496554
 20
40.1508048849
 10
-29.8625750913
 20
43.8551615545
 10
-31.6137476975
 20
47.5117850509
  0
LWPOLYLINE
  5
306
330
2E3
100
AcDbEntity
  8
0
  6
CONTINUOUS
 62
     7
100
AcDbPolyline
 90
       67
 70
   128
 43
0.0
 10
-30.1509754884
 20
67.773917759
 10
-29.9525603594
 20
70.2161831504
 10
-29.3568915779
 20
73.997725076
 10
-28.4125388313
 20
77.7603860413
 10
-27.1216413822
 20
81.4956424088
 10
-25.4871235284
 20
85.1950326217
 10
-23.5126879788
 20
88.8501763712
 10
-21.2028074647
 20
92.4527935811
 10
-18.5627146086
 20
95.9947231647
 10
-15.59839007
 20
99.4679415123
 10
-12.3165489972
 20
102.8645806672
 10
-8.7246258159
 20
106.1769461493
 10
-4.8307573873
 20
109.3975343854
 10
-0.643764576
 20
112.5190497072
 10
3.8268677328
 20
115.5344208786
 10
8.571012119
 20
118.436817114
 10
13.5779215695
 20
121.2196635525
 10
18.8362538242
 20
123.8766561518
 10
24.3340970693
 20
126.401775969
 10
30.0589969214
 20
128.7893027958
 10
35.9979846411
 20
131.0338281158
 10
42.137606511
 20
133.1302673573
 10
48.463954313
 20
135.0738714111
 10
54.9626968343
 20
136.8602373889
 10
61.6191123331
 20
138.4853185973
 10
68.4181218872
 20
139.9454337046
 10
75.3443235533
 20
141.2372750805
 10
82.3820272569
 20
142.3579162887
 10
89.5152903355
 20
143.3048187165
 10
96.7279536539
 20
144.0758373253
 10
104.0036782099
 20
144.66922551
 10
111.3259821473
 20
145.0836390555
 10
118.6782780925
 20
145.3181391819
 10
126.0439107304
 20
145.3721946708
 10
133.4061945342
 20
145.2456830694
 10
140.748451563
 20
144.9388909669
 10
148.0540492432
 20
144.4525133462
 10
155.3064380462
 20
143.7876520091
 10
162.4891889788
 20
142.9458130803
 10
169.5860307999
 20
141.9289035958
 10
176.5808868803
 20
140.7392271826
 10
183.4579116211
 20
139.3794788404
 10
190.2015263493
 20
137.8527388366
 10
196.7964546088
 20
136.1624657283
 10
203.2277567657
 20
134.3124885277
 10
209.4808638522
 20
132.3069980284
 10
215.5416105696
 20
130.1505373111
 10
221.3962673771
 20
127.8479914532
 10
227.031571594
 20
125.4045764615
 10
232.4347574438
 20
122.8258274568
 10
237.5935849728
 20
120.1175861351
 10
242.4963677772
 20
117.285987534
 10
247.1319994771
 20
114.3374461351
 10
251.4899788758
 20
111.278641333
 10
255.5604337482
 20
108.1165023045
 10
259.3341432048
 20
104.8581923114
 10
262.8025585801
 20
101.5110924738
 10
265.9578227975
 20
98.0827850495
 10
268.7927881689
 20
94.5810362575
 10
271.3010325857
 20
91.0137786849
 10
273.4768740678
 20
87.3890933177
 10
275.3153836342
 20
83.7151912338
 10
276.8123964695
 20
80.0003950033
 10
277.9645213582
 20
76.2531198344
 10
278.7691483667
 20
72.4818545106
 10
279.2244547562
 20
68.6951421608
 10
279.285483429
 20
67.7088617794
  0
LWPOLYLINE
  5
307
330
2E3
100
AcDbEntity
  8
0
  6
CONTINUOUS
 62
     7
100
AcDbPolyline
 90
       56
 70
   128
 43
0.0
 10
-7.2748659073
 20
23.9095540938
 10
-7.0644399712
 20
24.4423663194
 10
-5.4981161325
 20
27.8856430983
 10
-3.5924708915
 20
31.2832368999
 10
-1.3524758591
 20
34.62628379
 10
1.2160250735
 20
37.9060621409
 10
4.1063309805
 20
41.1140153855
 10
7.310901384
 20
44.2417743399
 10
10.8213759255
 20
47.2811790382
 10
14.6285961779
 20
50.2243000205
 10
18.7226295382
 20
53.0634590203
 10
23.0927951408
 20
55.791248996
 10
27.7276917227
 20
58.4005534548
 10
32.6152273678
 20
60.8845650194
 10
37.7426510537
 20
63.2368031872
 10
43.0965859175
 20
65.4511312375
 10
48.6630641545
 20
67.5217722412
 10
54.4275634583
 20
69.4433241323
 10
60.3750449086
 20
71.2107738014
 10
66.4899922054
 20
72.819510174
 10
72.7564521492
 20
74.2653362407
 10
79.1580762617
 20
75.5444800063
 10
85.6781634365
 20
76.6536043308
 10
92.2997035105
 20
77.5898156355
 10
99.0054216417
 20
78.3506714519
 10
105.7778233772
 20
78.9341867942
 10
112.5992402942
 20
79.3388393374
 10
119.4518760947
 20
79.5635733892
 10
126.3178530343
 20
79.6078026441
 10
133.1792585632
 20
79.4714117131
 10
140.0181920578
 20
79.1547564246
 10
146.8168115215
 20
78.658662896
 10
153.5573801322
 20
77.9844253787
 10
160.2223125163
 20
77.1338028814
 10
166.7942206259
 20
76.1090145811
 10
173.2559591033
 20
74.9127340335
 10
179.5906700106
 20
73.5480821978
 10
185.7818268103
 20
72.018619295
 10
191.8132774811
 20
70.328335519
 10
197.669286657
 20
68.4816406274
 10
203.3345766787
 20
66.4833524362
 10
208.7943674513
 20
64.3386842511
 10
214.0344150041
 20
62.0532312666
 10
219.0410486514
 20
59.6329559685
 10
223.8012066575
 20
57.0841725787
 10
228.3024703138
 20
54.4135305822
 10
232.5330963374
 20
51.6279973789
 10
236.4820475079
 20
48.7348401069
 10
240.1390214627
 20
45.7416066833
 10
243.4944775743
 20
42.6561061122
 10
246.5396618408
 20
39.4863881123
 10
249.2666297241
 20
36.240722116
 10
251.6682668765
 20
32.9275756953
 10
253.7383077006
 20
29.5555924709
 10
255.4713516966
 20
26.133569562
 10
256.4060792244
 20
23.9095540938
  0
LWPOLYLINE
  5
308
330
2E3
100
AcDbEntity
  8
0
  6
CONTINUOUS
 62
     7
100
AcDbPolyline
 90
       51
 70
   128
 43
0.0
 10
11.5723001553
 20
11.3460200606
 10
12.8496747522
 20
14.010528632
 10
14.690031953
 20
17.1564468363
 10
16.8640776629
 20
20.2453728598
 10
19.3652093767
 20
23.2679257357
 10
22.1858312394
 20
26.2149260704
 10
25.3173771151
 20
29.0774239206
 10
28.750336602
 20
31.8467259745
 10
32.474283915
 20
34.5144219526
 10
36.4779095484
 20
37.0724101502
 10
40.7490546228
 20
39.5129220409
 10
45.2747478109
 20
41.8285458705
 10
50.0412447314
 20
44.0122491655
 10
55.0340696896
 20
46.0574000907
 10
60.2380596404
 20
47.95778759
 10
65.6374102372
 20
49.7076402491
 10
71.2157238298
 20
51.3016438228
 10
76.9560592631
 20
52.7349573748
 10
82.8409833271
 20
54.0032279789
 10
88.8526237008
 20
55.1026039389
 10
94.9727232299
 20
56.0297464863
 10
101.1826953734
 20
56.7818399195
 10
107.46368065
 20
57.3566001555
 10
113.7966039138
 20
57.7522816664
 10
120.162232285
 20
57.9676827804
 10
126.5412335594
 20
58.0021493314
 10
132.9142349199
 20
57.8555766457
 10
139.2618817707
 20
57.5284098596
 10
145.564896517
 20
57.021642568
 10
151.8041371102
 20
56.3368138064
 10
157.9606551816
 20
55.4760033773
 10
164.0157535883
 20
54.4418255337
 10
169.9510431953
 20
53.2374210397
 10
175.7484987233
 20
51.8664476322
 10
181.3905134902
 20
50.3330689123
 10
186.8599528828
 20
48.6419417008
 10
192.1402063933
 20
46.7982018955
 10
197.2152380653
 20
44.8074488735
 10
202.0696351945
 20
42.6757284864
 10
206.6886551363
 20
40.409514699
 10
211.058270079
 20
38.0156899279
 10
215.1652096456
 20
35.5015241404
 10
218.9970011957
 20
32.8746527753
 10
222.5420077041
 20
30.1430535547
 10
225.7894631028
 20
27.3150222555
 10
228.7295049763
 20
24.3991475159
 10
231.3532045142
 20
21.4042847517
 10
233.6525936271
 20
18.3395292625
 10
235.6206891459
 20
15.2141886102
 10
237.2515140292
 20
12.0377543515
 10
237.5659806049
 20
11.3296586797
  0
LWPOLYLINE
  5
309
330
2E3
100
AcDbEntity
  8
0
  6
CONTINUOUS
 62
     7
100
AcDbPolyline
 90
       45
 70
   128
 43
0.0
 10
78.6352309333
 20
-10.2425577615
 10
77.8480121017
 20
-8.8112533215
 10
77.0123490748
 20
-6.7204556398
 10
76.5287537296
 20
-4.6003986241
 10
76.4008064368
 20
-2.4667784349
 10
76.6294544735
 20
-0.3353916495
 10
77.2130050097
 20
1.77798169
 10
78.1471376412
 20
3.8576949068
 10
79.4249363769
 20
5.888350532
 10
81.036940842
 20
7.8549143016
 10
82.9712163196
 20
9.7428264656
 10
85.2134421105
 20
11.5381095829
 10
87.7470175597
 20
13.2274720053
 10
90.5531849609
 20
14.7984062846
 10
93.6111684325
 20
16.2392817729
 10
96.8983277346
 20
17.5394307323
 10
100.39032589
 20
18.6892273148
 10
104.061309366
 20
19.6801588287
 10
107.8840994854
 20
20.5048887638
 10
111.8303936475
 20
21.1573111082
 10
115.870974871
 20
21.6325955552
 10
119.9759281064
 20
21.9272232649
 10
124.114861716
 20
22.039012917
 10
128.2571324834
 20
21.9671368598
 10
132.3720724851
 20
21.7121272387
 10
136.4292161451
 20
21.2758720556
 10
140.3985257912
 20
20.6616011912
 10
144.2506140435
 20
19.8738624922
 10
147.9569613883
 20
18.9184881002
 10
151.4901273266
 20
17.802551273
 10
154.8239535339
 20
16.5343140164
 10
157.9337575274
 20
15.1231659154
 10
160.7965154064
 20
13.5795546168
 10
163.3910323131
 20
11.9149084786
 10
165.698099352
 20
10.1415519583
 10
167.7006358061
 20
8.2726143673
 10
169.3838155959
 20
6.3219326654
 10
170.7351770473
 20
4.3039490177
 10
171.7447151529
 20
2.233603869
 10
172.4049556456
 20
0.1262253303
 10
172.711010336
 20
-2.0025843048
 10
172.6606133022
 20
-4.1370640747
 10
172.2541376661
 20
-6.2614110379
 10
171.4945928312
 20
-8.3598972728
 10
170.4942303714
 20
-10.2454131467
  0
LWPOLYLINE
  5
30A
330
2E3
100
AcDbEntity
  8
0
  6
CONTINUOUS
 62
     7
100
AcDbPolyline
 90
       38
 70
   128
 43
0.0
 10
79.3397347522
 20
-5.5598955323
 10
79.3368316085
 20
-5.3219214932
 10
79.5091228971
 20
-3.2630403923
 10
80.0340422609
 20
-1.2200586072
 10
80.9074814942
 20
0.7910347598
 10
82.1226047508
 20
2.7545001763
 10
83.6699020437
 20
4.6549708631
 10
85.5372636737
 20
6.4775730606
 10
87.7100750041
 20
8.2080424352
 10
90.1713308402
 20
9.832835718
 10
92.9017685182
 20
11.3392366984
 10
95.880018661
 20
12.7154557463
 10
99.0827724232
 20
13.9507220818
 10
102.4849639142
 20
15.0353680709
 10
106.0599663728
 20
15.9609048881
 10
109.7798005575
 20
16.720088953
 10
113.6153537222
 20
17.306978621
 10
117.5366074631
 20
17.7169806845
 10
121.5128726529
 20
17.9468863217
 10
125.5130296254
 20
17.9948962091
 10
129.5057717286
 20
17.8606346043
 10
133.459850342
 20
17.5451522863
 10
137.3443194393
 20
17.0509183322
 10
141.1287777831
 20
16.3818007926
 10
144.7836068557
 20
15.5430364195
 10
148.2802026641
 20
14.5411896815
 10
151.5911996054
 20
13.3841013875
 10
154.6906846392
 20
12.0808273224
 10
157.5544000927
 20
10.6415673727
 10
160.1599335097
 20
9.0775856989
 10
162.4868930586
 20
7.4011225782
 10
164.5170671258
 20
5.6252986075
 10
166.2345668466
 20
3.7640120171
 10
167.6259504571
 20
1.8318298983
 10
168.680328494
 20
-0.1561258041
 10
169.3894490196
 20
-2.1842966415
 10
169.7477622043
 20
-4.236809427
 10
169.7929852281
 20
-5.4796375038
  0
LWPOLYLINE
  5
30B
330
2E3
100
AcDbEntity
  8
0
  6
CONTINUOUS
 62
     7
100
AcDbPolyline
 90
       33
 70
   128
 43
0.0
 10
80.2974678202
 20
-9.7487615349
 10
81.0796610621
 20
-7.9923944056
 10
82.2899920975
 20
-6.0366725335
 10
83.8311871361
 20
-4.1436969513
 10
85.6911842373
 20
-2.3282827597
 10
87.8554264018
 20
-0.6046380361
 10
90.3069755004
 20
1.0137473625
 10
93.0266448373
 20
2.5142073762
 10
95.9931493126
 20
3.8849988708
 10
99.1832720066
 20
5.1153935444
 10
102.5720458838
 20
6.1957618904
 10
106.1329491941
 20
7.1176485617
 10
109.838113041
 20
7.8738385451
 10
113.6585394937
 20
8.4584136288
 10
117.5643285354
 20
8.8667987201
 10
121.524912071
 20
9.0957976519
 10
125.5092931645
 20
9.1436181972
 10
129.4862886316
 20
9.0098860953
 10
133.4247730905
 20
8.6956479813
 10
137.2939225604
 20
8.2033631944
 10
141.0634557007
 20
7.5368845306
 10
144.7038708037
 20
6.701428089
 10
148.1866766852
 20
5.7035324492
 10
151.4846156671
 20
4.5510074974
 10
154.5718769054
 20
3.252873304
 10
157.424298395
 20
1.8192895292
 10
160.0195560703
 20
0.2614759098
 10
162.3373385213
 20
-1.4083755506
 10
164.3595059576
 20
-3.1771960001
 10
166.0702321773
 20
-5.0311420205
 10
167.4561284283
 20
-6.9557039706
 10
168.5063481933
 20
-8.9358195435
 10
168.8427757774
 20
-9.7734655896
  0
LWPOLYLINE
  5
30C
330
2E3
100
AcDbEntity
  8
0
  6
CONTINUOUS
 62
     7
100
AcDbPolyline
 90
       30
 70
   128
 43
0.0
 10
83.8811403035
 20
-10.9829676589
 10
84.3449067549
 20
-10.1550772746
 10
85.6675128615
 20
-8.2711284673
 10
87.3219837893
 20
-6.4580687681
 10
89.2942041756
 20
-4.7313665633
 10
91.5673477316
 20
-3.1057534672
 10
94.1220207979
 20
-1.5950986375
 10
96.9364278047
 20
-0.2122904486
 10
99.9865572236
 20
1.0308734675
 10
103.246386426
 20
2.1237868747
 10
106.6881036985
 20
3.0571254212
 10
110.2823455229
 20
3.8229261915
 10
113.998447095
 20
4.4146556435
 10
117.8047039467
 20
4.8272653501
 10
121.6686424366
 20
5.0572350708
 10
125.5572968037
 20
5.102602785
 10
129.4374904201
 20
4.9629814315
 10
133.2761188421
 20
4.6395622103
 10
137.0404322454
 20
4.1351044202
 10
140.6983148353
 20
3.4539119172
 10
144.2185588472
 20
2.6017963956
 10
147.5711308005
 20
1.5860278045
 10
150.7274277333
 20
0.4152723234
 10
153.6605212332
 20
-0.9004815747
 10
156.3453871804
 20
-2.3500083415
 10
158.7591192455
 20
-3.9209411256
 10
160.8811243175
 20
-5.5998772826
 10
162.6932981973
 20
-7.372492721
 10
164.1801800563
 20
-9.2236641109
 10
165.2523596866
 20
-10.9873785887
  0
LWPOLYLINE
  5
311
330
2E3
100
AcDbEntity
  8
0
  6
CONTINUOUS
 62
     7
100
AcDbPolyline
 90
        7
 70
   128
 43
0.0
 10
-114.2188871023
 20
153.7615416011
 10
-114.3824405465
 20
153.8185040971
 10
-114.5217769051
 20
153.8904929371
 10
-114.6315420775
 20
153.9747418975
 10
-114.7075182574
 20
154.0680136511
 10
-114.7467860049
 20
154.166724163
 10
-114.7521152996
 20
154.2232775669
  0
LINE
  5
313
330
2E3
100
AcDbEntity
  8
0
  6
CONTINUOUS
 62
     7
100
AcDbLine
 10
285.3793959877
 20
-14.3019030532
 30
0.0
 11
284.56340699
 21
65.8447758658
 31
0.0
  0
LINE
  5
314
330
2E3
100
AcDbEntity
  8
0
  6
CONTINUOUS
 62
     7
100
AcDbLine
 10
-35.4321936729
 20
65.8447758658
 30
0.0
 11
-36.2481826707
 21
-14.3019030532
 31
0.0
  0
LINE
  5
315
330
2E3
100
AcDbEntity
  8
0
  6
CONTINUOUS
 62
     7
100
AcDbLine
 10
-114.7521152996
 20
154.2232775669
 30
0.0
 11
-115.7426970842
 21
82.053406268
 31
0.0
  0
LINE
  5
316
330
2E3
100
AcDbEntity
  8
0
  6
CONTINUOUS
 62
     7
100
AcDbLine
 10
-56.5764043971
 20
211.4122592012
 30
0.0
 11
-114.4506876423
 21
154.9251845356
 31
0.0
  0
LINE
  5
317
330
2E3
100
AcDbEntity
  8
0
  6
CONTINUOUS
 62
     7
100
AcDbLine
 10
261.4477623142
 20
28.4613069124
 30
0.0
 11
260.3284157134
 21
27.3887195842
 31
0.0
  0
LINE
  5
318
330
2E3
100
AcDbEntity
  8
0
  6
CONTINUOUS
 62
     7
100
AcDbLine
 10
-113.7522094837
 20
155.0667204634
 30
0.0
 11
-55.8779262384
 21
211.5537951289
 31
0.0
  0
LINE
  5
319
330
2E3
100
AcDbEntity
  8
0
  6
CONTINUOUS
 62
     7
100
AcDbLine
 10
238.6486773258
 20
131.5077752219
 30
0.0
 11
-55.8779262384
 21
211.5537951289
 31
0.0
  0
LINE
  5
31A
330
2E3
100
AcDbEntity
  8
0
  6
CONTINUOUS
 62
     7
100
AcDbLine
 10
-115.2094330709
 20
81.5942797154
 30
0.0
 11
-114.2188871023
 21
153.7615416011
 31
0.0
  0
LINE
  5
31B
330
2E3
100
AcDbEntity
  8
0
  6
CONTINUOUS
 62
     7
100
AcDbLine
 10
-115.2094330709
 20
81.5942797154
 30
0.0
 11
-35.4924243115
 21
59.9289048634
 31
0.0
  0
LINE
  5
31C
330
2E3
100
AcDbEntity
  8
0
  6
CONTINUOUS
 62
     7
100
AcDbLine
 10
239.5330617715
 20
130.4177312798
 30
0.0
 11
239.5992533635
 21
123.0486407778
 31
0.0
  0
LINE
  5
31D
330
2E3
100
AcDbEntity
  8
0
  6
CONTINUOUS
 62
     7
100
AcDbLine
 10
238.6486773258
 20
131.5077752219
 30
0.0
 11
233.2796733472
 21
126.2674627444
 31
0.0
  0
LINE
  5
31E
330
2E3
100
AcDbEntity
  8
0
  6
CONTINUOUS
 62
     7
100
AcDbLine
 10
7.7006344349
 20
122.058439906
 30
0.0
 11
-113.7522094837
 21
155.0667204634
 31
0.0
  0
LINE
  5
31F
330
2E3
100
AcDbEntity
  8
0
  6
CONTINUOUS
 62
     7
100
AcDbLine
 10
-114.2188871023
 20
153.7615416011
 30
0.0
 11
5.9975432331
 21
121.0892917625
 31
0.0
  0
LINE
  5
320
330
2E3
100
AcDbEntity
  8
0
  6
CONTINUOUS
 62
     7
100
AcDbLine
 10
234.6042817744
 20
125.6070909039
 30
0.0
 11
239.5330617715
 21
130.4177312798
 31
0.0
  0
ARC
  5
321
330
2E3
100
AcDbEntity
  8
0
  6
CONTINUOUS
 62
     7
100
AcDbCircle
 10
-113.7522094837
 20
154.2095531627
 30
0.0
 40
1.000000000000089
100
AcDbArc
 50
134.305033619
 51
179.2136248726
  0
ARC
  5
322
330
2E3
100
AcDbEntity
  8
0
  6
CONTINUOUS
 62
     7
100
AcDbCircle
 10
8.9079756759
 20
65.4274217906
 30
0.0
 40
44.30553131312294
100
AcDbArc
 50
154.5985157235
 51
203.8513841199
  0
ARC
  5
323
330
2E3
100
AcDbEntity
  8
0
  6
CONTINUOUS
 62
     7
100
AcDbCircle
 10
240.2779776264
 20
65.4229428231
 30
0.0
 40
44.25278006590486
100
AcDbArc
 50
336.2562905644
 51
24.8524442895
  0
ARC
  5
324
330
2E3
100
AcDbEntity
  8
0
  6
CONTINUOUS
 62
     7
100
AcDbCircle
 10
124.5669375535
 20
-56.8458655391
 30
0.0
 40
43.72671483642018
100
AcDbArc
 50
81.2097465634
 51
99.0777608154
  0
ARC
  5
325
330
2E3
100
AcDbEntity
  8
0
  6
CONTINUOUS
 62
     7
100
AcDbCircle
 10
-112.1747409089
 20
153.7666617066
 30
0.0
 40
2.044152605746993
100
AcDbArc
 50
140.5066178709
 51
180.1435121531
  0
ARC
  5
326
330
2E3
100
AcDbEntity
  8
0
  6
CONTINUOUS
 62
     7
100
AcDbCircle
 10
238.3195724106
 20
130.3369773848
 30
0.0
 40
1.216173351410958
100
AcDbArc
 50
3.807240193
 51
74.2996151607
  0
ARC
  5
327
330
2E3
100
AcDbEntity
  8
0
  6
CONTINUOUS
 62
     7
100
AcDbCircle
 10
-56.1061309422
 20
210.8857239285
 30
0.0
 40
0.7059720360406794
100
AcDbArc
 50
71.1404794797
 51
131.7695425913
  0
ARC
  5
328
330
2E3
100
AcDbEntity
  8
0
  6
CONTINUOUS
 62
     7
100
AcDbCircle
 10
221.4558975498
 20
74.3074496084
 30
0.0
 40
65.06134842661415
100
AcDbArc
 50
313.2955735031
 51
335.7685453585
  0
ARC
  5
329
330
2E3
100
AcDbEntity
  8
0
  6
CONTINUOUS
 62
     7
100
AcDbCircle
 10
-113.9804141875
 20
154.398649263
 30
0.0
 40
0.705972036040847
100
AcDbArc
 50
71.1404794797
 51
131.7695425913
  0
VIEWPORT
  5
386
330
2E3
100
AcDbEntity
  8
0
100
AcDbViewport
 10
0.0
 20
0.0
 30
0.0
 40
205.6
 41
156.0
 68
     1
 69
     1
1001
ACAD
1000
MVIEW
1002
{
1070
    16
1010
0.0
1020
0.0
1030
0.0
1010
0.0
1020
0.0
1030
1.0
1040
0.0
1040
357.2134125294
1040
70.8818195963
1040
9.5919903727
1040
50.0
1040
0.0
1040
0.0
1070
     0
1070
   100
1070
     0
1070
     3
1070
     0
1070
     0
1070
     0
1070
     0
1040
0.0
1040
0.0
1040
0.0
1040
10.0
1040
10.0
1040
10.0
1040
10.0
1070
     0
1002
{
1002
}
1002
}
  0
ENDBLK
  5
2E6
330
2E3
100
AcDbEntity
  8
0
100
AcDbBlockEnd
  0
BLOCK
  5
32C
330
32A
100
AcDbEntity
  8
0
100
AcDbBlockBegin
  2
*PAPER_SPACE7
 70
     0
 10
0.0
 20
0.0
 30
0.0
  3
*PAPER_SPACE7
  1

  0
SPLINE
  5
330
330
32A
100
AcDbEntity
  8
0
  6
CONTINUOUS
 62
     7
100
AcDbSpline
210
0.0
220
0.0
230
1.0
 70
     8
 71
     3
 72
    31
 73
    27
 74
     0
 42
0.00000001
 43
0.00000001
 40
0.0
 40
0.0
 40
0.0
 40
0.0
 40
0.0360769505917526
 40
0.0795305654719146
 40
0.1229894616203727
 40
0.1664544560243237
 40
0.2099264655313412
 40
0.2534065215493458
 40
0.2968957848253888
 40
0.3403955588285287
 40
0.3839072990281394
 40
0.4274326132946349
 40
0.4709732452338529
 40
0.5145310266779675
 40
0.5581077765483963
 40
0.6017051091055061
 40
0.6453240930037439
 40
0.688964671751996
 40
0.7326247174329434
 40
0.7762985546620246
 40
0.8199713962779789
 40
0.8636176682497784
 40
0.9072014147579622
 40
0.9506733559326992
 40
0.9939755498136468
 40
1.0
 40
1.0
 40
1.0
 40
1.0
 10
68.29516755489107
 20
142.1770111365479
 30
0.0
 10
66.49553891300499
 20
141.9122035477442
 30
0.0
 10
62.52831105197361
 20
141.3284430875785
 30
0.0
 10
56.55397244509552
 20
140.3103225148859
 30
0.0
 10
50.35607443890617
 20
139.147952391928
 30
0.0
 10
44.32184892397241
 20
137.8915783827094
 30
0.0
 10
38.45855265726887
 20
136.5470463212307
 30
0.0
 10
32.77886364455347
 20
135.1159402112849
 30
0.0
 10
27.29353844200107
 20
133.6011681649898
 30
0.0
 10
22.01335248052498
 20
132.0054511128349
 30
0.0
 10
16.94855459364943
 20
130.331711716187
 30
0.0
 10
12.10899073068398
 20
128.5829518291937
 30
0.0
 10
7.504052247372855
 20
126.7622648014938
 30
0.0
 10
3.142676859293231
 20
124.8728095146899
 30
0.0
 10
-0.9666574083318086
 20
122.9177932475755
 30
0.0
 10
-4.815923827706431
 20
120.900452153898
 30
0.0
 10
-8.397535472707649
 20
118.8240365217659
 30
0.0
 10
-11.70428811361743
 20
116.6918025026341
 30
0.0
 10
-14.72939603824627
 20
114.507031946368
 30
0.0
 10
-17.46602313540217
 20
112.2731111250955
 30
0.0
 10
-19.90842907831364
 20
109.9937802929975
 30
0.0
 10
-22.04743836561854
 20
107.6729340942325
 30
0.0
 10
-23.88757527194317
 20
105.3162272125302
 30
0.0
 10
-25.38397778955592
 20
102.9261584637366
 30
0.0
 10
-26.30884590718488
 20
101.2076500332817
 30
0.0
 10
-26.63911322433738
 20
100.2804640057385
 30
0.0
 10
-26.67945002482294
 20
100.1672232584297
 30
0.0
  0
SPLINE
  5
331
330
32A
100
AcDbEntity
  8
0
  6
CONTINUOUS
 62
     7
100
AcDbSpline
210
0.0
220
0.0
230
1.0
 70
     8
 71
     3
 72
    10
 73
     6
 74
     0
 42
0.00000001
 43
0.00000001
 40
0.0
 40
0.0
 40
0.0
 40
0.0
 40
0.4316583862267021
 40
0.9175501192481829
 40
1.0
 40
1.0
 40
1.0
 40
1.0
 10
81.95365664785167
 20
143.9124150979378
 30
0.0
 10
79.96229296829065
 20
143.6862503447682
 30
0.0
 10
75.72937165840997
 20
143.2055056103626
 30
0.0
 10
71.1828953503873
 20
142.6149736114872
 30
0.0
 10
68.66101869828395
 20
142.2324973470106
 30
0.0
 10
68.29516755489107
 20
142.1770111365479
 30
0.0
  0
SPLINE
  5
332
330
32A
100
AcDbEntity
  8
0
  6
CONTINUOUS
 62
     7
100
AcDbSpline
210
0.0
220
0.0
230
1.0
 70
     8
 71
     3
 72
    10
 73
     6
 74
     0
 42
0.00000001
 43
0.00000001
 40
0.0
 40
0.0
 40
0.0
 40
0.0
 40
0.3827670300776836
 40
0.874458007212549
 40
1.0
 40
1.0
 40
1.0
 40
1.0
 10
198.8950061678061
 20
141.6219230647357
 30
0.0
 10
197.2181829022925
 20
141.8777324417362
 30
0.0
 10
193.3873630667622
 20
142.4621468255789
 30
0.0
 10
188.915964535968
 20
143.0641715827327
 30
0.0
 10
186.1028693545143
 20
143.3851023241703
 30
0.0
 10
185.5307003483368
 20
143.4503779766227
 30
0.0
  0
SPLINE
  5
333
330
32A
100
AcDbEntity
  8
0
  6
CONTINUOUS
 62
     7
100
AcDbSpline
210
0.0
220
0.0
230
1.0
 70
     8
 71
     3
 72
    31
 73
    27
 74
     0
 42
0.00000001
 43
0.00000001
 40
0.0
 40
0.0
 40
0.0
 40
0.0
 40
0.0089320785670069
 40
0.0528624011368811
 40
0.0970397361775157
 40
0.1414383581758605
 40
0.1860062891186182
 40
0.2306866430195593
 40
0.2754307922574324
 40
0.3202030170078818
 40
0.3649775470835658
 40
0.409739662923398
 40
0.4544835710858533
 40
0.4992070249240938
 40
0.5439098567351136
 40
0.5885930341671783
 40
0.6332580811673281
 40
0.6779067366829541
 40
0.7225407622243336
 40
0.7671618399125786
 40
0.8117715241257766
 40
0.8563712240128033
 40
0.9009622031285259
 40
0.9455455880182727
 40
0.9901223809857237
 40
1.0
 40
1.0
 40
1.0
 40
1.0
 10
290.163319696157
 20
100.1820704688269
 30
0.0
 10
290.1038479505085
 20
100.3456725313709
 30
0.0
 10
289.7518784451795
 20
101.3139127670721
 30
0.0
 10
288.8022444169842
 20
103.065063553478
 30
0.0
 10
287.3003577486534
 20
105.431612212811
 30
0.0
 10
285.4600363155227
 20
107.7705571348194
 30
0.0
 10
283.3190613317063
 20
110.0790848330738
 30
0.0
 10
280.872935509291
 20
112.3506569397021
 30
0.0
 10
278.1301579389768
 20
114.5800872172282
 30
0.0
 10
275.0968030568724
 20
116.7624360447204
 30
0.0
 10
271.7802565723197
 20
118.893340306332
 30
0.0
 10
268.1879444580846
 20
120.9688435506391
 30
0.0
 10
264.3275298762745
 20
122.985318462616
 30
0.0
 10
260.2068948498106
 20
124.9393330655098
 30
0.0
 10
255.8342841149834
 20
126.8275570187616
 30
0.0
 10
251.2183325952374
 20
128.6467415610341
 30
0.0
 10
246.3680904738788
 20
130.3937178953545
 30
0.0
 10
241.2930242479138
 20
132.0653965486003
 30
0.0
 10
236.0030483476125
 20
133.6588003125702
 30
0.0
 10
230.50840212194
 20
135.1709905561948
 30
0.0
 10
224.8200708699115
 20
136.5993982911846
 30
0.0
 10
218.948153369835
 20
137.9406459036911
 30
0.0
 10
212.9078729282346
 20
139.1949972357537
 30
0.0
 10
206.6970578439005
 20
140.3498043835769
 30
0.0
 10
202.018860319114
 20
141.158147898847
 30
0.0
 10
199.3746465690971
 20
141.5507144564266
 30
0.0
 10
198.8950061678061
 20
141.6219230647357
 30
0.0
  0
SPLINE
  5
334
330
32A
100
AcDbEntity
  8
0
  6
CONTINUOUS
 62
     7
100
AcDbSpline
210
0.0
220
0.0
230
1.0
 70
     8
 71
     3
 72
    10
 73
     6
 74
     0
 42
0.00000001
 43
0.00000001
 40
0.0
 40
0.0
 40
0.0
 40
0.0
 40
0.136334787053739
 40
0.6267285237545297
 40
0.9999999999999999
 40
0.9999999999999999
 40
0.9999999999999999
 40
0.9999999999999999
 10
281.0515595489855
 20
79.39781018372042
 30
0.0
 10
280.8924317860027
 20
79.1945499511952
 30
0.0
 10
280.1609243685797
 20
78.26016637807005
 30
0.0
 10
278.7304391146308
 20
76.7829861290236
 30
0.0
 10
277.3502382689664
 20
75.52107783587564
 30
0.0
 10
276.7537228606188
 20
74.97568783473982
 30
0.0
  0
SPLINE
  5
335
330
32A
100
AcDbEntity
  8
0
  6
CONTINUOUS
 62
     7
100
AcDbSpline
210
0.0
220
0.0
230
1.0
 70
     8
 71
     3
 72
    19
 73
    15
 74
     0
 42
0.00000001
 43
0.00000001
 40
0.0
 40
0.0
 40
0.0
 40
0.0
 40
0.0810378603206654
 40
0.1727855995510998
 40
0.264491309647119
 40
0.3561514044355947
 40
0.4477634817843004
 40
0.5393275696323573
 40
0.6308481551831349
 40
0.7223373631694
 40
0.8138177244347045
 40
0.9053177077256958
 40
0.9968978101212689
 40
0.9999999999999999
 40
0.9999999999999999
 40
0.9999999999999999
 40
0.9999999999999999
 10
15.66441720817846
 20
59.05335746276207
 30
0.0
 10
14.31703654663399
 20
59.56769670558558
 30
0.0
 10
11.44420680375456
 20
60.66434972791689
 30
0.0
 10
7.344115889450157
 20
62.42334922752941
 30
0.0
 10
3.310771508135329
 20
64.30722182906426
 30
0.0
 10
-0.4524476495669227
 20
66.24816681824241
 30
0.0
 10
-3.945539593122743
 20
68.23932039570884
 30
0.0
 10
-7.159228692073971
 20
70.27638176649153
 30
0.0
 10
-10.08868623836213
 20
72.35409289977575
 30
0.0
 10
-12.7250963697141
 20
74.46738158163471
 30
0.0
 10
-15.07603014943382
 20
76.61051010905638
 30
0.0
 10
-17.09263882330227
 20
78.77962389471561
 30
0.0
 10
-18.34520235143881
 20
80.2597851750433
 30
0.0
 10
-18.8391504992057
 20
81.01731877215613
 30
0.0
 10
-18.85533431676878
 20
81.0421387569845
 30
0.0
  0
SPLINE
  5
336
330
32A
100
AcDbEntity
  8
0
  6
CONTINUOUS
 62
     7
100
AcDbSpline
210
0.0
220
0.0
230
1.0
 70
     8
 71
     3
 72
    15
 73
    11
 74
     0
 42
0.00000001
 43
0.00000001
 40
0.0
 40
0.0
 40
0.0
 40
0.0
 40
0.0713010729346109
 40
0.2063976479327573
 40
0.3415010288325254
 40
0.4766221295648302
 40
0.6117909314907591
 40
0.7470216564156535
 40
0.8823189468680334
 40
1.0
 40
1.0
 40
1.0
 40
1.0
 10
276.7537228606188
 20
74.97568783473982
 30
0.0
 10
276.3193854409976
 20
74.60076243899387
 30
0.0
 10
275.062094096992
 20
73.51545310706845
 30
0.0
 10
272.7565304886347
 20
71.74369412185057
 30
0.0
 10
269.7473439960322
 20
69.67718216889087
 30
0.0
 10
266.4514301633492
 20
67.6539461240067
 30
0.0
 10
262.8824504982033
 20
65.67773408901344
 30
0.0
 10
259.0378335608692
 20
63.75538014019644
 30
0.0
 10
255.1334786176075
 20
61.96485150644773
 30
0.0
 10
252.3913209717239
 20
60.84779805111189
 30
0.0
 10
251.1157177123728
 20
60.32816453163316
 30
0.0
  0
SPLINE
  5
337
330
32A
100
AcDbEntity
  8
0
  6
CONTINUOUS
 62
     7
100
AcDbSpline
210
0.0
220
0.0
230
1.0
 70
     8
 71
     3
 72
    10
 73
     6
 74
     0
 42
0.00000001
 43
0.00000001
 40
0.0
 40
0.0
 40
0.0
 40
0.0
 40
0.1899081584738979
 40
0.6452037747036858
 40
1.0
 40
1.0
 40
1.0
 40
1.0
 10
278.8921604561779
 20
-17.38497103707565
 30
0.0
 10
279.3006751059552
 20
-17.08110176487586
 30
0.0
 10
280.6885838518257
 20
-16.04872062330043
 30
0.0
 10
282.5860786477976
 20
-14.40887602610502
 30
0.0
 10
283.9318150748891
 20
-13.0559193845177
 30
0.0
 10
284.5212077586572
 20
-12.46336446071983
 30
0.0
  0
SPLINE
  5
338
330
32A
100
AcDbEntity
  8
0
  6
CONTINUOUS
 62
     7
100
AcDbSpline
210
0.0
220
0.0
230
1.0
 70
     8
 71
     3
 72
     9
 73
     5
 74
     0
 42
0.00000001
 43
0.00000001
 40
0.0
 40
0.0
 40
0.0
 40
0.0
 40
0.1216356112258155
 40
1.0
 40
1.0
 40
1.0
 40
1.0
 10
-19.47998125789502
 20
-13.98084962503933
 30
0.0
 10
-19.39319434899481
 20
-14.06683968404156
 30
0.0
 10
-18.67969516873339
 20
-14.77378774091112
 30
0.0
 10
-17.82824578180757
 20
-15.46196929843927
 30
0.0
 10
-17.08036296148831
 20
-16.06644347158311
 30
0.0
  0
LWPOLYLINE
  5
33E
330
32A
100
AcDbEntity
  8
0
  6
CONTINUOUS
 62
     7
100
AcDbPolyline
 90
        9
 70
   128
 43
0.0
 10
292.5633895187
 20
4.594868502
 10
292.5641545644
 20
4.4333590381
 10
292.3877379362
 20
1.9192670216
 10
291.8577830275
 20
-0.5893004898
 10
290.975456172
 20
-3.0868225985
 10
289.7426992094
 20
-5.5678027164
 10
288.1622252118
 20
-8.0267806608
 10
286.2375125127
 20
-10.4583446719
 10
284.6664720117
 20
-12.1629413178
  0
LWPOLYLINE
  5
33F
330
32A
100
AcDbEntity
  8
0
  6
CONTINUOUS
 62
     7
100
AcDbPolyline
 90
       10
 70
   128
 43
0.0
 10
-19.6250364471
 20
-13.6688468131
 10
-20.5650751712
 20
-12.7702222133
 10
-22.8174633606
 20
-10.3701342917
 10
-24.7296809534
 20
-7.9374751451
 10
-26.297519509
 20
-5.4775986103
 10
-27.5175285023
 20
-2.9959184247
 10
-28.3870229169
 20
-0.4978963116
 10
-28.9040891551
 20
2.0109700402
 10
-29.0675892489
 20
4.5251590757
 10
-29.0670799773
 20
4.594868502
  0
LWPOLYLINE
  5
340
330
32A
100
AcDbEntity
  8
0
  6
CONTINUOUS
 62
     7
100
AcDbPolyline
 90
       39
 70
   128
 43
0.0
 10
254.3077327616
 20
59.7566620762
 10
254.1674387133
 20
59.7001584576
 10
249.2393730271
 20
57.8108319449
 10
244.0491384911
 20
56.0011883669
 10
238.6083165482
 20
54.275265746
 10
232.9290477997
 20
52.6369152904
 10
227.0240049147
 20
51.0897928007
 10
220.9063643531
 20
49.637350512
 10
214.589776963
 20
48.2828293912
 10
208.0883375208
 20
47.0292519043
 10
201.4165532801
 20
45.8794152731
 10
194.5893116004
 20
44.8358852325
 10
187.6218467275
 20
43.9009903063
 10
180.5297058
 20
43.0768166105
 10
173.3287141574
 20
42.3652031988
 10
166.0349400279
 20
41.7677379592
 10
158.6646586735
 20
41.2857540702
 10
151.234316074
 20
40.9203270262
 10
143.7604922291
 20
40.672272238
 10
136.2598641622
 20
40.5421432127
 10
128.7491687075
 20
40.5302303191
 10
121.2451651633
 20
40.6365601395
 10
113.7645978959
 20
40.8608954104
 10
106.3241589759
 20
41.2027355523
 10
98.9404509318
 20
41.6613177861
 10
91.6299497035
 20
42.2356188354
 10
84.4089678779
 20
42.9243572101
 10
77.293618289
 20
43.7259960656
 10
70.2997780639
 20
44.638746632
 10
63.4430531949
 20
45.6605722061
 10
56.7387437165
 20
46.7891926953
 10
50.2018095645
 20
48.0220897061
 10
43.8468371951
 20
49.3565121631
 10
37.6880070366
 20
50.789482448
 10
31.7390618475
 20
52.3178030439
 10
26.0132760504
 20
53.9380636698
 10
20.5234261126
 20
55.6466488907
 10
15.2817620358
 20
57.4397461849
 10
14.9312624031
 20
57.5658647383
  0
LWPOLYLINE
  5
342
330
32A
100
AcDbEntity
  8
0
  6
CONTINUOUS
 62
     7
100
AcDbPolyline
 90
       39
 70
   128
 43
0.0
 10
251.5017621213
 20
60.3391291644
 10
251.3962291018
 20
60.296855679
 10
246.5181295683
 20
58.4367922887
 10
241.380039128
 20
56.6562054932
 10
235.9935972083
 20
54.9591288942
 10
230.3710058326
 20
53.349406916
 10
224.5250019788
 20
51.8306860966
 10
218.4688287258
 20
50.4064068272
 10
212.2162052541
 20
49.0797955584
 10
205.7812957667
 20
47.8538574914
 10
199.1786774034
 20
46.7313697702
 10
192.4233072184
 20
45.7148751906
 10
185.5304882979
 20
44.8066764398
 10
178.5158350937
 20
44.0088308799
 10
171.3952380516
 20
43.3231458879
 10
164.1848276139
 20
42.7511747607
 10
156.9009376795
 20
42.2942131969
 10
149.5600686019
 20
41.9532963614
 10
142.1788498105
 20
41.7291965406
 10
134.7740021399
 20
41.6224213926
 10
127.3622999519
 20
41.6332127974
 10
119.9605331357
 20
41.7615463091
 10
112.5854690738
 20
42.007131211
 10
105.2538146583
 20
42.3694111742
 10
97.9821784447
 20
42.8475655181
 10
90.7870330277
 20
43.4405110694
 10
83.684677726
 20
44.1469046157
 10
76.6912016586
 20
44.9651459483
 10
69.8224472983
 20
45.8933814876
 10
63.0939745827
 20
46.9295084814
 10
56.5210256668
 20
48.0711797688
 10
50.1184903939
 20
49.3158090973
 10
43.9008725658
 20
50.660576981
 10
37.8822570864
 20
52.1024370881
 10
32.0762780558
 20
53.6381231418
 10
26.4960878838
 20
55.2641563192
 10
21.154327496
 20
56.9768531323
 10
16.0630976977
 20
58.7723337717
 10
15.3051714951
 20
59.0547663227
  0
LWPOLYLINE
  5
345
330
32A
100
AcDbEntity
  8
0
  6
CONTINUOUS
 62
     7
100
AcDbPolyline
 90
        8
 70
   128
 43
0.0
 10
286.4966844058
 20
93.7379019982
 10
286.4576215219
 20
91.4085156265
 10
286.0749788775
 20
88.9563704397
 10
285.3427363397
 20
86.5130716584
 10
284.2625526734
 20
84.0841541401
 10
282.8368748421
 20
81.6751201642
 10
281.0689324645
 20
79.2914269676
 10
280.9344235673
 20
79.1280301288
  0
LWPOLYLINE
  5
346
330
32A
100
AcDbEntity
  8
0
  6
CONTINUOUS
 62
     7
100
AcDbPolyline
 90
       52
 70
   128
 43
0.0
 10
278.6192122482
 20
-17.4680437211
 10
277.9326567856
 20
-17.9836260279
 10
274.6849327332
 20
-20.2449964498
 10
271.1225854856
 20
-22.4531017029
 10
267.2534562514
 20
-24.6030814485
 10
263.0860615077
 20
-26.6902032903
 10
258.6295742544
 20
-28.7098731905
 10
253.8938038231
 20
-30.6576455824
 10
248.8891742855
 20
-32.5292331553
 10
243.6267015088
 20
-34.3205162916
 10
238.1179689076
 20
-36.0275521347
 10
232.3751019481
 20
-37.6465832677
 10
226.4107414578
 20
-39.1740459838
 10
220.2380158014
 20
-40.6065781309
 10
213.8705119835
 20
-41.9410265118
 10
207.322245742
 20
-43.1744538251
 10
200.6076306972
 20
-44.3041451302
 10
193.7414466255
 20
-45.3276138237
 10
186.7388069276
 20
-46.2426071125
 10
179.6151253611
 20
-47.0471109725
 10
172.3860821134
 20
-47.7393545819
 10
165.0675892873
 20
-48.3178142186
 10
157.6757558759
 20
-48.7812166148
 10
150.2268523051
 20
-49.1285417592
 10
142.7372746199
 20
-49.3590251419
 10
135.2235083946
 20
-49.4721594379
 10
127.7020924455
 20
-49.4676956234
 10
120.1895824272
 20
-49.3456435237
 10
112.7025143911
 20
-49.1062717921
 10
105.2573683874
 20
-48.7501073181
 10
97.8705321901
 20
-48.2779340679
 10
90.5582652255
 20
-47.6907913589
 10
83.3366627829
 20
-46.9899715715
 10
76.2216205868
 20
-46.177017305
 10
69.2287998081
 20
-45.2537179817
 10
62.3735925918
 20
-44.2221059084
 10
55.6710881769
 20
-43.084451803
 10
49.1360396827
 20
-41.8432597961
 10
42.7828316356
 20
-40.5012619193
 10
36.6254483063
 20
-39.0614120915
 10
30.6774429291
 20
-37.5268796172
 10
24.9519078688
 20
-35.90104221
 10
19.461445803
 20
-34.1874785581
 10
14.2181419819
 20
-32.3899604471
 10
9.2335376269
 20
-30.5124444575
 10
4.5186045269
 20
-28.5590632563
 10
0.0837208877
 20
-26.5341164998
 10
-4.0613515114
 20
-24.4420613699
 10
-7.907488805
 20
-22.2875027632
 10
-11.4462251244
 20
-20.0751831547
 10
-14.669771232
 20
-17.8099721594
 10
-16.6585433095
 20
-16.2579165559
  0
LWPOLYLINE
  5
34E
330
32A
100
AcDbEntity
  8
0
  6
CONTINUOUS
 62
     7
100
AcDbPolyline
 90
        8
 70
   128
 43
0.0
 10
-130.0978866713
 20
56.5099512455
 10
-130.0974040124
 20
56.4981887832
 10
-130.0720895592
 20
56.433393896
 10
-130.0093385254
 20
56.3714906659
 10
-129.911562165
 20
56.3148577694
 10
-129.7825176056
 20
56.2656713666
 10
-129.6271634778
 20
56.2258214808
 10
-129.4514693768
 20
56.1968393726
  0
LWPOLYLINE
  5
350
330
32A
100
AcDbEntity
  8
0
  6
CONTINUOUS
 62
     7
100
AcDbPolyline
 90
       58
 70
   128
 43
0.0
 10
281.4144502466
 20
73.7300521681
 10
278.5984551762
 20
71.4123778628
 10
275.4596512747
 20
69.1412482863
 10
272.0049383145
 20
66.9216558745
 10
268.2419105043
 20
64.758479773
 10
264.178839796
 20
62.6564751126
 10
259.8246577007
 20
60.6202625556
 10
255.1889356557
 20
58.6543181392
 10
250.2818639842
 20
56.7629634358
 10
245.1142294946
 20
54.9503560536
 10
239.6973917691
 20
53.2204804969
 10
234.0432581926
 20
51.5771394077
 10
228.1642577778
 20
50.0239452063
 10
222.0733138436
 20
48.5643121508
 10
215.7838156065
 20
47.2014488312
 10
209.3095887489
 20
45.938351117
 10
202.6648650262
 20
44.7777955711
 10
195.8642509835
 20
43.7223333465
 10
188.9226958463
 20
42.7742845781
 10
181.8554586593
 20
41.935733283
 10
174.6780747436
 20
41.2085227788
 10
167.4063215469
 20
40.5942516321
 10
160.0561839607
 20
40.0942701442
 10
152.6438191826
 20
39.7096773829
 10
145.1855211993
 20
39.4413187665
 10
137.6976849683
 20
39.2897842055
 10
130.1967703786
 20
39.2554068059
 10
122.6992660686
 20
39.3382621365
 10
115.2216531797
 20
39.5381680633
 10
107.7803691281
 20
39.8546851499
 10
100.3917714711
 20
40.2871176228
 10
93.0721019497
 20
40.8345149017
 10
85.8374507863
 20
41.4956736886
 10
78.7037213142
 20
42.2691406129
 10
71.6865950189
 20
43.1532154266
 10
64.8014970671
 20
44.1459547412
 10
58.0635623982
 20
45.2451763003
 10
51.4876024551
 20
46.4484637764
 10
45.0880726247
 20
47.7531720825
 10
38.8790404627
 20
49.1564331864
 10
32.8741547691
 20
50.6551624159
 10
27.086615586
 20
52.2460652387
 10
21.5291451806
 20
53.9256445052
 10
16.213960079
 20
55.6902081357
 10
11.1527442115
 20
57.5358772363
 10
6.356623229
 20
59.4585946257
 10
1.8361400464
 20
61.454133754
 10
-2.3987683331
 20
63.5181079929
 10
-6.338792662
 20
65.6459802791
 10
-9.9752719116
 20
67.8330730877
 10
-13.3002123114
 20
70.0745787138
 10
-16.3063049206
 20
72.3655698417
 10
-18.9869416954
 20
74.7010103757
 10
-21.3362300143
 20
77.0757665106
 10
-23.3490056318
 20
79.484618017
 10
-25.0208440303
 20
81.9222697166
 10
-26.348070146
 20
84.3833631218
 10
-27.0629571456
 20
86.0966624547
  0
LWPOLYLINE
  5
352
330
32A
100
AcDbEntity
  8
0
  6
CONTINUOUS
 62
     7
100
AcDbPolyline
 90
       55
 70
   128
 43
0.0
 10
284.6664720117
 20
-12.1629413178
 10
283.9727970522
 20
-12.8571433231
 10
281.3730630538
 20
-15.2178972982
 10
278.4440320556
 20
-17.5354110102
 10
275.192150318
 20
-19.8045840364
 10
271.6245746366
 20
-22.0204223427
 10
267.7491565918
 20
-24.1780492753
 10
263.5744252682
 20
-26.2727162926
 10
259.1095684845
 20
-28.2998134164
 10
254.3644125721
 20
-30.2548793775
 10
249.3494007494
 20
-32.1336114342
 10
244.0755701383
 20
-33.9318748413
 10
238.5545274734
 20
-35.6457119508
 10
232.7984235577
 20
-37.2713509214
 10
226.8199265209
 20
-38.8052140195
 10
220.6321939393
 20
-40.2439254936
 10
214.2488438783
 20
-41.5843190035
 10
207.6839249212
 20
-42.8234445887
 10
200.9518852516
 20
-43.9585751609
 10
194.0675408549
 20
-44.9872125057
 10
187.0460429114
 20
-45.907092781
 10
179.9028444511
 20
-46.7161914988
 10
172.6536663446
 20
-47.412727981
 10
165.3144627043
 20
-47.9951692787
 10
157.9013857723
 20
-48.4622335452
 10
150.4307503722
 20
-48.8128928577
 10
142.9189980034
 20
-49.0463754793
 10
135.3826606561
 20
-49.1621675576
 10
127.8383244274
 20
-49.1600142553
 10
120.3025930186
 20
-49.0399203116
 10
112.7920511936
 20
-48.8021500313
 10
105.3232282783
 20
-48.447226703
 10
97.912561783
 20
-47.975931448
 10
90.5763612264
 20
-47.3893015008
 10
83.3307722415
 20
-46.6886279263
 10
76.1917410415
 20
-45.8754527788
 10
69.1749793258
 20
-44.9515657076
 10
62.2959297007
 20
-43.9190000189
 10
55.5697316938
 20
-42.7800282004
 10
49.0111884341
 20
-41.5371569205
 10
42.6347340733
 20
-40.193121511
 10
36.4544020186
 20
-38.7508799475
 10
30.4837940483
 20
-37.2136063394
 10
24.7360503761
 20
-35.5846839441
 10
19.2238207325
 20
-33.8676977212
 10
13.9592365245
 20
-32.0664264428
 10
8.9538841373
 20
-30.1848343768
 10
4.2187794339
 20
-28.2270625624
 10
-0.235656488
 20
-26.1974196967
 10
-4.3996202314
 20
-24.1003726515
 10
-8.2639476753
 20
-21.9405366431
 10
-11.8201341431
 20
-19.7226650747
 10
-15.0603531203
 20
-17.451639075
 10
-17.9774734788
 20
-15.1324567562
 10
-19.6250364471
 20
-13.6688468131
  0
LWPOLYLINE
  5
353
330
32A
100
AcDbEntity
  8
0
  6
CONTINUOUS
 62
     7
100
AcDbPolyline
 90
        8
 70
   128
 43
0.0
 10
280.4790715176
 20
74.7824803959
 10
277.6584119712
 20
72.462142701
 10
274.5121695867
 20
70.1887951374
 10
271.0473648612
 20
67.9675104326
 10
267.2717291288
 20
65.8032451412
 10
263.1936873092
 20
63.7008285854
 10
258.8223391084
 20
61.6649520787
 10
254.3077327616
 20
59.7566620762
  0
LWPOLYLINE
  5
354
330
32A
100
AcDbEntity
  8
0
  6
CONTINUOUS
 62
     7
100
AcDbPolyline
 90
       44
 70
   128
 43
0.0
 10
14.9312624031
 20
57.5658647383
 10
10.2999800222
 20
59.3133544512
 10
5.5891963754
 20
61.263292937
 10
1.1599226959
 20
63.285210567
 10
-2.9779575749
 20
65.3745956523
 10
-6.815211208
 20
67.5267859578
 10
-10.3432757902
 20
69.7369791055
 10
-13.5542788298
 20
72.0002432901
 10
-16.4410553235
 20
74.3115282843
 10
-18.9971637442
 20
76.6656767075
 10
-21.2169004143
 20
79.057435534
 10
-23.0953122335
 20
81.4814678147
 10
-24.6282077305
 20
83.9323645856
 10
-25.812166416
 20
86.4046569378
 10
-26.6445464153
 20
88.8928282203
 10
-27.123490363
 20
91.3913263499
 10
-27.2479295481
 20
93.8945762005
 10
-27.0175862979
 20
96.3969920427
 10
-26.4329745983
 20
98.8929900084
 10
-25.4953989467
 20
101.37700055
 10
-24.2069514409
 20
103.8434808688
 10
-22.5705071112
 20
106.2869272826
 10
-20.5897175047
 20
108.7018875072
 10
-18.2690025376
 20
111.0829728219
 10
-15.6135406323
 20
113.4248700944
 10
-12.6292571629
 20
115.7223536361
 10
-9.3228112325
 20
117.9702968628
 10
-5.701580815
 20
120.1636837342
 10
-1.7736462915
 20
122.2976199466
 10
2.4522275803
 20
124.3673438538
 10
6.9666112233
 20
126.3682370925
 10
11.7594312824
 20
128.2958348874
 10
16.8199931019
 20
130.1458360143
 10
22.1370045897
 20
131.914112397
 10
27.698601414
 20
133.5967183197
 10
33.4923734775
 20
135.1898992305
 10
39.5053926094
 20
136.6901001199
 10
45.7242414127
 20
138.0939734531
 10
52.135043204
 20
139.3983866397
 10
58.7234929777
 20
140.6004290238
 10
65.4748893263
 20
141.6974183789
 10
72.3741672444
 20
142.6869068928
 10
79.4059317452
 20
143.5666866297
 10
82.2009672593
 20
143.8818315847
  0
LWPOLYLINE
  5
355
330
32A
100
AcDbEntity
  8
0
  6
CONTINUOUS
 62
     7
100
AcDbPolyline
 90
       35
 70
   128
 43
0.0
 10
185.4085855758
 20
143.4113283299
 10
189.7157821759
 20
142.8730252335
 10
196.6429971582
 20
141.9054672506
 10
203.4254063717
 20
140.829944188
 10
210.0478756094
 20
139.6488559584
 10
216.4956275529
 20
138.3648380312
 10
222.7542747465
 20
136.9807555528
 10
228.809851701
 20
135.4996969521
 10
234.6488460562
 20
133.9249670502
 10
240.2582287327
 20
132.2600796852
 10
245.6254830042
 20
130.5087498718
 10
250.7386324279
 20
128.6748855116
 10
255.5862675678
 20
126.7625786731
 10
260.1575714546
 20
124.7760964606
 10
264.4423437218
 20
122.7198714927
 10
268.431023367
 20
120.5984920114
 10
272.1147100861
 20
118.4166916436
 10
275.4851841339
 20
116.1793388393
 10
278.5349246647
 20
113.8914260074
 10
281.2571265149
 20
111.5580583759
 10
283.6457153877
 20
109.1844426006
 10
285.6953614073
 20
106.7758751463
 10
287.4014910121
 20
104.3377304689
 10
288.7602971597
 20
101.8754490224
 10
289.7687478223
 20
99.3945251197
 10
290.4245927521
 20
96.9004946719
 10
290.7263685027
 20
94.3989228364
 10
290.6734016943
 20
91.8953915979
 10
290.2658105167
 20
89.3954873137
 10
289.5045044651
 20
86.9047882477
 10
288.3911823109
 20
84.4288521235
 10
286.9283283114
 20
81.9732037226
 10
285.1192066656
 20
79.543322557
 10
282.9678542315
 20
77.1446306415
 10
280.4790715176
 20
74.7824803959
  0
LWPOLYLINE
  5
356
330
32A
100
AcDbEntity
  8
0
  6
CONTINUOUS
 62
     7
100
AcDbPolyline
 90
        8
 70
   128
 43
0.0
 10
277.4151606884
 20
75.1684968764
 10
274.63045407
 20
72.8789120901
 10
271.5220730878
 20
70.6360878521
 10
268.0970592247
 20
68.4451048807
 10
264.3631712385
 20
66.3109264569
 10
260.3288675865
 20
64.2383871813
 10
256.003287264
 20
62.232182022
 10
251.5017621213
 20
60.3391291644
  0
LWPOLYLINE
  5
357
330
32A
100
AcDbEntity
  8
0
  6
CONTINUOUS
 62
     7
100
AcDbPolyline
 90
       42
 70
   128
 43
0.0
 10
15.3051714951
 20
59.0547663227
 10
11.2339317618
 20
60.6465308965
 10
6.6777693026
 20
62.5951988474
 10
2.4049314934
 20
64.6139232645
 10
-1.574902314
 20
66.6981310879
 10
-5.2527165158
 20
68.8431009166
 10
-8.6201796801
 20
71.0439737038
 10
-11.6696634196
 20
73.2957637649
 10
-14.3942596728
 20
75.5933700712
 10
-16.787796353
 20
77.9315878054
 10
-18.8448513296
 20
80.3051201522
 10
-20.5607647116
 20
82.7085902975
 10
-21.9316494033
 20
85.1365536084
 10
-22.9543999098
 20
87.583509967
 10
-23.6266993724
 20
90.0439162303
 10
-23.9470248165
 20
92.5121987865
 10
-23.914650602
 20
94.9827661819
 10
-23.5296500669
 20
97.4500217868
 10
-22.7928953612
 20
99.9083764735
 10
-21.7060554713
 20
102.3522612781
 10
-20.2715924392
 20
104.7761400153
 10
-18.4927557848
 20
107.1745218204
 10
-16.3735751455
 20
109.5419735871
 10
-13.918851147
 20
111.8731322757
 10
-11.1341445285
 20
114.1627170619
 10
-8.0257635464
 20
116.4055412999
 10
-4.6007496832
 20
118.5965242713
 10
-0.866861697
 20
120.7307026951
 10
3.167441955
 20
122.8032419707
 10
7.4930222774
 20
124.80944713
 10
12.1000804396
 20
126.7447734731
 10
16.9781799731
 20
128.6048368633
 10
22.1162704134
 20
130.3854236588
 10
27.5027123331
 20
132.0825002579
 10
33.1253037088
 20
133.6922222361
 10
38.9713075626
 20
135.2109430555
 10
45.0274808156
 20
136.6352223249
 10
51.2801042874
 20
137.9618335937
 10
57.7150137747
 20
139.1877716607
 10
64.317632138
 20
140.3102593818
 10
71.073002323
 20
141.3267539614
 10
75.3306448449
 20
141.9026399777
  0
LWPOLYLINE
  5
358
330
32A
100
AcDbEntity
  8
0
  6
CONTINUOUS
 62
     7
100
AcDbPolyline
 90
       36
 70
   128
 43
0.0
 10
177.1534012786
 20
143.1735064332
 10
179.8116318154
 20
142.8947245363
 10
186.8051078828
 20
142.0764832037
 10
193.6738622432
 20
141.1482476644
 10
200.4023349587
 20
140.1121206706
 10
206.9752838746
 20
138.9704493832
 10
213.3778191475
 20
137.7258200547
 10
219.5954369757
 20
136.3810521711
 10
225.614052455
 20
134.9391920639
 10
231.4200314856
 20
133.4035060102
 10
237.0002216576
 20
131.7774728328
 10
242.3419820454
 20
130.0647760198
 10
247.4332118438
 20
128.2692953803
 10
252.2623777796
 20
126.3950982555
 10
256.8185402388
 20
124.4464303047
 10
261.0913780481
 20
122.4277058875
 10
265.0712118554
 20
120.3434980641
 10
268.7490260573
 20
118.1985282355
 10
272.1164892215
 20
115.9976554482
 10
275.165972961
 20
113.7458653871
 10
277.8905692142
 20
111.4482590808
 10
280.2841058944
 20
109.1100413466
 10
282.341160871
 20
106.7365089998
 10
284.057074253
 20
104.3330388545
 10
285.4279589447
 20
101.9050755436
 10
286.4507094512
 20
99.458119185
 10
287.1230089138
 20
96.9977129218
 10
287.443334358
 20
94.5294303655
 10
287.4109601435
 20
92.0588629701
 10
287.0259596084
 20
89.5916073653
 10
286.2892049027
 20
87.1332526785
 10
285.2023650128
 20
84.689367874
 10
283.7679019806
 20
82.2654891367
 10
281.9890653263
 20
79.8671073316
 10
279.869884687
 20
77.4996555649
 10
277.4151606884
 20
75.1684968764
  0
LWPOLYLINE
  5
359
330
32A
100
AcDbEntity
  8
0
  6
CONTINUOUS
 62
     7
100
AcDbPolyline
 90
       68
 70
   128
 43
0.0
 10
-23.0069689912
 20
93.5972372094
 10
-22.9613119805
 20
94.3145117356
 10
-22.578669336
 20
96.7666569224
 10
-21.8464267983
 20
99.2099557037
 10
-20.766243132
 20
101.638873222
 10
-19.3405653007
 20
104.0479071979
 10
-17.5726229231
 20
106.4316003944
 10
-15.4664209574
 20
108.78455298
 10
-13.0267306285
 20
111.1014347602
 10
-10.2590786197
 20
113.3769972526
 10
-7.1697345528
 20
115.6060855762
 10
-3.765696786
 20
117.783650129
 10
-0.0546765594
 20
119.904758027
 10
3.9549194723
 20
121.9646042785
 10
8.2540082846
 20
123.9585226692
 10
12.8328510587
 20
125.8819963327
 10
17.6810752428
 20
127.7306679826
 10
22.78769805
 20
129.5003497828
 10
28.141151337
 20
131.1870328349
 10
33.7293078103
 20
132.7868962594
 10
39.5395084981
 20
134.296315851
 10
45.5585914272
 20
135.7118722888
 10
51.7729214388
 20
137.0303588823
 10
58.1684210766
 20
138.2487888352
 10
64.730602477
 20
139.3644020117
 10
71.4446001884
 20
140.3746711893
 10
78.2952048467
 20
141.2773077833
 10
85.2668976288
 20
142.0702670314
 10
92.3438854083
 20
142.7517526261
 10
99.5101365316
 20
143.3202207831
 10
106.7494171351
 20
143.7743837393
 10
114.0453279198
 20
144.1132126695
 10
121.3813413012
 20
144.3359400172
 10
128.7408388493
 20
144.4420612333
 10
136.1071489353
 20
144.4313359192
 10
143.4635844975
 20
144.3037883711
 10
150.7934808433
 20
144.0597075252
 10
158.0802333999
 20
143.6996463032
 10
165.3073353291
 20
143.2244203595
 10
172.4584149206
 20
142.6351062338
 10
179.5172726791
 20
141.9330389121
 10
186.4679180213
 20
141.1198088026
 10
193.2946055
 20
140.1972581332
 10
199.9818704723
 20
139.1674767779
 10
206.5145641324
 20
138.0327975225
 10
212.8778878278
 20
136.7957907806
 10
219.0574265837
 20
135.4592587704
 10
225.0391817574
 20
134.0262291666
 10
230.8096027494
 20
132.4999482423
 10
236.3556177002
 20
130.8838735146
 10
241.6646631021
 20
129.1816659126
 10
246.7247122598
 20
127.3971814841
 10
251.5243025344
 20
125.5344626601
 10
256.0525613102
 20
123.5977290979
 10
260.2992306247
 20
121.591368122
 10
264.254690406
 20
119.5199247853
 10
267.9099802655
 20
117.3880915732
 10
271.2568197959
 20
115.2006977736
 10
274.2876273294
 20
112.962698537
 10
276.9955371119
 20
110.6791636515
 10
279.374414857
 20
108.355266058
 10
281.4188716414
 20
105.9962701321
 10
283.1242761128
 20
103.6075197582
 10
284.4867649817
 20
101.1944262243
 10
285.5032517726
 20
98.7624559633
 10
286.1714338158
 20
96.3171181701
 10
286.4897974643
 20
93.8639523213
 10
286.4966844058
 20
93.7379019982
  0
LWPOLYLINE
  5
35A
330
32A
100
AcDbEntity
  8
0
  6
CONTINUOUS
 62
     7
100
AcDbPolyline
 90
       40
 70
   128
 43
0.0
 10
20.4885470949
 20
57.2020952013
 10
24.1060543361
 20
58.8942451617
 10
28.3585571813
 20
60.6913178897
 10
32.8807916818
 20
62.4136679987
 10
37.660959844
 20
64.0568020739
 10
42.6865907551
 20
65.616433366
 10
47.9445731178
 20
67.0884929752
 10
53.4211894564
 20
68.4691404659
 10
59.1021519044
 20
69.7547738865
 10
64.9726394791
 20
70.9420391662
 10
71.017336749
 20
72.0278388655
 10
77.2204737889
 20
73.0093402569
 10
83.5658673226
 20
73.8839827153
 10
90.0369629429
 20
74.6494843984
 10
96.6168783001
 20
75.3038481998
 10
103.2884471465
 20
75.845366959
 10
110.0342641205
 20
76.2726279154
 10
116.836730156
 20
76.584516394
 10
123.6780983957
 20
76.7802187132
 10
130.5405204911
 20
76.8592243082
 10
137.4060931664
 20
76.8213270622
 10
144.2569049265
 20
76.666625845
 10
151.0750827856
 20
76.3955242543
 10
157.8428388963
 20
76.0087295633
 10
164.5425169556
 20
75.507250875
 10
171.1566382683
 20
74.8923964902
 10
177.6679473472
 20
74.1657704937
 10
184.0594569302
 20
73.3292685699
 10
190.3144922988
 20
72.3850730566
 10
196.4167347798
 20
71.3356472522
 10
202.3502643193
 20
70.1837289888
 10
208.0996010162
 20
68.9323234896
 10
213.6497455076
 20
67.5846955287
 10
218.9862181001
 20
66.1443609136
 10
224.0950965461
 20
64.6150773128
 10
228.9630523651
 20
63.0008344526
 10
233.577385616
 20
61.3058437083
 10
237.9260580304
 20
59.5345271173
 10
241.9977244185
 20
57.6915058423
 10
243.0077624466
 20
57.2020952013
  0
LWPOLYLINE
  5
35B
330
32A
100
AcDbEntity
  8
0
  6
CONTINUOUS
 62
     7
100
AcDbPolyline
 90
       27
 70
   128
 43
0.0
 10
56.25685549
 20
48.1198742736
 10
60.9321465044
 20
49.3913368728
 10
66.0841509685
 20
50.6453520062
 10
71.4355748539
 20
51.8028588092
 10
76.9701660623
 20
52.8603419716
 10
82.6711162221
 20
53.8145899519
 10
88.5211117349
 20
54.6627047302
 10
94.5023863567
 20
55.4021106099
 10
100.596775153
 20
56.0305620397
 10
106.7857696654
 20
56.5461504331
 10
113.0505741209
 20
56.9473099652
 10
119.3721625143
 20
57.2328223276
 10
125.7313363895
 20
57.4018204288
 10
132.1087831443
 20
57.453791027
 10
138.4851346826
 20
57.3885762892
 10
144.8410262343
 20
57.2063742704
 10
151.1571551657
 20
56.9077383123
 10
157.4143396009
 20
56.4935753623
 10
163.5935766762
 20
55.9651432197
 10
169.6761002519
 20
55.3240467156
 10
175.6434379037
 20
54.5722328391
 10
181.4774670233
 20
53.711984824
 10
187.1604698561
 20
52.7459152155
 10
192.6751873092
 20
51.6769579351
 10
198.0048713669
 20
50.5083593709
 10
203.1333359539
 20
49.2436685184
 10
207.2394540514
 20
48.1198742736
  0
LWPOLYLINE
  5
35F
330
32A
100
AcDbEntity
  8
0
  6
CONTINUOUS
 62
     7
100
AcDbPolyline
 90
        8
 70
   128
 43
0.0
 10
-128.5064845286
 20
135.5432201569
 10
-128.6821613676
 20
135.5736516876
 10
-128.8375026685
 20
135.6145785873
 10
-128.9665393292
 20
135.6644282103
 10
-129.0643130225
 20
135.7212850486
 10
-129.1270667234
 20
135.7829643369
 10
-129.1523890752
 20
135.847096004
 10
-129.1528736884
 20
135.8586943804
  0
LINE
  5
361
330
32A
100
AcDbEntity
  8
0
  6
CONTINUOUS
 62
     7
100
AcDbLine
 10
292.5633895187
 20
4.594868502
 30
0.0
 11
291.7473931867
 21
92.750788388
 31
0.0
  0
LINE
  5
362
330
32A
100
AcDbEntity
  8
0
  6
CONTINUOUS
 62
     7
100
AcDbLine
 10
-28.2510836453
 20
92.750788388
 30
0.0
 11
-29.0670799773
 21
4.594868502
 31
0.0
  0
LINE
  5
363
330
32A
100
AcDbEntity
  8
0
  6
CONTINUOUS
 62
     7
100
AcDbLine
 10
-129.1528736884
 20
135.8586943804
 30
0.0
 11
-130.0978866713
 21
56.5099512455
 31
0.0
  0
LINE
  5
364
330
32A
100
AcDbEntity
  8
0
  6
CONTINUOUS
 62
     7
100
AcDbLine
 10
-84.9706900537
 20
175.2632878047
 30
0.0
 11
-128.8143824281
 21
136.5967856099
 31
0.0
  0
LINE
  5
365
330
32A
100
AcDbEntity
  8
0
  6
CONTINUOUS
 62
     7
100
AcDbLine
 10
-128.1529446003
 20
136.7895946515
 30
0.0
 11
-84.3092522259
 21
175.4560968463
 31
0.0
  0
LINE
  5
366
330
32A
100
AcDbEntity
  8
0
  6
CONTINUOUS
 62
     7
100
AcDbLine
 10
227.1999804698
 20
136.2096225415
 30
0.0
 11
225.3614042996
 21
136.4412613658
 31
0.0
  0
LINE
  5
367
330
32A
100
AcDbEntity
  8
0
  6
CONTINUOUS
 62
     7
100
AcDbLine
 10
147.4007052286
 20
146.2633862075
 30
0.0
 11
-84.3092522259
 21
175.4560968463
 31
0.0
  0
LINE
  5
368
330
32A
100
AcDbEntity
  8
0
  6
CONTINUOUS
 62
     7
100
AcDbLine
 10
-129.4514693768
 20
56.1968393726
 30
0.0
 11
-128.5064845286
 21
135.5432201569
 31
0.0
  0
LINE
  5
369
330
32A
100
AcDbEntity
  8
0
  6
CONTINUOUS
 62
     7
100
AcDbLine
 10
-129.4514693768
 20
56.1968393726
 30
0.0
 11
-28.7069239276
 21
43.5042197026
 31
0.0
  0
LINE
  5
36A
330
32A
100
AcDbEntity
  8
0
  6
CONTINUOUS
 62
     7
100
AcDbLine
 10
227.1999804698
 20
136.2096225415
 30
0.0
 11
226.9969807126
 21
136.0305935836
 31
0.0
  0
LINE
  5
36B
330
32A
100
AcDbEntity
  8
0
  6
CONTINUOUS
 62
     7
100
AcDbLine
 10
-4.226254221
 20
121.1762992523
 30
0.0
 11
-128.1529446003
 21
136.7895946515
 31
0.0
  0
LINE
  5
36C
330
32A
100
AcDbEntity
  8
0
  6
CONTINUOUS
 62
     7
100
AcDbLine
 10
-128.5064845286
 20
135.5432201569
 30
0.0
 11
-6.0982902976
 21
120.1212372897
 31
0.0
  0
ARC
  5
36D
330
32A
100
AcDbEntity
  8
0
  6
CONTINUOUS
 62
     7
100
AcDbCircle
 10
-128.1529446003
 20
135.8467856099
 30
0.0
 40
0.9999999999999899
100
AcDbArc
 50
131.40962211
 51
179.3176615833
  0
ARC
  5
36E
330
32A
100
AcDbEntity
  8
0
  6
CONTINUOUS
 62
     7
100
AcDbCircle
 10
-9.6113162229
 20
92.5933346419
 30
0.0
 40
18.62166803499089
100
AcDbArc
 50
157.0915343395
 51
200.4186444667
  0
ARC
  5
36F
330
32A
100
AcDbEntity
  8
0
  6
CONTINUOUS
 62
     7
100
AcDbCircle
 10
273.1349371504
 20
92.5926395488
 30
0.0
 40
18.5969414409043
100
AcDbArc
 50
338.8868649763
 51
22.992865629
  0
ARC
  5
370
330
32A
100
AcDbEntity
  8
0
  6
CONTINUOUS
 62
     7
100
AcDbCircle
 10
131.7088066091
 20
-316.1165561885
 30
0.0
 40
462.6548853205377
100
AcDbArc
 50
83.3347266672
 51
96.1428765478
  0
ARC
  5
371
330
32A
100
AcDbEntity
  8
0
  6
CONTINUOUS
 62
     7
100
AcDbCircle
 10
131.8553351582
 20
-307.2046262556
 30
0.0
 40
452.6503918020318
100
AcDbArc
 50
84.2566279482
 51
97.1735337581
  0
ARC
  5
372
330
32A
100
AcDbEntity
  8
0
  6
CONTINUOUS
 62
     7
100
AcDbCircle
 10
-2.5215081977
 20
93.3271189766
 30
0.0
 40
20.48724158546604
100
AcDbArc
 50
179.2445501713
 51
217.6372202048
  0
ARC
  5
373
330
32A
100
AcDbEntity
  8
0
  6
CONTINUOUS
 62
     7
100
AcDbCircle
 10
-126.5478488907
 20
135.6609729098
 30
0.0
 40
1.962172080358209
100
AcDbArc
 50
144.887061517
 51
183.4404688546
  0
ARC
  5
374
330
32A
100
AcDbEntity
  8
0
  6
CONTINUOUS
 62
     7
100
AcDbCircle
 10
227.0493764076
 20
135.1431733052
 30
0.0
 40
1.07703089886685
100
AcDbArc
 50
38.5031947325
 51
81.9618386693
  0
ARC
  5
375
330
32A
100
AcDbEntity
  8
0
  6
CONTINUOUS
 62
     7
100
AcDbCircle
 10
-84.4297919514
 20
174.6386656319
 30
0.0
 40
0.8262709094423107
100
AcDbArc
 50
81.6115255698
 51
130.8912681938
  0
ARC
  5
376
330
32A
100
AcDbEntity
  8
0
  6
CONTINUOUS
 62
     7
100
AcDbCircle
 10
261.8072804056
 20
97.8114365295
 30
0.0
 40
31.05405258464615
100
AcDbArc
 50
309.1526336244
 51
337.4325982362
  0
ARC
  5
377
330
32A
100
AcDbEntity
  8
0
  6
CONTINUOUS
 62
     7
100
AcDbCircle
 10
-128.2734843259
 20
135.9721634371
 30
0.0
 40
0.8262709094393711
100
AcDbArc
 50
81.6115255697
 51
130.8912681939
  0
VIEWPORT
  5
388
330
32A
100
AcDbEntity
  8
0
100
AcDbViewport
 10
0.0
 20
0.0
 30
0.0
 40
205.6
 41
156.0
 68
     1
 69
     1
1001
ACAD
1000
MVIEW
1002
{
1070
    16
1010
0.0
1020
0.0
1030
0.0
1010
0.0
1020
0.0
1030
1.0
1040
0.0
1040
357.2134125294
1040
70.8818195963
1040
9.5919903727
1040
50.0
1040
0.0
1040
0.0
1070
     0
1070
   100
1070
     0
1070
     3
1070
     0
1070
     0
1070
     0
1070
     0
1040
0.0
1040
0.0
1040
0.0
1040
10.0
1040
10.0
1040
10.0
1040
10.0
1070
     0
1002
{
1002
}
1002
}
  0
ENDBLK
  5
32D
330
32A
100
AcDbEntity
  8
0
100
AcDbBlockEnd
  0
ENDSEC
  0
SECTION
  2
ENTITIES
  0
CIRCLE
  5
65
330
1F
100
AcDbEntity
  8
0
  6
CONTINUOUS
 62
     7
100
AcDbCircle
 10
140.8447018501
 20
0.0
 30
0.0
 40
154.7708626730443
  0
CIRCLE
  5
66
330
1F
100
AcDbEntity
  8
0
  6
CONTINUOUS
 62
     7
100
AcDbCircle
 10
140.8447018501
 20
0.0
 30
0.0
 40
155.7245796237926
  0
CIRCLE
  5
67
330
1F
100
AcDbEntity
  8
0
  6
CONTINUOUS
 62
     7
100
AcDbCircle
 10
140.8447018501
 20
0.0
 30
0.0
 40
159.0000380769357
  0
CIRCLE
  5
68
330
1F
100
AcDbEntity
  8
0
  6
CONTINUOUS
 62
     7
100
AcDbCircle
 10
140.8447018501
 20
0.0
 30
0.0
 40
159.9999999999999
  0
CIRCLE
  5
69
330
1F
100
AcDbEntity
  8
0
  6
CONTINUOUS
 62
     7
100
AcDbCircle
 10
140.8447018501
 20
0.0
 30
0.0
 40
134.4338916994189
  0
SPLINE
  5
6A
330
1F
100
AcDbEntity
  8
0
  6
CONTINUOUS
 62
     7
100
AcDbSpline
210
0.0
220
0.0
230
1.0
 70
     8
 71
     3
 72
    12
 73
     8
 74
     0
 42
0.00000001
 43
0.00000001
 40
0.0
 40
0.0
 40
0.0
 40
0.0
 40
0.2499999999999952
 40
0.2499999999999952
 40
0.4999999999999905
 40
0.4999999999999905
 40
1.0
 40
1.0
 40
1.0
 40
1.0
 10
174.8533906395529
 20
156.4243363947891
 30
0.0
 10
174.9831719449595
 20
156.3961202480693
 30
0.0
 10
175.1103798939634
 20
156.3685135024163
 30
0.0
 10
175.3501222234095
 20
156.3166568206813
 30
0.0
 10
175.4602250671952
 20
156.2929373956087
 30
0.0
 10
175.738616453291
 20
156.2335434524396
 30
0.0
 10
175.8510330120445
 20
156.2105877305838
 30
0.0
 10
175.8533525626171
 20
156.2124449845302
 30
0.0
  0
SPLINE
  5
6E
330
1F
100
AcDbEntity
  8
0
  6
CONTINUOUS
 62
     7
100
AcDbSpline
210
0.0
220
0.0
230
1.0
 70
     8
 71
     3
 72
    14
 73
    10
 74
     0
 42
0.00000001
 43
0.00000001
 40
0.0
 40
0.0
 40
0.0
 40
0.0
 40
0.25
 40
0.25
 40
0.5
 40
0.5
 40
0.75
 40
0.75
 40
1.0
 40
1.0
 40
1.0
 40
1.0
 10
-9.50118301634692
 20
54.9913492875308
 30
0.0
 10
-9.49948619297386
 20
54.99253541385939
 30
0.0
 10
-9.487662387248616
 20
55.02150020342077
 30
0.0
 10
-9.446480135583412
 20
55.12771513725882
 30
0.0
 10
-9.417032291687319
 20
55.2052057290346
 30
0.0
 10
-9.346669771684816
 20
55.39182653972109
 30
0.0
 10
-9.305204473123553
 20
55.50240042331011
 30
0.0
 10
-9.21709374059701
 20
55.73782713228472
 30
0.0
 10
-9.169883891077285
 20
55.86417823997994
 30
0.0
 10
-9.122417874953992
 20
55.99131121059498
 30
0.0
  0
CIRCLE
  5
84
330
1F
100
AcDbEntity
  8
0
  6
CONTINUOUS
 62
     7
100
AcDbCircle
 10
140.8447018501
 20
0.0
 30
0.0
 40
115.7594727084465
  0
CIRCLE
  5
85
330
1F
100
AcDbEntity
  8
0
  6
CONTINUOUS
 62
     7
100
AcDbCircle
 10
140.8447018501
 20
0.0
 30
0.0
 40
48.16836135518244
  0
CIRCLE
  5
86
330
1F
100
AcDbEntity
  8
0
  6
CONTINUOUS
 62
     7
100
AcDbCircle
 10
140.8447018501
 20
0.0
 30
0.0
 40
45.22880627331196
  0
CIRCLE
  5
87
330
1F
100
AcDbEntity
  8
0
  6
CONTINUOUS
 62
     7
100
AcDbCircle
 10
140.8447018501
 20
0.0
 30
0.0
 40
45.05043222968465
  0
CIRCLE
  5
88
330
1F
100
AcDbEntity
  8
0
  6
CONTINUOUS
 62
     7
100
AcDbCircle
 10
140.8447018501
 20
0.0
 30
0.0
 40
42.11087714781422
  0
CIRCLE
  5
89
330
1F
100
AcDbEntity
  8
0
  6
CONTINUOUS
 62
     7
100
AcDbCircle
 10
140.8447018501
 20
0.0
 30
0.0
 40
34.47938398148554
  0
CIRCLE
  5
8A
330
1F
100
AcDbEntity
  8
0
  6
CONTINUOUS
 62
     7
100
AcDbCircle
 10
140.8447018501
 20
0.0
 30
0.0
 40
23.00000000000009
  0
LINE
  5
8B
330
1F
100
AcDbEntity
  8
0
  6
CONTINUOUS
 62
     7
100
AcDbLine
 10
175.8533525626
 20
156.2124449845
 30
0.0
 11
176.5820841008
 21
156.7948514313
 31
0.0
  0
LINE
  5
8C
330
1F
100
AcDbEntity
  8
0
  6
CONTINUOUS
 62
     7
100
AcDbLine
 10
-10.5400868193
 20
54.2626177493
 30
0.0
 11
-9.5011830163
 21
54.9913492875
 31
0.0
  0
LINE
  5
8D
330
1F
100
AcDbEntity
  8
0
  6
CONTINUOUS
 62
     7
100
AcDbLine
 10
-158.1639869393
 20
54.9913492875
 30
0.0
 11
-9.5011830163
 21
54.9913492875
 31
0.0
  0
LINE
  5
8E
330
1F
100
AcDbEntity
  8
0
  6
CONTINUOUS
 62
     7
100
AcDbLine
 10
-158.1639869393
 20
54.9913492875
 30
0.0
 11
-158.1639869393
 21
180.0
 31
0.0
  0
LINE
  5
8F
330
1F
100
AcDbEntity
  8
0
  6
CONTINUOUS
 62
     7
100
AcDbLine
 10
-9.122417875
 20
55.9913112106
 30
0.0
 11
-159.1639488623
 21
55.9913112106
 31
0.0
  0
LINE
  5
90
330
1F
100
AcDbEntity
  8
0
  6
CONTINUOUS
 62
     7
100
AcDbLine
 10
174.8533906396
 20
180.0
 30
0.0
 11
174.8533906396
 21
156.4243363948
 31
0.0
  0
LINE
  5
91
330
1F
100
AcDbEntity
  8
0
  6
CONTINUOUS
 62
     7
100
AcDbLine
 10
176.5864856124
 20
180.0
 30
0.0
 11
-159.8970819121
 21
180.0
 31
0.0
  0
LINE
  5
92
330
1F
100
AcDbEntity
  8
0
  6
CONTINUOUS
 62
     7
100
AcDbLine
 10
-159.1639488623
 20
180.0
 30
0.0
 11
-159.1639488623
 21
55.9913112106
 31
0.0
  0
LINE
  5
93
330
1F
100
AcDbEntity
  8
0
  6
CONTINUOUS
 62
     7
100
AcDbLine
 10
175.8533525626
 20
156.2124449845
 30
0.0
 11
175.8533525626
 21
180.0
 31
0.0
  0
LINE
  5
94
330
1F
100
AcDbEntity
  8
0
  6
CONTINUOUS
 62
     7
100
AcDbLine
 10
-159.1639488623
 20
55.9913112106
 30
0.0
 11
-159.8970819121
 21
55.2581781608
 31
0.0
  0
LINE
  5
95
330
1F
100
AcDbEntity
  8
0
  6
CONTINUOUS
 62
     7
100
AcDbLine
 10
-158.897119989
 20
54.2582162378
 30
0.0
 11
-158.1639869393
 21
54.9913492875
 31
0.0
  0
LINE
  5
96
330
1F
100
AcDbEntity
  8
0
  6
CONTINUOUS
 62
     7
100
AcDbLine
 10
-159.8970819121
 20
180.0
 30
0.0
 11
-159.8970819121
 21
55.2581781608
 31
0.0
  0
LINE
  5
97
330
1F
100
AcDbEntity
  8
0
  6
CONTINUOUS
 62
     7
100
AcDbLine
 10
-158.897119989
 20
54.2582162378
 30
0.0
 11
-10.5416846566
 21
54.2582162378
 31
0.0
  0
LINE
  5
98
330
1F
100
AcDbEntity
  8
0
  6
CONTINUOUS
 62
     7
100
AcDbLine
 10
176.5864856124
 20
156.793867681
 30
0.0
 11
176.5864856124
 21
180.0
 31
0.0
  0
ARC
  5
99
330
1F
100
AcDbEntity
  8
0
  6
CONTINUOUS
 62
     7
100
AcDbCircle
 10
140.8447018501
 20
0.0
 30
0.0
 40
160.8160192545639
100
AcDbArc
 50
160.2805453688
 51
77.1595009448
  0
ARC
  5
9A
330
1F
100
AcDbEntity
  8
0
  6
CONTINUOUS
 62
     7
100
AcDbCircle
 10
140.8447018501
 20
0.0
 30
0.0
 40
160.8160002160963
100
AcDbArc
 50
160.28020434
 51
77.1602313271
  0
ARC
  5
9B
330
1F
100
AcDbEntity
  8
0
  6
CONTINUOUS
 62
     7
100
AcDbCircle
 10
140.8447018501
 20
0.0
 30
0.0
 40
160.0786179654382
100
AcDbArc
 50
77.7340377152
 51
159.5265178618
  0
ARC
  5
9C
330
1F
100
AcDbEntity
  8
0
  6
CONTINUOUS
 62
     7
100
AcDbCircle
 10
-158.1638977461
 20
55.9914004038
 30
0.0
 40
1.0000511202401
100
AcDbArc
 50
180.0051101326
 51
269.9948898674
  0
ARC
  5
9D
330
1F
100
AcDbEntity
  8
0
  6
CONTINUOUS
 62
     7
100
AcDbCircle
 10
-158.8971330269
 20
55.258165123
 30
0.0
 40
0.9999488852723909
100
AcDbArc
 50
179.9992529465
 51
270.0007470535
  0
LINE
  5
BA
330
1B
100
AcDbEntity
 67
     1
  8
0
  6
CONTINUOUS
 62
     7
100
AcDbLine
 10
301.6607020662
 20
22.3037542405
 30
0.0
 11
300.8447018501
 21
115.8081175083
 31
0.0
  0
LINE
  5
BB
330
1B
100
AcDbEntity
 67
     1
  8
0
  6
CONTINUOUS
 62
     7
100
AcDbLine
 10
-19.1552981499
 20
115.8081175083
 30
0.0
 11
-19.9712983659
 21
22.3037542405
 31
0.0
  0
LINE
  5
BC
330
1B
100
AcDbEntity
 67
     1
  8
0
  6
CONTINUOUS
 62
     7
100
AcDbLine
 10
80.8447018501
 20
6.7993909728
 30
0.0
 11
80.8447018501
 21
1.0
 31
0.0
  0
LINE
  5
BD
330
1B
100
AcDbEntity
 67
     1
  8
0
  6
CONTINUOUS
 62
     7
100
AcDbLine
 10
200.8447018501
 20
1.0
 30
0.0
 11
200.8447018501
 21
6.7993909728
 31
0.0
  0
LINE
  5
BE
330
1B
100
AcDbEntity
 67
     1
  8
0
  6
CONTINUOUS
 62
     7
100
AcDbLine
 10
301.1607211047
 20
21.7993909728
 30
0.0
 11
-159.8970819121
 21
21.7993909728
 31
0.0
  0
LINE
  5
BF
330
1B
100
AcDbEntity
 67
     1
  8
0
  6
CONTINUOUS
 62
     7
100
AcDbLine
 10
299.8447399271
 20
116.7993909728
 30
0.0
 11
-18.1553362267
 21
116.7993909728
 31
0.0
  0
LINE
  5
C0
330
1B
100
AcDbEntity
 67
     1
  8
0
  6
CONTINUOUS
 62
     7
100
AcDbLine
 10
199.8447018501
 20
0.0
 30
0.0
 11
81.8447018577
 21
0.0
 31
0.0
  0
LINE
  5
C1
330
1B
100
AcDbEntity
 67
     1
  8
0
  6
CONTINUOUS
 62
     7
100
AcDbLine
 10
-158.897119989
 20
21.7993909728
 30
0.0
 11
-158.1639869393
 21
105.8081175083
 31
0.0
  0
LINE
  5
C2
330
1B
100
AcDbEntity
 67
     1
  8
0
  6
CONTINUOUS
 62
     7
100
AcDbLine
 10
-159.1639488623
 20
105.8081175083
 30
0.0
 11
-159.8970819121
 21
21.7993909728
 31
0.0
  0
LINE
  5
C3
330
1B
100
AcDbEntity
 67
     1
  8
0
  6
CONTINUOUS
 62
     7
100
AcDbLine
 10
-158.1639869393
 20
106.7993909728
 30
0.0
 11
-158.1639869393
 21
105.8081175083
 31
0.0
  0
LINE
  5
C4
330
1B
100
AcDbEntity
 67
     1
  8
0
  6
CONTINUOUS
 62
     7
100
AcDbLine
 10
-19.2339161153
 20
106.7993909728
 30
0.0
 11
-158.1639869393
 21
106.7993909728
 31
0.0
  0
LINE
  5
C5
330
1B
100
AcDbEntity
 67
     1
  8
0
  6
CONTINUOUS
 62
     7
100
AcDbLine
 10
301.6607020662
 20
22.3037542405
 30
0.0
 11
-19.9712983659
 21
22.3037542405
 31
0.0
  0
LINE
  5
C6
330
1B
100
AcDbEntity
 67
     1
  8
0
  6
CONTINUOUS
 62
     7
100
AcDbLine
 10
300.8447018501
 20
115.8081175083
 30
0.0
 11
-19.1552981499
 21
115.8081175083
 31
0.0
  0
LINE
  5
C7
330
1B
100
AcDbEntity
 67
     1
  8
0
  6
CONTINUOUS
 62
     7
100
AcDbLine
 10
200.8447018501
 20
6.7993909728
 30
0.0
 11
80.8447018501
 21
6.7993909728
 31
0.0
  0
LINE
  5
C8
330
1B
100
AcDbEntity
 67
     1
  8
0
  6
CONTINUOUS
 62
     7
100
AcDbLine
 10
200.8447018501
 20
1.0
 30
0.0
 11
80.8447018501
 21
1.0
 31
0.0
  0
LINE
  5
C9
330
1B
100
AcDbEntity
 67
     1
  8
0
  6
CONTINUOUS
 62
     7
100
AcDbLine
 10
-158.1639869393
 20
105.8081175083
 30
0.0
 11
-19.2425668278
 21
105.8081175083
 31
0.0
  0
ARC
  5
CA
330
1B
100
AcDbEntity
 67
     1
  8
0
  6
CONTINUOUS
 62
     7
100
AcDbCircle
 10
-19.4713174044
 20
22.2993909728
 30
0.0
 40
0.4999999999999822
100
AcDbArc
 50
179.5
 51
270.0
  0
ARC
  5
CB
330
1B
100
AcDbEntity
 67
     1
  8
0
  6
CONTINUOUS
 62
     7
100
AcDbCircle
 10
301.1607211047
 20
22.2993909728
 30
0.0
 40
0.5000000000000888
100
AcDbArc
 50
270.0
 51
0.5
  0
ARC
  5
CC
330
1B
100
AcDbEntity
 67
     1
  8
0
  6
CONTINUOUS
 62
     7
100
AcDbCircle
 10
-18.1553362268
 20
115.7993909728
 30
0.0
 40
1.0
100
AcDbArc
 50
90.0
 51
179.5
  0
ARC
  5
CD
330
1B
100
AcDbEntity
 67
     1
  8
0
  6
CONTINUOUS
 62
     7
100
AcDbCircle
 10
299.8447399271
 20
115.7993909728
 30
0.0
 40
1.000000000000063
100
AcDbArc
 50
0.5
 51
90.0
  0
ARC
  5
CE
330
1B
100
AcDbEntity
 67
     1
  8
0
  6
CONTINUOUS
 62
     7
100
AcDbCircle
 10
65.8447018501
 20
6.7993909728
 30
0.0
 40
14.99999999999996
100
AcDbArc
 50
0.0
 51
90.0
  0
ARC
  5
CF
330
1B
100
AcDbEntity
 67
     1
  8
0
  6
CONTINUOUS
 62
     7
100
AcDbCircle
 10
215.8447018501
 20
6.7993909728
 30
0.0
 40
15.00000000000001
100
AcDbArc
 50
90.0
 51
180.0
  0
ARC
  5
D0
330
1B
100
AcDbEntity
 67
     1
  8
0
  6
CONTINUOUS
 62
     7
100
AcDbCircle
 10
81.8447018501
 20
1.0
 30
0.0
 40
1.000000000000028
100
AcDbArc
 50
180.0
 51
270.0
  0
ARC
  5
D1
330
1B
100
AcDbEntity
 67
     1
  8
0
  6
CONTINUOUS
 62
     7
100
AcDbCircle
 10
199.8447018501
 20
1.0
 30
0.0
 40
1.000000000000028
100
AcDbArc
 50
270.0
 51
0.0
  0
ARC
  5
D2
330
1B
100
AcDbEntity
 67
     1
  8
0
  6
CONTINUOUS
 62
     7
100
AcDbCircle
 10
-158.6639679008
 20
77.1584295006
 30
0.0
 40
28.65405039249231
100
AcDbArc
 50
89.0002023313
 51
90.9997976687
  0
ARC
  5
D3
330
1B
100
AcDbEntity
 67
     1
  8
0
  6
CONTINUOUS
 62
     7
100
AcDbCircle
 10
-158.1639869393
 20
105.7993909728
 30
0.0
 40
1.000000000000014
100
AcDbArc
 50
90.0
 51
179.5
  0
VIEWPORT
  5
378
330
1B
100
AcDbEntity
 67
     1
  8
0
100
AcDbViewport
 10
0.0
 20
0.0
 30
0.0
 40
205.6
 41
156.0
 68
     1
 69
     1
1001
ACAD
1000
MVIEW
1002
{
1070
    16
1010
0.0
1020
0.0
1030
0.0
1010
0.0
1020
0.0
1030
1.0
1040
0.0
1040
357.2134125294
1040
70.8818195963
1040
9.5919903727
1040
50.0
1040
0.0
1040
0.0
1070
     0
1070
   100
1070
     0
1070
     3
1070
     0
1070
     0
1070
     0
1070
     0
1040
0.0
1040
0.0
1040
0.0
1040
10.0
1040
10.0
1040
10.0
1040
10.0
1070
     0
1002
{
1002
}
1002
}
  0
ENDSEC
  0
SECTION
  2
OBJECTS
  0
DICTIONARY
  5
C
330
0
100
AcDbDictionary
  3
ACAD_GROUP
350
D
  3
ACAD_MLINESTYLE
350
17
  3
ACAD_SCALELIST
350
47
  3
DWGPROPS
350
38A
  0
DICTIONARY
  5
D
102
{ACAD_REACTORS
330
C
102
}
330
C
100
AcDbDictionary
  0
DICTIONARY
  5
17
102
{ACAD_REACTORS
330
C
102
}
330
C
100
AcDbDictionary
  3
STANDARD
350
18
  0
DICTIONARY
  5
47
102
{ACAD_REACTORS
330
C
102
}
330
C
100
AcDbDictionary
  0
XRECORD
  5
38A
102
{ACAD_REACTORS
330
C
102
}
330
C
100
AcDbXrecord
  1
DWGPROPS COOKIE
  2

  3

  4

  6

  7

  8
m.jentzsch
  9

300
=
301
=
302
=
303
=
304
=
305
=
306
=
307
=
308
=
309
=
 40
0.0
 41
2460389.436592639
 42
2460389.436627894
  1

 90
        0
  0
MLINESTYLE
  5
18
102
{ACAD_REACTORS
330
17
102
}
330
17
100
AcDbMlineStyle
  2
Standard
 70
     0
  3

 62
   256
 51
90.0
 52
90.0
 71
     2
 49
0.5
 62
   256
  6
BYLAYER
 49
-0.5
 62
   256
  6
BYLAYER
  0
ENDSEC
  0
EOF
