  0
SECTION
  2
HEADER
  9
$ACADVER
  1
AC1015
  9
$ACADMAINTVER
 70
     6
  9
$DWGCODEPAGE
  3
ANSI_1252
  9
$INSBASE
 10
0.0
 20
0.0
 30
0.0
  9
$EXTMIN
 10
-160.8160192546
 20
-160.8160192546
 30
0.0
  9
$EXTMAX
 10
300.7417837622
 20
180.0
 30
0.0
  9
$LIMMIN
 10
0.0
 20
0.0
  9
$LIMMAX
 10
420.0
 20
297.0
  9
$ORTHOMODE
 70
     0
  9
$REGENMODE
 70
     1
  9
$FILLMODE
 70
     1
  9
$QTEXTMODE
 70
     0
  9
$MIRRTEXT
 70
     1
  9
$LTSCALE
 40
1.0
  9
$ATTMODE
 70
     1
  9
$TEXTSIZE
 40
3.5
  9
$TRACEWID
 40
1.0
  9
$TEXTSTYLE
  7
STANDARD
  9
$CLAYER
  8
0
  9
$CELTYPE
  6
ByLayer
  9
$CECOLOR
 62
   256
  9
$CELTSCALE
 40
1.0
  9
$DISPSILH
 70
     0
  9
$DIMSCALE
 40
1.0
  9
$DIMASZ
 40
6.0
  9
$DIMEXO
 40
1.0
  9
$DIMDLI
 40
3.75
  9
$DIMRND
 40
0.0
  9
$DIMDLE
 40
0.0
  9
$DIMEXE
 40
1.0
  9
$DIMTP
 40
0.0
  9
$DIMTM
 40
0.0
  9
$DIMTXT
 40
3.5
  9
$DIMCEN
 40
2.5
  9
$DIMTSZ
 40
0.0
  9
$DIMTOL
 70
     0
  9
$DIMLIM
 70
     0
  9
$DIMTIH
 70
     1
  9
$DIMTOH
 70
     1
  9
$DIMSE1
 70
     0
  9
$DIMSE2
 70
     0
  9
$DIMTAD
 70
     1
  9
$DIMZIN
 70
     0
  9
$DIMBLK
  1

  9
$DIMASO
 70
     1
  9
$DIMSHO
 70
     1
  9
$DIMPOST
  1

  9
$DIMAPOST
  1

  9
$DIMALT
 70
     0
  9
$DIMALTD
 70
     3
  9
$DIMALTF
 40
0.0393700787
  9
$DIMLFAC
 40
1.0
  9
$DIMTOFL
 70
     1
  9
$DIMTVP
 40
0.0
  9
$DIMTIX
 70
     0
  9
$DIMSOXD
 70
     0
  9
$DIMSAH
 70
     0
  9
$DIMBLK1
  1

  9
$DIMBLK2
  1

  9
$DIMSTYLE
  2
ISO-25
  9
$DIMCLRD
 70
     0
  9
$DIMCLRE
 70
     0
  9
$DIMCLRT
 70
     0
  9
$DIMTFAC
 40
1.0
  9
$DIMGAP
 40
1.524
  9
$DIMJUST
 70
     0
  9
$DIMSD1
 70
     0
  9
$DIMSD2
 70
     0
  9
$DIMTOLJ
 70
     0
  9
$DIMTZIN
 70
     0
  9
$DIMALTZ
 70
     0
  9
$DIMALTTZ
 70
     0
  9
$DIMUPT
 70
     0
  9
$DIMDEC
 70
     2
  9
$DIMTDEC
 70
     2
  9
$DIMALTU
 70
     2
  9
$DIMALTTD
 70
     3
  9
$DIMTXSTY
  7
STANDARD
  9
$DIMAUNIT
 70
     0
  9
$DIMADEC
 70
     2
  9
$DIMALTRND
 40
0.0
  9
$DIMAZIN
 70
     0
  9
$DIMDSEP
 70
    44
  9
$DIMATFIT
 70
     3
  9
$DIMFRAC
 70
     0
  9
$DIMLDRBLK
  1

  9
$DIMLUNIT
 70
     2
  9
$DIMLWD
 70
    -2
  9
$DIMLWE
 70
    -2
  9
$DIMTMOVE
 70
     0
  9
$LUNITS
 70
     2
  9
$LUPREC
 70
     2
  9
$SKETCHINC
 40
1.0
  9
$FILLETRAD
 40
10.0
  9
$AUNITS
 70
     0
  9
$AUPREC
 70
     2
  9
$MENU
  1
.
  9
$ELEVATION
 40
0.0
  9
$PELEVATION
 40
0.0
  9
$THICKNESS
 40
0.0
  9
$LIMCHECK
 70
     0
  9
$CHAMFERA
 40
0.0
  9
$CHAMFERB
 40
0.0
  9
$CHAMFERC
 40
0.0
  9
$CHAMFERD
 40
0.0
  9
$SKPOLY
 70
     0
  9
$TDCREATE
 40
2459051.617332859
  9
$TDUCREATE
 40
2459051.533999525
  9
$TDUPDATE
 40
2459051.617400938
  9
$TDUUPDATE
 40
2459051.534067604
  9
$TDINDWG
 40
0.0000000116
  9
$TDUSRTIMER
 40
0.0000000116
  9
$USRTIMER
 70
     1
  9
$ANGBASE
 50
0.0
  9
$ANGDIR
 70
     0
  9
$PDMODE
 70
     0
  9
$PDSIZE
 40
-1.0
  9
$PLINEWID
 40
0.0
  9
$SPLFRAME
 70
     0
  9
$SPLINETYPE
 70
     6
  9
$SPLINESEGS
 70
     8
  9
$HANDSEED
  5
362
  9
$SURFTAB1
 70
     6
  9
$SURFTAB2
 70
     6
  9
$SURFTYPE
 70
     6
  9
$SURFU
 70
     6
  9
$SURFV
 70
     6
  9
$UCSBASE
  2

  9
$UCSNAME
  2

  9
$UCSORG
 10
0.0
 20
0.0
 30
0.0
  9
$UCSXDIR
 10
1.0
 20
0.0
 30
0.0
  9
$UCSYDIR
 10
0.0
 20
1.0
 30
0.0
  9
$UCSORTHOREF
  2

  9
$UCSORTHOVIEW
 70
     0
  9
$UCSORGTOP
 10
0.0
 20
0.0
 30
0.0
  9
$UCSORGBOTTOM
 10
0.0
 20
0.0
 30
0.0
  9
$UCSORGLEFT
 10
0.0
 20
0.0
 30
0.0
  9
$UCSORGRIGHT
 10
0.0
 20
0.0
 30
0.0
  9
$UCSORGFRONT
 10
0.0
 20
0.0
 30
0.0
  9
$UCSORGBACK
 10
0.0
 20
0.0
 30
0.0
  9
$PUCSBASE
  2

  9
$PUCSNAME
  2

  9
$PUCSORG
 10
0.0
 20
0.0
 30
0.0
  9
$PUCSXDIR
 10
1.0
 20
0.0
 30
0.0
  9
$PUCSYDIR
 10
0.0
 20
1.0
 30
0.0
  9
$PUCSORTHOREF
  2

  9
$PUCSORTHOVIEW
 70
     0
  9
$PUCSORGTOP
 10
0.0
 20
0.0
 30
0.0
  9
$PUCSORGBOTTOM
 10
0.0
 20
0.0
 30
0.0
  9
$PUCSORGLEFT
 10
0.0
 20
0.0
 30
0.0
  9
$PUCSORGRIGHT
 10
0.0
 20
0.0
 30
0.0
  9
$PUCSORGFRONT
 10
0.0
 20
0.0
 30
0.0
  9
$PUCSORGBACK
 10
0.0
 20
0.0
 30
0.0
  9
$USERI1
 70
     0
  9
$USERI2
 70
     0
  9
$USERI3
 70
     0
  9
$USERI4
 70
     0
  9
$USERI5
 70
     0
  9
$USERR1
 40
0.0
  9
$USERR2
 40
0.0
  9
$USERR3
 40
0.0
  9
$USERR4
 40
0.0
  9
$USERR5
 40
0.0
  9
$WORLDVIEW
 70
     1
  9
$SHADEDGE
 70
     3
  9
$SHADEDIF
 70
    70
  9
$TILEMODE
 70
     0
  9
$MAXACTVP
 70
    64
  9
$PINSBASE
 10
0.0
 20
0.0
 30
0.0
  9
$PLIMCHECK
 70
     0
  9
$PEXTMIN
 10
-160.8160192546
 20
-160.8160192546
 30
0.0
  9
$PEXTMAX
 10
300.7417837622
 20
180.0
 30
0.0
  9
$PLIMMIN
 10
0.0
 20
0.0
  9
$PLIMMAX
 10
0.0
 20
0.0
  9
$UNITMODE
 70
     0
  9
$VISRETAIN
 70
     1
  9
$PLINEGEN
 70
     0
  9
$PSLTSCALE
 70
     1
  9
$TREEDEPTH
 70
  3020
  9
$CMLSTYLE
  2
Standard
  9
$CMLJUST
 70
     0
  9
$CMLSCALE
 40
20.0
  9
$PROXYGRAPHICS
 70
     1
  9
$MEASUREMENT
 70
     1
  9
$CELWEIGHT
370
    -1
  9
$ENDCAPS
280
     0
  9
$JOINSTYLE
280
     0
  9
$LWDISPLAY
290
     1
  9
$INSUNITS
 70
     4
  9
$HYPERLINKBASE
  1

  9
$STYLESHEET
  1

  9
$XEDIT
290
     1
  9
$CEPSNTYPE
380
     0
  9
$PSTYLEMODE
290
     1
  9
$FINGERPRINTGUID
  2
{86cc82a6-e555-4a7d-94db-dfbd224dcc2f}
  9
$VERSIONGUID
  2
{FAEB1C32-E019-11D5-929B-00C0DF256EC4}
  9
$EXTNAMES
290
     1
  9
$PSVPSCALE
 40
0.0
  9
$OLESTARTUP
290
     0
  0
ENDSEC
  0
SECTION
  2
CLASSES
  0
CLASS
  1
ACDBDICTIONARYWDFLT
  2
AcDbDictionaryWithDefault
  3
ObjectDBX Classes
 90
        0
280
     0
281
     0
  0
CLASS
  1
VISUALSTYLE
  2
AcDbVisualStyle
  3
ObjectDBX Classes
 90
     4095
280
     0
281
     0
  0
CLASS
  1
MATERIAL
  2
AcDbMaterial
  3
ObjectDBX Classes
 90
     1153
280
     0
281
     0
  0
CLASS
  1
SCALE
  2
AcDbScale
  3
ObjectDBX Classes
 90
     1153
280
     0
281
     0
  0
CLASS
  1
TABLESTYLE
  2
AcDbTableStyle
  3
ObjectDBX Classes
 90
     4095
280
     0
281
     0
  0
CLASS
  1
MLEADERSTYLE
  2
AcDbMLeaderStyle
  3
ACDB_MLEADERSTYLE_CLASS
 90
     4095
280
     0
281
     0
  0
CLASS
  1
SUN
  2
AcDbSun
  3
SCENEOE
 90
     1153
280
     0
281
     0
  0
CLASS
  1
ACDBPLACEHOLDER
  2
AcDbPlaceHolder
  3
ObjectDBX Classes
 90
        0
280
     0
281
     0
  0
CLASS
  1
LAYOUT
  2
AcDbLayout
  3
ObjectDBX Classes
 90
        0
280
     0
281
     0
  0
ENDSEC
  0
SECTION
  2
TABLES
  0
TABLE
  2
VPORT
  5
8
330
0
100
AcDbSymbolTable
 70
     1
  0
VPORT
  5
29
330
8
100
AcDbSymbolTableRecord
100
AcDbViewportTableRecord
  2
*Active
 70
     0
 10
0.0
 20
0.0
 11
1.0
 21
1.0
 12
69.9628822538
 22
9.5919903727
 13
0.0
 23
0.0
 14
10.0
 24
10.0
 15
10.0
 25
10.0
 16
0.0
 26
0.0
 36
1.0
 17
0.0
 27
0.0
 37
0.0
 40
347.6323396397
 41
1.3542726191
 42
50.0
 43
0.0
 44
0.0
 50
0.0
 51
0.0
 71
     0
 72
   100
 73
     1
 74
     3
 75
     0
 76
     0
 77
     0
 78
     0
281
     0
 65
     1
110
0.0
120
0.0
130
0.0
111
1.0
121
0.0
131
0.0
112
0.0
122
1.0
132
0.0
 79
     0
146
0.0
  0
ENDTAB
  0
TABLE
  2
LTYPE
  5
5
330
0
100
AcDbSymbolTable
 70
     6
  0
LTYPE
  5
14
330
5
100
AcDbSymbolTableRecord
100
AcDbLinetypeTableRecord
  2
ByBlock
 70
     0
  3

 72
    65
 73
     0
 40
0.0
  0
LTYPE
  5
15
330
5
100
AcDbSymbolTableRecord
100
AcDbLinetypeTableRecord
  2
ByLayer
 70
     0
  3

 72
    65
 73
     0
 40
0.0
  0
LTYPE
  5
16
330
5
100
AcDbSymbolTableRecord
100
AcDbLinetypeTableRecord
  2
Continuous
 70
     0
  3
Solid line
 72
    65
 73
     0
 40
0.0
  0
LTYPE
  5
6E
330
5
100
AcDbSymbolTableRecord
100
AcDbLinetypeTableRecord
  2
HIDDEN
 70
     0
  3
Hidden __ __ __ __ __ __ __ __ __ __ __ __ __ __
 72
    65
 73
     2
 40
1.905
 49
1.27
 74
     0
 49
-0.635
 74
     0
  0
LTYPE
  5
6F
330
5
100
AcDbSymbolTableRecord
100
AcDbLinetypeTableRecord
  2
PHANTOM
 70
     0
  3
Phantom ______  __  __  ______  __  __  ______
 72
    65
 73
     6
 40
12.7
 49
6.35
 74
     0
 49
-1.27
 74
     0
 49
1.27
 74
     0
 49
-1.27
 74
     0
 49
1.27
 74
     0
 49
-1.27
 74
     0
  0
LTYPE
  5
70
330
5
100
AcDbSymbolTableRecord
100
AcDbLinetypeTableRecord
  2
CENTER
 70
     0
  3
Center ____ _ ____ _ ____ _ ____ _ ____ _ ____
 72
    65
 73
     4
 40
10.16
 49
6.35
 74
     0
 49
-1.27
 74
     0
 49
1.27
 74
     0
 49
-1.27
 74
     0
  0
LTYPE
  5
71
330
5
100
AcDbSymbolTableRecord
100
AcDbLinetypeTableRecord
  2
CENTERX2
 70
     0
  3
Center (2x) ________  __  ________  __  _____
 72
    65
 73
     4
 40
20.32
 49
12.7
 74
     0
 49
-2.54
 74
     0
 49
2.54
 74
     0
 49
-2.54
 74
     0
  0
LTYPE
  5
72
330
5
100
AcDbSymbolTableRecord
100
AcDbLinetypeTableRecord
  2
DOT2
 70
     0
  3
Dot (.5x) ........................................
 72
    65
 73
     2
 40
0.635
 49
0.0
 74
     0
 49
-0.635
 74
     0
  0
ENDTAB
  0
TABLE
  2
LAYER
  5
2
330
0
100
AcDbSymbolTable
 70
     1
  0
LAYER
  5
10
330
2
100
AcDbSymbolTableRecord
100
AcDbLayerTableRecord
  2
0
 70
     0
 62
     7
  6
Continuous
370
    -3
390
F
  0
ENDTAB
  0
TABLE
  2
STYLE
  5
3
330
0
100
AcDbSymbolTable
 70
     1
  0
STYLE
  5
11
330
3
100
AcDbSymbolTableRecord
100
AcDbTextStyleTableRecord
  2
STANDARD
 70
     0
 40
0.0
 41
1.0
 50
0.0
 71
     0
 42
3.5
  3
GOTHIC.TTF
  4

1001
ACAD
1000
CENTURY GOTHIC
1071
       34
  0
ENDTAB
  0
TABLE
  2
VIEW
  5
6
330
0
100
AcDbSymbolTable
 70
     0
  0
ENDTAB
  0
TABLE
  2
UCS
  5
7
330
0
100
AcDbSymbolTable
 70
     0
  0
ENDTAB
  0
TABLE
  2
APPID
  5
9
330
0
100
AcDbSymbolTable
 70
     1
  0
APPID
  5
12
330
9
100
AcDbSymbolTableRecord
100
AcDbRegAppTableRecord
  2
ACAD
 70
     0
  0
ENDTAB
  0
TABLE
  2
DIMSTYLE
  5
A
330
0
100
AcDbSymbolTable
 70
     1
100
AcDbDimStyleTable
  0
DIMSTYLE
105
27
330
A
100
AcDbSymbolTableRecord
100
AcDbDimStyleTableRecord
  2
ISO-25
 70
     0
 41
2.5
 42
0.625
 43
3.75
 44
1.25
 73
     0
 74
     0
 77
     1
 78
     8
140
2.5
141
2.5
143
0.0393700787
147
0.625
171
     3
172
     1
178
     0
271
     2
272
     2
274
     3
278
    44
283
     0
284
     8
340
11
  0
ENDTAB
  0
TABLE
  2
BLOCK_RECORD
  5
1
330
0
100
AcDbSymbolTable
 70
     8
  0
BLOCK_RECORD
  5
1F
330
1
100
AcDbSymbolTableRecord
100
AcDbBlockTableRecord
  2
*Model_Space
340
22
  0
BLOCK_RECORD
  5
307
330
1
100
AcDbSymbolTableRecord
100
AcDbBlockTableRecord
  2
*Paper_Space
340
308
  0
BLOCK_RECORD
  5
1B
330
1
100
AcDbSymbolTableRecord
100
AcDbBlockTableRecord
  2
*Paper_Space0
340
1E
  0
BLOCK_RECORD
  5
23
330
1
100
AcDbSymbolTableRecord
100
AcDbBlockTableRecord
  2
*Paper_Space1
340
26
  0
BLOCK_RECORD
  5
125
330
1
100
AcDbSymbolTableRecord
100
AcDbBlockTableRecord
  2
*Paper_Space2
340
126
  0
BLOCK_RECORD
  5
154
330
1
100
AcDbSymbolTableRecord
100
AcDbBlockTableRecord
  2
*Paper_Space3
340
155
  0
BLOCK_RECORD
  5
185
330
1
100
AcDbSymbolTableRecord
100
AcDbBlockTableRecord
  2
*Paper_Space4
340
186
  0
BLOCK_RECORD
  5
1BA
330
1
100
AcDbSymbolTableRecord
100
AcDbBlockTableRecord
  2
*Paper_Space5
340
1BB
  0
BLOCK_RECORD
  5
230
330
1
100
AcDbSymbolTableRecord
100
AcDbBlockTableRecord
  2
*Paper_Space6
340
231
  0
BLOCK_RECORD
  5
297
330
1
100
AcDbSymbolTableRecord
100
AcDbBlockTableRecord
  2
*Paper_Space7
340
298
  0
ENDTAB
  0
ENDSEC
  0
SECTION
  2
BLOCKS
  0
BLOCK
  5
20
330
1F
100
AcDbEntity
  8
0
100
AcDbBlockBegin
  2
*Model_Space
 70
     0
 10
0.0
 20
0.0
 30
0.0
  3
*Model_Space
  1

  0
ENDBLK
  5
21
330
1F
100
AcDbEntity
  8
0
100
AcDbBlockEnd
  0
BLOCK
  5
309
330
307
100
AcDbEntity
 67
     1
  8
0
100
AcDbBlockBegin
  2
*Paper_Space
 70
     0
 10
0.0
 20
0.0
 30
0.0
  3
*Paper_Space
  1

  0
ENDBLK
  5
30A
330
307
100
AcDbEntity
 67
     1
  8
0
100
AcDbBlockEnd
  0
BLOCK
  5
1C
330
1B
100
AcDbEntity
  8
0
100
AcDbBlockBegin
  2
*Paper_Space0
 70
     0
 10
0.0
 20
0.0
 30
0.0
  3
*Paper_Space0
  1

  0
LINE
  5
E5
330
1B
100
AcDbEntity
  8
0
  6
Continuous
 62
     7
370
    25
100
AcDbLine
 10
160.8160002161
 20
22.3037542405
 30
0.0
 11
160.0
 21
115.8081175083
 31
0.0
  0
LINE
  5
E6
330
1B
100
AcDbEntity
  8
0
  6
Continuous
 62
     7
370
    25
100
AcDbLine
 10
-160.0
 20
115.8081175083
 30
0.0
 11
-160.8160002161
 21
22.3037542405
 31
0.0
  0
LINE
  5
E7
330
1B
100
AcDbEntity
  8
0
  6
Continuous
 62
     7
370
    25
100
AcDbLine
 10
-60.0
 20
6.7993909728
 30
0.0
 11
-60.0
 21
1.0
 31
0.0
  0
LINE
  5
E8
330
1B
100
AcDbEntity
  8
0
  6
Continuous
 62
     7
370
    25
100
AcDbLine
 10
60.0
 20
1.0
 30
0.0
 11
60.0
 21
6.7993909728
 31
0.0
  0
LINE
  5
E9
330
1B
100
AcDbEntity
  8
0
  6
Continuous
 62
     7
370
    25
100
AcDbLine
 10
-160.3160192546
 20
21.7993909728
 30
0.0
 11
300.7417837622
 21
21.7993909728
 31
0.0
  0
LINE
  5
EA
330
1B
100
AcDbEntity
  8
0
  6
Continuous
 62
     7
370
    25
100
AcDbLine
 10
-159.0000380769
 20
116.7993909728
 30
0.0
 11
159.0000380769
 21
116.7993909728
 31
0.0
  0
LINE
  5
EB
330
1B
100
AcDbEntity
  8
0
  6
Continuous
 62
     7
370
    25
100
AcDbLine
 10
-59.0
 20
0.0
 30
0.0
 11
58.9999999924
 21
0.0
 31
0.0
  0
LINE
  5
EC
330
1B
100
AcDbEntity
  8
0
  6
Continuous
 62
     7
370
    25
100
AcDbLine
 10
300.0
 20
106.7993909728
 30
0.0
 11
160.0786179654
 21
106.7993909728
 31
0.0
  0
LINE
  5
ED
330
1B
100
AcDbEntity
  8
0
  6
Continuous
 62
     7
370
    25
100
AcDbLine
 10
300.0
 20
106.7993909728
 30
0.0
 11
300.7417837622
 21
21.7993909728
 31
0.0
  0
LINE
  5
EE
330
1B
100
AcDbEntity
  8
0
  6
Continuous
 62
    60
370
    25
100
AcDbLine
 10
-160.8160002161
 20
22.3037542405
 30
0.0
 11
160.8160002161
 21
22.3037542405
 31
0.0
  0
LINE
  5
EF
330
1B
100
AcDbEntity
  8
0
  6
Continuous
 62
    60
370
    25
100
AcDbLine
 10
-160.0
 20
115.8081175083
 30
0.0
 11
160.0
 21
115.8081175083
 31
0.0
  0
LINE
  5
F0
330
1B
100
AcDbEntity
  8
0
  6
Continuous
 62
    60
370
    25
100
AcDbLine
 10
-60.0
 20
6.7993909728
 30
0.0
 11
60.0
 21
6.7993909728
 31
0.0
  0
LINE
  5
F1
330
1B
100
AcDbEntity
  8
0
  6
Continuous
 62
    60
370
    25
100
AcDbLine
 10
-60.0
 20
1.0
 30
0.0
 11
60.0
 21
1.0
 31
0.0
  0
ARC
  5
F2
330
1B
100
AcDbEntity
  8
0
  6
Continuous
 62
     7
370
    25
100
AcDbCircle
 10
-160.3160192546
 20
22.2993909728
 30
0.0
 40
0.500000000000031
100
AcDbArc
 50
179.5
 51
270.0
  0
ARC
  5
F3
330
1B
100
AcDbEntity
  8
0
  6
Continuous
 62
     7
370
    25
100
AcDbCircle
 10
160.3160192546
 20
22.2993909728
 30
0.0
 40
0.5000000000000029
100
AcDbArc
 50
270.0
 51
0.5
  0
ARC
  5
F4
330
1B
100
AcDbEntity
  8
0
  6
Continuous
 62
     7
370
    25
100
AcDbCircle
 10
-159.0000380769
 20
115.7993909728
 30
0.0
 40
1.000000000000014
100
AcDbArc
 50
90.0
 51
179.5
  0
ARC
  5
F5
330
1B
100
AcDbEntity
  8
0
  6
Continuous
 62
     7
370
    25
100
AcDbCircle
 10
159.0000380769
 20
115.7993909728
 30
0.0
 40
1.000000000000034
100
AcDbArc
 50
0.5
 51
90.0
  0
ARC
  5
F6
330
1B
100
AcDbEntity
  8
0
  6
Continuous
 62
     7
370
    25
100
AcDbCircle
 10
-75.0
 20
6.7993909728
 30
0.0
 40
14.99999999999999
100
AcDbArc
 50
0.0
 51
90.0
  0
ARC
  5
F7
330
1B
100
AcDbEntity
  8
0
  6
Continuous
 62
     7
370
    25
100
AcDbCircle
 10
75.0
 20
6.7993909728
 30
0.0
 40
14.99999999999996
100
AcDbArc
 50
90.0
 51
180.0
  0
ARC
  5
F8
330
1B
100
AcDbEntity
  8
0
  6
Continuous
 62
     7
370
    25
100
AcDbCircle
 10
-59.0
 20
1.0
 30
0.0
 40
0.9999999999999787
100
AcDbArc
 50
180.0
 51
270.0
  0
ARC
  5
F9
330
1B
100
AcDbEntity
  8
0
  6
Continuous
 62
     7
370
    25
100
AcDbCircle
 10
59.0
 20
1.0
 30
0.0
 40
1.0
100
AcDbArc
 50
270.0
 51
0.0
  0
VIEWPORT
  5
350
330
1B
100
AcDbEntity
  8
0
100
AcDbViewport
 10
0.0
 20
0.0
 30
0.0
 40
205.6
 41
156.0
 68
     1
 69
     1
 12
69.9628822538
 22
9.5919903727
 13
0.0
 23
0.0
 14
10.0
 24
10.0
 15
10.0
 25
10.0
 16
0.0
 26
0.0
 36
1.0
 17
0.0
 27
0.0
 37
0.0
 42
50.0
 43
0.0
 44
0.0
 45
357.2134125293
 50
0.0
 51
0.0
 72
   100
 90
   557152
  1

281
     0
 71
     1
 74
     0
110
0.0
120
0.0
130
0.0
111
1.0
121
0.0
131
0.0
112
0.0
122
1.0
132
0.0
 79
     0
146
0.0
  0
ENDBLK
  5
1D
330
1B
100
AcDbEntity
  8
0
100
AcDbBlockEnd
  0
BLOCK
  5
24
330
23
100
AcDbEntity
  8
0
100
AcDbBlockBegin
  2
*Paper_Space1
 70
     0
 10
0.0
 20
0.0
 30
0.0
  3
*Paper_Space1
  1

  0
LINE
  5
110
330
23
100
AcDbEntity
  8
0
  6
Continuous
 62
     7
370
    25
100
AcDbLine
 10
160.0786179654
 20
106.7993909728
 30
0.0
 11
160.0
 21
115.8081175083
 31
0.0
  0
LINE
  5
111
330
23
100
AcDbEntity
  8
0
  6
Continuous
 62
     7
370
    25
100
AcDbLine
 10
-160.0
 20
115.8081175083
 30
0.0
 11
-160.8160002161
 21
22.3037542405
 31
0.0
  0
LINE
  5
112
330
23
100
AcDbEntity
  8
0
  6
Continuous
 62
     7
370
    25
100
AcDbLine
 10
-60.0
 20
6.7993909728
 30
0.0
 11
-60.0
 21
1.0
 31
0.0
  0
LINE
  5
113
330
23
100
AcDbEntity
  8
0
  6
Continuous
 62
     7
370
    25
100
AcDbLine
 10
60.0
 20
1.0
 30
0.0
 11
60.0
 21
6.7993909728
 31
0.0
  0
LINE
  5
114
330
23
100
AcDbEntity
  8
0
  6
Continuous
 62
     7
370
    25
100
AcDbLine
 10
55.0
 20
106.7993909728
 30
0.0
 11
54.2582162378
 21
21.7993909728
 31
0.0
  0
LINE
  5
115
330
23
100
AcDbEntity
  8
0
  6
Continuous
 62
     7
370
    25
100
AcDbLine
 10
180.0
 20
106.7993909728
 30
0.0
 11
55.0
 21
106.7993909728
 31
0.0
  0
LINE
  5
116
330
23
100
AcDbEntity
  8
0
  6
Continuous
 62
     7
370
    25
100
AcDbLine
 10
180.0
 20
106.7993909728
 30
0.0
 11
180.0
 21
21.7993909728
 31
0.0
  0
LINE
  5
117
330
23
100
AcDbEntity
  8
0
  6
Continuous
 62
     7
370
    25
100
AcDbLine
 10
-160.3160192546
 20
21.7993909728
 30
0.0
 11
180.0
 21
21.7993909728
 31
0.0
  0
LINE
  5
118
330
23
100
AcDbEntity
  8
0
  6
Continuous
 62
     7
370
    25
100
AcDbLine
 10
-159.0000380769
 20
116.7993909728
 30
0.0
 11
159.0000380769
 21
116.7993909728
 31
0.0
  0
LINE
  5
119
330
23
100
AcDbEntity
  8
0
  6
Continuous
 62
     7
370
    25
100
AcDbLine
 10
-59.0
 20
0.0
 30
0.0
 11
59.0
 21
0.0
 31
0.0
  0
LINE
  5
11A
330
23
100
AcDbEntity
  8
0
  6
Continuous
 62
    60
370
    25
100
AcDbLine
 10
-160.8160002161
 20
22.3037542405
 30
0.0
 11
54.2626177493
 21
22.3037542405
 31
0.0
  0
LINE
  5
11B
330
23
100
AcDbEntity
  8
0
  6
Continuous
 62
    60
370
    25
100
AcDbLine
 10
-160.0
 20
115.8081175083
 30
0.0
 11
160.0
 21
115.8081175083
 31
0.0
  0
LINE
  5
11C
330
23
100
AcDbEntity
  8
0
  6
Continuous
 62
    60
370
    25
100
AcDbLine
 10
-60.0
 20
6.7993909728
 30
0.0
 11
60.0
 21
6.7993909728
 31
0.0
  0
LINE
  5
11D
330
23
100
AcDbEntity
  8
0
  6
Continuous
 62
    60
370
    25
100
AcDbLine
 10
-60.0
 20
1.0
 30
0.0
 11
60.0
 21
1.0
 31
0.0
  0
ARC
  5
11E
330
23
100
AcDbEntity
  8
0
  6
Continuous
 62
     7
370
    25
100
AcDbCircle
 10
-160.3160192546
 20
22.2993909728
 30
0.0
 40
0.5000000000000593
100
AcDbArc
 50
179.5
 51
270.0
  0
ARC
  5
11F
330
23
100
AcDbEntity
  8
0
  6
Continuous
 62
     7
370
    25
100
AcDbCircle
 10
-159.0000380769
 20
115.7993909728
 30
0.0
 40
1.000000000000014
100
AcDbArc
 50
90.0
 51
179.5
  0
ARC
  5
120
330
23
100
AcDbEntity
  8
0
  6
Continuous
 62
     7
370
    25
100
AcDbCircle
 10
159.0000380769
 20
115.7993909728
 30
0.0
 40
1.000000000000034
100
AcDbArc
 50
0.5
 51
90.0
  0
ARC
  5
121
330
23
100
AcDbEntity
  8
0
  6
Continuous
 62
     7
370
    25
100
AcDbCircle
 10
-75.0
 20
6.7993909728
 30
0.0
 40
15.0
100
AcDbArc
 50
0.0
 51
90.0
  0
ARC
  5
122
330
23
100
AcDbEntity
  8
0
  6
Continuous
 62
     7
370
    25
100
AcDbCircle
 10
75.0
 20
6.7993909728
 30
0.0
 40
14.99999999999997
100
AcDbArc
 50
90.0
 51
180.0
  0
ARC
  5
123
330
23
100
AcDbEntity
  8
0
  6
Continuous
 62
     7
370
    25
100
AcDbCircle
 10
-59.0
 20
1.0
 30
0.0
 40
1.000000000000036
100
AcDbArc
 50
180.0
 51
270.0
  0
ARC
  5
124
330
23
100
AcDbEntity
  8
0
  6
Continuous
 62
     7
370
    25
100
AcDbCircle
 10
59.0
 20
1.0
 30
0.0
 40
1.0
100
AcDbArc
 50
270.0
 51
0.0
  0
VIEWPORT
  5
352
330
23
100
AcDbEntity
  8
0
100
AcDbViewport
 10
0.0
 20
0.0
 30
0.0
 40
205.6
 41
156.0
 68
     1
 69
     1
 12
69.9628822538
 22
9.5919903727
 13
0.0
 23
0.0
 14
10.0
 24
10.0
 15
10.0
 25
10.0
 16
0.0
 26
0.0
 36
1.0
 17
0.0
 27
0.0
 37
0.0
 42
50.0
 43
0.0
 44
0.0
 45
357.2134125293
 50
0.0
 51
0.0
 72
   100
 90
   557152
  1

281
     0
 71
     1
 74
     0
110
0.0
120
0.0
130
0.0
111
1.0
121
0.0
131
0.0
112
0.0
122
1.0
132
0.0
 79
     0
146
0.0
  0
ENDBLK
  5
25
330
23
100
AcDbEntity
  8
0
100
AcDbBlockEnd
  0
BLOCK
  5
127
330
125
100
AcDbEntity
  8
0
100
AcDbBlockBegin
  2
*Paper_Space2
 70
     0
 10
0.0
 20
0.0
 30
0.0
  3
*Paper_Space2
  1

  0
LINE
  5
13F
330
125
100
AcDbEntity
  8
0
  6
Continuous
 62
     7
370
    25
100
AcDbLine
 10
160.8160002161
 20
22.3037542405
 30
0.0
 11
160.0
 21
115.8081175083
 31
0.0
  0
LINE
  5
140
330
125
100
AcDbEntity
  8
0
  6
Continuous
 62
     7
370
    25
100
AcDbLine
 10
-160.0
 20
115.8081175083
 30
0.0
 11
-160.8160002161
 21
22.3037542405
 31
0.0
  0
LINE
  5
141
330
125
100
AcDbEntity
  8
0
  6
Continuous
 62
     7
370
    25
100
AcDbLine
 10
-60.0
 20
6.7993909728
 30
0.0
 11
-60.0
 21
1.0
 31
0.0
  0
LINE
  5
142
330
125
100
AcDbEntity
  8
0
  6
Continuous
 62
     7
370
    25
100
AcDbLine
 10
60.0
 20
1.0
 30
0.0
 11
60.0
 21
6.7993909728
 31
0.0
  0
LINE
  5
143
330
125
100
AcDbEntity
  8
0
  6
Continuous
 62
     7
370
    25
100
AcDbLine
 10
-160.3160192546
 20
21.7993909728
 30
0.0
 11
300.7417837622
 21
21.7993909728
 31
0.0
  0
LINE
  5
144
330
125
100
AcDbEntity
  8
0
  6
Continuous
 62
     7
370
    25
100
AcDbLine
 10
-159.0000380769
 20
116.7993909728
 30
0.0
 11
159.0000380769
 21
116.7993909728
 31
0.0
  0
LINE
  5
145
330
125
100
AcDbEntity
  8
0
  6
Continuous
 62
     7
370
    25
100
AcDbLine
 10
-59.0
 20
0.0
 30
0.0
 11
58.9999999924
 21
0.0
 31
0.0
  0
LINE
  5
146
330
125
100
AcDbEntity
  8
0
  6
Continuous
 62
     7
370
    25
100
AcDbLine
 10
300.0
 20
106.7993909728
 30
0.0
 11
160.0786179654
 21
106.7993909728
 31
0.0
  0
LINE
  5
147
330
125
100
AcDbEntity
  8
0
  6
Continuous
 62
     7
370
    25
100
AcDbLine
 10
300.0
 20
106.7993909728
 30
0.0
 11
300.7417837622
 21
21.7993909728
 31
0.0
  0
LINE
  5
148
330
125
100
AcDbEntity
  8
0
  6
Continuous
 62
    60
370
    25
100
AcDbLine
 10
-160.8160002161
 20
22.3037542405
 30
0.0
 11
160.8160002161
 21
22.3037542405
 31
0.0
  0
LINE
  5
149
330
125
100
AcDbEntity
  8
0
  6
Continuous
 62
    60
370
    25
100
AcDbLine
 10
-160.0
 20
115.8081175083
 30
0.0
 11
160.0
 21
115.8081175083
 31
0.0
  0
LINE
  5
14A
330
125
100
AcDbEntity
  8
0
  6
Continuous
 62
    60
370
    25
100
AcDbLine
 10
-60.0
 20
6.7993909728
 30
0.0
 11
60.0
 21
6.7993909728
 31
0.0
  0
LINE
  5
14B
330
125
100
AcDbEntity
  8
0
  6
Continuous
 62
    60
370
    25
100
AcDbLine
 10
-60.0
 20
1.0
 30
0.0
 11
60.0
 21
1.0
 31
0.0
  0
ARC
  5
14C
330
125
100
AcDbEntity
  8
0
  6
Continuous
 62
     7
370
    25
100
AcDbCircle
 10
-160.3160192546
 20
22.2993909728
 30
0.0
 40
0.500000000000031
100
AcDbArc
 50
179.5
 51
270.0
  0
ARC
  5
14D
330
125
100
AcDbEntity
  8
0
  6
Continuous
 62
     7
370
    25
100
AcDbCircle
 10
160.3160192546
 20
22.2993909728
 30
0.0
 40
0.5000000000000029
100
AcDbArc
 50
270.0
 51
0.5
  0
ARC
  5
14E
330
125
100
AcDbEntity
  8
0
  6
Continuous
 62
     7
370
    25
100
AcDbCircle
 10
-159.0000380769
 20
115.7993909728
 30
0.0
 40
1.000000000000014
100
AcDbArc
 50
90.0
 51
179.5
  0
ARC
  5
14F
330
125
100
AcDbEntity
  8
0
  6
Continuous
 62
     7
370
    25
100
AcDbCircle
 10
159.0000380769
 20
115.7993909728
 30
0.0
 40
1.000000000000034
100
AcDbArc
 50
0.5
 51
90.0
  0
ARC
  5
150
330
125
100
AcDbEntity
  8
0
  6
Continuous
 62
     7
370
    25
100
AcDbCircle
 10
-75.0
 20
6.7993909728
 30
0.0
 40
14.99999999999999
100
AcDbArc
 50
0.0
 51
90.0
  0
ARC
  5
151
330
125
100
AcDbEntity
  8
0
  6
Continuous
 62
     7
370
    25
100
AcDbCircle
 10
75.0
 20
6.7993909728
 30
0.0
 40
14.99999999999996
100
AcDbArc
 50
90.0
 51
180.0
  0
ARC
  5
152
330
125
100
AcDbEntity
  8
0
  6
Continuous
 62
     7
370
    25
100
AcDbCircle
 10
-59.0
 20
1.0
 30
0.0
 40
0.9999999999999787
100
AcDbArc
 50
180.0
 51
270.0
  0
ARC
  5
153
330
125
100
AcDbEntity
  8
0
  6
Continuous
 62
     7
370
    25
100
AcDbCircle
 10
59.0
 20
1.0
 30
0.0
 40
1.0
100
AcDbArc
 50
270.0
 51
0.0
  0
VIEWPORT
  5
354
330
125
100
AcDbEntity
  8
0
100
AcDbViewport
 10
0.0
 20
0.0
 30
0.0
 40
205.6
 41
156.0
 68
     1
 69
     1
 12
69.9628822538
 22
9.5919903727
 13
0.0
 23
0.0
 14
10.0
 24
10.0
 15
10.0
 25
10.0
 16
0.0
 26
0.0
 36
1.0
 17
0.0
 27
0.0
 37
0.0
 42
50.0
 43
0.0
 44
0.0
 45
357.2134125293
 50
0.0
 51
0.0
 72
   100
 90
   557152
  1

281
     0
 71
     1
 74
     0
110
0.0
120
0.0
130
0.0
111
1.0
121
0.0
131
0.0
112
0.0
122
1.0
132
0.0
 79
     0
146
0.0
  0
ENDBLK
  5
128
330
125
100
AcDbEntity
  8
0
100
AcDbBlockEnd
  0
BLOCK
  5
156
330
154
100
AcDbEntity
  8
0
100
AcDbBlockBegin
  2
*Paper_Space3
 70
     0
 10
0.0
 20
0.0
 30
0.0
  3
*Paper_Space3
  1

  0
CIRCLE
  5
166
330
154
100
AcDbEntity
  8
0
  6
Continuous
 62
     7
370
    25
100
AcDbCircle
 10
-7.5
 20
71.7993909728
 30
0.0
 40
7.000000000000014
  0
CIRCLE
  5
167
330
154
100
AcDbEntity
  8
0
  6
Continuous
 62
     7
370
    25
100
AcDbCircle
 10
-257.5
 20
71.7993909728
 30
0.0
 40
7.000000000000057
  0
LINE
  5
170
330
154
100
AcDbEntity
  8
0
  6
Continuous
 62
     7
370
    25
100
AcDbLine
 10
160.8160002161
 20
22.3037542405
 30
0.0
 11
160.0
 21
115.8081175083
 31
0.0
  0
LINE
  5
171
330
154
100
AcDbEntity
  8
0
  6
Continuous
 62
     7
370
    25
100
AcDbLine
 10
-160.0
 20
115.8081175083
 30
0.0
 11
-160.0786179654
 21
106.7993909728
 31
0.0
  0
LINE
  5
172
330
154
100
AcDbEntity
  8
0
  6
Continuous
 62
     7
370
    25
100
AcDbLine
 10
-60.0
 20
6.7993909728
 30
0.0
 11
-60.0
 21
1.0
 31
0.0
  0
LINE
  5
173
330
154
100
AcDbEntity
  8
0
  6
Continuous
 62
     7
370
    25
100
AcDbLine
 10
60.0
 20
1.0
 30
0.0
 11
60.0
 21
6.7993909728
 31
0.0
  0
LINE
  5
174
330
154
100
AcDbEntity
  8
0
  6
Continuous
 62
     7
370
    25
100
AcDbLine
 10
35.0
 20
106.7993909728
 30
0.0
 11
-300.0
 21
106.7993909728
 31
0.0
  0
LINE
  5
175
330
154
100
AcDbEntity
  8
0
  6
Continuous
 62
     7
370
    25
100
AcDbLine
 10
35.0
 20
106.7993909728
 30
0.0
 11
35.7417837622
 21
21.7993909728
 31
0.0
  0
LINE
  5
176
330
154
100
AcDbEntity
  8
0
  6
Continuous
 62
     7
370
    25
100
AcDbLine
 10
160.3160192546
 20
21.7993909728
 30
0.0
 11
-300.7417837622
 21
21.7993909728
 31
0.0
  0
LINE
  5
177
330
154
100
AcDbEntity
  8
0
  6
Continuous
 62
     7
370
    25
100
AcDbLine
 10
-300.0
 20
106.7993909728
 30
0.0
 11
-300.7417837622
 21
21.7993909728
 31
0.0
  0
LINE
  5
178
330
154
100
AcDbEntity
  8
0
  6
Continuous
 62
     7
370
    25
100
AcDbLine
 10
-159.0000380769
 20
116.7993909728
 30
0.0
 11
159.0000380769
 21
116.7993909728
 31
0.0
  0
LINE
  5
179
330
154
100
AcDbEntity
  8
0
  6
Continuous
 62
     7
370
    25
100
AcDbLine
 10
-58.9999999924
 20
0.0
 30
0.0
 11
59.0
 21
0.0
 31
0.0
  0
LINE
  5
17A
330
154
100
AcDbEntity
  8
0
  6
Continuous
 62
    60
370
    25
100
AcDbLine
 10
-160.0
 20
115.8081175083
 30
0.0
 11
160.0
 21
115.8081175083
 31
0.0
  0
LINE
  5
17B
330
154
100
AcDbEntity
  8
0
  6
Continuous
 62
    60
370
    25
100
AcDbLine
 10
35.7373822507
 20
22.3037542405
 30
0.0
 11
160.8160002161
 21
22.3037542405
 31
0.0
  0
LINE
  5
17C
330
154
100
AcDbEntity
  8
0
  6
Continuous
 62
    60
370
    25
100
AcDbLine
 10
-60.0
 20
6.7993909728
 30
0.0
 11
60.0
 21
6.7993909728
 31
0.0
  0
LINE
  5
17D
330
154
100
AcDbEntity
  8
0
  6
Continuous
 62
    60
370
    25
100
AcDbLine
 10
-60.0
 20
1.0
 30
0.0
 11
60.0
 21
1.0
 31
0.0
  0
ARC
  5
17E
330
154
100
AcDbEntity
  8
0
  6
Continuous
 62
     7
370
    25
100
AcDbCircle
 10
-159.0000380769
 20
115.7993909728
 30
0.0
 40
1.000000000000034
100
AcDbArc
 50
90.0
 51
179.5
  0
ARC
  5
17F
330
154
100
AcDbEntity
  8
0
  6
Continuous
 62
     7
370
    25
100
AcDbCircle
 10
159.0000380769
 20
115.7993909728
 30
0.0
 40
1.000000000000034
100
AcDbArc
 50
0.5
 51
90.0
  0
ARC
  5
180
330
154
100
AcDbEntity
  8
0
  6
Continuous
 62
     7
370
    25
100
AcDbCircle
 10
160.3160192546
 20
22.2993909728
 30
0.0
 40
0.5000000000000029
100
AcDbArc
 50
270.0
 51
0.5
  0
ARC
  5
181
330
154
100
AcDbEntity
  8
0
  6
Continuous
 62
     7
370
    25
100
AcDbCircle
 10
-75.0
 20
6.7993909728
 30
0.0
 40
14.99999999999996
100
AcDbArc
 50
0.0
 51
90.0
  0
ARC
  5
182
330
154
100
AcDbEntity
  8
0
  6
Continuous
 62
     7
370
    25
100
AcDbCircle
 10
75.0
 20
6.7993909728
 30
0.0
 40
14.99999999999998
100
AcDbArc
 50
90.0
 51
180.0
  0
ARC
  5
183
330
154
100
AcDbEntity
  8
0
  6
Continuous
 62
     7
370
    25
100
AcDbCircle
 10
-59.0
 20
1.0
 30
0.0
 40
1.000000000000009
100
AcDbArc
 50
180.0
 51
270.0
  0
ARC
  5
184
330
154
100
AcDbEntity
  8
0
  6
Continuous
 62
     7
370
    25
100
AcDbCircle
 10
59.0
 20
1.0
 30
0.0
 40
0.9999999999999717
100
AcDbArc
 50
270.0
 51
0.0
  0
VIEWPORT
  5
356
330
154
100
AcDbEntity
  8
0
100
AcDbViewport
 10
0.0
 20
0.0
 30
0.0
 40
205.6
 41
156.0
 68
     1
 69
     1
 12
69.9628822538
 22
9.5919903727
 13
0.0
 23
0.0
 14
10.0
 24
10.0
 15
10.0
 25
10.0
 16
0.0
 26
0.0
 36
1.0
 17
0.0
 27
0.0
 37
0.0
 42
50.0
 43
0.0
 44
0.0
 45
357.2134125293
 50
0.0
 51
0.0
 72
   100
 90
   557152
  1

281
     0
 71
     1
 74
     0
110
0.0
120
0.0
130
0.0
111
1.0
121
0.0
131
0.0
112
0.0
122
1.0
132
0.0
 79
     0
146
0.0
  0
ENDBLK
  5
157
330
154
100
AcDbEntity
  8
0
100
AcDbBlockEnd
  0
BLOCK
  5
187
330
185
100
AcDbEntity
  8
0
100
AcDbBlockBegin
  2
*Paper_Space4
 70
     0
 10
0.0
 20
0.0
 30
0.0
  3
*Paper_Space4
  1

  0
SPLINE
  5
195
330
185
100
AcDbEntity
  8
0
  6
Continuous
 62
     7
370
    25
100
AcDbSpline
210
0.0
220
0.0
230
1.0
 70
     8
 71
     3
 72
    10
 73
     6
 74
     0
 42
0.000000001
 43
0.00000001
 40
0.0
 40
0.0
 40
0.0
 40
0.0
 40
0.5
 40
0.5
 40
1.0
 40
1.0
 40
1.0
 40
1.0
 10
-156.7948514313328
 20
22.30375424050183
 30
0.0
 10
-156.795789218925
 20
22.16904579958347
 30
0.0
 10
-156.7385530643898
 20
22.0374480108472
 30
0.0
 10
-156.5476083752259
 20
21.85253482032191
 30
0.0
 10
-156.4141915839032
 20
21.79939097275265
 30
0.0
 10
-156.2809998788234
 20
21.79939097275265
 30
0.0
  0
LINE
  5
1A5
330
185
100
AcDbEntity
  8
0
  6
Continuous
 62
     7
370
    25
100
AcDbLine
 10
160.8160002161
 20
22.3037542405
 30
0.0
 11
160.0
 21
115.8081175083
 31
0.0
  0
LINE
  5
1A6
330
185
100
AcDbEntity
  8
0
  6
Continuous
 62
     7
370
    25
100
AcDbLine
 10
-160.0
 20
115.8081175083
 30
0.0
 11
-160.0786179654
 21
106.7993909728
 31
0.0
  0
LINE
  5
1A7
330
185
100
AcDbEntity
  8
0
  6
Continuous
 62
     7
370
    25
100
AcDbLine
 10
-60.0
 20
6.7993909728
 30
0.0
 11
-60.0
 21
1.0
 31
0.0
  0
LINE
  5
1A8
330
185
100
AcDbEntity
  8
0
  6
Continuous
 62
     7
370
    25
100
AcDbLine
 10
60.0
 20
1.0
 30
0.0
 11
60.0
 21
6.7993909728
 31
0.0
  0
LINE
  5
1A9
330
185
100
AcDbEntity
  8
0
  6
Continuous
 62
     7
370
    25
100
AcDbLine
 10
-180.0
 20
21.7993909728
 30
0.0
 11
160.3160192546
 21
21.7993909728
 31
0.0
  0
LINE
  5
1AA
330
185
100
AcDbEntity
  8
0
  6
Continuous
 62
     7
370
    25
100
AcDbLine
 10
-156.2055182435
 20
106.7993909728
 30
0.0
 11
-156.7948514313
 21
22.3037542405
 31
0.0
  0
LINE
  5
1AB
330
185
100
AcDbEntity
  8
0
  6
Continuous
 62
     7
370
    25
100
AcDbLine
 10
-159.0000380769
 20
116.7993909728
 30
0.0
 11
159.0000380769
 21
116.7993909728
 31
0.0
  0
LINE
  5
1AC
330
185
100
AcDbEntity
  8
0
  6
Continuous
 62
     7
370
    25
100
AcDbLine
 10
-59.0
 20
0.0
 30
0.0
 11
59.0
 21
0.0
 31
0.0
  0
LINE
  5
1AD
330
185
100
AcDbEntity
  8
0
  6
Continuous
 62
     7
370
    25
100
AcDbLine
 10
-180.0
 20
106.7993909728
 30
0.0
 11
-180.0
 21
21.7993909728
 31
0.0
  0
LINE
  5
1AE
330
185
100
AcDbEntity
  8
0
  6
Continuous
 62
     7
370
    25
100
AcDbLine
 10
-156.2055182435
 20
106.7993909728
 30
0.0
 11
-180.0
 21
106.7993909728
 31
0.0
  0
LINE
  5
1AF
330
185
100
AcDbEntity
  8
0
  6
Continuous
 62
    60
370
    25
100
AcDbLine
 10
-156.7948514313
 20
22.3037542405
 30
0.0
 11
160.8160002161
 21
22.3037542405
 31
0.0
  0
LINE
  5
1B0
330
185
100
AcDbEntity
  8
0
  6
Continuous
 62
    60
370
    25
100
AcDbLine
 10
-160.0
 20
115.8081175083
 30
0.0
 11
160.0
 21
115.8081175083
 31
0.0
  0
LINE
  5
1B1
330
185
100
AcDbEntity
  8
0
  6
Continuous
 62
    60
370
    25
100
AcDbLine
 10
-60.0
 20
6.7993909728
 30
0.0
 11
60.0
 21
6.7993909728
 31
0.0
  0
LINE
  5
1B2
330
185
100
AcDbEntity
  8
0
  6
Continuous
 62
    60
370
    25
100
AcDbLine
 10
-60.0
 20
1.0
 30
0.0
 11
60.0
 21
1.0
 31
0.0
  0
ARC
  5
1B3
330
185
100
AcDbEntity
  8
0
  6
Continuous
 62
     7
370
    25
100
AcDbCircle
 10
160.3160192546
 20
22.2993909728
 30
0.0
 40
0.5000000000000029
100
AcDbArc
 50
270.0
 51
0.5
  0
ARC
  5
1B4
330
185
100
AcDbEntity
  8
0
  6
Continuous
 62
     7
370
    25
100
AcDbCircle
 10
-159.0000380769
 20
115.7993909728
 30
0.0
 40
1.000000000000014
100
AcDbArc
 50
90.0
 51
179.5
  0
ARC
  5
1B5
330
185
100
AcDbEntity
  8
0
  6
Continuous
 62
     7
370
    25
100
AcDbCircle
 10
159.0000380769
 20
115.7993909728
 30
0.0
 40
1.000000000000034
100
AcDbArc
 50
0.5
 51
90.0
  0
ARC
  5
1B6
330
185
100
AcDbEntity
  8
0
  6
Continuous
 62
     7
370
    25
100
AcDbCircle
 10
-75.0
 20
6.7993909728
 30
0.0
 40
14.99999999999998
100
AcDbArc
 50
0.0
 51
90.0
  0
ARC
  5
1B7
330
185
100
AcDbEntity
  8
0
  6
Continuous
 62
     7
370
    25
100
AcDbCircle
 10
75.0
 20
6.7993909728
 30
0.0
 40
14.99999999999998
100
AcDbArc
 50
90.0
 51
180.0
  0
ARC
  5
1B8
330
185
100
AcDbEntity
  8
0
  6
Continuous
 62
     7
370
    25
100
AcDbCircle
 10
-59.0
 20
1.0
 30
0.0
 40
1.000000000000014
100
AcDbArc
 50
180.0
 51
270.0
  0
ARC
  5
1B9
330
185
100
AcDbEntity
  8
0
  6
Continuous
 62
     7
370
    25
100
AcDbCircle
 10
59.0
 20
1.0
 30
0.0
 40
1.000000000000021
100
AcDbArc
 50
270.0
 51
0.0
  0
VIEWPORT
  5
358
330
185
100
AcDbEntity
  8
0
100
AcDbViewport
 10
0.0
 20
0.0
 30
0.0
 40
205.6
 41
156.0
 68
     1
 69
     1
 12
69.9628822538
 22
9.5919903727
 13
0.0
 23
0.0
 14
10.0
 24
10.0
 15
10.0
 25
10.0
 16
0.0
 26
0.0
 36
1.0
 17
0.0
 27
0.0
 37
0.0
 42
50.0
 43
0.0
 44
0.0
 45
357.2134125293
 50
0.0
 51
0.0
 72
   100
 90
   557152
  1

281
     0
 71
     1
 74
     0
110
0.0
120
0.0
130
0.0
111
1.0
121
0.0
131
0.0
112
0.0
122
1.0
132
0.0
 79
     0
146
0.0
  0
ENDBLK
  5
188
330
185
100
AcDbEntity
  8
0
100
AcDbBlockEnd
  0
BLOCK
  5
1BC
330
1BA
100
AcDbEntity
  8
0
100
AcDbBlockBegin
  2
*Paper_Space5
 70
     0
 10
0.0
 20
0.0
 30
0.0
  3
*Paper_Space5
  1

  0
CIRCLE
  5
1CD
330
1BA
100
AcDbEntity
  8
0
  6
Continuous
 62
     7
370
    25
100
AcDbCircle
 10
0.0
 20
0.0
 30
0.0
 40
59.0
  0
CIRCLE
  5
1CE
330
1BA
100
AcDbEntity
  8
0
  6
Continuous
 62
     7
370
    25
100
AcDbCircle
 10
0.0
 20
0.0
 30
0.0
 40
23.00000000000001
  0
CIRCLE
  5
1CF
330
1BA
100
AcDbEntity
  8
0
  6
Continuous
 62
     7
370
    25
100
AcDbCircle
 10
0.0
 20
0.0
 30
0.0
 40
59.99999999999998
  0
LWPOLYLINE
  5
1F1
330
1BA
100
AcDbEntity
  8
0
  6
Continuous
 62
     7
370
    25
100
AcDbPolyline
 90
       37
 70
   128
 43
0.0
 10
7.5
 20
-168.8740053725
 10
8.7155372437
 20
-168.8712206116
 10
9.8941410033
 20
-168.8629509424
 10
11.0
 20
-168.8494476346
 10
11.9995132678
 20
-168.8311209795
 10
12.8623111018
 20
-168.8085278231
 10
13.5621778265
 20
-168.782354647
 10
14.0778483455
 20
-168.7533967101
 10
14.3936542711
 20
-168.7225338845
 10
14.5
 20
-168.6907039215
 10
14.3936542711
 20
-168.6588739586
 10
14.0778483455
 20
-168.628011133
 10
13.5621778265
 20
-168.599053196
 10
12.8623111018
 20
-168.57288002
 10
11.9995132678
 20
-168.5502868636
 10
11.0
 20
-168.5319602084
 10
9.8941410033
 20
-168.5184569007
 10
8.7155372437
 20
-168.5101872315
 10
7.5
 20
-168.5074024706
 10
6.2844627563
 20
-168.5101872315
 10
5.1058589967
 20
-168.5184569007
 10
4.0
 20
-168.5319602084
 10
3.0004867322
 20
-168.5502868636
 10
2.1376888982
 20
-168.57288002
 10
1.4378221735
 20
-168.599053196
 10
0.9221516545
 20
-168.628011133
 10
0.6063457289
 20
-168.6588739586
 10
0.5
 20
-168.6907039215
 10
0.6063457289
 20
-168.7225338845
 10
0.9221516545
 20
-168.7533967101
 10
1.4378221735
 20
-168.782354647
 10
2.1376888982
 20
-168.8085278231
 10
3.0004867322
 20
-168.8311209795
 10
4.0
 20
-168.8494476346
 10
5.1058589967
 20
-168.8629509424
 10
6.2844627563
 20
-168.8712206116
 10
7.5
 20
-168.8740053725
  0
LWPOLYLINE
  5
1F2
330
1BA
100
AcDbEntity
  8
0
  6
Continuous
 62
     7
370
    25
100
AcDbPolyline
 90
       37
 70
   128
 43
0.0
 10
257.5
 20
-168.8740053725
 10
258.7155372437
 20
-168.8712206116
 10
259.8941410033
 20
-168.8629509424
 10
261.0
 20
-168.8494476346
 10
261.9995132678
 20
-168.8311209795
 10
262.8623111018
 20
-168.8085278231
 10
263.5621778265
 20
-168.782354647
 10
264.0778483455
 20
-168.7533967101
 10
264.3936542711
 20
-168.7225338845
 10
264.5
 20
-168.6907039215
 10
264.3936542711
 20
-168.6588739586
 10
264.0778483455
 20
-168.628011133
 10
263.5621778265
 20
-168.599053196
 10
262.8623111018
 20
-168.57288002
 10
261.9995132678
 20
-168.5502868636
 10
261.0
 20
-168.5319602084
 10
259.8941410033
 20
-168.5184569007
 10
258.7155372437
 20
-168.5101872315
 10
257.5
 20
-168.5074024706
 10
256.2844627563
 20
-168.5101872315
 10
255.1058589967
 20
-168.5184569007
 10
254.0
 20
-168.5319602084
 10
253.0004867322
 20
-168.5502868636
 10
252.1376888982
 20
-168.57288002
 10
251.4378221735
 20
-168.599053196
 10
250.9221516545
 20
-168.628011133
 10
250.6063457289
 20
-168.6588739586
 10
250.5
 20
-168.6907039215
 10
250.6063457289
 20
-168.7225338845
 10
250.9221516545
 20
-168.7533967101
 10
251.4378221735
 20
-168.782354647
 10
252.1376888982
 20
-168.8085278231
 10
253.0004867322
 20
-168.8311209795
 10
254.0
 20
-168.8494476346
 10
255.1058589967
 20
-168.8629509424
 10
256.2844627563
 20
-168.8712206116
 10
257.5
 20
-168.8740053725
  0
LINE
  5
1FA
330
1BA
100
AcDbEntity
  8
0
  6
Continuous
 62
     7
370
    25
100
AcDbLine
 10
-21.7
 20
4.0
 30
0.0
 11
-22.6495033058
 21
4.0
 31
0.0
  0
LINE
  5
1FB
330
1BA
100
AcDbEntity
  8
0
  6
Continuous
 62
     7
370
    25
100
AcDbLine
 10
-19.7
 20
-2.0
 30
0.0
 11
-19.7
 21
2.0
 31
0.0
  0
LINE
  5
1FC
330
1BA
100
AcDbEntity
  8
0
  6
Continuous
 62
     7
370
    25
100
AcDbLine
 10
-22.6495033058
 20
-4.0
 30
0.0
 11
-21.7
 21
-4.0
 31
0.0
  0
LINE
  5
1FD
330
1BA
100
AcDbEntity
  8
0
  6
Continuous
 62
     7
370
    25
100
AcDbLine
 10
14.788853268
 20
-17.6150452459
 30
0.0
 11
14.3141016151
 21
-16.7927512621
 31
0.0
  0
LINE
  5
1FE
330
1BA
100
AcDbEntity
  8
0
  6
Continuous
 62
     7
370
    25
100
AcDbLine
 10
7.3858983849
 20
-20.7927512621
 30
0.0
 11
7.8606500378
 21
-21.6150452459
 31
0.0
  0
LINE
  5
1FF
330
1BA
100
AcDbEntity
  8
0
  6
Continuous
 62
     7
370
    25
100
AcDbLine
 10
11.5820508076
 20
-16.0607004546
 30
0.0
 11
8.1179491924
 21
-18.0607004546
 31
0.0
  0
LINE
  5
200
330
1BA
100
AcDbEntity
  8
0
  6
Continuous
 62
     7
370
    25
100
AcDbLine
 10
14.3141016151
 20
16.7927512621
 30
0.0
 11
14.788853268
 21
17.6150452459
 31
0.0
  0
LINE
  5
201
330
1BA
100
AcDbEntity
  8
0
  6
Continuous
 62
     7
370
    25
100
AcDbLine
 10
7.8606500378
 20
21.6150452459
 30
0.0
 11
7.3858983849
 21
20.7927512621
 31
0.0
  0
LINE
  5
202
330
1BA
100
AcDbEntity
  8
0
  6
Continuous
 62
     7
370
    25
100
AcDbLine
 10
8.1179491924
 20
18.0607004546
 30
0.0
 11
11.5820508076
 21
16.0607004546
 31
0.0
  0
LINE
  5
203
330
1BA
100
AcDbEntity
  8
0
  6
Continuous
 62
     7
370
    25
100
AcDbLine
 10
-25.7417837622
 20
-91.5
 30
0.0
 11
-25.7417837622
 21
-153.5
 31
0.0
  0
LINE
  5
204
330
1BA
100
AcDbEntity
  8
0
  6
Continuous
 62
     7
370
    25
100
AcDbLine
 10
-9.2417837622
 20
-170.0
 30
0.0
 11
274.2417837622
 21
-170.0
 31
0.0
  0
LINE
  5
205
330
1BA
100
AcDbEntity
  8
0
  6
Continuous
 62
     7
370
    25
100
AcDbLine
 10
290.7417837622
 20
-153.5
 30
0.0
 11
290.7417837622
 21
-80.7582162378
 31
0.0
  0
LINE
  5
206
330
1BA
100
AcDbEntity
  8
0
  6
Continuous
 62
     7
370
    25
100
AcDbLine
 10
274.2417837622
 20
-64.2582162378
 30
0.0
 11
43.0158169757
 21
-64.2582162378
 31
0.0
  0
LINE
  5
207
330
1BA
100
AcDbEntity
  8
0
  6
Continuous
 62
     7
370
    25
100
AcDbLine
 10
0.0
 20
-75.0
 30
0.0
 11
-9.2417837622
 21
-75.0
 31
0.0
  0
LINE
  5
208
330
1BA
100
AcDbEntity
  8
0
  6
Continuous
 62
     7
370
    25
100
AcDbLine
 10
300.7417837622
 20
-180.0
 30
0.0
 11
300.7417837622
 21
-54.2582162378
 31
0.0
  0
LINE
  5
209
330
1BA
100
AcDbEntity
  8
0
  6
Continuous
 62
     7
370
    25
100
AcDbLine
 10
-35.7417837622
 20
-180.0
 30
0.0
 11
300.7417837622
 21
-180.0
 31
0.0
  0
LINE
  5
20A
330
1BA
100
AcDbEntity
  8
0
  6
Continuous
 62
     7
370
    25
100
AcDbLine
 10
-35.7417837622
 20
-156.2809998788
 30
0.0
 11
-35.7417837622
 21
-180.0
 31
0.0
  0
LINE
  5
20B
330
1BA
100
AcDbEntity
  8
0
  6
Continuous
 62
     7
370
    25
100
AcDbLine
 10
300.7417837622
 20
-54.2582162378
 30
0.0
 11
150.8551358102
 21
-54.2582162378
 31
0.0
  0
LINE
  5
20C
330
1BA
100
AcDbEntity
  8
0
  6
Continuous
 62
     7
370
    25
100
AcDbLine
 10
36.1452208467
 20
-67.8593077226
 30
0.0
 11
35.2588663736
 21
-66.1952592113
 31
0.0
  0
LINE
  5
20D
330
1BA
100
AcDbEntity
  8
0
  6
Continuous
 62
     7
370
    25
100
AcDbLine
 10
43.0158169757
 20
-66.1436025908
 30
0.0
 11
43.0158169757
 21
-64.2582162378
 31
0.0
  0
LINE
  5
20E
330
1BA
100
AcDbEntity
  8
0
  6
Continuous
 62
     7
370
    25
100
AcDbLine
 10
0.0
 20
-76.885386353
 30
0.0
 11
0.0
 21
-75.0
 31
0.0
  0
LINE
  5
20F
330
1BA
100
AcDbEntity
  8
0
  6
Continuous
 62
     7
370
    25
100
AcDbLine
 10
-23.8563974092
 20
-91.5
 30
0.0
 11
-23.8563974092
 21
-153.5
 31
0.0
  0
LINE
  5
210
330
1BA
100
AcDbEntity
  8
0
  6
Continuous
 62
     7
370
    25
100
AcDbLine
 10
-23.8563974092
 20
-153.5
 30
0.0
 11
-25.7417837622
 21
-153.5
 31
0.0
  0
LINE
  5
211
330
1BA
100
AcDbEntity
  8
0
  6
Continuous
 62
     7
370
    25
100
AcDbLine
 10
-23.8563974092
 20
-91.5
 30
0.0
 11
-25.7417837622
 21
-91.5
 31
0.0
  0
LINE
  5
212
330
1BA
100
AcDbEntity
  8
0
  6
Continuous
 62
     7
370
    25
100
AcDbLine
 10
-9.2417837622
 20
-76.885386353
 30
0.0
 11
-9.2417837622
 21
-75.0
 31
0.0
  0
LINE
  5
213
330
1BA
100
AcDbEntity
  8
0
  6
Continuous
 62
     7
370
    25
100
AcDbLine
 10
-9.2417837622
 20
-168.114613647
 30
0.0
 11
-9.2417837622
 21
-170.0
 31
0.0
  0
LINE
  5
214
330
1BA
100
AcDbEntity
  8
0
  6
Continuous
 62
     7
370
    25
100
AcDbLine
 10
0.0
 20
-76.885386353
 30
0.0
 11
-9.2417837622
 21
-76.885386353
 31
0.0
  0
LINE
  5
215
330
1BA
100
AcDbEntity
  8
0
  6
Continuous
 62
     7
370
    25
100
AcDbLine
 10
-9.2417837622
 20
-168.114613647
 30
0.0
 11
274.2417837622
 21
-168.114613647
 31
0.0
  0
LINE
  5
216
330
1BA
100
AcDbEntity
  8
0
  6
Continuous
 62
     7
370
    25
100
AcDbLine
 10
274.2417837622
 20
-168.114613647
 30
0.0
 11
274.2417837622
 21
-170.0
 31
0.0
  0
LINE
  5
217
330
1BA
100
AcDbEntity
  8
0
  6
Continuous
 62
     7
370
    25
100
AcDbLine
 10
274.2417837622
 20
-66.1436025908
 30
0.0
 11
43.0158169757
 21
-66.1436025908
 31
0.0
  0
LINE
  5
218
330
1BA
100
AcDbEntity
  8
0
  6
Continuous
 62
     7
370
    25
100
AcDbLine
 10
274.2417837622
 20
-66.1436025908
 30
0.0
 11
274.2417837622
 21
-64.2582162378
 31
0.0
  0
LINE
  5
219
330
1BA
100
AcDbEntity
  8
0
  6
Continuous
 62
     7
370
    25
100
AcDbLine
 10
288.8563974092
 20
-153.5
 30
0.0
 11
288.8563974092
 21
-80.7582162378
 31
0.0
  0
LINE
  5
21A
330
1BA
100
AcDbEntity
  8
0
  6
Continuous
 62
     7
370
    25
100
AcDbLine
 10
288.8563974092
 20
-80.7582162378
 30
0.0
 11
290.7417837622
 21
-80.7582162378
 31
0.0
  0
LINE
  5
21B
330
1BA
100
AcDbEntity
  8
0
  6
Continuous
 62
     7
370
    25
100
AcDbLine
 10
288.8563974092
 20
-153.5
 30
0.0
 11
290.7417837622
 21
-153.5
 31
0.0
  0
ARC
  5
21C
330
1BA
100
AcDbEntity
  8
0
  6
Continuous
 62
     7
370
    25
100
AcDbCircle
 10
-21.7
 20
-2.0
 30
0.0
 40
2.000000000000021
100
AcDbArc
 50
270.0
 51
0.0
  0
ARC
  5
21D
330
1BA
100
AcDbEntity
  8
0
  6
Continuous
 62
     7
370
    25
100
AcDbCircle
 10
-21.7
 20
2.0
 30
0.0
 40
2.000000000000009
100
AcDbArc
 50
0.0
 51
90.0
  0
ARC
  5
21E
330
1BA
100
AcDbEntity
  8
0
  6
Continuous
 62
     7
370
    25
100
AcDbCircle
 10
9.1179491924
 20
-19.7927512621
 30
0.0
 40
2.000000000000005
100
AcDbArc
 50
120.0
 51
210.0
  0
ARC
  5
21F
330
1BA
100
AcDbEntity
  8
0
  6
Continuous
 62
     7
370
    25
100
AcDbCircle
 10
12.5820508076
 20
-17.7927512621
 30
0.0
 40
2.000000000000014
100
AcDbArc
 50
30.0
 51
120.0
  0
ARC
  5
220
330
1BA
100
AcDbEntity
  8
0
  6
Continuous
 62
     7
370
    25
100
AcDbCircle
 10
12.5820508076
 20
17.7927512621
 30
0.0
 40
1.999999999999999
100
AcDbArc
 50
240.0
 51
330.0
  0
ARC
  5
221
330
1BA
100
AcDbEntity
  8
0
  6
Continuous
 62
     7
370
    25
100
AcDbCircle
 10
9.1179491924
 20
19.7927512621
 30
0.0
 40
2.000000000000018
100
AcDbArc
 50
150.0
 51
240.0
  0
ARC
  5
222
330
1BA
100
AcDbEntity
  8
0
  6
Continuous
 62
     7
370
    25
100
AcDbCircle
 10
0.0
 20
0.0
 30
0.0
 40
75.00000000000013
100
AcDbArc
 50
298.0419706141
 51
270.0
  0
ARC
  5
223
330
1BA
100
AcDbEntity
  8
0
  6
Continuous
 62
     7
370
    25
100
AcDbCircle
 10
0.0
 20
0.0
 30
0.0
 40
160.3160192545639
100
AcDbArc
 50
340.2178134355
 51
257.1178866238
  0
ARC
  5
224
330
1BA
100
AcDbEntity
  8
0
  6
Continuous
 62
     7
370
    25
100
AcDbCircle
 10
0.0
 20
0.0
 30
0.0
 40
160.8160002160962
100
AcDbArc
 50
340.28020434
 51
257.1602313271
  0
ARC
  5
225
330
1BA
100
AcDbEntity
  8
0
  6
Continuous
 62
     7
370
    25
100
AcDbCircle
 10
-9.2417837622
 20
-153.5
 30
0.0
 40
16.50000000000001
100
AcDbArc
 50
180.0
 51
270.0
  0
ARC
  5
226
330
1BA
100
AcDbEntity
  8
0
  6
Continuous
 62
     7
370
    25
100
AcDbCircle
 10
274.2417837622
 20
-153.5
 30
0.0
 40
16.50000000000006
100
AcDbArc
 50
270.0
 51
0.0
  0
ARC
  5
227
330
1BA
100
AcDbEntity
  8
0
  6
Continuous
 62
     7
370
    25
100
AcDbCircle
 10
274.2417837622
 20
-80.7582162378
 30
0.0
 40
16.5
100
AcDbArc
 50
0.0
 51
90.0
  0
ARC
  5
228
330
1BA
100
AcDbEntity
  8
0
  6
Continuous
 62
     7
370
    25
100
AcDbCircle
 10
43.0158169757
 20
-80.7582162378
 30
0.0
 40
16.49999999999933
100
AcDbArc
 50
90.0
 51
118.0419706141
  0
ARC
  5
229
330
1BA
100
AcDbEntity
  8
0
  6
Continuous
 62
     7
370
    25
100
AcDbCircle
 10
-9.2417837622
 20
-91.5
 30
0.0
 40
16.49999999999999
100
AcDbArc
 50
90.0
 51
180.0
  0
ARC
  5
22A
330
1BA
100
AcDbEntity
  8
0
  6
Continuous
 62
     7
370
    25
100
AcDbCircle
 10
43.0158169757
 20
-80.7582162378
 30
0.0
 40
14.61461364701877
100
AcDbArc
 50
90.0
 51
118.0419706141
  0
ARC
  5
22B
330
1BA
100
AcDbEntity
  8
0
  6
Continuous
 62
     7
370
    25
100
AcDbCircle
 10
0.0
 20
0.0
 30
0.0
 40
76.88538635298094
100
AcDbArc
 50
270.0
 51
298.0419706141
  0
ARC
  5
22C
330
1BA
100
AcDbEntity
  8
0
  6
Continuous
 62
     7
370
    25
100
AcDbCircle
 10
-9.2417837622
 20
-91.5
 30
0.0
 40
14.61461364701855
100
AcDbArc
 50
90.0
 51
180.0
  0
ARC
  5
22D
330
1BA
100
AcDbEntity
  8
0
  6
Continuous
 62
     7
370
    25
100
AcDbCircle
 10
-9.2417837622
 20
-153.5
 30
0.0
 40
14.61461364701861
100
AcDbArc
 50
180.0
 51
270.0
  0
ARC
  5
22E
330
1BA
100
AcDbEntity
  8
0
  6
Continuous
 62
     7
370
    25
100
AcDbCircle
 10
274.2417837622
 20
-80.7582162378
 30
0.0
 40
14.61461364701847
100
AcDbArc
 50
0.0
 51
90.0
  0
ARC
  5
22F
330
1BA
100
AcDbEntity
  8
0
  6
Continuous
 62
     7
370
    25
100
AcDbCircle
 10
274.2417837622
 20
-153.5
 30
0.0
 40
14.61461364701859
100
AcDbArc
 50
270.0
 51
0.0
  0
VIEWPORT
  5
35A
330
1BA
100
AcDbEntity
  8
0
100
AcDbViewport
 10
0.0
 20
0.0
 30
0.0
 40
205.6
 41
156.0
 68
     1
 69
     1
 12
69.9628822538
 22
9.5919903727
 13
0.0
 23
0.0
 14
10.0
 24
10.0
 15
10.0
 25
10.0
 16
0.0
 26
0.0
 36
1.0
 17
0.0
 27
0.0
 37
0.0
 42
50.0
 43
0.0
 44
0.0
 45
357.2134125293
 50
0.0
 51
0.0
 72
   100
 90
   557152
  1

281
     0
 71
     1
 74
     0
110
0.0
120
0.0
130
0.0
111
1.0
121
0.0
131
0.0
112
0.0
122
1.0
132
0.0
 79
     0
146
0.0
  0
ENDBLK
  5
1BD
330
1BA
100
AcDbEntity
  8
0
100
AcDbBlockEnd
  0
BLOCK
  5
232
330
230
100
AcDbEntity
  8
0
100
AcDbBlockBegin
  2
*Paper_Space6
 70
     0
 10
0.0
 20
0.0
 30
0.0
  3
*Paper_Space6
  1

  0
SPLINE
  5
234
330
230
100
AcDbEntity
  8
0
  6
Continuous
 62
     7
370
    25
100
AcDbSpline
210
0.0
220
0.0
230
1.0
 70
     8
 71
     3
 72
    43
 73
    39
 74
     0
 42
0.000000001
 43
0.00000001
 40
0.0
 40
0.0
 40
0.0
 40
0.0
 40
0.0092135203708923
 40
0.0368148776224963
 40
0.0644318388206956
 40
0.0922054850224775
 40
0.120236976972164
 40
0.1485610049748854
 40
0.1771509987878686
 40
0.2059427403788402
 40
0.2348624031042958
 40
0.2638464606076035
 40
0.2928467419247859
 40
0.3218327662046888
 40
0.3507939939509122
 40
0.379727576933247
 40
0.4086352534194166
 40
0.437521331883848
 40
0.4663914850840458
 40
0.4952520775895603
 40
0.5241098185019274
 40
0.5529710903483659
 40
0.5818410846307911
 40
0.6107268456728178
 40
0.6396353645105508
 40
0.6685733431865224
 40
0.6975467122303979
 40
0.7265597178055627
 40
0.7556133119541749
 40
0.784702500769018
 40
0.8138111203991987
 40
0.8428961881598128
 40
0.8719000057330497
 40
0.9007446852770762
 40
0.9293455795162747
 40
0.9576394454004442
 40
0.9856178304308605
 40
0.9999999999999999
 40
0.9999999999999999
 40
0.9999999999999999
 40
0.9999999999999999
 10
39.96453673666245
 20
28.04740045502292
 30
0.0
 10
39.97319657415144
 20
28.28682834289745
 30
0.0
 10
40.00779907618688
 20
29.24352112010782
 30
0.0
 10
39.74434263214607
 20
30.913714939708
 30
0.0
 10
39.17652495722768
 20
33.02968196093351
 30
0.0
 10
38.28051262002093
 20
35.09976281449621
 30
0.0
 10
37.08915179692244
 20
37.11189417677186
 30
0.0
 10
35.60045822707741
 20
39.05268977549661
 30
0.0
 10
33.82534599643621
 20
40.9068303064931
 30
0.0
 10
31.77644055286392
 20
42.6581631219497
 30
0.0
 10
29.47124155010567
 20
44.29109913808971
 30
0.0
 10
26.93025441190098
 20
45.79160323126599
 30
0.0
 10
24.17613536431456
 20
47.14761407306699
 30
0.0
 10
21.2326459372607
 20
48.3490891046501
 30
0.0
 10
18.12416195605647
 20
49.38773003821977
 30
0.0
 10
14.87551740238263
 20
50.25668013380853
 30
0.0
 10
11.51222433871597
 20
50.95028670627239
 30
0.0
 10
8.060416517397764
 20
51.4640620820541
 30
0.0
 10
4.546751538847538
 20
51.79468645224401
 30
0.0
 10
0.9982726139672604
 20
51.94002673489074
 30
0.0
 10
-2.557739526448152
 20
51.89915458893491
 30
0.0
 10
-6.093902845414043
 20
51.67236233419142
 30
0.0
 10
-9.583011741284647
 20
51.26116521819594
 30
0.0
 10
-12.99826298900429
 20
50.66826568816774
 30
0.0
 10
-16.31349122950899
 20
49.89748175931587
 30
0.0
 10
-19.50325721633368
 20
48.95368572527338
 30
0.0
 10
-22.54297309324023
 20
47.84272959907741
 30
0.0
 10
-25.40897412170751
 20
46.57137802902034
 30
0.0
 10
-28.07852755609058
 20
45.14727884002776
 30
0.0
 10
-30.52971863768554
 20
43.57904313784877
 30
0.0
 10
-32.74111223505623
 20
41.87670184300305
 30
0.0
 10
-34.69184526978859
 20
40.05213856124408
 30
0.0
 10
-36.36269834257987
 20
38.11978163872184
 30
0.0
 10
-37.73462208211915
 20
36.09690911091832
 30
0.0
 10
-38.79933230722861
 20
34.00408309518325
 30
0.0
 10
-39.52647497520324
 20
31.86346125434063
 30
0.0
 10
-39.91696081551191
 20
30.04359484582854
 30
0.0
 10
-39.94041087602612
 20
28.94231216340829
 30
0.0
 10
-39.94837259300339
 20
28.56840690102791
 30
0.0
  0
SPLINE
  5
237
330
230
100
AcDbEntity
  8
0
  6
Continuous
 62
     7
370
    25
100
AcDbSpline
210
0.0
220
0.0
230
1.0
 70
     8
 71
     3
 72
    17
 73
    13
 74
     0
 42
0.000000001
 43
0.00000001
 40
0.0
 40
0.0
 40
0.0
 40
0.0
 40
0.0548696943370222
 40
0.1683693985451414
 40
0.2818645703729253
 40
0.395918315063533
 40
0.5109845205239764
 40
0.6272494514537987
 40
0.7446380594768187
 40
0.8629025721959157
 40
0.9817389991704555
 40
1.0
 40
1.0
 40
1.0
 40
1.0
 10
-39.94837259300338
 20
25.30224365348514
 30
0.0
 10
-39.97048862371461
 20
24.95564463063817
 30
0.0
 10
-40.03835236587769
 20
23.89209452856109
 30
0.0
 10
-39.81069201323249
 20
22.1115991784007
 30
0.0
 10
-39.28712542448481
 20
19.98988600258955
 30
0.0
 10
-38.43946662015675
 20
17.91184278143618
 30
0.0
 10
-37.29467824864103
 20
15.88973209695289
 30
0.0
 10
-35.85075608923409
 20
13.93739547639625
 30
0.0
 10
-34.12292867490492
 20
12.06664159736861
 30
0.0
 10
-32.10289426096362
 20
10.30600293253202
 30
0.0
 10
-30.51243560738039
 20
9.100635185684949
 30
0.0
 10
-29.55684114039625
 20
8.513957105580259
 30
0.0
 10
-29.42955858204481
 20
8.435813196689582
 30
0.0
  0
SPLINE
  5
238
330
230
100
AcDbEntity
  8
0
  6
Continuous
 62
     7
370
    25
100
AcDbSpline
210
0.0
220
0.0
230
1.0
 70
     8
 71
     3
 72
    16
 73
    12
 74
     0
 42
0.000000001
 43
0.00000001
 40
0.0
 40
0.0
 40
0.0
 40
0.0
 40
0.0782492338348714
 40
0.2006495535659786
 40
0.3229192717303125
 40
0.444801218764332
 40
0.5659581031064279
 40
0.6860388702697896
 40
0.8048047242356007
 40
0.9222657940054425
 40
1.0
 40
1.0
 40
1.0
 40
1.0
 10
29.30623237925445
 20
8.375755944825759
 30
0.0
 10
29.82915909872577
 20
8.709665199165052
 30
0.0
 10
31.17006696027833
 20
9.565887548333528
 30
0.0
 10
33.05654609822926
 20
11.09579485605187
 30
0.0
 10
34.97242733459724
 20
12.93370810696514
 30
0.0
 10
36.59594715085164
 20
14.88256326043039
 30
0.0
 10
37.92090776944271
 20
16.91742317325308
 30
0.0
 10
38.93513849044582
 20
19.01931229319915
 30
0.0
 10
39.61499996445088
 20
21.16492413036298
 30
0.0
 10
39.97326143308126
 20
23.0934228073292
 30
0.0
 10
39.96702165454047
 20
24.30052361283167
 30
0.0
 10
39.96453673666245
 20
24.78123720748024
 30
0.0
  0
SPLINE
  5
23C
330
230
100
AcDbEntity
  8
0
  6
Continuous
 62
     7
370
    25
100
AcDbSpline
210
0.0
220
0.0
230
1.0
 70
     8
 71
     3
 72
    54
 73
    50
 74
     0
 42
0.000000001
 43
0.00000001
 40
0.0
 40
0.0
 40
0.0
 40
0.0
 40
0.0207926451329737
 40
0.0421306536732392
 40
0.0634839512084958
 40
0.0848508485374721
 40
0.1062293002020474
 40
0.1276171482863098
 40
0.1490123039141756
 40
0.1704128651796506
 40
0.1918171804366893
 40
0.2132238701712015
 40
0.2346318208549833
 40
0.2560400884890289
 40
0.2774479105626213
 40
0.2988548608332635
 40
0.3202606497802526
 40
0.341665096995048
 40
0.3630681076596233
 40
0.3844696530659202
 40
0.4058697548406952
 40
0.4272684724035257
 40
0.4486658931522864
 40
0.4700621248941679
 40
0.4914572900915626
 40
0.5128515215532631
 40
0.5342449592620232
 40
0.5556377480846304
 40
0.5770300361580528
 40
0.598421973784091
 40
0.6198137126959842
 40
0.6412054055838565
 40
0.6625971872592963
 40
0.6839891788867867
 40
0.7053815344858415
 40
0.7267744080484188
 40
0.7481679531045383
 40
0.7695623220567551
 40
0.7909576651679424
 40
0.8123541290696633
 40
0.8337518546283887
 40
0.8551509739687065
 40
0.8765516064056796
 40
0.8979538529831519
 40
0.9193577892524077
 40
0.9407634558603357
 40
0.962170846456504
 40
0.9835798923898356
 40
1.0
 40
1.0
 40
1.0
 40
1.0
 10
153.9260298825931
 20
119.9068532626658
 30
0.0
 10
153.2687066869759
 20
121.1940617214952
 30
0.0
 10
151.9368195832028
 20
123.8022404037834
 30
0.0
 10
149.5519491258378
 20
127.6583356514253
 30
0.0
 10
146.874067943018
 20
131.4853124036249
 30
0.0
 10
143.8988726871181
 20
135.2381425798796
 30
0.0
 10
140.6401606439491
 20
138.9105846088632
 30
0.0
 10
137.1023549305953
 20
142.494826025803
 30
0.0
 10
133.2931624266492
 20
145.9837347746167
 30
0.0
 10
129.2201341583492
 20
149.3702885412447
 30
0.0
 10
124.8915435858982
 20
152.6477498909516
 30
0.0
 10
120.316110797116
 20
155.8096332397641
 30
0.0
 10
115.5030461324136
 20
158.8497188378253
 30
0.0
 10
110.4620122225958
 20
161.7620532390161
 30
0.0
 10
105.203095843586
 20
164.5409617458301
 30
0.0
 10
99.73677940680837
 20
167.1810538289816
 30
0.0
 10
94.0739177663224
 20
169.6772268155068
 30
0.0
 10
88.22573251607575
 20
172.0246635236392
 30
0.0
 10
82.20379275511337
 20
174.218838163028
 30
0.0
 10
76.01999513290905
 20
176.2555226609899
 30
0.0
 10
69.68654307592
 20
178.1307932208365
 30
0.0
 10
63.21592512696661
 20
179.8410369191629
 30
0.0
 10
56.62089240099463
 20
181.3829581713943
 30
0.0
 10
49.91443519553544
 20
182.7535849197546
 30
0.0
 10
43.10975881915937
 20
183.9502744236096
 30
0.0
 10
36.220258714875
 20
184.9707185555914
 30
0.0
 10
29.25949496270614
 20
185.8129485272567
 30
0.0
 10
22.24116624861057
 20
186.475338985004
 30
0.0
 10
15.17908338736096
 20
186.956611430846
 30
0.0
 10
8.087142486030748
 20
187.2558369338229
 30
0.0
 10
0.9792978334784569
 20
187.3724381068381
 30
0.0
 10
-6.13046334903912
 20
187.306190350124
 30
0.0
 10
-13.22814678010364
 20
187.0572226558052
 30
0.0
 10
-20.29978228288604
 20
186.6260175844753
 30
0.0
 10
-27.33145333374669
 20
186.0134099116007
 30
0.0
 10
-34.30932584782467
 20
185.2205842364467
 30
0.0
 10
-41.21967160296859
 20
184.2490724658398
 30
0.0
 10
-48.04889504191415
 20
183.1007504571041
 30
0.0
 10
-54.78355943548497
 20
181.7778337734428
 30
0.0
 10
-61.4104135448779
 20
180.2828732880285
 30
0.0
 10
-67.91641411135582
 20
178.618748017864
 30
0.0
 10
-74.28876117753684
 20
176.788665139896
 30
0.0
 10
-80.51488232984649
 20
174.7961302826287
 30
0.0
 10
-86.58260395433358
 20
172.6450261649717
 30
0.0
 10
-92.47962039035477
 20
170.3392846548036
 30
0.0
 10
-98.19557917136186
 20
167.884074752246
 30
0.0
 10
-103.7143968645055
 20
165.281331456751
 30
0.0
 10
-108.628998335395
 20
162.7589110877609
 30
0.0
 10
-111.6281527191594
 20
161.0619990098836
 30
0.0
 10
-112.9299644994384
 20
160.3254380162126
 30
0.0
  0
SPLINE
  5
23D
330
230
100
AcDbEntity
  8
0
  6
Continuous
 62
     7
370
    25
100
AcDbSpline
210
0.0
220
0.0
230
1.0
 70
     8
 71
     3
 72
    20
 73
    16
 74
     0
 42
0.000000001
 43
0.00000001
 40
0.0
 40
0.0
 40
0.0
 40
0.0
 40
0.0450579385957868
 40
0.1306449884513011
 40
0.2162410369924656
 40
0.3018368596248138
 40
0.3874286227669406
 40
0.473011763645446
 40
0.5585806095898724
 40
0.6441283447564511
 40
0.7296470903839022
 40
0.8151281541669718
 40
0.9005625042728158
 40
0.9859415063689128
 40
1.0
 40
1.0
 40
1.0
 40
1.0
 10
-112.9299644994384
 20
160.3254380162126
 30
0.0
 10
-113.8085413544064
 20
159.8110154877362
 30
0.0
 10
-116.3559651080891
 20
158.3194531263331
 30
0.0
 10
-120.3991201009111
 20
155.7524283673317
 30
0.0
 10
-124.9737306962135
 20
152.5889554853647
 30
0.0
 10
-129.2987918751842
 20
149.3077093591445
 30
0.0
 10
-133.3692217985557
 20
145.917435881971
 30
0.0
 10
-137.1758029891376
 20
142.4241706896929
 30
0.0
 10
-140.7108627540866
 20
138.8349368894751
 30
0.0
 10
-143.967786392084
 20
135.1569461673874
 30
0.0
 10
-146.9373054127983
 20
131.3971827415364
 30
0.0
 10
-149.6229968832852
 20
127.5648478389633
 30
0.0
 10
-151.9832420570737
 20
123.6619517583903
 30
0.0
 10
-153.5457015202765
 20
120.8155147495726
 30
0.0
 10
-154.2275873579234
 20
119.2580907418235
 30
0.0
 10
-154.3239925181256
 20
119.0379018147621
 30
0.0
  0
SPLINE
  5
23E
330
230
100
AcDbEntity
  8
0
  6
Continuous
 62
     7
370
    25
100
AcDbSpline
210
0.0
220
0.0
230
1.0
 70
     8
 71
     3
 72
    53
 73
    49
 74
     0
 42
0.000000001
 43
0.00000001
 40
0.0
 40
0.0
 40
0.0
 40
0.0
 40
0.0031019371458206
 40
0.0257203825085362
 40
0.0483359674114908
 40
0.0709499989980958
 40
0.0935634955436498
 40
0.1161770241909709
 40
0.1387911787223234
 40
0.1614063999118172
 40
0.184022980517796
 40
0.2066410963362991
 40
0.2292608322217938
 40
0.2518822033488816
 40
0.274505172243969
 40
0.297129662203256
 40
0.319755567708234
 40
0.3423827623975155
 40
0.3650111050814036
 40
0.3876404442094528
 40
0.4102706211297754
 40
0.4329014724160434
 40
0.4555328314855117
 40
0.4781645296886776
 40
0.5007963970180308
 40
0.5234282618031443
 40
0.5460598962007843
 40
0.5686911283916223
 40
0.591321786585351
 40
0.6139516994776287
 40
0.6365806969851858
 40
0.6592086113752548
 40
0.6818352789411323
 40
0.7044605424105419
 40
0.727084254317754
 40
0.7497062816253897
 40
0.7723265119470151
 40
0.7949448617959288
 40
0.8175612873646095
 40
0.8401757984144261
 40
0.8627884759096289
 40
0.885399494035122
 40
0.908009147147413
 40
0.9306178819518949
 40
0.9532262967660373
 40
0.9758349825517476
 40
0.9984449848983019
 40
1.0
 40
1.0
 40
1.0
 40
1.0
 10
128.192908519552
 20
44.84305678960401
 30
0.0
 10
128.0193211662283
 20
44.68923940244766
 30
0.0
 10
126.5799840951508
 20
43.41382928027426
 30
0.0
 10
123.6241816143094
 20
41.11178107227719
 30
0.0
 10
119.3185873376271
 20
37.95239030530402
 30
0.0
 10
114.7438029276467
 20
34.91713110178997
 30
0.0
 10
109.9416384097705
 20
32.00014236534067
 30
0.0
 10
104.9130437674594
 20
29.21072535625364
 30
0.0
 10
99.67053646577622
 20
26.55381149802416
 30
0.0
 10
94.22410884850402
 20
24.0351650896693
 30
0.0
 10
88.58498689671761
 20
21.65997633845787
 30
0.0
 10
82.7645981781252
 20
19.43322253951498
 30
0.0
 10
76.77481578721601
 20
17.35955386766952
 30
0.0
 10
70.62785872347206
 20
15.44330832280456
 30
0.0
 10
64.33628361632263
 20
13.68849395572418
 30
0.0
 10
57.9129514547457
 20
12.09878154454921
 30
0.0
 10
51.37100062696842
 20
10.67749596997316
 30
0.0
 10
44.72381796236279
 20
9.427609285703877
 30
0.0
 10
37.98501005433396
 20
8.351734558530742
 30
0.0
 10
31.16837429008626
 20
7.452120630644814
 30
0.0
 10
24.28786977024341
 20
6.730647690871845
 30
0.0
 10
17.35758809626434
 20
6.188823631266619
 30
0.0
 10
10.39172405952443
 20
5.827781155867524
 30
0.0
 10
3.404546253064036
 20
5.648275621894315
 30
0.0
 10
-3.589632287793049
 20
5.650683597974278
 30
0.0
 10
-10.57647782913226
 20
5.835001966965001
 30
0.0
 10
-17.5416712661703
 20
6.200847364388307
 30
0.0
 10
-24.47093779569723
 20
6.747456855257947
 30
0.0
 10
-31.3500819523156
 20
7.473690125806925
 30
0.0
 10
-38.16501106821653
 20
8.378031380884394
 30
0.0
 10
-44.9017644028607
 20
9.45859208690123
 30
0.0
 10
-51.54654212734587
 20
10.71311441402539
 30
0.0
 10
-58.08573414349004
 20
12.13897538745671
 30
0.0
 10
-64.5059487067623
 20
13.73319177047117
 30
0.0
 10
-70.7940408891337
 20
15.49242569064827
 30
0.0
 10
-76.93714068461232
 20
17.41299111341241
 30
0.0
 10
-82.92268144408197
 20
19.49086098948695
 30
0.0
 10
-88.73842603017269
 20
21.72167602884451
 30
0.0
 10
-94.37250036473681
 20
24.10075196787959
 30
0.0
 10
-99.81339816125494
 20
26.62309758705391
 30
0.0
 10
-105.0500917405211
 20
29.28339847605446
 30
0.0
 10
-110.0717451533754
 20
32.07613540677251
 30
0.0
 10
-114.8689088570739
 20
34.99520830665695
 30
0.0
 10
-119.429179479679
 20
38.0354126931476
 30
0.0
 10
-123.7534883866505
 20
41.18699748617991
 30
0.0
 10
-127.7953828227195
 20
44.45603633352417
 30
0.0
 10
-130.4794359225338
 20
46.75398785482456
 30
0.0
 10
-131.7359311650863
 20
47.98542931073296
 30
0.0
 10
-131.8167864378609
 20
48.06467237624679
 30
0.0
  0
SPLINE
  5
23F
330
230
100
AcDbEntity
  8
0
  6
Continuous
 62
     7
370
    25
100
AcDbSpline
210
0.0
220
0.0
230
1.0
 70
     8
 71
     3
 72
    19
 73
    15
 74
     0
 42
0.000000001
 43
0.00000001
 40
0.0
 40
0.0
 40
0.0
 40
0.0
 40
0.05024312953141
 40
0.1435937390896181
 40
0.235774758817449
 40
0.326183336535675
 40
0.4149405525013016
 40
0.5024793937836238
 40
0.5892436118807666
 40
0.675579260512051
 40
0.7617243183041233
 40
0.847825170853418
 40
0.9339497139276282
 40
1.0
 40
1.0
 40
1.0
 40
1.0
 10
45.17994319310795
 20
26.66229697661008
 30
0.0
 10
45.17223210105421
 20
26.29817846892196
 30
0.0
 10
45.15019397264166
 20
25.25753592777646
 30
0.0
 10
44.76986753677414
 20
23.54598959208203
 30
0.0
 10
44.06387084525429
 20
21.53991930568127
 30
0.0
 10
43.03953354014161
 20
19.57252183612823
 30
0.0
 10
41.72849159895768
 20
17.65875637577341
 30
0.0
 10
40.13661051070628
 20
15.80870228510423
 30
0.0
 10
38.27462960729583
 20
14.03138818700761
 30
0.0
 10
36.1512640239125
 20
12.33741357193052
 30
0.0
 10
33.77996141940162
 20
10.73669173918867
 30
0.0
 10
31.16710871009117
 20
9.247083551288444
 30
0.0
 10
28.57622417765793
 20
7.967760923380579
 30
0.0
 10
26.77560369308064
 20
7.251326720540844
 30
0.0
 10
25.9940585533155
 20
6.940364097385777
 30
0.0
  0
SPLINE
  5
240
330
230
100
AcDbEntity
  8
0
  6
Continuous
 62
     7
370
    25
100
AcDbSpline
210
0.0
220
0.0
230
1.0
 70
     8
 71
     3
 72
    20
 73
    16
 74
     0
 42
0.000000001
 43
0.00000001
 40
0.0
 40
0.0
 40
0.0
 40
0.0
 40
0.0480430954939744
 40
0.1321969449568248
 40
0.2162117282660017
 40
0.3001085742758608
 40
0.3839382260282254
 40
0.4677697877001306
 40
0.5517305800156053
 40
0.6360377134275543
 40
0.7210059808540784
 40
0.8070438447077719
 40
0.8945859979944643
 40
0.9838964489265978
 40
1.0
 40
1.0
 40
1.0
 40
1.0
 10
-25.96510824527499
 20
6.93601454448647
 30
0.0
 10
-26.5528425537063
 20
7.162801261690811
 30
0.0
 10
-28.1700714025567
 20
7.786834972735936
 30
0.0
 10
-30.60548445529526
 20
8.95774140193139
 30
0.0
 10
-33.26226479335106
 20
10.42008881330743
 30
0.0
 10
-35.67460886975888
 20
11.9947135606098
 30
0.0
 10
-37.8381332575287
 20
13.65906859743627
 30
0.0
 10
-39.73775130358914
 20
15.4004114211804
 30
0.0
 10
-41.36502993185924
 20
17.20347211144622
 30
0.0
 10
-42.71474472368838
 20
19.05525923685589
 30
0.0
 10
-43.7816999963644
 20
20.9455844135998
 30
0.0
 10
-44.57303853296637
 20
22.86855908713217
 30
0.0
 10
-45.05136652220661
 20
24.82284313770689
 30
0.0
 10
-45.25942673363124
 20
26.25411099577506
 30
0.0
 10
-45.21268189408613
 20
27.03605469209559
 30
0.0
 10
-45.2055409270731
 20
27.15550818034815
 30
0.0
  0
LWPOLYLINE
  5
241
330
230
100
AcDbEntity
  8
0
  6
Continuous
 62
     7
370
    25
100
AcDbPolyline
 90
       66
 70
   128
 43
0.0
 10
-26.8700576851
 20
14.1007172746
 10
-24.1512838183
 20
12.6760315982
 10
-21.2070159216
 20
11.409476897
 10
-18.0647438313
 20
10.3128786508
 10
-14.753806095
 20
9.3964755022
 10
-11.3051160465
 20
8.6688236604
 10
-7.7508731754
 20
8.1367170145
 10
-4.1242624899
 20
7.805123701
 10
-0.4591446767
 20
7.6771397173
 10
3.2102600467
 20
7.7539600154
 10
6.8496914369
 20
8.0348673448
 10
10.4251691038
 20
8.5172389495
 10
13.9033097756
 20
9.1965710558
 10
17.2516389901
 20
10.0665209228
 10
20.4388942996
 20
11.118966063
 10
23.4353171599
 20
12.3440800798
 10
26.2129307782
 20
13.7304244136
 10
28.7458013245
 20
15.2650551409
 10
31.010280069
 20
16.9336438281
 10
32.9852241838
 20
18.7206113123
 10
34.6521941477
 20
20.6092731594
 10
35.9956259114
 20
22.5819954427
 10
37.0029762145
 20
24.6203593857
 10
37.6648396985
 20
26.7053333336
 10
37.9750367225
 20
28.8174504463
 10
37.9306710605
 20
30.9369904554
 10
37.5321569426
 20
33.044163787
 10
36.7832151879
 20
35.1192963314
 10
35.6908384636
 20
37.1430131351
 10
34.265225997
 20
39.0964192996
 10
32.5196883475
 20
40.9612763979
 10
30.4705231298
 20
42.7201727617
 10
28.1368628475
 20
44.3566860495
 10
25.5404962579
 20
45.8555365778
 10
22.7056649362
 20
47.2027299829
 10
19.6588369388
 20
48.3856878831
 10
16.4284596776
 20
49.3933653191
 10
13.0446943148
 20
50.2163538783
 10
9.5391341559
 20
50.8469695382
 10
5.9445096715
 20
51.2793244103
 10
2.294382902
 20
51.5093817136
 10
-1.3771659024
 20
51.5349934652
 10
-5.0358564799
 20
51.3559205349
 10
-8.6475286222
 20
50.9738348784
 10
-12.1784611198
 20
50.3923039267
 10
-15.5956866072
 20
49.6167572775
 10
-18.8672993708
 20
48.6544360009
 10
-21.9627532436
 20
47.5143250314
 10
-24.853146807
 20
46.2070692779
 10
-27.511493235
 20
44.7448742353
 10
-29.9129722631
 20
43.1413920245
 10
-32.0351619289
 20
41.411593927
 10
-33.8582479192
 20
39.5716306016
 10
-35.3652085712
 20
37.63868129
 10
-36.5419737994
 20
35.6307934193
 10
-37.377556464
 20
33.5667140974
 10
-37.8641549547
 20
31.4657150768
 10
-37.9972260325
 20
29.3474128193
 10
-37.7755272487
 20
27.2315853424
 10
-37.201128545
 20
25.1379875571
 10
-36.2793929273
 20
23.0861668219
 10
-35.0189263929
 20
21.0952804341
 10
-33.431497578
 20
19.1839167635
 10
-31.5319278779
 20
17.3699216977
 10
-29.337953063
 20
15.6702320199
 10
-26.8700576851
 20
14.1007172746
  0
LWPOLYLINE
  5
247
330
230
100
AcDbEntity
  8
0
  6
Continuous
 62
     7
370
    25
100
AcDbPolyline
 90
        9
 70
   128
 43
0.0
 10
43.6945225253
 20
28.6436742149
 10
43.7583887192
 20
28.4203609517
 10
43.7455605955
 20
28.1941457723
 10
43.6565311317
 20
27.9737219991
 10
43.4947216803
 20
27.767560394
 10
43.2663504877
 20
27.5835836319
 10
42.9801937308
 20
27.4288618367
 10
42.6472482532
 20
27.3093408801
 10
42.280308963
 20
27.2296138855
  0
LWPOLYLINE
  5
24C
330
230
100
AcDbEntity
  8
0
  6
Continuous
 62
     7
370
    25
100
AcDbPolyline
 90
       59
 70
   128
 43
0.0
 10
-160.8129393169
 20
18.7847142187
 10
-160.761264733
 20
15.7899516895
 10
-160.387595911
 20
11.4400429075
 10
-159.6609433864
 20
7.1050377981
 10
-158.5829063881
 20
2.7944769131
 10
-157.1558574779
 20
-1.4821529931
 10
-155.3829373291
 20
-5.7154398419
 10
-153.2680478139
 20
-9.8960669447
 10
-150.8158434164
 20
-14.0148335077
 10
-148.0317209892
 20
-18.0626748803
 10
-144.9218078755
 20
-22.0306825058
 10
-141.4929484239
 20
-25.9101235265
 10
-137.7526889257
 20
-29.6924600038
 10
-133.7092610066
 20
-33.3693677083
 10
-129.3715635103
 20
-36.9327544401
 10
-124.749142914
 20
-40.3747778381
 10
-119.8521723182
 20
-43.6878626396
 10
-114.6914290578
 20
-46.8647173522
 10
-109.2782709826
 20
-49.898350301
 10
-103.6246114616
 20
-52.7820850158
 10
-97.7428931631
 20
-55.5095749251
 10
-91.6460606712
 20
-58.0748173235
 10
-85.3475319966
 20
-60.4721665825
 10
-78.8611690467
 20
-62.6963465759
 10
-72.2012471174
 20
-64.7424622912
 10
-65.3824234762
 20
-66.6060106027
 10
-58.4197051044
 20
-68.282890182
 10
-51.3284156687
 20
-69.7694105247
 10
-44.1241617977
 20
-71.0623000718
 10
-36.8227987337
 20
-72.1587134104
 10
-29.4403954385
 20
-73.0562375358
 10
-21.9931992288
 20
-73.7528971617
 10
-14.4976000186
 20
-74.2471590681
 10
-6.9700942478
 20
-74.5379354752
 10
0.5727514229
 20
-74.6245864372
 10
8.1143365727
 20
-74.5069212514
 10
15.6380635549
 20
-74.1851988772
 10
23.1273740254
 20
-73.6601273667
 10
30.5657853844
 20
-72.9328623059
 10
37.936927052
 20
-72.005004272
 10
45.2245764961
 20
-70.8785953105
 10
52.4126949362
 20
-69.556114441
 10
59.485462641
 20
-68.0404722016
 10
66.427313745
 20
-66.335004243
 10
73.2229705063
 20
-64.4434639876
 10
79.8574769298
 20
-62.3700143689
 10
86.316231683
 20
-60.1192186694
 10
92.5850202303
 20
-57.6960304779
 10
98.650046117
 20
-55.1057827876
 10
104.4979613329
 20
-52.3541762588
 10
110.1158956884
 20
-49.4472666732
 10
115.4914851395
 20
-46.391451606
 10
120.6128989992
 20
-43.1934563462
 10
125.4688659741
 20
-39.8603190951
 10
130.0486989711
 20
-36.399375477
 10
134.342318617
 20
-32.8182423943
 10
138.3402754419
 20
-29.1248012648
 10
142.0337706756
 20
-25.3271806754
 10
145.4146756121
 20
-21.4337384929
  0
LWPOLYLINE
  5
24D
330
230
100
AcDbEntity
  8
0
  6
Continuous
 62
     7
370
    25
100
AcDbPolyline
 90
       11
 70
   128
 43
0.0
 10
145.1927166222
 20
48.2905363737
 10
148.260960773
 20
52.3584797407
 10
150.9874439173
 20
56.5067513647
 10
153.3658811531
 20
60.7257889345
 10
155.3907898699
 20
65.0058670137
 10
157.0575023868
 20
69.3371194597
 10
158.3621767124
 20
73.7095621661
 10
159.3018054008
 20
78.1131160776
 10
159.8742224844
 20
82.5376304236
 10
160.0781084665
 20
86.9729061168
 10
160.0755711013
 20
87.7762236554
  0
LWPOLYLINE
  5
24E
330
230
100
AcDbEntity
  8
0
  6
Continuous
 62
     7
370
    25
100
AcDbPolyline
 90
      134
 70
   128
 43
0.0
 10
-112.4300051331
 20
160.2759299657
 10
-117.6140097426
 20
157.1384405749
 10
-122.5355715066
 20
153.8631249194
 10
-127.1837084964
 20
150.4572915092
 10
-131.5480489007
 20
146.9285400903
 10
-135.6188541697
 20
143.284744687
 10
-139.387040745
 20
139.5340360317
 10
-142.8442003288
 20
135.6847834219
 10
-145.9826186464
 20
131.7455760454
 10
-148.7952926592
 20
127.7252038142
 10
-151.2759461917
 20
123.6326377507
 10
-153.419043936
 20
119.4770099702
 10
-155.2198038028
 20
115.2675933032
 10
-156.6742075929
 20
111.0137806042
 10
-157.7790099627
 20
106.7250637926
 10
-158.5317456661
 20
102.4110126728
 10
-158.9307350553
 20
98.0812535796
 10
-158.9750878291
 20
93.7454478986
 10
-158.664705019
 20
89.4132705077
 10
-158.0002792105
 20
85.0943881886
 10
-156.9832929974
 20
80.7984380566
 10
-155.6160156736
 20
76.5350060562
 10
-153.9014981694
 20
72.3136055712
 10
-151.8435662437
 20
68.143656197
 10
-149.4468119475
 20
64.0344627209
 10
-146.7165833767
 20
59.9951943606
 10
-143.6589727388
 20
56.0348643031
 10
-140.2808027589
 20
52.1623095933
 10
-136.589611455
 20
48.3861714152
 10
-132.5936353182
 20
44.7148758095
 10
-128.301790934
 20
41.1566148723
 10
-123.7236550852
 20
37.719328475
 10
-118.8694433831
 20
34.4106865478
 10
-113.7499874723
 20
31.2380719645
 10
-108.3767108605
 20
28.2085640687
 10
-102.761603429
 20
25.3289228773
 10
-96.9171946781
 20
22.6055739957
 10
-90.8565257691
 20
20.0445942802
 10
-84.5931204241
 20
17.6516982779
 10
-78.1409547496
 20
15.4322254754
 10
-71.5144260501
 20
13.3911283845
 10
-64.7283207024
 20
11.532961491
 10
-57.7977811609
 20
9.8618710916
 10
-50.7382721694
 20
8.3815860425
 10
-43.5655462529
 20
7.0954094386
 10
-36.2956085675
 20
6.0062112427
 10
-28.9446811871
 20
5.1164218818
 10
-21.5291669048
 20
4.4280268241
 10
-14.0656126328
 20
3.942562148
 10
-6.5706724791
 20
3.6611111151
 10
0.9389294142
 20
3.5843017526
 10
8.4464361889
 20
3.7123054524
 10
15.9350956617
 20
4.044836588
 10
23.3881977051
 20
4.5811531526
 10
30.7891115341
 20
5.320058414
 10
38.1213228159
 20
6.2599035858
 10
45.3684705203
 20
7.398591506
 10
52.5143834269
 20
8.7335813164
 10
59.5431162097
 20
10.2618941327
 10
66.4389850175
 20
11.9801196916
 10
73.1866024706
 20
13.88442396
 10
79.7709119959
 20
15.9705576903
 10
86.1772214244
 20
18.2338659024
 10
92.3912357745
 20
20.6692982709
 10
98.3990891506
 20
23.2714203937
 10
104.1873756825
 20
26.0344259188
 10
109.7431794396
 20
28.9521495007
 10
115.0541032513
 20
32.018080557
 10
120.1082963698
 20
35.2253777967
 10
124.8944809141
 20
38.5668844856
 10
129.4019770348
 20
42.0351444156
 10
133.6207267457
 20
45.6224185427
 10
137.5413163664
 20
49.3207022555
 10
141.1549975285
 20
53.1217432371
 10
144.4537066963
 20
57.0170598786
 10
147.4300831598
 20
60.9979602055
 10
150.0774854592
 20
65.0555612726
 10
152.3900062048
 20
69.1808089851
 10
154.3624852587
 20
73.3644983026
 10
155.9905212486
 20
77.597293778
 10
157.2704813898
 20
81.8697503897
 10
158.1995095906
 20
86.1723346162
 10
158.775532826
 20
90.4954457099
 10
158.9972657627
 20
94.8294371193
 10
158.864213628
 20
99.164638015
 10
158.3766733131
 20
103.4913748685
 10
157.5357327112
 20
107.7999930383
 10
156.3432682895
 20
112.0808783122
 10
154.8019409025
 20
116.3244783614
 10
152.9151898542
 20
120.5213240547
 10
150.6872252241
 20
124.6620505885
 10
148.1230184723
 20
128.7374183827
 10
145.2282913468
 20
132.7383336981
 10
142.0095031158
 20
136.6558689282
 10
138.4738361543
 20
140.4812825202
 10
134.629179918
 20
144.2060384805
 10
130.4841133381
 20
147.8218254219
 10
126.0478856792
 20
151.3205751101
 10
121.3303958997
 20
154.6944804664
 10
116.342170564
 20
157.9360129886
 10
111.0943403533
 20
161.0379395503
 10
105.5986152288
 20
163.9933385402
 10
99.8672583024
 20
166.7956153076
 10
93.9130584722
 20
169.4385168774
 10
87.7493018865
 20
171.9161459026
 10
81.3897422963
 20
174.2229738241
 10
74.8485703657
 20
176.3538532068
 10
68.1403820072
 20
178.3040292256
 10
61.280145812
 20
180.0691502752
 10
54.2831696495
 20
181.6452776803
 10
47.1650665096
 20
183.0288944844
 10
39.9417196637
 20
184.2169132974
 10
32.6292472231
 20
185.2066831847
 10
25.2439661731
 20
185.9959955828
 10
17.8023559637
 20
186.583089227
 10
10.321021737
 20
186.9666540818
 10
2.816657275
 20
187.1458342641
 10
-4.6939922507
 20
187.1202299528
 10
-12.1941676443
 20
186.8898982811
 10
-19.6671330817
 20
186.4553532092
 10
-27.0962134548
 20
185.8175643768
 10
-34.4648315805
 20
184.9779549404
 10
-41.7565451904
 20
183.9383983968
 10
-48.9550836202
 20
182.7012144033
 10
-56.0443841159
 20
181.269163601
 10
-63.008627676
 20
179.6454414553
 10
-69.83227435
 20
177.8336711252
 10
-76.5000979139
 20
175.8378953787
 10
-82.997219846
 20
173.6625675719
 10
-89.3091425268
 20
171.3125417119
 10
-95.4217815888
 20
168.7930616251
 10
-101.3214973439
 20
166.1097492568
 10
-106.9951252195
 20
163.2685921262
 10
-112.4300051331
 20
160.2759299657
  0
LWPOLYLINE
  5
24F
330
230
100
AcDbEntity
  8
0
  6
Continuous
 62
     7
370
    25
100
AcDbPolyline
 90
      133
 70
   128
 43
0.0
 10
-110.1139062494
 20
158.9388745402
 10
-115.2286151606
 20
155.8422153171
 10
-120.082294197
 20
152.6085704053
 10
-124.6639482145
 20
149.2452650507
 10
-128.9631982931
 20
145.7599182216
 10
-132.9703052486
 20
142.1604253496
 10
-136.676191695
 20
138.4549404437
 10
-140.0724626075
 20
134.6518576191
 10
-143.1514243401
 20
130.7597920816
 10
-145.9061020542
 20
126.7875606115
 10
-148.3302555188
 20
122.7441615905
 10
-150.4183932466
 20
118.6387546181
 10
-152.1657849341
 20
114.4806397613
 10
-153.5684721769
 20
110.2792364879
 10
-154.6232774375
 20
106.0440623275
 10
-155.3278112425
 20
101.7847113117
 10
-155.6804775964
 20
97.5108322405
 10
-155.6804775964
 20
93.2321068248
 10
-155.3278112425
 20
88.9582277536
 10
-154.6232774375
 20
84.6988767378
 10
-153.5684721769
 20
80.4637025774
 10
-152.1657849341
 20
76.262299304
 10
-150.4183932466
 20
72.1041844472
 10
-148.3302555188
 20
67.9987774748
 10
-145.9061020542
 20
63.9553784538
 10
-143.1514243401
 20
59.9831469837
 10
-140.0724626075
 20
56.0910814462
 10
-136.676191695
 20
52.2879986216
 10
-132.9703052486
 20
48.5825137157
 10
-128.9631982931
 20
44.9830208437
 10
-124.6639482145
 20
41.4976740146
 10
-120.082294197
 20
38.13436866
 10
-115.2286151606
 20
34.9007237482
 10
-110.1139062494
 20
31.8040645251
 10
-104.7497539242
 20
28.8514059198
 10
-99.1483097153
 20
26.0494366537
 10
-93.3222626954
 20
23.4045040884
 10
-87.2848107349
 20
20.9225998468
 10
-81.0496306043
 20
18.6093462404
 10
-74.6308469921
 20
16.4699835325
 10
-68.0430005076
 20
14.5093580678
 10
-61.3010147421
 20
12.7319112936
 10
-54.4201624616
 20
11.1416696985
 10
-47.4160310099
 20
9.7422356911
 10
-40.3044869972
 20
8.5367794397
 10
-33.1016403582
 20
7.5280316904
 10
-25.8238078572
 20
6.7182775812
 10
-18.4874761256
 20
6.1093514656
 10
-11.1092643144
 20
5.7026327572
 10
-3.7058864464
 20
5.4990428046
 10
3.7058864464
 20
5.4990428046
 10
11.1092643144
 20
5.7026327572
 10
18.4874761256
 20
6.1093514656
 10
25.8238078572
 20
6.7182775812
 10
33.1016403582
 20
7.5280316904
 10
40.3044869972
 20
8.5367794397
 10
47.4160310099
 20
9.7422356911
 10
54.4201624616
 20
11.1416696985
 10
61.3010147421
 20
12.7319112936
 10
68.0430005076
 20
14.5093580678
 10
74.6308469921
 20
16.4699835325
 10
81.0496306043
 20
18.6093462404
 10
87.2848107349
 20
20.9225998468
 10
93.3222626954
 20
23.4045040884
 10
99.1483097153
 20
26.0494366537
 10
104.7497539242
 20
28.8514059198
 10
110.1139062494
 20
31.8040645251
 10
115.2286151606
 20
34.9007237482
 10
120.082294197
 20
38.13436866
 10
124.6639482145
 20
41.4976740146
 10
128.9631982931
 20
44.9830208437
 10
132.9703052486
 20
48.5825137157
 10
136.676191695
 20
52.2879986216
 10
140.0724626075
 20
56.0910814462
 10
143.1514243401
 20
59.9831469837
 10
145.9061020542
 20
63.9553784538
 10
148.3302555188
 20
67.9987774748
 10
150.4183932466
 20
72.1041844472
 10
152.1657849341
 20
76.262299304
 10
153.5684721769
 20
80.4637025774
 10
154.6232774375
 20
84.6988767378
 10
155.3278112425
 20
88.9582277536
 10
155.6804775964
 20
93.2321068248
 10
155.6804775964
 20
97.5108322405
 10
155.3278112425
 20
101.7847113117
 10
154.6232774375
 20
106.0440623275
 10
153.5684721769
 20
110.2792364879
 10
152.1657849341
 20
114.4806397613
 10
150.4183932466
 20
118.6387546181
 10
148.3302555188
 20
122.7441615905
 10
145.9061020542
 20
126.7875606115
 10
143.1514243401
 20
130.7597920816
 10
140.0724626075
 20
134.6518576191
 10
136.676191695
 20
138.4549404437
 10
132.9703052486
 20
142.1604253496
 10
128.9631982931
 20
145.7599182216
 10
124.6639482145
 20
149.2452650507
 10
120.082294197
 20
152.6085704053
 10
115.2286151606
 20
155.8422153171
 10
110.1139062494
 20
158.9388745402
 10
104.7497539242
 20
161.8915331455
 10
99.1483097153
 20
164.6935024116
 10
93.3222626954
 20
167.3384349769
 10
87.2848107349
 20
169.8203392185
 10
81.0496306043
 20
172.1335928249
 10
74.6308469921
 20
174.2729555328
 10
68.0430005076
 20
176.2335809975
 10
61.3010147421
 20
178.0110277717
 10
54.4201624616
 20
179.6012693669
 10
47.4160310099
 20
181.0007033742
 10
40.3044869972
 20
182.2061596256
 10
33.1016403582
 20
183.2149073749
 10
25.8238078572
 20
184.0246614841
 10
18.4874761256
 20
184.6335875997
 10
11.1092643144
 20
185.0403063081
 10
3.7058864464
 20
185.2438962607
 10
-3.7058864464
 20
185.2438962607
 10
-11.1092643144
 20
185.0403063081
 10
-18.4874761256
 20
184.6335875997
 10
-25.8238078573
 20
184.0246614841
 10
-33.1016403582
 20
183.2149073749
 10
-40.3044869972
 20
182.2061596256
 10
-47.4160310099
 20
181.0007033742
 10
-54.4201624616
 20
179.6012693669
 10
-61.3010147421
 20
178.0110277717
 10
-68.0430005076
 20
176.2335809975
 10
-74.6308469921
 20
174.2729555328
 10
-81.0496306043
 20
172.1335928249
 10
-87.2848107349
 20
169.8203392185
 10
-93.3222626954
 20
167.3384349769
 10
-99.1483097153
 20
164.6935024116
 10
-104.7497539242
 20
161.8915331455
 10
-110.1139062494
 20
158.9388745402
  0
LWPOLYLINE
  5
250
330
230
100
AcDbEntity
  8
0
  6
Continuous
 62
     7
370
    25
100
AcDbPolyline
 90
       15
 70
   128
 43
0.0
 10
-154.6776088279
 20
97.9015964656
 10
-154.7270307434
 20
96.92672771
 10
-154.7270307434
 20
92.6742068469
 10
-154.3765242533
 20
88.4265026476
 10
-153.676305283
 20
84.1932375283
 10
-152.6279600537
 20
79.984001196
 10
-151.2338634046
 20
75.8083289249
 10
-149.4971734129
 20
71.6756799557
 10
-147.4218242401
 20
67.5954160674
 10
-145.0125172195
 20
63.5767803703
 10
-142.2747102064
 20
59.6288763665
 10
-139.2146052144
 20
55.7606473286
 10
-135.8391343653
 20
51.9808560394
 10
-132.1559441865
 20
48.2980649419
 10
-131.7002193605
 20
47.8691699135
  0
LWPOLYLINE
  5
251
330
230
100
AcDbEntity
  8
0
  6
Continuous
 62
     7
370
    25
100
AcDbPolyline
 90
       15
 70
   128
 43
0.0
 10
127.9229777701
 20
44.507700888
 10
128.1733782882
 20
44.7206167424
 10
132.1559441865
 20
48.2980649419
 10
135.8391343653
 20
51.9808560394
 10
139.2146052144
 20
55.7606473286
 10
142.2747102064
 20
59.6288763665
 10
145.0125172195
 20
63.5767803703
 10
147.4218242401
 20
67.5954160674
 10
149.4971734129
 20
71.6756799557
 10
151.2338634046
 20
75.8083289249
 10
152.6279600537
 20
79.984001196
 10
153.676305283
 20
84.1932375283
 10
154.3765242533
 20
88.4265026476
 10
154.7270307434
 20
92.6742068469
 10
154.7278888385
 20
96.9058149193
  0
LWPOLYLINE
  5
252
330
230
100
AcDbEntity
  8
0
  6
Continuous
 62
     7
370
    25
100
AcDbPolyline
 90
       26
 70
   128
 43
0.0
 10
79.7258719955
 20
161.8051115659
 10
86.0102530129
 20
159.4411673496
 10
92.0847397331
 20
156.9009448843
 10
97.9345083405
 20
154.1906431776
 10
103.5452834085
 20
151.3168762883
 10
108.9033727357
 20
148.2866571859
 10
113.9957007602
 20
145.1073806365
 10
118.8098404682
 20
141.7868051574
 10
123.3340437197
 20
138.3330340829
 10
127.5572699189
 20
134.7544957904
 10
131.469212956
 20
131.0599231313
 10
135.0603263584
 20
127.2583321209
 10
138.3218465868
 20
123.3589999352
 10
141.2458144216
 20
119.3714422722
 10
143.8250943859
 20
115.30539013
 10
146.0533921585
 20
111.1707660602
 10
147.9252699343
 20
106.9776599529
 10
149.4361596943
 20
102.7363044144
 10
150.5823743531
 20
98.4570497961
 10
151.3611167568
 20
94.1503389362
 10
151.7704865088
 20
89.826681675
 10
151.8094846076
 20
85.4966292083
 10
151.4780158845
 20
81.1707483381
 10
150.776889236
 20
76.8595956864
 10
149.7078156498
 20
72.5736919332
 10
149.3095673466
 20
71.2752100992
  0
LWPOLYLINE
  5
25B
330
230
100
AcDbEntity
  8
0
  6
Continuous
 62
     7
370
    25
100
AcDbPolyline
 90
       30
 70
   128
 43
0.0
 10
-93.5877781286
 20
-57.3417345894
 10
-91.2341944575
 20
-58.3002409474
 10
-84.9508014489
 20
-60.6868107349
 10
-78.480420228
 20
-62.9006202252
 10
-71.8372929797
 20
-64.936796524
 10
-65.0360421262
 20
-66.7908577316
 10
-58.0916381412
 20
-68.4587228084
 10
-51.0193665978
 20
-69.9367205576
 10
-43.8347945229
 20
-71.2215977061
 10
-36.5537361322
 20
-72.3105260654
 10
-29.1922180206
 20
-73.2011087568
 10
-21.7664438859
 20
-73.8913854871
 10
-14.2927588621
 20
-74.379836864
 10
-6.7876135415
 20
-74.6653877399
 10
0.7324722353
 20
-74.7474095785
 10
8.2509457415
 20
-74.6257218387
 10
15.7512577993
 20
-74.3005923718
 10
23.2168992068
 20
-73.7727368316
 10
30.6314370767
 20
-73.0433170997
 10
37.9785510075
 20
-72.1139387276
 10
45.2420690071
 20
-70.9866474029
 10
52.4060030891
 20
-69.6639244464
 10
59.4545844651
 20
-68.1486813504
 10
66.3722982534
 20
-66.44425337
 10
73.1439176296
 20
-64.5543921819
 10
79.7545373429
 20
-62.4832576263
 10
86.1896065245
 20
-60.2354085508
 10
92.4349607162
 20
-57.8157927755
 10
98.4768530481
 20
-55.229736202
 10
102.3166281836
 20
-53.4488440847
  0
SPLINE
  5
25C
330
230
100
AcDbEntity
  8
0
  6
Continuous
 62
     7
370
    25
100
AcDbSpline
210
0.0
220
0.0
230
1.0
 70
     8
 71
     3
 72
    10
 73
     6
 74
     0
 42
0.000000001
 43
0.00000001
 40
0.0
 40
0.0
 40
0.0
 40
0.0
 40
0.2682791493584658
 40
0.7983040231839081
 40
1.0
 40
1.0
 40
1.0
 40
1.0
 10
90.50626972834667
 20
22.50667061996308
 30
0.0
 10
83.59981436893541
 20
26.35740600439577
 30
0.0
 10
63.04864178417679
 20
37.81583487208911
 30
0.0
 10
37.30220139747198
 20
52.48706290195537
 30
0.0
 10
18.4675017760428
 20
63.57070502712657
 30
0.0
 10
13.27579084577317
 20
66.62586742021185
 30
0.0
  0
LWPOLYLINE
  5
260
330
230
100
AcDbEntity
  8
0
  6
Continuous
 62
     7
370
    25
100
AcDbPolyline
 90
        3
 70
   128
 43
0.0
 10
-45.2288034747
 20
27.1969053249
 10
-45.2260390528
 20
26.9172686517
 10
-45.2253621917
 20
26.88387735
  0
LWPOLYLINE
  5
263
330
230
100
AcDbEntity
  8
0
  6
Continuous
 62
     7
370
    25
100
AcDbPolyline
 90
        3
 70
   128
 43
0.0
 10
32.7870620091
 20
10.1714922204
 10
33.1490566003
 20
10.8551588685
 10
33.3712803019
 20
11.3251767976
  0
LWPOLYLINE
  5
265
330
230
100
AcDbEntity
  8
0
  6
Continuous
 62
    60
370
    25
100
AcDbPolyline
 90
       16
 70
   128
 43
0.0
 10
11.2723996482
 20
5.8237747404
 10
13.337540039
 20
6.2093655431
 10
16.8102370711
 20
7.026025244
 10
20.1352051353
 20
8.0268238659
 10
23.2832242928
 20
9.2029663544
 10
26.2266296381
 20
10.5441167271
 10
28.9395544191
 20
12.0384889062
 10
31.3981573553
 20
13.6729502953
 10
33.5808321557
 20
15.433137189
 10
35.4683973957
 20
17.3035810015
 10
37.044265084
 20
19.2678442054
 10
38.2945864389
 20
21.308664785
 10
39.2083735911
 20
23.4081079356
 10
39.7775961465
 20
25.5477236755
 10
39.9972517567
 20
27.7087089844
 10
39.9998556019
 20
28.0414363282
  0
LWPOLYLINE
  5
266
330
230
100
AcDbEntity
  8
0
  6
Continuous
 62
    60
370
    25
100
AcDbPolyline
 90
       10
 70
   128
 43
0.0
 10
-40.0
 20
27.9793897755
 10
-39.975268076
 20
27.1674961766
 10
-39.6679192613
 20
25.010077362
 10
-39.0119673458
 20
22.8787529717
 10
-38.0131768586
 20
20.7922531611
 10
-36.6803252063
 20
18.7689141654
 10
-35.0251255372
 20
16.8265171605
 10
-33.0621238056
 20
14.9821320013
 10
-30.8085709411
 20
13.2519672106
 10
-28.2842712475
 20
11.651227539
  0
LWPOLYLINE
  5
267
330
230
100
AcDbEntity
  8
0
  6
Continuous
 62
    60
370
    25
100
AcDbPolyline
 90
        3
 70
   128
 43
0.0
 10
-28.2842712475
 20
8.3850642915
 10
-25.5114083611
 20
6.9278170967
 10
-25.1622968146
 20
6.7628383424
  0
LWPOLYLINE
  5
268
330
230
100
AcDbEntity
  8
0
  6
Continuous
 62
    60
370
    25
100
AcDbPolyline
 90
       12
 70
   128
 43
0.0
 10
25.2833951996
 20
6.8196360559
 10
26.2266296381
 20
7.2779534795
 10
28.9395544191
 20
8.7723256586
 10
31.3981573553
 20
10.4067870477
 10
33.5808321557
 20
12.1669739414
 10
35.4683973957
 20
14.0374177539
 10
37.044265084
 20
16.0016809578
 10
38.2945864389
 20
18.0425015374
 10
39.2083735911
 20
20.1419446881
 10
39.7775961465
 20
22.2815604279
 10
39.9972517567
 20
24.4425457369
 10
40.0
 20
24.7132265279
  0
LWPOLYLINE
  5
269
330
230
100
AcDbEntity
  8
0
  6
Continuous
 62
    60
370
    25
100
AcDbPolyline
 90
       10
 70
   128
 43
0.0
 10
-40.0
 20
24.7132265279
 10
-39.975268076
 20
23.9013329291
 10
-39.6679192613
 20
21.7439141145
 10
-39.0119673458
 20
19.6125897242
 10
-38.0131768586
 20
17.5260899135
 10
-36.6803252063
 20
15.5027509179
 10
-35.0251255372
 20
13.560353913
 10
-33.0621238056
 20
11.7159687537
 10
-30.8085709411
 20
9.9858039631
 10
-28.2842712475
 20
8.3850642915
  0
LWPOLYLINE
  5
26B
330
230
100
AcDbEntity
  8
0
  6
Continuous
 62
    60
370
    25
100
AcDbPolyline
 90
       58
 70
   128
 43
0.0
 10
-154.6923366473
 20
70.968841672
 10
-153.1783457554
 20
67.8791543312
 10
-150.843496417
 20
63.7636623972
 10
-148.1770603361
 20
59.7158720128
 10
-145.184898918
 20
55.7446810996
 10
-141.8735895827
 20
51.8588191972
 10
-138.2504113069
 20
48.0668282734
 10
-134.3233286228
 20
44.3770439471
 10
-130.1009741104
 20
40.7975771652
 10
-125.5926294212
 20
37.3362963724
 10
-120.8082048754
 20
34.0008102152
 10
-115.7582176764
 20
30.7984508159
 10
-110.4537687921
 20
27.7362576556
 10
-104.9065185524
 20
24.8209620995
 10
-99.1286610172
 20
22.0589725998
 10
-93.1328971714
 20
19.4563606089
 10
-86.9324070051
 20
17.0188472328
 10
-80.5408205413
 20
14.7517906549
 10
-73.9721878743
 20
12.6601743576
 10
-67.2409482844
 20
10.7485961674
 10
-60.3618984968
 20
9.0212581481
 10
-53.3501601562
 20
7.4819573636
 10
-46.221146585
 20
6.1340775309
 10
-38.9905289022
 20
4.9805815826
 10
-31.6742015749
 20
4.0240051531
 10
-24.2882474784
 20
3.2664510049
 10
-16.8489025426
 20
2.7095844064
 10
-9.3725200624
 20
2.3546294714
 10
-1.8755347489
 20
2.2023664678
 10
5.625573397
 20
2.2531301028
 10
13.1143153116
 20
2.5068087868
 10
20.574229115
 20
2.962844879
 10
27.9889162976
 20
3.6202359131
 10
35.3420777678
 20
4.4775368011
 10
42.6175496808
 20
5.5328630094
 10
49.7993389704
 20
6.783894702
 10
56.8716585051
 20
8.2278818397
 10
63.8189617916
 20
9.8616502255
 10
70.6259771495
 20
11.6816084819
 10
77.2777412818
 20
13.6837559456
 10
83.7596321673
 20
15.8636914619
 10
90.057401203
 20
18.2166230595
 10
96.1572045259
 20
20.7373784842
 10
102.0456334444
 20
23.4204165683
 10
107.7097439137
 20
26.2598394119
 10
113.1370849898
 20
29.2494053473
 10
118.3157261992
 20
32.3825426599
 10
123.2342837644
 20
35.6523640337
 10
127.8819456286
 20
39.0516816918
 10
132.2484952223
 20
42.5730231963
 10
136.3243339217
 20
46.2086478742
 10
140.1005021489
 20
49.9505638334
 10
143.5686990666
 20
53.7905455307
 10
146.7213008252
 20
57.7201518528
 10
149.5513773219
 20
61.7307446722
 10
152.0527074343
 20
65.8135078355
 10
154.219792696
 20
69.9594665432
 10
154.8752679708
 20
71.3722454327
  0
LWPOLYLINE
  5
26C
330
230
100
AcDbEntity
  8
0
  6
Continuous
 62
    60
370
    25
100
AcDbPolyline
 90
       17
 70
   128
 43
0.0
 10
-109.4395265262
 20
157.9785611585
 10
-114.5229110016
 20
154.9008670621
 10
-119.3468642492
 20
151.68702623
 10
-123.9004584632
 20
148.3443190451
 10
-128.1733782882
 20
144.8803178145
 10
-132.1559441865
 20
141.302869615
 10
-135.8391343653
 20
137.6200785175
 10
-139.2146052144
 20
133.8402872283
 10
-142.2747102064
 20
129.9720581903
 10
-145.0125172195
 20
126.0241541866
 10
-147.4218242401
 20
122.0055184894
 10
-149.4971734129
 20
117.9252546012
 10
-151.2338634046
 20
113.792605632
 10
-152.6279600537
 20
109.6169333608
 10
-153.676305283
 20
105.4076970286
 10
-154.3765242533
 20
101.1744319092
 10
-154.6776088279
 20
97.9015964656
  0
LWPOLYLINE
  5
26D
330
230
100
AcDbEntity
  8
0
  6
Continuous
 62
    60
370
    25
100
AcDbPolyline
 90
       51
 70
   128
 43
0.0
 10
154.7278888385
 20
96.9058149193
 10
154.7270307434
 20
96.92672771
 10
154.3765242533
 20
101.1744319092
 10
153.676305283
 20
105.4076970286
 10
152.6279600537
 20
109.6169333608
 10
151.2338634046
 20
113.792605632
 10
149.4971734129
 20
117.9252546012
 10
147.4218242401
 20
122.0055184894
 10
145.0125172195
 20
126.0241541866
 10
142.2747102064
 20
129.9720581903
 10
139.2146052144
 20
133.8402872283
 10
135.8391343653
 20
137.6200785175
 10
132.1559441865
 20
141.302869615
 10
128.1733782882
 20
144.8803178145
 10
123.9004584632
 20
148.3443190451
 10
119.3468642492
 20
151.68702623
 10
114.5229110016
 20
154.9008670621
 10
109.4395265262
 20
157.9785611585
 10
104.1082263237
 20
160.9131365519
 10
98.5410875039
 20
163.6979454854
 10
92.7507214266
 20
166.326679471
 10
86.7502451336
 20
168.7933835807
 10
80.5532516335
 20
171.0924699364
 10
74.1737791098
 20
173.2187303679
 10
67.6262791197
 20
175.1673482115
 10
60.9255838564
 20
176.9339092211
 10
54.0868725499
 20
178.5144115678
 10
47.1256370809
 20
179.9052749055
 10
40.0576468867
 20
181.1033484812
 10
32.8989132385
 20
182.1059182731
 10
25.6656529703
 20
182.9107131381
 10
18.3742517432
 20
183.515909957
 10
11.0412269261
 20
183.9201377643
 10
3.6831901788
 20
184.1224808541
 10
-3.6831901788
 20
184.1224808541
 10
-11.0412269261
 20
183.9201377643
 10
-18.3742517432
 20
183.515909957
 10
-25.6656529703
 20
182.9107131381
 10
-32.8989132385
 20
182.1059182731
 10
-40.0576468867
 20
181.1033484812
 10
-47.1256370809
 20
179.9052749055
 10
-54.0868725499
 20
178.5144115678
 10
-60.9255838564
 20
176.9339092211
 10
-67.6262791197
 20
175.1673482115
 10
-74.1737791098
 20
173.2187303679
 10
-80.5532516335
 20
171.0924699364
 10
-86.7502451336
 20
168.7933835807
 10
-92.7507214267
 20
166.326679471
 10
-98.5410875039
 20
163.6979454854
 10
-104.1082263237
 20
160.9131365519
 10
-109.4395265262
 20
157.9785611585
  0
LWPOLYLINE
  5
26E
330
230
100
AcDbEntity
  8
0
  6
Continuous
 62
    60
370
    25
100
AcDbPolyline
 90
       32
 70
   128
 43
0.0
 10
14.0721449984
 20
119.3137506571
 10
7.7400914569
 20
119.6113652815
 10
0.8629673033
 20
119.7385040911
 10
-6.0164175127
 20
119.6623447223
 10
-12.8800414902
 20
119.3830866851
 10
-19.7099244162
 20
118.9014615347
 10
-26.488174467
 20
118.2187309546
 10
-33.1970350783
 20
117.3366834523
 10
-39.8189314612
 20
116.2576296732
 10
-46.3365166414
 20
114.984396348
 10
-52.7327169024
 20
113.5203188878
 10
-58.9907765124
 20
111.869232646
 10
-65.0943016179
 20
110.0354628716
 10
-71.0273031901
 20
108.0238133783
 10
-76.7742389101
 20
105.8395539606
 10
-82.3200538843
 20
103.4884065881
 10
-87.6502200827
 20
100.976530417
 10
-92.7507743973
 20
98.3105056545
 10
-97.6083552199
 20
95.4973163216
 10
-102.2102374453
 20
92.5443319571
 10
-106.5443658059
 20
89.4592883122
 10
-110.5993864526
 20
86.2502670859
 10
-114.3646766975
 20
82.9256747534
 10
-117.8303728417
 20
79.4942205445
 10
-120.9873960143
 20
75.9648936286
 10
-123.8274759562
 20
72.3469395659
 10
-126.3431726848
 20
68.6498360879
 10
-128.5278959845
 20
64.883268269
 10
-130.3759226699
 20
61.0571031549
 10
-131.8824115796
 20
57.1813639147
 10
-133.0434162571
 20
53.2662035839
 10
-133.7661490299
 20
49.8585639956
  0
LWPOLYLINE
  5
26F
330
230
100
AcDbEntity
  8
0
  6
Continuous
 62
    60
370
    25
100
AcDbPolyline
 90
       31
 70
   128
 43
0.0
 10
13.7359508141
 20
97.0706822087
 10
9.6974402072
 20
97.3079100599
 10
3.2772308933
 20
97.5160246293
 10
-3.1530909431
 20
97.5180158422
 10
-9.5736833145
 20
97.3138775543
 10
-15.9647342553
 20
96.9042396734
 10
-22.3065229559
 20
96.2903662155
 10
-28.5794806143
 20
95.4741514045
 10
-34.7642508203
 20
94.4581138274
 10
-40.8417492828
 20
93.2453886622
 10
-46.7932227181
 20
91.8397180045
 10
-52.6003067169
 20
90.2454393198
 10
-58.245082411
 20
88.4674720599
 10
-63.7101317657
 20
86.5113024828
 10
-68.9785913262
 20
84.3829667237
 10
-74.0342042529
 20
82.0890321695
 10
-78.8613704856
 20
79.6365771941
 10
-83.4451948797
 20
77.0331693162
 10
-87.7715331686
 20
74.2868418486
 10
-91.8270356082
 20
71.4060691099
 10
-95.5991881702
 20
68.3997402753
 10
-99.0763511565
 20
65.2771319471
 10
-102.2477951159
 20
62.0478795306
 10
-105.1037339516
 20
58.7219475016
 10
-107.6353551182
 20
55.3095986593
 10
-109.8348468144
 20
51.8213624586
 10
-111.6954220882
 20
48.2680025193
 10
-113.2113397786
 20
44.6604834129
 10
-114.3779222318
 20
41.0099368296
 10
-115.1915697345
 20
37.3276272288
 10
-115.4723853629
 20
35.4198113427
  0
LWPOLYLINE
  5
270
330
230
100
AcDbEntity
  8
0
  6
Continuous
 62
    60
370
    25
100
AcDbPolyline
 90
       22
 70
   128
 43
0.0
 10
-34.0601749529
 20
49.274991871
 10
-36.8620662283
 20
47.5119200449
 10
-39.3910436623
 20
45.6163269634
 10
-41.6283835907
 20
43.6022469346
 10
-43.5575215315
 20
41.4845915023
 10
-45.1641748223
 20
39.2790390465
 10
-46.4364483642
 20
37.0019187058
 10
-47.3649226892
 20
34.6700894827
 10
-47.9427236981
 20
32.3008154247
 10
-48.1655735544
 20
29.9116378081
 10
-48.0318223558
 20
27.5202452682
 10
-47.5424603493
 20
25.1443428385
 10
-46.7011106001
 20
22.8015208694
 10
-45.5140021672
 20
20.509124795
 10
-43.9899239862
 20
18.284126714
 10
-42.1401597988
 20
16.1429997335
 10
-39.9784046117
 20
14.1015960088
 10
-37.5206633042
 20
12.1750293786
 10
-34.7851321328
 20
10.3775634683
 10
-31.7920640134
 20
8.7225060867
 10
-28.5636185751
 20
7.2221106995
 10
-28.4024987874
 20
7.1539085434
  0
LWPOLYLINE
  5
271
330
230
100
AcDbEntity
  8
0
  6
Continuous
 62
    60
370
    25
100
AcDbPolyline
 90
       41
 70
   128
 43
0.0
 10
28.2324606924
 20
7.0825716325
 10
29.3915175637
 20
7.5820821205
 10
32.5632943683
 20
9.122230621
 10
35.4939839343
 20
10.8140816954
 10
38.1618884615
 20
12.6451094702
 10
40.5472557182
 20
14.6017576563
 10
42.6324252798
 20
16.6695399152
 10
44.4019592804
 20
18.8331471105
 10
45.8427567094
 20
21.0765606515
 10
46.9441504066
 20
23.3831710892
 10
47.6979860386
 20
25.7359010869
 10
48.09868247
 20
28.117331855
 10
48.1432730846
 20
30.5098321131
 10
47.8314277492
 20
32.8956886264
 10
47.1654552574
 20
35.2572373481
 10
46.1502862367
 20
37.5769941977
 10
44.7934366432
 20
39.837784507
 10
43.1049521167
 20
42.0228701755
 10
41.0973336058
 20
44.1160735936
 10
38.7854448156
 20
46.1018974153
 10
36.1864021618
 20
47.965639296
 10
33.3194480468
 20
49.6935007428
 10
30.205808396
 20
51.272689274
 10
26.868535508
 20
52.6915131304
 10
23.3323373835
 20
53.9394678364
 10
19.6233947962
 20
55.0073139721
 10
15.7691674596
 20
55.8871455782
 10
11.7981907242
 20
56.5724486894
 10
7.7398643125
 20
57.0581495612
 10
3.6242346533
 20
57.3406522343
 10
-0.5182275712
 20
57.4178651578
 10
-4.65685302
 20
57.2892166741
 10
-8.7610007584
 20
56.9556592516
 10
-12.8002851124
 20
56.4196624328
 10
-16.7448006339
 20
55.6851945506
 10
-20.5653435099
 20
54.7576933483
 10
-24.2336277778
 20
53.6440257201
 10
-27.7224947442
 20
52.3524368717
 10
-31.0061140587
 20
50.8924892749
 10
-34.0601749529
 20
49.274991871
 10
-34.0601749529
 20
49.274991871
  0
LWPOLYLINE
  5
272
330
230
100
AcDbEntity
  8
0
  6
Continuous
 62
    60
370
    25
100
AcDbPolyline
 90
       10
 70
   128
 43
0.0
 10
-31.9815956208
 20
45.6686727123
 10
-34.682982713
 20
43.9647004005
 10
-37.1129284405
 20
42.1295692444
 10
-39.2524151834
 20
40.1776416335
 10
-41.0846985571
 20
38.1241940479
 10
-42.5954384599
 20
35.9852974991
 10
-43.7728113037
 20
33.7776917525
 10
-44.6076025497
 20
31.5186543165
 10
-45.0932788245
 20
29.2258652218
 10
-45.2288034747
 20
27.1969053249
  0
LWPOLYLINE
  5
273
330
230
100
AcDbEntity
  8
0
  6
Continuous
 62
    60
370
    25
100
AcDbPolyline
 90
       28
 70
   128
 43
0.0
 10
45.2253621917
 20
26.88387735
 10
45.1596426899
 20
28.6494932812
 10
44.7619466257
 20
30.947923756
 10
44.0139276386
 20
33.2170693125
 10
42.9214399914
 20
35.4391708102
 10
41.4930338813
 20
37.596837292
 10
39.7398885227
 20
39.6731820923
 10
37.6757246551
 20
41.6519549977
 10
35.3166971594
 20
43.5176694274
 10
32.6812686244
 20
45.2557236363
 10
29.7900648514
 20
46.8525149936
 10
26.6657134301
 20
48.2955464421
 10
23.3326666465
 20
49.5735243041
 10
19.8170101108
 20
50.67644667
 10
16.1462586021
 20
51.5956816769
 10
12.3491407279
 20
52.3240350647
 10
8.4553740839
 20
52.8558064804
 10
4.4954326735
 20
53.1868340918
 10
0.5003084073
 20
53.314527159
 10
-3.4987314505
 20
53.2378863106
 10
-7.470388991
 20
52.9575113651
 10
-11.3835806089
 20
52.4755966366
 10
-15.2076802741
 20
51.7959137613
 10
-18.9127592218
 20
50.9237821793
 10
-22.4698201857
 20
49.8660275026
 10
-25.851024341
 20
48.6309280957
 10
-29.0299091807
 20
47.2281502862
 10
-31.9815956208
 20
45.6686727123
  0
LWPOLYLINE
  5
275
330
230
100
AcDbEntity
  8
0
  6
Continuous
 62
    60
370
    25
100
AcDbPolyline
 90
        3
 70
   128
 43
0.0
 10
44.5321204532
 20
22.7955104997
 10
43.8403448515
 20
24.8490981789
 10
43.7626708727
 20
25.0355683629
  0
LWPOLYLINE
  5
277
330
230
100
AcDbEntity
  8
0
  6
Continuous
 62
    60
370
    25
100
AcDbPolyline
 90
        3
 70
   128
 43
0.0
 10
42.018484293
 20
18.0649237073
 10
41.7070519805
 20
19.8140384388
 10
41.5013073009
 20
20.5767884716
  0
LINE
  5
278
330
230
100
AcDbEntity
  8
0
  6
Continuous
 62
     7
370
    25
100
AcDbLine
 10
-40.0
 20
27.9793897755
 30
0.0
 11
-40.0
 21
24.7132265279
 31
0.0
  0
LINE
  5
279
330
230
100
AcDbEntity
  8
0
  6
Continuous
 62
     7
370
    25
100
AcDbLine
 10
40.0
 20
24.7132265279
 30
0.0
 11
40.0
 21
27.9793897755
 31
0.0
  0
LINE
  5
27A
330
230
100
AcDbEntity
  8
0
  6
Continuous
 62
     7
370
    25
100
AcDbLine
 10
43.7626708727
 20
23.0239827249
 30
0.0
 11
43.7626708727
 21
28.3448481061
 31
0.0
  0
LINE
  5
27B
330
230
100
AcDbEntity
  8
0
  6
Continuous
 62
     7
370
    25
100
AcDbLine
 10
160.0755711013
 20
87.7762236554
 30
0.0
 11
159.9969546322
 21
95.1319365161
 31
0.0
  0
LINE
  5
27C
330
230
100
AcDbEntity
  8
0
  6
Continuous
 62
     7
370
    25
100
AcDbLine
 10
-159.9969546322
 20
95.1319365161
 30
0.0
 11
-160.8129393169
 21
18.7847142187
 31
0.0
  0
LINE
  5
27D
330
230
100
AcDbEntity
  8
0
  6
Continuous
 62
     7
370
    25
100
AcDbLine
 10
-39.9892076295
 20
28.5157621891
 30
0.0
 11
-40.0
 21
27.9793897755
 31
0.0
  0
LINE
  5
27E
330
230
100
AcDbEntity
  8
0
  6
Continuous
 62
     7
370
    25
100
AcDbLine
 10
42.262975824
 20
20.694606235
 30
0.0
 11
39.2670481137
 21
20.2311848234
 31
0.0
  0
LINE
  5
27F
330
230
100
AcDbEntity
  8
0
  6
Continuous
 62
     7
370
    25
100
AcDbLine
 10
42.280308963
 20
27.2296138855
 30
0.0
 11
40.0
 21
26.8768870841
 31
0.0
  0
LINE
  5
280
330
230
100
AcDbEntity
  8
0
  6
Continuous
 62
     7
370
    25
100
AcDbLine
 10
42.6592463449
 20
30.8741426561
 30
0.0
 11
43.6945225253
 21
28.6436742149
 31
0.0
  0
LINE
  5
281
330
230
100
AcDbEntity
  8
0
  6
Continuous
 62
     7
370
    25
100
AcDbLine
 10
39.519600443
 20
31.583794807
 30
0.0
 11
40.2097566021
 21
31.6905507679
 31
0.0
  0
LINE
  5
282
330
230
100
AcDbEntity
  8
0
  6
Continuous
 62
     7
370
    25
100
AcDbLine
 10
145.4146756121
 20
-21.4337384929
 30
0.0
 11
145.1927166222
 21
48.2905363737
 31
0.0
  0
LINE
  5
283
330
230
100
AcDbEntity
  8
0
  6
Continuous
 62
     7
370
    25
100
AcDbLine
 10
251.0229073212
 20
-12.8039322845
 30
0.0
 11
145.1927166222
 21
48.2905363737
 31
0.0
  0
LINE
  5
284
330
230
100
AcDbEntity
  8
0
  6
Continuous
 62
     7
370
    25
100
AcDbLine
 10
251.0229073212
 20
-12.8039322845
 30
0.0
 11
251.0229073212
 21
-82.8154995755
 31
0.0
  0
LINE
  5
285
330
230
100
AcDbEntity
  8
0
  6
Continuous
 62
     7
370
    25
100
AcDbLine
 10
251.0229073212
 20
-82.8154995755
 30
0.0
 11
145.1831555741
 21
-21.7155114416
 31
0.0
  0
LINE
  5
286
330
230
100
AcDbEntity
  8
0
  6
Continuous
 62
     7
370
    25
100
AcDbLine
 10
339.4112549695
 20
38.2215747044
 30
0.0
 11
251.0229073212
 21
-12.8039322845
 31
0.0
  0
LINE
  5
287
330
230
100
AcDbEntity
  8
0
  6
Continuous
 62
     7
370
    25
100
AcDbLine
 10
339.4112549695
 20
38.2215747044
 30
0.0
 11
339.935775298
 21
-31.4871934462
 31
0.0
  0
LINE
  5
288
330
230
100
AcDbEntity
  8
0
  6
Continuous
 62
     7
370
    25
100
AcDbLine
 10
339.935775298
 20
-31.4871934462
 30
0.0
 11
251.0229073212
 21
-82.8154995755
 31
0.0
  0
LINE
  5
289
330
230
100
AcDbEntity
  8
0
  6
Continuous
 62
     7
370
    25
100
AcDbLine
 10
93.6161411961
 20
169.8237932929
 30
0.0
 11
102.530483272
 21
174.9699334347
 31
0.0
  0
LINE
  5
28A
330
230
100
AcDbEntity
  8
0
  6
Continuous
 62
     7
370
    25
100
AcDbLine
 10
102.530483272
 20
174.9699334347
 30
0.0
 11
339.4112549695
 21
38.2215747044
 31
0.0
  0
LINE
  5
28B
330
230
100
AcDbEntity
  8
0
  6
Continuous
 62
     7
370
    25
100
AcDbLine
 10
14.1421356237
 20
123.9444264458
 30
0.0
 11
13.2757908458
 21
66.6258674202
 31
0.0
  0
LINE
  5
28C
330
230
100
AcDbEntity
  8
0
  6
Continuous
 62
     7
370
    25
100
AcDbLine
 10
136.873559531
 20
53.0930835374
 30
0.0
 11
14.1421356237
 21
123.9444264458
 31
0.0
  0
LINE
  5
28D
330
230
100
AcDbEntity
  8
0
  6
Continuous
 62
     7
370
    25
100
AcDbLine
 10
14.1421356237
 20
123.9444264458
 30
0.0
 11
79.7258719955
 21
161.8051115659
 31
0.0
  0
LINE
  5
28E
330
230
100
AcDbEntity
  8
0
  6
Continuous
 62
     7
370
    25
100
AcDbLine
 10
45.2177435018
 20
26.6286327011
 30
0.0
 11
45.2253621917
 21
26.88387735
 31
0.0
  0
LINE
  5
28F
330
230
100
AcDbEntity
  8
0
  6
Continuous
 62
     7
370
    25
100
AcDbLine
 10
-33.415166174
 20
11.4237148432
 30
0.0
 11
-32.7060806919
 21
10.029642042
 31
0.0
  0
LINE
  5
290
330
230
100
AcDbEntity
  8
0
  6
Continuous
 62
    60
370
    25
100
AcDbLine
 10
42.280308963
 20
20.7014717728
 30
0.0
 11
42.280308963
 21
27.2296138855
 31
0.0
  0
ARC
  5
291
330
230
100
AcDbEntity
  8
0
  6
Continuous
 62
     7
370
    25
100
AcDbCircle
 10
40.8048965119
 20
29.3933271479
 30
0.0
 40
2.373062972689002
100
AcDbArc
 50
38.6095758316
 51
104.5242514331
  0
ARC
  5
292
330
230
100
AcDbEntity
  8
0
  6
Continuous
 62
     7
370
    25
100
AcDbCircle
 10
-104.5075739367
 20
94.5708498256
 30
0.0
 40
55.4577785094823
100
AcDbArc
 50
154.123813594
 51
205.1877084529
  0
ARC
  5
293
330
230
100
AcDbEntity
  8
0
  6
Continuous
 62
     7
370
    25
100
AcDbCircle
 10
104.4556169366
 20
94.5892219319
 30
0.0
 40
55.5082805369703
100
AcDbArc
 50
335.2751229233
 51
26.8168548967
  0
ARC
  5
294
330
230
100
AcDbEntity
  8
0
  6
Continuous
 62
    60
370
    25
100
AcDbCircle
 10
-3.1751483708
 20
57.199216127
 30
0.0
 40
52.01045391117437
100
AcDbArc
 50
241.133482758
 51
261.1206314281
  0
ARC
  5
295
330
230
100
AcDbEntity
  8
0
  6
Continuous
 62
    60
370
    25
100
AcDbCircle
 10
-25.7590443894
 20
17.5199639519
 30
0.0
 40
19.49748881082427
100
AcDbArc
 50
135.9612049229
 51
164.8166506932
  0
ARC
  5
296
330
230
100
AcDbEntity
  8
0
  6
Continuous
 62
    60
370
    25
100
AcDbCircle
 10
-26.5116974415
 20
16.1691070828
 30
0.0
 40
15.62255095902415
100
AcDbArc
 50
150.4843753449
 51
172.871675571
  0
VIEWPORT
  5
35C
330
230
100
AcDbEntity
  8
0
100
AcDbViewport
 10
0.0
 20
0.0
 30
0.0
 40
205.6
 41
156.0
 68
     1
 69
     1
 12
69.9628822538
 22
9.5919903727
 13
0.0
 23
0.0
 14
10.0
 24
10.0
 15
10.0
 25
10.0
 16
0.0
 26
0.0
 36
1.0
 17
0.0
 27
0.0
 37
0.0
 42
50.0
 43
0.0
 44
0.0
 45
357.2134125293
 50
0.0
 51
0.0
 72
   100
 90
   557152
  1

281
     0
 71
     1
 74
     0
110
0.0
120
0.0
130
0.0
111
1.0
121
0.0
131
0.0
112
0.0
122
1.0
132
0.0
 79
     0
146
0.0
  0
ENDBLK
  5
233
330
230
100
AcDbEntity
  8
0
100
AcDbBlockEnd
  0
BLOCK
  5
299
330
297
100
AcDbEntity
  8
0
100
AcDbBlockBegin
  2
*Paper_Space7
 70
     0
 10
0.0
 20
0.0
 30
0.0
  3
*Paper_Space7
  1

  0
SPLINE
  5
29B
330
297
100
AcDbEntity
  8
0
  6
Continuous
 62
     7
370
    25
100
AcDbSpline
210
0.0
220
0.0
230
1.0
 70
     8
 71
     3
 72
    43
 73
    39
 74
     0
 42
0.000000001
 43
0.00000001
 40
0.0
 40
0.0
 40
0.0
 40
0.0
 40
0.0170448513029499
 40
0.0439751051106987
 40
0.0710114614175916
 40
0.0983669747990521
 40
0.1261519191472472
 40
0.154358554682128
 40
0.1828922277613042
 40
0.2116274450088501
 40
0.2404544616849419
 40
0.269290635391367
 40
0.2980945749074493
 40
0.3268536417270923
 40
0.3555665028932304
 40
0.3842376053919143
 40
0.4128740321513006
 40
0.4414838738700693
 40
0.4700754724617539
 40
0.4986571380389665
 40
0.5272371124190558
 40
0.5558221278390707
 40
0.5844193411462171
 40
0.6130373590509474
 40
0.6416851049228104
 40
0.6703717777217172
 40
0.6991065469422967
 40
0.7278977304239399
 40
0.7567510077748364
 40
0.7856659318017348
 40
0.8146297005006738
 40
0.8435954857930196
 40
0.8724733352683224
 40
0.9011376963639801
 40
0.9294429714906447
 40
0.9572819850780707
 40
0.9846549603655714
 40
1.0
 40
1.0
 40
1.0
 40
1.0
 10
39.96214657770769
 20
29.51842923380445
 30
0.0
 10
39.95945438759519
 20
29.93060199888378
 30
0.0
 10
39.9525086336505
 20
30.99399295172796
 30
0.0
 10
39.58431003298728
 20
32.69445321567397
 30
0.0
 10
38.906044458123
 20
34.59498211914921
 30
0.0
 10
37.91157459049646
 20
36.44744186844034
 30
0.0
 10
36.62031786064544
 20
38.24336035379798
 30
0.0
 10
35.0322613022994
 20
39.97040353261764
 30
0.0
 10
33.15859694483429
 20
41.61348560428586
 30
0.0
 10
31.01487659465851
 20
43.15696201239731
 30
0.0
 10
28.62173348030035
 20
44.58658439422031
 30
0.0
 10
26.00209282581768
 20
45.89056563480449
 30
0.0
 10
23.17971914704617
 20
47.05953519318496
 30
0.0
 10
20.17836300399249
 20
48.08602404591413
 30
0.0
 10
17.02203460572505
 20
48.96382616001308
 30
0.0
 10
13.73539613936287
 20
49.68767943474702
 30
0.0
 10
10.3438139313291
 20
50.25321849469104
 30
0.0
 10
6.873318038340154
 20
50.6569973064255
 30
0.0
 10
3.350488049932612
 20
50.89653569932091
 30
0.0
 10
-0.1977123723430757
 20
50.97036409364171
 30
0.0
 10
-3.744069918543882
 20
50.87805503398791
 30
0.0
 10
-7.261350398761107
 20
50.62024731930997
 30
0.0
 10
-10.72257833685562
 20
50.19863735266902
 30
0.0
 10
-14.10132078013417
 20
49.61592239460321
 30
0.0
 10
-17.3718750879051
 20
48.87571938303865
 30
0.0
 10
-20.50939590310351
 20
47.98247319149177
 30
0.0
 10
-23.49002698604377
 20
46.94133868075628
 30
0.0
 10
-26.29096035497061
 20
45.75805358575958
 30
0.0
 10
-28.89039310465887
 20
44.43883503584475
 30
0.0
 10
-31.26732491826644
 20
42.99037014086867
 30
0.0
 10
-33.40096997240402
 20
41.42024270406012
 30
0.0
 10
-35.27019214180387
 20
39.73781237042611
 30
0.0
 10
-36.85452466987648
 20
37.95538964566217
 30
0.0
 10
-38.1331192315021
 20
36.08944584345557
 30
0.0
 10
-39.09591040949719
 20
34.16100194939927
 30
0.0
 10
-39.71420136962249
 20
32.19492049899156
 30
0.0
 10
-40.01013085412715
 20
30.49691993821127
 30
0.0
 10
-39.9715935462603
 20
29.46440049118121
 30
0.0
 10
-39.95775028791364
 20
29.09350189331914
 30
0.0
  0
SPLINE
  5
29E
330
297
100
AcDbEntity
  8
0
  6
Continuous
 62
     7
370
    25
100
AcDbSpline
210
0.0
220
0.0
230
1.0
 70
     8
 71
     3
 72
    10
 73
     6
 74
     0
 42
0.000000001
 43
0.00000001
 40
0.0
 40
0.0
 40
0.0
 40
0.0
 40
0.2840795125433102
 40
0.9382714268977915
 40
1.0
 40
1.0
 40
1.0
 40
1.0
 10
-39.95775028791364
 20
25.66483269051084
 30
0.0
 10
-39.95889494048874
 20
25.38234328486899
 30
0.0
 10
-39.96267555386466
 20
24.44932373924207
 30
0.0
 10
-39.80769218152767
 20
23.45227435499919
 30
0.0
 10
-39.5696281602842
 20
22.76262823031987
 30
0.0
 10
-39.54910164568403
 20
22.70316510282486
 30
0.0
  0
SPLINE
  5
29F
330
297
100
AcDbEntity
  8
0
  6
Continuous
 62
     7
370
    25
100
AcDbSpline
210
0.0
220
0.0
230
1.0
 70
     8
 71
     3
 72
    10
 73
     6
 74
     0
 42
0.000000001
 43
0.00000001
 40
0.0
 40
0.0
 40
0.0
 40
0.0
 40
0.2137645785027237
 40
0.816755454209146
 40
1.0
 40
1.0
 40
1.0
 40
1.0
 10
39.52685967450554
 20
22.71186352760872
 30
0.0
 10
39.59828850785532
 20
22.93961937509366
 30
0.0
 10
39.87120504826095
 20
23.80983291544871
 30
0.0
 10
40.0165032906892
 20
24.90854938152275
 30
0.0
 10
39.97569563178386
 20
25.76854164646611
 30
0.0
 10
39.96618476427975
 20
25.96897638606751
 30
0.0
  0
SPLINE
  5
2A4
330
297
100
AcDbEntity
  8
0
  6
Continuous
 62
     7
370
    25
100
AcDbSpline
210
0.0
220
0.0
230
1.0
 70
     8
 71
     3
 72
    62
 73
    58
 74
     0
 42
0.000000001
 43
0.00000001
 40
0.0
 40
0.0
 40
0.0
 40
0.0
 40
0.0121698789980593
 40
0.0304707680552638
 40
0.0487932945163452
 40
0.0671351605655459
 40
0.0854932841306565
 40
0.1038643179898092
 40
0.1222450303985245
 40
0.1406325385605019
 40
0.1590244184301202
 40
0.1774187264251822
 40
0.1958139619871672
 40
0.2142087314063063
 40
0.2326023440003538
 40
0.2509943447628152
 40
0.269384459328434
 40
0.287772548600765
 40
0.3061585726072864
 40
0.3245425624558313
 40
0.342924599033389
 40
0.3613047971205433
 40
0.3796832937484083
 40
0.398060239818577
 40
0.4164357941977565
 40
0.4348101196684354
 40
0.4531833802587443
 40
0.4715557395887225
 40
0.4899273599596466
 40
0.5082984019817008
 40
0.5266690245870991
 40
0.5450393853141682
 40
0.5634096407756689
 40
0.5817799418416626
 40
0.600150398383678
 40
0.6185211676961985
 40
0.636892408470373
 40
0.6552642813598566
 40
0.6736369494275087
 40
0.6920105783931152
 40
0.7103853365884125
 40
0.7287613944951122
 40
0.7471389236995714
 40
0.7655180950411775
 40
0.7838990756568341
 40
0.8022820245269459
 40
0.8206670860048503
 40
0.8390543806588883
 40
0.8574439925746153
 40
0.8758359520617665
 40
0.8942302125091158
 40
0.9126266199783108
 40
0.9310248741176592
 40
0.9494244792687115
 40
0.9678246163289835
 40
0.9862238457148642
 40
1.0
 40
1.0
 40
1.0
 40
1.0
 10
155.6032536996984
 20
118.5261847123205
 30
0.0
 10
155.2374478295464
 20
119.3233788704628
 30
0.0
 10
154.3215483514633
 20
121.3193821414599
 30
0.0
 10
152.5062349998405
 20
124.4638931339228
 30
0.0
 10
150.2058886077422
 20
127.9586751155361
 30
0.0
 10
147.5954158515632
 20
131.3950311169963
 30
0.0
 10
144.695200965858
 20
134.767961258987
 30
0.0
 10
141.5070233512511
 20
138.0699282164691
 30
0.0
 10
138.0385093379405
 20
141.2943100109201
 30
0.0
 10
134.2964996741976
 20
144.4345247325186
 30
0.0
 10
130.2887608884643
 20
147.4842921841222
 30
0.0
 10
126.0234693328789
 20
150.4375728776195
 30
0.0
 10
121.509327417886
 20
153.2885691062772
 30
0.0
 10
116.7554777952866
 20
156.0317378541291
 30
0.0
 10
111.7714906765877
 20
158.6617865451658
 30
0.0
 10
106.5673157767162
 20
161.1736806301403
 30
0.0
 10
101.1533014324437
 20
163.5626233299395
 30
0.0
 10
95.54017972124744
 20
165.8240582384932
 30
0.0
 10
89.73905096091775
 20
167.9536736500033
 30
0.0
 10
83.76136694288859
 20
169.9474080963321
 30
0.0
 10
77.6189128180074
 20
171.8014566685578
 30
0.0
 10
71.32378759745998
 20
173.5122777472328
 30
0.0
 10
64.88838333803845
 20
175.0765998419184
 30
0.0
 10
58.3253631172653
 20
176.4914283066474
 30
0.0
 10
51.64763792469307
 20
177.7540517551619
 30
0.0
 10
44.86834259996042
 20
178.8620480454282
 30
0.0
 10
38.00081094526475
 20
179.8132897383352
 30
0.0
 10
31.0585501330889
 20
180.6059489621689
 30
0.0
 10
24.05521452195293
 20
181.2385016341813
 30
0.0
 10
17.00457898492943
 20
181.7097310049475
 30
0.0
 10
9.920511848502102
 20
182.018730501554
 30
0.0
 10
2.816947533062261
 20
182.1649058530396
 30
0.0
 10
-4.292140320959717
 20
182.1479764884936
 30
0.0
 10
-11.39276123685651
 20
181.9679764196533
 30
0.0
 10
-18.47094173285527
 20
181.6252546290641
 30
0.0
 10
-25.51275388589539
 20
181.1204741677926
 30
0.0
 10
-32.50434819787092
 20
180.4546098132509
 30
0.0
 10
-39.43197501454217
 20
179.6289459069604
 30
0.0
 10
-46.2820116888597
 20
178.6450732977183
 30
0.0
 10
-53.04098939451605
 20
177.5048855478456
 30
0.0
 10
-59.69561949702916
 20
176.2105744119536
 30
0.0
 10
-66.23281938609477
 20
174.7646246036152
 30
0.0
 10
-72.6397376618861
 20
173.169807872974
 30
0.0
 10
-78.90377856820942
 20
171.4291764332505
 30
0.0
 10
-85.0126255173725
 20
169.5460557811269
 30
0.0
 10
-90.9542636775258
 20
167.524037019449
 30
0.0
 10
-96.71700106787964
 20
165.3669686804407
 30
0.0
 10
-102.2894895186396
 20
163.0789486352284
 30
0.0
 10
-107.6607396883869
 20
160.6643147226034
 30
0.0
 10
-112.8201510888455
 20
158.1276403402103
 30
0.0
 10
-117.7574782889004
 20
155.4737132487645
 30
0.0
 10
-122.4630271603168
 20
152.7075808417049
 30
0.0
 10
-126.9269843649473
 20
149.8343537854364
 30
0.0
 10
-131.1419696415244
 20
146.8599250206028
 30
0.0
 10
-135.0935203821556
 20
143.788313220004
 30
0.0
 10
-138.4856966806105
 20
140.8958952550249
 30
0.0
 10
-140.4709784968053
 20
139.0035095962561
 30
0.0
 10
-141.3209931812927
 20
138.1932691631121
 30
0.0
  0
SPLINE
  5
2A5
330
297
100
AcDbEntity
  8
0
  6
Continuous
 62
     7
370
    25
100
AcDbSpline
210
0.0
220
0.0
230
1.0
 70
     8
 71
     3
 72
    14
 73
    10
 74
     0
 42
0.000000001
 43
0.00000001
 40
0.0
 40
0.0
 40
0.0
 40
0.0
 40
0.0920022423001832
 40
0.2666375102546231
 40
0.4412236536007303
 40
0.6157038418768901
 40
0.7900452466192386
 40
0.9642152502778438
 40
1.0
 40
1.0
 40
1.0
 40
1.0
 10
-141.3209931812927
 20
138.1932691631121
 30
0.0
 10
-141.9000819976742
 20
137.6182268527501
 30
0.0
 10
-143.5783758778657
 20
135.9516604072745
 30
0.0
 10
-146.1408005896703
 20
133.1347681204565
 30
0.0
 10
-148.9057287456
 20
129.7248679342844
 30
0.0
 10
-151.3784668109723
 20
126.2527700714817
 30
0.0
 10
-153.5243812366307
 20
122.7228635083703
 30
0.0
 10
-154.9513606778971
 20
120.1015302061927
 30
0.0
 10
-155.566128881725
 20
118.6470112483915
 30
0.0
 10
-155.6709101546274
 20
118.3991026107783
 30
0.0
  0
SPLINE
  5
2A6
330
297
100
AcDbEntity
  8
0
  6
Continuous
 62
     7
370
    25
100
AcDbSpline
210
0.0
220
0.0
230
1.0
 70
     8
 71
     3
 72
    56
 73
    52
 74
     0
 42
0.000000001
 43
0.00000001
 40
0.0
 40
0.0
 40
0.0
 40
0.0
 40
0.0169472645286531
 40
0.037633390047144
 40
0.0583154400893029
 40
0.0789955086601834
 40
0.0996750957368381
 40
0.1203550616098935
 40
0.1410362903039008
 40
0.1617193672373975
 40
0.1824046495688371
 40
0.2030923238935845
 40
0.2237824519829517
 40
0.24447500615599
 40
0.2651698960899161
 40
0.2858669887878218
 40
0.3065661232033186
 40
0.3272671207646203
 40
0.3479697927933993
 40
0.3686739455973589
 40
0.3893793838356672
 40
0.4100859126125234
 40
0.4307933386415752
 40
0.4515014707374527
 40
0.472210119825664
 40
0.4929190986136794
 40
0.5136282210310978
 40
0.5343372804759547
 40
0.5550460503115073
 40
0.5757543432711238
 40
0.5964619700108679
 40
0.6171687384807828
 40
0.6378744535041456
 40
0.6585789166589496
 40
0.679281926595197
 40
0.6999832799665676
 40
0.7206827732160751
 40
0.7413802055366809
 40
0.76207538343433
 40
0.7827681274581657
 40
0.8034582818352215
 40
0.8241457279577692
 40
0.8448304029168089
 40
0.8655123245398691
 40
0.88619162463641
 40
0.9068685923011842
 40
0.9275437290293342
 40
0.9482178168090226
 40
0.9688917610326615
 40
0.9895668126260626
 40
1.0
 40
1.0
 40
1.0
 40
1.0
 10
136.6505237194182
 20
62.20427958167478
 30
0.0
 10
135.7481832502749
 20
61.3458963037157
 30
0.0
 10
133.7444303276024
 20
59.43975548348108
 30
0.0
 10
130.3092313498962
 20
56.57841375247135
 30
0.0
 10
126.4180187632711
 20
53.61098794509135
 30
0.0
 10
122.2608440071396
 20
50.73743121128435
 30
0.0
 10
117.8562212880247
 20
47.96102038202952
 30
0.0
 10
113.2102222922393
 20
45.28828732553413
 30
0.0
 10
108.3329302491194
 20
42.72465205546558
 30
0.0
 10
103.2339823639318
 20
40.27555612116962
 30
0.0
 10
97.92375656224748
 20
37.94614796274762
 30
0.0
 10
92.41302758251435
 20
35.74134833413734
 30
0.0
 10
86.71302408269052
 20
33.66581270888618
 30
0.0
 10
80.83537756838568
 20
31.72392441149258
 30
0.0
 10
74.7921000173461
 20
29.91978208707589
 30
0.0
 10
68.59555372630876
 20
28.25719078650635
 30
0.0
 10
62.25842323506619
 20
26.73965379682776
 30
0.0
 10
55.79368669650631
 20
25.3703656897659
 30
0.0
 10
49.21458737438553
 20
24.15220624104526
 30
0.0
 10
42.53460505212303
 20
23.08773515447164
 30
0.0
 10
35.76742737897182
 20
22.17918749694021
 30
0.0
 10
28.92692112367793
 20
21.42846979349467
 30
0.0
 10
22.0271033324088
 20
20.83715674573473
 30
0.0
 10
15.08211239260978
 20
20.40648855103774
 30
0.0
 10
8.106179014230268
 20
20.13736880835974
 30
0.0
 10
1.113597146975454
 20
20.030363001868
 30
0.0
 10
-5.881302773082478
 20
20.08569753797892
 30
0.0
 10
-12.86418075652553
 20
20.30325899752004
 30
0.0
 10
-19.82072106168494
 20
20.68259398768237
 30
0.0
 10
-26.73666373533788
 20
21.22291015943271
 30
0.0
 10
-33.59783574299725
 20
21.92307811268396
 30
0.0
 10
-40.3901752699395
 20
22.78163310842649
 30
0.0
 10
-47.09976045916203
 20
23.79677747054178
 30
0.0
 10
-53.71283799260205
 20
24.96638353158136
 30
0.0
 10
-60.21585149867646
 20
26.28799712183175
 30
0.0
 10
-66.59546978183965
 20
27.75884160534217
 30
0.0
 10
-72.83861487190248
 20
29.37582247689925
 30
0.0
 10
-78.93248993437791
 20
31.13553253906186
 30
0.0
 10
-84.86460698000488
 20
33.03425772684555
 30
0.0
 10
-90.62281475941232
 20
35.06798356739279
 30
0.0
 10
-96.19532561846599
 20
37.23240270641545
 30
0.0
 10
-101.5707461450691
 20
39.52292247790538
 30
0.0
 10
-106.7380938553667
 20
41.93467720040672
 30
0.0
 10
-111.6868663745033
 20
44.46252895419023
 30
0.0
 10
-116.4069151874042
 20
47.10111914879906
 30
0.0
 10
-120.889048725963
 20
49.84474062789342
 30
0.0
 10
-125.1229130867187
 20
52.6878923399689
 30
0.0
 10
-129.10501330526
 20
55.62329201096998
 30
0.0
 10
-132.8088428370246
 20
58.64935735550811
 30
0.0
 10
-135.7204384832717
 20
61.23152860717973
 30
0.0
 10
-137.2875932284045
 20
62.82980301091975
 30
0.0
 10
-137.8131909363651
 20
63.36583773621216
 30
0.0
  0
SPLINE
  5
2A7
330
297
100
AcDbEntity
  8
0
  6
Continuous
 62
     7
370
    25
100
AcDbSpline
210
0.0
220
0.0
230
1.0
 70
     8
 71
     3
 72
    10
 73
     6
 74
     0
 42
0.000000001
 43
0.00000001
 40
0.0
 40
0.0
 40
0.0
 40
0.0
 40
0.2942552431872428
 40
0.6558615780786581
 40
1.0
 40
1.0
 40
1.0
 40
1.0
 10
45.20035077382319
 20
28.22050568039999
 30
0.0
 10
45.17477809537512
 20
27.74649776590021
 30
0.0
 10
45.11777949422539
 20
26.68998786157958
 30
0.0
 10
44.68142566084487
 20
25.06196342859126
 30
0.0
 10
44.11815467412092
 20
23.89409173975832
 30
0.0
 10
43.84348995062982
 20
23.32460891169358
 30
0.0
  0
SPLINE
  5
2A8
330
297
100
AcDbEntity
  8
0
  6
Continuous
 62
     7
370
    25
100
AcDbSpline
210
0.0
220
0.0
230
1.0
 70
     8
 71
     3
 72
    11
 73
     7
 74
     0
 42
0.000000001
 43
0.00000001
 40
0.0
 40
0.0
 40
0.0
 40
0.0
 40
0.011127510225145
 40
0.348793625440714
 40
0.6948743566430873
 40
1.0
 40
1.0
 40
1.0
 40
1.0
 10
-43.84635825990048
 20
23.33272673684022
 30
0.0
 10
-43.85756882451257
 20
23.35083631433693
 30
0.0
 10
-44.20896580327734
 20
23.91848397877201
 30
0.0
 10
-44.63115431660662
 20
25.03999103432722
 30
0.0
 10
-45.10693280755689
 20
26.61860601009571
 30
0.0
 10
-45.17188894154586
 20
27.64583037645429
 30
0.0
 10
-45.20232442705041
 20
28.12714092239171
 30
0.0
  0
LWPOLYLINE
  5
2AD
330
297
100
AcDbEntity
  8
0
  6
Continuous
 62
     7
370
    25
100
AcDbPolyline
 90
        9
 70
   128
 43
0.0
 10
-39.6314353513
 20
32.6700710772
 10
-39.9585833416
 20
32.7813621524
 10
-40.2372895339
 20
32.9233862854
 10
-40.4568434056
 20
33.0906855684
 10
-40.6088076245
 20
33.2768307838
 10
-40.6873422909
 20
33.4746684752
 10
-40.6894293617
 20
33.6765958512
 10
-40.6149886318
 20
33.874852956
 10
-40.4668808168
 20
34.0618208801
  0
LWPOLYLINE
  5
2B5
330
297
100
AcDbEntity
  8
0
  6
Continuous
 62
     7
370
    25
100
AcDbPolyline
 90
       66
 70
   128
 43
0.0
 10
-160.8137893292
 20
19.5523597185
 10
-160.8155051923
 20
19.3235582005
 10
-160.6572563852
 20
15.4387912714
 10
-160.1454304021
 20
11.5621217137
 10
-159.2811536782
 20
7.7020813667
 10
-158.0663283281
 20
3.8671654718
 10
-156.5036279599
 20
0.065813976
 10
-154.5964917907
 20
-3.6936070429
 10
-152.3491170774
 20
-7.4028237882
 10
-149.7664498802
 20
-11.0536729536
 10
-146.854174176
 20
-14.6381196893
 10
-143.6186993499
 20
-18.1482752849
 10
-140.0671460891
 20
-21.5764145314
 10
-136.2073307113
 20
-24.9149927225
 10
-132.0477479628
 20
-28.1566622597
 10
-127.5975523227
 20
-31.2942888222
 10
-122.8665378561
 20
-34.3209670692
 10
-117.8651166588
 20
-37.2300358366
 10
-112.604295942
 20
-40.0150927972
 10
-107.0956538081
 20
-42.670008551
 10
-101.3513137687
 20
-45.1889401151
 10
-95.3839180633
 20
-47.5663437827
 10
-89.2065998363
 20
-49.7969873242
 10
-82.832954233
 20
-51.8759615019
 10
-76.277008479
 20
-53.7986908747
 10
-69.5531910094
 20
-55.5609438677
 10
-62.6762997141
 20
-57.158842085
 10
-55.6614693706
 20
-58.5888688454
 10
-48.5241383346
 20
-59.8478769223
 10
-41.2800145636
 20
-60.9330954695
 10
-33.9450410464
 20
-61.8421361199
 10
-26.5353607154
 20
-62.5729982417
 10
-19.0672809188
 20
-63.1240733413
 10
-11.5572375316
 20
-63.4941486034
 10
-4.0217587828
 20
-63.6824095602
 10
3.52257112
 20
-63.6884418838
 10
11.0591484894
 20
-63.5122322981
 10
18.5713866999
 20
-63.1541686083
 10
26.042752692
 20
-62.6150388468
 10
33.4568033586
 20
-61.8960295394
 10
40.7972217329
 20
-60.9987230938
 10
48.0478528996
 20
-59.9250943171
 10
55.1927395482
 20
-58.6775060695
 10
62.2161570929
 20
-57.2587040639
 10
69.1026482788
 20
-55.6718108236
 10
75.837057201
 20
-53.9203188097
 10
82.4045626598
 20
-52.0080827353
 10
88.7907107792
 20
-49.9393110812
 10
94.9814468179
 20
-47.718556835
 10
100.9631461004
 20
-45.3507074695
 10
106.7226440029
 20
-42.8409741873
 10
112.247264926
 20
-40.1948804513
 10
117.5248501919
 20
-37.4182498289
 10
122.5437848024
 20
-34.5171931752
 10
127.2930230025
 20
-31.4980951842
 10
131.7621125893
 20
-28.3676003371
 10
135.9412179157
 20
-25.1325982795
 10
139.8211415368
 20
-21.8002086579
 10
143.3933444519
 20
-18.3777654511
 10
146.6499648971
 20
-14.8728008293
 10
149.5838356476
 20
-11.2930285773
 10
152.1884997916
 20
-7.6463271178
 10
154.4582249408
 20
-3.9407221721
 10
156.388015846
 20
-0.1843690978
 10
157.9736253912
 20
3.6144650606
 10
159.2115639405
 20
7.4474197654
  0
LWPOLYLINE
  5
2B7
330
297
100
AcDbEntity
  8
0
  6
Continuous
 62
     7
370
    25
100
AcDbPolyline
 90
      134
 70
   128
 43
0.0
 10
-140.6225150226
 20
138.3348050909
 10
-143.9698918992
 20
134.871891469
 10
-146.9960156515
 20
131.3314252434
 10
-149.694133814
 20
127.7213065786
 10
-152.0582258302
 20
124.0495910612
 10
-154.0830164863
 20
120.3244717239
 10
-155.7639876827
 20
116.5542607649
 10
-157.0973885152
 20
112.7473709988
 10
-158.0802436453
 20
108.9122970854
 10
-158.7103599389
 20
105.0575965742
 10
-158.98633136
 20
101.1918708093
 10
-158.9075421086
 20
97.3237457365
 10
-158.4741679943
 20
93.4618526552
 10
-157.6871760442
 20
89.6148089592
 10
-156.548322345
 20
85.7911989071
 10
-155.0601481247
 20
81.999554468
 10
-153.2259740819
 20
78.2483362835
 10
-151.0498929761
 20
74.5459147879
 10
-148.536760495
 20
70.9005515315
 10
-145.6921844201
 20
67.3203807451
 10
-142.5225121127
 20
63.8133911895
 10
-139.0348163512
 20
60.3874083299
 10
-135.2368795487
 20
57.0500768736
 10
-131.1371763872
 20
53.8088437122
 10
-126.7448549076
 20
50.670941304
 10
-122.0697160965
 20
47.6433715365
 10
-117.1221920167
 20
44.7328901016
 10
-111.9133225292
 20
41.9459914215
 10
-106.4547306584
 20
39.2888941568
 10
-100.7585966572
 20
36.7675273306
 10
-94.837630828
 20
34.3875170982
 10
-88.7050451608
 20
32.1541741929
 10
-82.3745238521
 20
30.0724820762
 10
-75.8601927703
 20
28.1470858171
 10
-69.1765879355
 20
26.3822817276
 10
-62.3386230833
 20
24.7820077756
 10
-55.3615563872
 20
23.3498347981
 10
-48.2609564112
 20
22.0889585331
 10
-41.0526673702
 20
21.0021924884
 10
-33.7527737759
 20
20.0919616641
 10
-26.3775645451
 20
19.3602971411
 10
-18.9434966536
 20
18.808831549
 10
-11.4671584138
 20
18.4387954232
 10
-3.9652324596
 20
18.251014459
 10
3.5455414788
 20
18.2459076692
 10
11.0484039277
 20
18.4234864489
 10
18.5266130672
 20
18.7833545506
 10
25.9634820887
 20
19.3247089677
 10
33.3424164293
 20
20.0463417268
 10
40.6469508012
 20
20.9466425831
 10
47.860785932
 20
22.0236026134
 10
54.9678249347
 20
23.2748186987
 10
61.9522092263
 20
24.6974988867
 10
68.7983539144
 20
26.2884686215
 10
75.4909825732
 20
28.0441778276
 10
82.0151613312
 20
29.9607088312
 10
88.3563321944
 20
32.0337851023
 10
94.5003455312
 20
34.258780797
 10
100.4334916453
 20
36.63073108
 10
106.1425313677
 20
39.1443432027
 10
111.6147255986
 20
41.7940083135
 10
116.8378637327
 20
44.5738139735
 10
121.8002909065
 20
47.4775573493
 10
126.4909340046
 20
50.498759054
 10
130.8993263682
 20
53.6306776053
 10
135.0156311499
 20
56.8663244682
 10
138.8306632644
 20
60.1984796493
 10
142.3359098832
 20
63.6197078076
 10
145.5235494304
 20
67.1223748451
 10
148.3864690359
 20
70.6986649421
 10
150.9182804064
 20
74.340597997
 10
153.1133340808
 20
78.0400474331
 10
154.9667320361
 20
81.7887583321
 10
156.4743386167
 20
85.5783658542
 10
157.6327897628
 20
89.400413903
 10
158.4395005169
 20
93.2463739951
 10
158.8926707919
 20
97.1076642895
 10
158.9912893877
 20
100.9756687376
 10
158.7351362476
 20
104.8417563092
 10
158.1247829496
 20
108.6973002512
 10
157.1615914303
 20
112.5336973373
 10
155.8477109468
 20
116.3423870656
 10
154.1860732802
 20
120.1148707599
 10
152.1803861938
 20
123.8427305341
 10
149.8351251598
 20
127.5176480754
 10
147.1555233726
 20
131.1314232056
 10
144.1475600716
 20
134.6759921794
 10
140.8179471991
 20
138.1434456775
 10
137.1741144234
 20
141.5260464552
 10
133.2241925601
 20
144.8162466075
 10
128.9769954296
 20
148.0067044113
 10
124.4420001893
 20
151.0903007077
 10
119.629326187
 20
154.0601547877
 10
114.5497123801
 20
156.9096397455
 10
109.2144933733
 20
159.6323972659
 10
103.6355741265
 20
162.2223518123
 10
97.8254033899
 20
164.6737241833
 10
91.7969459264
 20
166.9810444086
 10
85.5636535818
 20
169.1391639546
 10
79.1394352687
 20
171.1432672128
 10
72.5386259302
 20
172.988882245
 10
65.775954553
 20
174.6718907625
 10
58.8665113014
 20
176.1885373152
 10
51.8257138448
 20
177.5354376715
 10
44.6692729556
 20
178.7095863702
 10
37.4131574518
 20
179.7083634263
 10
30.0735585642
 20
180.5295401777
 10
22.6668538081
 20
181.171284258
 10
15.2095704379
 20
181.6321636851
 10
7.7183485687
 20
181.9111500569
 10
0.2099040458
 20
182.0076208457
 10
-7.2990088551
 20
181.9213607874
 10
-14.7916348131
 20
181.6525623619
 10
-22.25125485
 20
181.2018253637
 10
-29.6612236366
 20
180.5701555632
 10
-37.0050066351
 20
179.7589624628
 10
-44.2662169939
 20
178.7700561514
 10
-51.4286521135
 20
177.6056432658
 10
-58.4763298005
 20
176.2683220663
 10
-65.3935239301
 20
174.7610766395
 10
-72.1647995375
 20
173.0872702394
 10
-78.775047259
 20
171.2506377824
 10
-85.2095170472
 20
169.2552775138
 10
-91.4538510841
 20
167.1056418625
 10
-97.4941158186
 20
164.8065275063
 10
-103.3168330583
 20
162.3630646683
 10
-108.9090100442
 20
159.7807056695
 10
-114.2581684428
 20
157.0652127626
 10
-119.3523721901
 20
154.2226452742
 10
-124.1802541255
 20
151.2593460837
 10
-128.7310413566
 20
148.1819274704
 10
-132.9945792977
 20
144.9972563586
 10
-136.9613543284
 20
141.7124389948
 10
-140.6225150226
 20
138.3348050909
  0
LWPOLYLINE
  5
2B8
330
297
100
AcDbEntity
  8
0
  6
Continuous
 62
     7
370
    25
100
AcDbPolyline
 90
      133
 70
   128
 43
0.0
 10
-137.7256402099
 20
137.5474965893
 10
-141.027704388
 20
134.1299269293
 10
-144.0102954564
 20
130.6353061862
 10
-146.666656887
 20
127.0715508001
 10
-148.9907711668
 20
123.4467338231
 10
-150.9773734293
 20
119.7690666316
 10
-152.6219633816
 20
116.0468803246
 10
-153.9208154984
 20
112.2886068512
 10
-154.870987462
 20
108.5027599098
 10
-155.4703268272
 20
104.6979156612
 10
-155.7174758975
 20
100.8826933014
 10
-155.611874801
 20
97.0657355362
 10
-155.1537627579
 20
93.2556890026
 10
-154.3441775395
 20
89.4611846815
 10
-153.1849531166
 20
85.6908183455
 10
-151.6787155054
 20
81.9531310871
 10
-149.8288768186
 20
78.2565899701
 10
-147.6396275357
 20
74.6095688491
 10
-145.1159270106
 20
71.0203293999
 10
-142.2634922365
 20
67.4970024043
 10
-139.0887848957
 20
64.0475693311
 10
-135.5989967215
 20
60.6798442558
 10
-131.8020332065
 20
57.4014561587
 10
-127.7064956942
 20
54.2198316434
 10
-123.3216618944
 20
51.1421781127
 10
-118.657464866
 20
48.1754674417
 10
-113.7244705154
 20
45.3264201844
 10
-108.5338536615
 20
42.601490349
 10
-103.0973727208
 20
40.0068507782
 10
-97.4273430713
 20
37.5483791649
 10
-91.5366091538
 20
35.2316447383
 10
-85.4385153753
 20
33.0618956469
 10
-79.1468758795
 20
31.0440470702
 10
-72.6759432535
 20
29.1826700843
 10
-66.040376241
 20
27.4819813068
 10
-59.2552065355
 20
25.9458333447
 10
-52.3358047287
 20
24.5777060672
 10
-45.2978454912
 20
23.3806987227
 10
-38.1572720643
 20
22.3575229178
 10
-30.9302601436
 20
21.5104964747
 10
-23.6331812354
 20
20.8415381809
 10
-16.2825655704
 20
20.3521634419
 10
-8.8950646575
 20
20.0434808491
 10
-1.4874135621
 20
19.9161896676
 10
5.9236070034
 20
19.9705782531
 10
13.3212086938
 20
20.2065233979
 10
20.688633562
 20
20.6234906103
 10
28.009192021
 20
21.2205353254
 10
35.2663006513
 20
21.996305045
 10
42.4435197678
 20
22.9490424012
 10
49.5245906608
 20
24.0765891373
 10
56.4934724271
 20
25.3763909975
 10
63.3343783082
 20
26.8455035123
 10
70.0318114519
 20
28.4805986695
 10
76.5706000181
 20
30.2779724526
 10
82.9359315475
 20
32.2335532319
 10
89.1133865169
 20
34.3429109879
 10
95.088971004
 20
36.601267347
 10
100.8491483879
 20
39.0035064055
 10
106.3808700142
 20
41.5441863193
 10
111.6716047543
 20
44.2175516314
 10
116.7093673921
 20
47.0175463094
 10
121.4827457752
 20
49.9378274647
 10
125.980926666
 20
52.9717797214
 10
130.1937202383
 20
56.1125302017
 10
134.1115831594
 20
59.3529640957
 10
137.7256402099
 20
62.6857407782
 10
141.027704388
 20
66.1033104383
 10
144.0102954564
 20
69.5979311813
 10
146.666656887
 20
73.1616865674
 10
148.9907711668
 20
76.7865035444
 10
150.9773734293
 20
80.4641707359
 10
152.6219633816
 20
84.186357043
 10
153.9208154984
 20
87.9446305163
 10
154.870987462
 20
91.7304774578
 10
155.4703268272
 20
95.5353217064
 10
155.7174758975
 20
99.3505440662
 10
155.611874801
 20
103.1675018313
 10
155.1537627579
 20
106.9775483649
 10
154.3441775395
 20
110.7720526861
 10
153.1849531166
 20
114.542419022
 10
151.6787155054
 20
118.2801062804
 10
149.8288768186
 20
121.9766473974
 10
147.6396275357
 20
125.6236685184
 10
145.1159270106
 20
129.2129079676
 10
142.2634922365
 20
132.7362349632
 10
139.0887848957
 20
136.1856680364
 10
135.5989967215
 20
139.5533931118
 10
131.8020332065
 20
142.8317812089
 10
127.7064956942
 20
146.0134057242
 10
123.3216618944
 20
149.0910592549
 10
118.657464866
 20
152.0577699258
 10
113.7244705154
 20
154.9068171832
 10
108.5338536615
 20
157.6317470185
 10
103.0973727208
 20
160.2263865894
 10
97.4273430713
 20
162.6848582026
 10
91.5366091538
 20
165.0015926292
 10
85.4385153753
 20
167.1713417207
 10
79.1468758795
 20
169.1891902973
 10
72.6759432535
 20
171.0505672832
 10
66.040376241
 20
172.7512560608
 10
59.2552065355
 20
174.2874040229
 10
52.3358047287
 20
175.6555313003
 10
45.2978454912
 20
176.8525386449
 10
38.1572720643
 20
177.8757144498
 10
30.9302601436
 20
178.7227408928
 10
23.6331812354
 20
179.3916991867
 10
16.2825655704
 20
179.8810739256
 10
8.8950646575
 20
180.1897565185
 10
1.4874135621
 20
180.3170476999
 10
-5.9236070034
 20
180.2626591144
 10
-13.3212086938
 20
180.0267139697
 10
-20.688633562
 20
179.6097467573
 10
-28.009192021
 20
179.0127020421
 10
-35.2663006513
 20
178.2369323225
 10
-42.4435197678
 20
177.2841949664
 10
-49.5245906608
 20
176.1566482302
 10
-56.4934724271
 20
174.8568463701
 10
-63.3343783082
 20
173.3877338552
 10
-70.0318114519
 20
171.752638698
 10
-76.5706000181
 20
169.9552649149
 10
-82.9359315475
 20
167.9996841357
 10
-89.1133865169
 20
165.8903263796
 10
-95.088971004
 20
163.6319700206
 10
-100.8491483879
 20
161.2297309621
 10
-106.3808700142
 20
158.6890510482
 10
-111.6716047543
 20
156.0156857361
 10
-116.7093673921
 20
153.2156910582
 10
-121.4827457752
 20
150.2954099028
 10
-125.980926666
 20
147.2614576461
 10
-130.1937202383
 20
144.1207071658
 10
-134.1115831594
 20
140.8802732719
 10
-137.7256402099
 20
137.5474965893
  0
LWPOLYLINE
  5
2B9
330
297
100
AcDbEntity
  8
0
  6
Continuous
 62
     7
370
    25
100
AcDbPolyline
 90
       13
 70
   128
 43
0.0
 10
-154.7057901235
 20
101.8284846008
 10
-154.7638024527
 20
100.2785894449
 10
-154.6588480977
 20
96.4850081905
 10
-154.2035417082
 20
92.6982958407
 10
-153.3989146997
 20
88.9270305169
 10
-152.246789811
 20
85.179755348
 10
-150.7497769757
 20
81.4649591175
 10
-148.9112674092
 20
77.7910570337
 10
-146.7354259272
 20
74.1663716664
 10
-144.2271815103
 20
70.5991140939
 10
-141.392216139
 20
67.0973653018
 10
-138.2369519215
 20
63.6690578775
 10
-137.7106700478
 20
63.1357128195
  0
LWPOLYLINE
  5
2BA
330
297
100
AcDbEntity
  8
0
  6
Continuous
 62
     7
370
    25
100
AcDbPolyline
 90
       13
 70
   128
 43
0.0
 10
136.6191328179
 20
62.0599760044
 10
136.8821556557
 20
62.3155696841
 10
140.1639967285
 20
65.712208839
 10
143.1283212672
 20
69.1854271866
 10
145.7684141233
 20
72.7273567702
 10
148.0782946373
 20
76.3299739801
 10
150.052730187
 20
79.9851177296
 10
151.6872480407
 20
83.6845079425
 10
152.9781454898
 20
87.4197643101
 10
153.9224982365
 20
91.1824252754
 10
154.5181670179
 20
94.963967201
 10
154.7638024527
 20
98.7558236782
 10
154.7382528649
 20
101.1534585219
  0
LWPOLYLINE
  5
2BC
330
297
100
AcDbEntity
  8
0
  6
Continuous
 62
     7
370
    25
100
AcDbPolyline
 90
       30
 70
   128
 43
0.0
 10
37.9993338478
 20
167.2589387443
 10
45.2128492106
 20
166.2000411007
 10
52.3160298298
 20
164.95895961
 10
59.2915415266
 20
163.5387229334
 10
66.1223616779
 20
161.9427969321
 10
72.7918207571
 20
160.1750762086
 10
79.2836430137
 20
158.2398746033
 10
85.5819861913
 20
156.1419146669
 10
91.6714801886
 20
153.886316136
 10
97.5372645671
 20
151.4785834386
 10
103.1650248161
 20
148.9245922624
 10
108.5410272849
 20
146.2305752151
 10
113.6521526972
 20
143.4031066155
 10
118.4859281671
 20
140.4490864495
 10
123.0305576369
 20
137.3757235319
 10
127.2749506637
 20
134.1905179145
 10
131.2087494835
 20
130.9012425833
 10
134.8223542881
 20
127.5159244899
 10
138.1069466516
 20
124.0428249628
 10
141.0545110506
 20
120.4904195472
 10
143.6578544243
 20
116.8673773217
 10
145.9106237288
 20
113.1825397426
 10
147.8073214401
 20
109.444899068
 10
149.34331897
 20
105.6635764137
 10
150.5148679618
 20
101.847799494
 10
151.319109437
 20
98.0068801037
 10
151.7540807726
 20
94.1501913936
 10
151.8187204906
 20
90.2871449971
 10
151.512870848
 20
86.4271680624
 10
150.8372782221
 20
82.5796802472
  0
LWPOLYLINE
  5
2BD
330
297
100
AcDbEntity
  8
0
  6
Continuous
 62
     7
370
    25
100
AcDbPolyline
 90
       34
 70
   128
 43
0.0
 10
-103.054776217
 20
-44.5632553789
 10
-100.9196526455
 20
-45.4700144213
 10
-94.9660661491
 20
-47.8373237798
 10
-88.8034464872
 20
-50.0582069036
 10
-82.4453584199
 20
-52.1277753284
 10
-75.9057969595
 20
-54.041473654
 10
-69.199156566
 20
-55.7950895713
 10
-62.3401994626
 20
-57.3847631343
 10
-55.3440231423
 20
-58.8069952563
 10
-48.2260271362
 20
-60.058655412
 10
-41.0018791168
 20
-61.136988528
 10
-33.6874804118
 20
-62.039621047
 10
-26.2989310027
 20
-62.7645661527
 10
-18.8524940868
 20
-63.3102281429
 10
-11.3645602798
 20
-63.6754059416
 10
-3.8516115373
 20
-63.8592957431
 10
3.6698151234
 20
-63.861492781
 10
11.1831640244
 20
-63.6819922194
 10
18.6718972677
 20
-63.3211891632
 10
26.1195311378
 20
-62.7798777889
 10
33.5096723845
 20
-62.0592495961
 10
40.8260543067
 20
-61.1608907849
 10
48.0525725575
 20
-60.0867787647
 10
55.173320592
 20
-58.8392778014
 10
62.1726246801
 20
-57.4211338135
 10
69.0350784061
 20
-55.8354683278
 10
75.7455765805
 20
-54.0857716088
 10
82.2893484884
 20
-52.1758949757
 10
88.6519904023
 20
-50.1100423255
 10
94.8194972861
 20
-47.8927608795
 10
100.7782936223
 20
-45.5289311742
 10
106.5152632937
 20
-43.0237563189
 10
112.0177784534
 20
-40.3827505424
 10
115.427097524
 20
-38.6151510764
  0
SPLINE
  5
2BE
330
297
100
AcDbEntity
  8
0
  6
Continuous
 62
     7
370
    25
100
AcDbSpline
210
0.0
220
0.0
230
1.0
 70
     8
 71
     3
 72
    10
 73
     6
 74
     0
 42
0.000000001
 43
0.00000001
 40
0.0
 40
0.0
 40
0.0
 40
0.0
 40
0.3110912356402331
 40
0.8101050065159604
 40
1.0
 40
1.0
 40
1.0
 40
1.0
 10
96.48302228488737
 20
37.40386920099589
 30
0.0
 10
85.844505263859
 20
40.11787303215181
 30
0.0
 10
58.14100573291395
 20
47.18534340558769
 30
0.0
 10
23.93830260014443
 20
56.2589455817735
 30
0.0
 10
0.379745904800402
 20
62.882723761328
 30
0.0
 10
-6.114077663133571
 20
64.70854218507121
 30
0.0
  0
LWPOLYLINE
  5
2CC
330
297
100
AcDbEntity
  8
0
  6
Continuous
 62
    60
370
    25
100
AcDbPolyline
 90
       44
 70
   128
 43
0.0
 10
33.5910388037
 20
21.9354907626
 10
34.804195246
 20
23.229709955
 10
36.1138876273
 20
24.9964440658
 10
37.0863943702
 20
26.8200330558
 10
37.7126354412
 20
28.6834505661
 10
37.9867637962
 20
30.5692983694
 10
37.9062199727
 20
32.4599688128
 10
37.4717559865
 20
34.3378092159
 10
36.6874283109
 20
36.1852866888
 10
35.560560002
 20
37.985151832
 10
34.1016723257
 20
39.7205997897
 10
32.324386523
 20
41.3754271519
 10
30.2452966328
 20
42.9341832414
 10
27.883814557
 20
44.3823143726
 10
25.2619888176
 20
45.7062997351
 10
22.404298695
 20
46.8937776346
 10
19.3374256721
 20
47.9336609097
 10
16.0900043158
 20
48.8162404505
 10
12.6923549245
 20
49.5332758497
 10
9.176200435
 20
50.0780723408
 10
5.5743702344
 20
50.4455433059
 10
1.9204936409
 20
50.6322577675
 10
-1.7513140843
 20
50.6364724231
 10
-5.4067702618
 20
50.4581479215
 10
-9.0117448821
 20
50.0989492306
 10
-12.5325792685
 20
49.5622300917
 10
-15.936400339
 20
48.8530017068
 10
-19.1914275334
 20
47.9778859504
 10
-22.2672695397
 20
46.9450535423
 10
-25.1352080499
 20
45.7641477606
 10
-27.7684658949
 20
44.4461944043
 10
-30.1424570556
 20
43.0034988488
 10
-32.2350162163
 20
41.4495311539
 10
-34.0266057157
 20
39.7988002971
 10
-35.5004979656
 20
38.0667187077
 10
-36.6429316311
 20
36.2694583649
 10
-37.4432401168
 20
34.4237998041
 10
-37.8939511581
 20
32.5469754422
 10
-37.9908565874
 20
30.6565086825
 10
-37.7330516248
 20
28.7700503038
 10
-37.1229433258
 20
26.9052136596
 10
-36.1662281072
 20
25.0794102273
 10
-34.8718385612
 20
23.3096870416
 10
-33.5456425305
 20
21.8914203253
  0
LWPOLYLINE
  5
2CF
330
297
100
AcDbEntity
  8
0
  6
Continuous
 62
    60
370
    25
100
AcDbPolyline
 90
        3
 70
   128
 43
0.0
 10
39.4988227876
 20
22.691830178
 10
39.8487490457
 20
24.1529440166
 10
40.0
 20
25.9428180028
  0
LWPOLYLINE
  5
2D2
330
297
100
AcDbEntity
  8
0
  6
Continuous
 62
    60
370
    25
100
AcDbPolyline
 90
       60
 70
   128
 43
0.0
 10
-156.4300775652
 20
81.9565114943
 10
-156.2203405268
 20
81.4611690751
 10
-154.4281817498
 20
77.7094243262
 10
-152.2965563139
 20
74.0050676566
 10
-149.8301499945
 20
70.3562420463
 10
-147.0343844881
 20
66.7709684058
 10
-143.9154054938
 20
63.2571279447
 10
-140.4800692046
 20
59.8224448469
 10
-136.735927235
 20
56.4744692913
 10
-132.6912100218
 20
53.2205608548
 10
-128.3548087311
 20
50.0678723344
 10
-123.7362557142
 20
47.0233340235
 10
-118.845703553
 20
44.0936384782
 10
-113.6939027424
 20
41.2852258052
 10
-108.2921780587
 20
38.6042695049
 10
-102.6524036652
 20
36.0566629011
 10
-96.78697701
 20
33.6480061862
 10
-90.7087915737
 20
31.3835941102
 10
-84.4312085271
 20
29.2684043424
 10
-77.9680273602
 20
27.3070865289
 10
-71.3334555479
 20
25.503952072
 10
-64.5420773189
 20
23.8629646525
 10
-57.6088215965
 20
22.387731517
 10
-50.5489291814
 20
21.0814955479
 10
-43.3779192495
 20
19.9471281355
 10
-36.1115552367
 20
18.9871228655
 10
-28.7658101884
 20
18.2035900379
 10
-21.3568316462
 20
17.5982520278
 10
-13.900906153
 20
17.1724394996
 10
-6.4144234513
 20
16.9270884817
 10
1.0861595454
 20
16.8627383088
 10
8.5843549276
 20
16.9795304365
 10
16.0636800347
 20
17.2772081304
 10
23.5076936867
 20
17.7551170304
 10
30.9000323262
 20
18.412206589
 10
38.2244459885
 20
19.2470323807
 10
45.4648340227
 20
20.2577592772
 10
52.6052804845
 20
21.4421654814
 10
59.630089123
 20
22.7976474115
 10
66.5238178841
 20
24.3212254241
 10
73.271312856
 20
26.0095503639
 10
79.8577415802
 20
27.8589109264
 10
86.268625657
 20
29.8652418156
 10
92.4898725719
 20
32.0241326809
 10
98.5078066739
 20
34.3308378115
 10
104.3091992379
 20
36.780286569
 10
109.8812975438
 20
39.3670945335
 10
115.2118529104
 20
42.0855753395
 10
120.28914762
 20
44.9297531763
 10
125.1020206769
 20
47.8933759238
 10
129.6398923417
 20
50.9699288959
 10
133.8927873876
 20
54.1526491616
 10
137.8513570282
 20
57.4345404108
 10
141.5068994684
 20
60.8083883345
 10
144.8513790325
 20
64.2667764826
 10
147.8774438286
 20
67.8021025675
 10
150.5784419096
 20
71.4065951751
 10
152.9484358954
 20
75.0723308483
 10
154.9822160249
 20
78.7912515047
 10
156.4178367294
 20
81.9271946106
  0
LWPOLYLINE
  5
2D3
330
297
100
AcDbEntity
  8
0
  6
Continuous
 62
    60
370
    25
100
AcDbPolyline
 90
       11
 70
   128
 43
0.0
 10
-136.8821556557
 20
136.7188434389
 10
-140.1639967285
 20
133.322204284
 10
-143.1283212672
 20
129.8489859364
 10
-145.7684141233
 20
126.3070563528
 10
-148.0782946373
 20
122.7044391429
 10
-150.052730187
 20
119.0492953934
 10
-151.6872480407
 20
115.3499051805
 10
-152.9781454898
 20
111.614648813
 10
-153.9224982365
 20
107.8519878477
 10
-154.5181670179
 20
104.0704459221
 10
-154.7057901235
 20
101.8284846008
  0
LWPOLYLINE
  5
2D4
330
297
100
AcDbEntity
  8
0
  6
Continuous
 62
    60
370
    25
100
AcDbPolyline
 90
       57
 70
   128
 43
0.0
 10
154.7382528649
 20
101.1534585219
 10
154.6588480977
 20
102.5494049326
 10
154.2035417082
 20
106.3361172823
 10
153.3989146997
 20
110.1073826061
 10
152.246789811
 20
113.8546577751
 10
150.7497769757
 20
117.5694540055
 10
148.9112674092
 20
121.2433560894
 10
146.7354259272
 20
124.8680414566
 10
144.2271815103
 20
128.4352990292
 10
141.392216139
 20
131.9370478212
 10
138.2369519215
 20
135.3653552455
 10
134.7685365463
 20
138.7124550831
 10
130.9948270896
 20
141.9707650762
 10
126.9243722172
 20
145.1329041047
 10
122.5663928186
 20
148.1917089068
 10
117.9307611186
 20
151.1402503057
 10
113.0279783142
 20
153.9718489068
 10
107.8691507853
 20
156.6800902285
 10
102.4659649355
 20
159.2588392332
 10
96.8306607185
 20
161.7022542249
 10
90.976003911
 20
164.0048000828
 10
84.9152571937
 20
166.1612608001
 10
78.6621501072
 20
168.1667512994
 10
72.2308479502
 20
170.0167285
 10
65.6359196908
 20
171.7070016083
 10
58.8923049625
 20
173.2337416121
 10
52.0152802217
 20
174.5934899543
 10
45.0204241414
 20
175.7831663675
 10
37.9235823202
 20
176.800075852
 10
30.7408313876
 20
177.6419147808
 10
23.4884425846
 20
178.3067761179
 10
16.1828449045
 20
178.7931537386
 10
8.8405878757
 20
179.0999458411
 10
1.4783040719
 20
179.2264574425
 10
-5.887328566
 20
179.1724019536
 10
-13.2396245112
 20
178.9379018272
 10
-20.5619284486
 20
178.5234882817
 10
-27.8376530046
 20
177.930100097
 10
-35.0503163231
 20
177.1590814882
 10
-42.1835794016
 20
176.2121790604
 10
-49.2212831052
 20
175.0915378522
 10
-56.1474847713
 20
173.7996964763
 10
-62.9464943254
 20
172.339581369
 10
-69.6029098242
 20
170.7145001606
 10
-76.1016523456
 20
168.9281341828
 10
-82.4280001475
 20
166.984530129
 10
-88.5676220174
 20
164.8880908875
 10
-94.5066097371
 20
162.6435655675
 10
-100.2315095892
 20
160.2560387407
 10
-105.7293528343
 20
157.7309189235
 10
-110.987685089
 20
155.0739263242
 10
-115.9945945396
 20
152.2910798857
 10
-120.7387389257
 20
149.3886836503
 10
-125.2093712345
 20
146.3733124789
 10
-129.3963640459
 20
143.2517971571
 10
-133.2902324744
 20
140.031208921
 10
-136.8821556557
 20
136.7188434389
  0
LWPOLYLINE
  5
2D5
330
297
100
AcDbEntity
  8
0
  6
Continuous
 62
    60
370
    25
100
AcDbPolyline
 90
       28
 70
   128
 43
0.0
 10
-5.4456008633
 20
113.411118147
 10
-11.9054807712
 20
113.195897353
 10
-18.7412565882
 20
112.7918274338
 10
-25.5279370894
 20
112.2081486787
 10
-32.2477436259
 20
111.4463901149
 10
-38.8830727343
 20
110.5085472745
 10
-45.4165422515
 20
109.3970769665
 10
-51.8310368498
 20
108.1148908413
 10
-58.1097528728
 20
106.6653477629
 10
-64.2362423546
 20
105.05224501
 10
-70.1944561081
 20
103.2798083287
 10
-75.9687857677
 20
101.352680862
 10
-81.5441046774
 20
99.2759109873
 10
-86.9058075178
 20
97.0549390905
 10
-92.0398485661
 20
94.6955833151
 10
-96.932778491
 20
92.20402432
 10
-101.5717795854
 20
89.586789089
 10
-105.9446993438
 20
86.8507338319
 10
-110.0400822976
 20
84.0030260243
 10
-113.8472000242
 20
81.0511256309
 10
-117.3560792519
 20
78.0027655634
 10
-120.5575279857
 20
74.865931423
 10
-123.4431595877
 20
71.6488405808
 10
-126.0054147463
 20
68.3599206517
 10
-128.2375812795
 20
65.0077874166
 10
-130.1338117181
 20
61.6012222525
 10
-131.6891386241
 20
58.1491491285
 10
-131.8340382986
 20
57.7804321986
  0
LWPOLYLINE
  5
2D6
330
297
100
AcDbEntity
  8
0
  6
Continuous
 62
    60
370
    25
100
AcDbPolyline
 90
       25
 70
   128
 43
0.0
 10
-5.7423425116
 20
91.7916951964
 10
-12.1168419855
 20
91.5375843771
 10
-18.4906797838
 20
91.0995771092
 10
-24.8074610539
 20
90.4799614306
 10
-31.0476941591
 20
89.6806492838
 10
-37.1921236671
 20
88.7041070994
 10
-43.2217897656
 20
87.553348185
 10
-49.1180867669
 20
86.2319234273
 10
-54.8628205191
 20
84.7439103351
 10
-60.4382645477
 20
83.0939004572
 10
-65.8272147539
 20
81.2869852148
 10
-71.0130425015
 20
79.3287401902
 10
-75.9797459274
 20
77.2252079231
 10
-80.7119993182
 20
74.9828792643
 10
-85.1952004014
 20
72.6086733478
 10
-89.4155154027
 20
70.10991624
 10
-93.3599217331
 20
67.4943183337
 10
-97.0162481726
 20
64.7699505563
 10
-100.3732124269
 20
61.9452194657
 10
-103.4204559408
 20
59.0288413097
 10
-106.1485758618
 20
56.0298151309
 10
-108.5491540542
 20
52.957394998
 10
-110.6147830749
 20
49.8210614507
 10
-112.3390890306
 20
46.6304922461
 10
-112.9941096863
 20
45.1984245272
  0
LWPOLYLINE
  5
2D7
330
297
100
AcDbEntity
  8
0
  6
Continuous
 62
    60
370
    25
100
AcDbPolyline
 90
       11
 70
   128
 43
0.0
 10
-42.600971674
 20
42.6638530796
 10
-44.3757548903
 20
40.7348290586
 10
-45.8219955432
 20
38.7343671637
 10
-46.9289861727
 20
36.6772781151
 10
-47.6885310076
 20
34.5787918802
 10
-48.0950066437
 20
32.454444917
 10
-48.1454036775
 20
30.3199651471
 10
-47.8393489871
 20
28.191155512
 10
-47.1791084943
 20
26.0837769733
 10
-46.1695703888
 20
24.0134318246
 10
-45.9232384829
 20
23.6000804137
  0
LWPOLYLINE
  5
2D8
330
297
100
AcDbEntity
  8
0
  6
Continuous
 62
    60
370
    25
100
AcDbPolyline
 90
       36
 70
   128
 43
0.0
 10
45.9249899693
 20
23.6029312621
 10
46.4184690174
 20
24.4596859354
 10
47.3526016489
 20
26.5393991523
 10
47.936152185
 20
28.6527724918
 10
48.1648002217
 20
30.7841592772
 10
48.036852929
 20
32.9177794664
 10
47.5532575838
 20
35.037836482
 10
46.7175945568
 20
37.1286341637
 10
45.5360508048
 20
39.1746929769
 10
44.0173740644
 20
41.160864618
 10
42.1728080866
 20
43.0724441671
 10
40.0160093928
 20
44.895278958
 10
37.5629461658
 20
46.6158733596
 10
34.8317800275
 20
48.221488693
 10
31.8427315764
 20
49.7002375441
 10
28.6179306815
 20
51.0411717736
 10
25.1812526405
 20
52.2343635737
 10
21.558141415
 20
53.2709789699
 10
17.7754212529
 20
54.1433432242
 10
13.8610980911
 20
54.8449976572
 10
9.8441522085
 20
55.3707474647
 10
5.7543236671
 20
55.7167001793
 10
1.6218921266
 20
55.8802944879
 10
-2.5225473358
 20
55.8603191956
 10
-6.6483107403
 20
55.6569221925
 10
-10.7248523781
 20
55.2716093589
 10
-14.7219909612
 20
54.707233416
 10
-18.610133074
 20
53.967972806
 10
-22.3604922726
 20
53.0593007558
 10
-25.9453022097
 20
51.9879447552
 10
-29.3380222067
 20
50.7618367494
 10
-32.5135337517
 20
49.390054413
 10
-35.4483264683
 20
47.8827539424
 10
-38.120672178
 20
46.2510948631
 10
-40.5107857682
 20
44.5071574079
 10
-42.600971674
 20
42.6638530796
  0
LWPOLYLINE
  5
2DA
330
297
100
AcDbEntity
  8
0
  6
Continuous
 62
    60
370
    25
100
AcDbPolyline
 90
       32
 70
   128
 43
0.0
 10
45.2263186335
 20
28.3153982066
 10
45.22877505
 20
28.5870846162
 10
45.0470898503
 20
30.6457514967
 10
44.5128500955
 20
32.6880922971
 10
43.6302369359
 20
34.6981229317
 10
42.4061580162
 20
36.6601121854
 10
40.8501934136
 20
38.5587048321
 10
38.9745206609
 20
40.3790418102
 10
36.7938194403
 20
42.1068765146
 10
34.3251566957
 20
43.7286862963
 10
31.5878530603
 20
45.2317782946
 10
28.6033316462
 20
46.6043887768
 10
25.3949503802
 20
47.8357752048
 10
21.9878191957
 20
48.9163003101
 10
18.4086035138
 20
49.8375075188
 10
14.6853155501
 20
50.5921871355
 10
10.8470950811
 20
51.174432769
 10
6.9239813861
 20
51.5796875576
 10
2.9466781489
 20
51.8047798334
 10
-1.0536868401
 20
51.8479479439
 10
-5.045805301
 20
51.7088540402
 10
-8.998433494
 20
51.3885867207
 10
-12.8806367444
 20
50.8896525114
 10
-16.662031548
 20
50.2159562489
 10
-20.3130233636
 20
49.37277052
 10
-23.8050382299
 20
48.3666943962
 10
-27.110746396
 20
47.2056017872
 10
-30.2042762135
 20
45.8985798171
 10
-33.0614166171
 20
44.4558577048
 10
-35.6598066094
 20
42.888726707
 10
-37.9791102656
 20
41.2094517485
 10
-40.00117589
 20
39.4311754327
  0
LWPOLYLINE
  5
2DD
330
297
100
AcDbEntity
  8
0
  6
Continuous
 62
    60
370
    25
100
AcDbPolyline
 90
        3
 70
   128
 43
0.0
 10
-39.9061855722
 20
24.1999022599
 10
-40.2206999036
 20
23.6991854971
 10
-40.6944816641
 20
22.8519481969
  0
LINE
  5
2DF
330
297
100
AcDbEntity
  8
0
  6
Continuous
 62
     7
370
    25
100
AcDbLine
 10
-40.0
 20
29.3714872056
 30
0.0
 11
-40.0
 21
25.9428180028
 31
0.0
  0
LINE
  5
2E0
330
297
100
AcDbEntity
  8
0
  6
Continuous
 62
     7
370
    25
100
AcDbLine
 10
40.0
 20
25.9428180028
 30
0.0
 11
40.0
 21
29.3714872056
 31
0.0
  0
LINE
  5
2E1
330
297
100
AcDbEntity
  8
0
  6
Continuous
 62
     7
370
    25
100
AcDbLine
 10
-40.6980445735
 20
33.5810890908
 30
0.0
 11
-40.6980445735
 21
27.7953573697
 31
0.0
  0
LINE
  5
2E2
330
297
100
AcDbEntity
  8
0
  6
Continuous
 62
     7
370
    25
100
AcDbLine
 10
39.2055503056
 20
33.6157896592
 30
0.0
 11
39.2055503056
 21
35.069233866
 31
0.0
  0
LINE
  5
2E3
330
297
100
AcDbEntity
  8
0
  6
Continuous
 62
     7
370
    25
100
AcDbLine
 10
160.076417216
 20
91.9772651515
 30
0.0
 11
159.9978003314
 21
99.6990386375
 31
0.0
  0
LINE
  5
2E4
330
297
100
AcDbEntity
  8
0
  6
Continuous
 62
     7
370
    25
100
AcDbLine
 10
-159.9978003314
 20
99.6990386375
 30
0.0
 11
-160.8137893292
 21
19.5523597185
 31
0.0
  0
LINE
  5
2E5
330
297
100
AcDbEntity
  8
0
  6
Continuous
 62
     7
370
    25
100
AcDbLine
 10
40.0
 20
29.3714872056
 30
0.0
 11
39.9991926575
 21
29.5023785864
 31
0.0
  0
LINE
  5
2E6
330
297
100
AcDbEntity
  8
0
  6
Continuous
 62
     7
370
    25
100
AcDbLine
 10
-40.0
 20
29.3714872056
 30
0.0
 11
-39.997187396
 21
29.1271829744
 31
0.0
  0
LINE
  5
2E7
330
297
100
AcDbEntity
  8
0
  6
Continuous
 62
     7
370
    25
100
AcDbLine
 10
40.0
 20
25.9428180028
 30
0.0
 11
39.9991926575
 21
26.0737093836
 31
0.0
  0
LINE
  5
2E8
330
297
100
AcDbEntity
  8
0
  6
Continuous
 62
     7
370
    25
100
AcDbLine
 10
-40.0
 20
25.9428180028
 30
0.0
 11
-39.997187396
 21
25.6985137716
 31
0.0
  0
LINE
  5
2E9
330
297
100
AcDbEntity
  8
0
  6
Continuous
 62
     7
370
    25
100
AcDbLine
 10
-40.4668808168
 20
34.0618208801
 30
0.0
 11
-38.6000992611
 21
35.8838569074
 31
0.0
  0
LINE
  5
2EA
330
297
100
AcDbEntity
  8
0
  6
Continuous
 62
     7
370
    25
100
AcDbLine
 10
37.8103618784
 20
36.5083171391
 30
0.0
 11
38.8983085526
 21
35.6178327144
 31
0.0
  0
LINE
  5
2EB
330
297
100
AcDbEntity
  8
0
  6
Continuous
 62
     7
370
    25
100
AcDbLine
 10
159.2115639405
 20
7.4474197654
 30
0.0
 11
158.6259260504
 21
80.462892658
 31
0.0
  0
LINE
  5
2EC
330
297
100
AcDbEntity
  8
0
  6
Continuous
 62
     7
370
    25
100
AcDbLine
 10
150.8372782221
 20
82.5796802472
 30
0.0
 11
149.67718572
 21
79.5913797807
 31
0.0
  0
LINE
  5
2ED
330
297
100
AcDbEntity
  8
0
  6
Continuous
 62
     7
370
    25
100
AcDbLine
 10
290.9936828944
 20
44.4881726458
 30
0.0
 11
158.6259260504
 21
80.462892658
 31
0.0
  0
LINE
  5
2EE
330
297
100
AcDbEntity
  8
0
  6
Continuous
 62
     7
370
    25
100
AcDbLine
 10
290.9936828944
 20
44.4881726458
 30
0.0
 11
291.3035428346
 21
-28.8872366163
 31
0.0
  0
LINE
  5
2EF
330
297
100
AcDbEntity
  8
0
  6
Continuous
 62
     7
370
    25
100
AcDbLine
 10
291.3035428346
 20
-28.8872366163
 30
0.0
 11
159.0979479933
 21
7.0434112383
 31
0.0
  0
LINE
  5
2F0
330
297
100
AcDbEntity
  8
0
  6
Continuous
 62
     7
370
    25
100
AcDbLine
 10
349.3306065106
 20
101.4267984963
 30
0.0
 11
290.9936828944
 21
44.4881726458
 31
0.0
  0
LINE
  5
2F1
330
297
100
AcDbEntity
  8
0
  6
Continuous
 62
     7
370
    25
100
AcDbLine
 10
349.3306065106
 20
101.4267984963
 30
0.0
 11
349.9866535123
 21
28.389278419
 31
0.0
  0
LINE
  5
2F2
330
297
100
AcDbEntity
  8
0
  6
Continuous
 62
     7
370
    25
100
AcDbLine
 10
349.9866535123
 20
28.389278419
 30
0.0
 11
291.3035428346
 21
-28.8872366163
 31
0.0
  0
LINE
  5
2F3
330
297
100
AcDbEntity
  8
0
  6
Continuous
 62
     7
370
    25
100
AcDbLine
 10
49.1424498571
 20
178.1349615774
 30
0.0
 11
53.0505357487
 21
181.9493732155
 31
0.0
  0
LINE
  5
2F4
330
297
100
AcDbEntity
  8
0
  6
Continuous
 62
     7
370
    25
100
AcDbLine
 10
53.0505357487
 20
181.9493732155
 30
0.0
 11
349.3306065106
 21
101.4267984963
 31
0.0
  0
LINE
  5
2F5
330
297
100
AcDbEntity
  8
0
  6
Continuous
 62
     7
370
    25
100
AcDbLine
 10
-45.2263186335
 20
28.3153982066
 30
0.0
 11
-45.2194249017
 21
28.085282509
 31
0.0
  0
LINE
  5
2F6
330
297
100
AcDbEntity
  8
0
  6
Continuous
 62
     7
370
    25
100
AcDbLine
 10
45.2234151718
 20
28.2000566165
 30
0.0
 11
45.2263186335
 21
28.3153982066
 31
0.0
  0
LINE
  5
2F7
330
297
100
AcDbEntity
  8
0
  6
Continuous
 62
     7
370
    25
100
AcDbLine
 10
-5.2863878676
 20
125.0107473649
 30
0.0
 11
-6.1140776631
 21
64.7085421851
 31
0.0
  0
LINE
  5
2F8
330
297
100
AcDbEntity
  8
0
  6
Continuous
 62
     7
370
    25
100
AcDbLine
 10
150.8372782221
 20
82.5796802472
 30
0.0
 11
-5.2863878676
 21
125.0107473649
 31
0.0
  0
LINE
  5
2F9
330
297
100
AcDbEntity
  8
0
  6
Continuous
 62
     7
370
    25
100
AcDbLine
 10
-5.2863878676
 20
125.0107473649
 30
0.0
 11
37.9993338478
 21
167.2589387443
 31
0.0
  0
LINE
  5
2FA
330
297
100
AcDbEntity
  8
0
  6
Continuous
 62
    60
370
    25
100
AcDbLine
 10
-39.6314353513
 20
32.3052877001
 30
0.0
 11
-39.6314353513
 21
32.6700710772
 31
0.0
  0
LINE
  5
2FB
330
297
100
AcDbEntity
  8
0
  6
Continuous
 62
    60
370
    25
100
AcDbLine
 10
40.6853089941
 20
22.8696701184
 30
0.0
 11
39.9721510087
 21
24.0982474871
 31
0.0
  0
ARC
  5
2FC
330
297
100
AcDbEntity
  8
0
  6
Continuous
 62
     7
370
    25
100
AcDbCircle
 10
-37.4063225338
 20
34.5528548315
 30
0.0
 40
1.787923208842625
100
AcDbArc
 50
108.8664997707
 51
131.8889532366
  0
ARC
  5
2FD
330
297
100
AcDbEntity
  8
0
  6
Continuous
 62
     7
370
    25
100
AcDbCircle
 10
38.5246438116
 20
35.0692481683
 30
0.0
 40
0.6637547309957643
100
AcDbArc
 50
304.2822447132
 51
55.7395242355
  0
ARC
  5
2FE
330
297
100
AcDbEntity
  8
0
  6
Continuous
 62
     7
370
    25
100
AcDbCircle
 10
-115.7133035367
 20
99.2859391023
 30
0.0
 40
44.25115533525408
100
AcDbArc
 50
154.8199537191
 51
203.0550428614
  0
ARC
  5
2FF
330
297
100
AcDbEntity
  8
0
  6
Continuous
 62
     7
370
    25
100
AcDbCircle
 10
115.6724606194
 20
99.2868545952
 30
0.0
 40
44.28931551880452
100
AcDbArc
 50
336.9234606342
 51
25.3369718782
  0
ARC
  5
300
330
297
100
AcDbEntity
  8
0
  6
Continuous
 62
     7
370
    25
100
AcDbCircle
 10
116.7310823737
 20
91.5890265381
 30
0.0
 40
43.3470735092797
100
AcDbArc
 50
345.1271080035
 51
0.5131772368
  0
ARC
  5
301
330
297
100
AcDbEntity
  8
0
  6
Continuous
 62
    60
370
    25
100
AcDbCircle
 10
27.8149080029
 20
29.6128173145
 30
0.0
 40
12.18748157739254
100
AcDbArc
 50
323.9262623559
 51
358.8653849128
  0
ARC
  5
302
330
297
100
AcDbEntity
  8
0
  6
Continuous
 62
    60
370
    25
100
AcDbCircle
 10
-27.5573870388
 20
29.7099009776
 30
0.0
 40
12.45344101842023
100
AcDbArc
 50
182.6819477109
 51
215.8535203222
  0
ARC
  5
303
330
297
100
AcDbEntity
  8
0
  6
Continuous
 62
    60
370
    25
100
AcDbCircle
 10
-28.9715612465
 20
25.9811640272
 30
0.0
 40
11.02924853083904
100
AcDbArc
 50
181.4684989529
 51
197.5078822622
  0
ARC
  5
304
330
297
100
AcDbEntity
  8
0
  6
Continuous
 62
    60
370
    25
100
AcDbCircle
 10
-29.9916574659
 20
27.940078591
 30
0.0
 40
15.23928363498149
100
AcDbArc
 50
131.0580564922
 51
178.5887522683
  0
ARC
  5
305
330
297
100
AcDbEntity
  8
0
  6
Continuous
 62
    60
370
    25
100
AcDbCircle
 10
-28.3771619686
 20
18.0100219729
 30
0.0
 40
17.0186448576846
100
AcDbArc
 50
136.3827153708
 51
159.2939454184
  0
ARC
  5
306
330
297
100
AcDbEntity
  8
0
  6
Continuous
 62
    60
370
    25
100
AcDbCircle
 10
27.6040989074
 20
17.5570000577
 30
0.0
 40
17.90191177049484
100
AcDbArc
 50
21.1006843554
 51
45.9430718766
  0
VIEWPORT
  5
35E
330
297
100
AcDbEntity
  8
0
100
AcDbViewport
 10
0.0
 20
0.0
 30
0.0
 40
205.6
 41
156.0
 68
     1
 69
     1
 12
69.9628822538
 22
9.5919903727
 13
0.0
 23
0.0
 14
10.0
 24
10.0
 15
10.0
 25
10.0
 16
0.0
 26
0.0
 36
1.0
 17
0.0
 27
0.0
 37
0.0
 42
50.0
 43
0.0
 44
0.0
 45
357.2134125293
 50
0.0
 51
0.0
 72
   100
 90
   557152
  1

281
     0
 71
     1
 74
     0
110
0.0
120
0.0
130
0.0
111
1.0
121
0.0
131
0.0
112
0.0
122
1.0
132
0.0
 79
     0
146
0.0
  0
ENDBLK
  5
29A
330
297
100
AcDbEntity
  8
0
100
AcDbBlockEnd
  0
ENDSEC
  0
SECTION
  2
ENTITIES
  0
CIRCLE
  5
75
330
1F
100
AcDbEntity
  8
0
  6
Continuous
 62
     7
370
    25
100
AcDbCircle
 10
0.0
 20
0.0
 30
0.0
 40
37.99999999999998
  0
CIRCLE
  5
76
330
1F
100
AcDbEntity
  8
0
  6
Continuous
 62
     7
370
    25
100
AcDbCircle
 10
0.0
 20
0.0
 30
0.0
 40
39.99999999999999
  0
CIRCLE
  5
86
330
1F
100
AcDbEntity
  8
0
  6
Continuous
 62
     7
370
    25
100
AcDbCircle
 10
0.0
 20
0.0
 30
0.0
 40
154.7708626730445
  0
CIRCLE
  5
87
330
1F
100
AcDbEntity
  8
0
  6
Continuous
 62
     7
370
    25
100
AcDbCircle
 10
0.0
 20
0.0
 30
0.0
 40
155.7245796237927
  0
CIRCLE
  5
88
330
1F
100
AcDbEntity
  8
0
  6
Continuous
 62
     7
370
    25
100
AcDbCircle
 10
0.0
 20
0.0
 30
0.0
 40
159.0000380769358
  0
CIRCLE
  5
89
330
1F
100
AcDbEntity
  8
0
  6
Continuous
 62
     7
370
    25
100
AcDbCircle
 10
0.0
 20
0.0
 30
0.0
 40
159.9999999999999
  0
SPLINE
  5
8A
330
1F
100
AcDbEntity
  8
0
  6
Continuous
 62
     7
370
    25
100
AcDbSpline
210
0.0
220
0.0
230
1.0
 70
     8
 71
     3
 72
     8
 73
     4
 74
     0
 42
0.000000001
 43
0.00000001
 40
0.0
 40
0.0
 40
0.0
 40
0.0
 40
1.0
 40
1.0
 40
1.0
 40
1.0
 10
141.5269867984712
 20
54.99999999999999
 30
0.0
 10
135.359839628843
 20
54.8392857950778
 30
0.0
 10
129.1522804120399
 20
54.67869069701082
 30
0.0
 10
122.8829876377075
 20
54.51827754691266
 30
0.0
  0
SPLINE
  5
8C
330
1F
100
AcDbEntity
  8
0
  6
Continuous
 62
     7
370
    25
100
AcDbSpline
210
0.0
220
0.0
230
1.0
 70
     8
 71
     3
 72
     8
 73
     4
 74
     0
 42
0.000000001
 43
0.00000001
 40
0.0
 40
0.0
 40
0.0
 40
0.0
 40
1.0
 40
1.0
 40
1.0
 40
1.0
 10
-35.48172245308734
 20
129.6669526487503
 30
0.0
 10
-35.32122886559108
 20
135.7226217037309
 30
0.0
 10
-35.16064492138324
 20
141.746681366183
 30
0.0
 10
-35.0
 20
147.7494094480741
 30
0.0
  0
SPLINE
  5
9C
330
1F
100
AcDbEntity
  8
0
  6
Continuous
 62
     7
370
    25
100
AcDbSpline
210
0.0
220
0.0
230
1.0
 70
     8
 71
     3
 72
    28
 73
    24
 74
     0
 42
0.000000001
 43
0.00000001
 40
0.0
 40
0.0
 40
0.0
 40
0.0
 40
0.1250000000000003
 40
0.1250000000000003
 40
0.1875000000000001
 40
0.1875000000000001
 40
0.2499999999999999
 40
0.2499999999999999
 40
0.3750000000000001
 40
0.3750000000000001
 40
0.4375000000000007
 40
0.4375000000000007
 40
0.5000000000000013
 40
0.5000000000000013
 40
0.625000000000001
 40
0.625000000000001
 40
0.6875000000000002
 40
0.6875000000000002
 40
0.7499999999999996
 40
0.7499999999999996
 40
0.8749999999999998
 40
0.8749999999999998
 40
1.0
 40
1.0
 40
1.0
 40
1.0
 10
122.8829876377075
 20
54.51827754691266
 30
0.0
 10
122.523633232023
 20
54.50908270240746
 30
0.0
 10
122.0750081656007
 20
54.50027701933416
 30
0.0
 10
121.2750366766328
 20
54.48762227902311
 30
0.0
 10
120.9870904485407
 20
54.48349683859014
 30
0.0
 10
120.3684520631012
 20
54.47543230189257
 30
0.0
 10
120.0363205185741
 20
54.47147968980639
 30
0.0
 10
118.9934424492196
 20
54.46010390005271
 30
0.0
 10
118.2328904697055
 20
54.45310144294126
 30
0.0
 10
117.0000897902959
 20
54.44341664301501
 30
0.0
 10
116.5737473663906
 20
54.44032557031966
 30
0.0
 10
115.6903642563059
 20
54.43441674914883
 30
0.0
 10
115.232102806325
 20
54.43159370178759
 30
0.0
 10
113.8332920256156
 20
54.42365897438914
 30
0.0
 10
112.8627703163213
 20
54.41903318648761
 30
0.0
 10
111.3535830781996
 20
54.41302818592178
 30
0.0
 10
110.8415774811928
 20
54.41118287399141
 30
0.0
 10
109.7998115382258
 20
54.40780265885613
 30
0.0
 10
109.2681419115686
 20
54.40626344697133
 30
0.0
 10
107.6655473875343
 20
54.40216132222396
 30
0.0
 10
106.5849754809403
 20
54.40009828863158
 30
0.0
 10
104.4009776340216
 20
54.39723306111824
 30
0.0
 10
103.2975445885048
 20
54.39643125918536
 30
0.0
 10
102.1826916653276
 20
54.39625948322367
 30
0.0
  0
SPLINE
  5
9D
330
1F
100
AcDbEntity
  8
0
  6
Continuous
 62
     7
370
    25
100
AcDbSpline
210
0.0
220
0.0
230
1.0
 70
     8
 71
     3
 72
    14
 73
    10
 74
     0
 42
0.000000001
 43
0.00000001
 40
0.0
 40
0.0
 40
0.0
 40
0.0
 40
0.2499999999999999
 40
0.2499999999999999
 40
0.4999999999999999
 40
0.4999999999999999
 40
0.7499999999999999
 40
0.7499999999999999
 40
1.0
 40
1.0
 40
1.0
 40
1.0
 10
102.1826916653276
 20
54.39625948322367
 30
0.0
 10
90.70085832985771
 20
54.39449036828299
 30
0.0
 10
79.21895521530666
 20
54.39278028415911
 30
0.0
 10
56.25480078210708
 20
54.38965468517141
 30
0.0
 10
44.77255884949474
 20
54.38823123002847
 30
0.0
 10
21.80718366673533
 20
54.38613834517938
 30
0.0
 10
10.32400557343159
 20
54.38550685131479
 30
0.0
 10
-12.6439446284413
 20
54.38559234828384
 30
0.0
 10
-24.12867099235341
 20
54.38630356541024
 30
0.0
 10
-35.61259826733959
 20
54.38740173266042
 30
0.0
  0
SPLINE
  5
A1
330
1F
100
AcDbEntity
  8
0
  6
Continuous
 62
     7
370
    25
100
AcDbSpline
210
0.0
220
0.0
230
1.0
 70
     8
 71
     3
 72
    10
 73
     6
 74
     0
 42
0.000000001
 43
0.00000001
 40
0.0
 40
0.0
 40
0.0
 40
0.0
 40
0.5
 40
0.5
 40
1.0
 40
1.0
 40
1.0
 40
1.0
 10
-35.61259826733958
 20
54.38740173266042
 30
0.0
 10
-35.61124133796942
 20
63.68111948961177
 30
0.0
 10
-35.60978719246738
 20
72.97463449181127
 30
0.0
 10
-35.60681020738485
 20
91.56152122728408
 30
0.0
 10
-35.60528384150169
 20
100.854885606072
 30
0.0
 10
-35.60374051677634
 20
110.1482146153612
 30
0.0
  0
SPLINE
  5
A2
330
1F
100
AcDbEntity
  8
0
  6
Continuous
 62
     7
370
    25
100
AcDbSpline
210
0.0
220
0.0
230
1.0
 70
     8
 71
     3
 72
    28
 73
    24
 74
     0
 42
0.000000001
 43
0.00000001
 40
0.0
 40
0.0
 40
0.0
 40
0.0
 40
0.0625000000000009
 40
0.0625000000000009
 40
0.1250000000000018
 40
0.1250000000000018
 40
0.2500000000000037
 40
0.2500000000000037
 40
0.3125000000000037
 40
0.3125000000000037
 40
0.3750000000000037
 40
0.3750000000000037
 40
0.5000000000000022
 40
0.5000000000000022
 40
0.6250000000000008
 40
0.6250000000000008
 40
0.7500000000000006
 40
0.7500000000000006
 40
0.8750000000000002
 40
0.8750000000000002
 40
0.9375000000000002
 40
0.9375000000000002
 40
1.0
 40
1.0
 40
1.0
 40
1.0
 10
-35.60374051677634
 20
110.1482146153612
 30
0.0
 10
-35.60365186237477
 20
110.6820585356732
 30
0.0
 10
-35.60339207246062
 20
111.2199235913412
 30
0.0
 10
-35.60253218794595
 20
112.2876768002731
 30
0.0
 10
-35.60193443508129
 20
112.8167837377909
 30
0.0
 10
-35.59964740760451
 20
114.3900701984206
 30
0.0
 10
-35.59746712615103
 20
115.4202938748791
 30
0.0
 10
-35.59320093750568
 20
116.9373268020741
 30
0.0
 10
-35.59161223230069
 20
117.4382679835679
 30
0.0
 10
-35.58809061606533
 20
118.4303670129808
 30
0.0
 10
-35.58615273375266
 20
118.9222369618533
 30
0.0
 10
-35.5799166679589
 20
120.3573037559448
 30
0.0
 10
-35.57517119945397
 20
121.2687819827223
 30
0.0
 10
-35.56451068954291
 20
123.0017808832689
 30
0.0
 10
-35.55859318117069
 20
123.8236794899014
 30
0.0
 10
-35.54552158922206
 20
125.3700811799539
 30
0.0
 10
-35.53854489862725
 20
126.0736617353997
 30
0.0
 10
-35.52373377879736
 20
127.3453800222315
 30
0.0
 10
-35.51589946960855
 20
127.9135367097429
 30
0.0
 10
-35.50347434911203
 20
128.6593967178764
 30
0.0
 10
-35.49921462415504
 20
128.8902775295448
 30
0.0
 10
-35.4905772519223
 20
129.3094053951071
 30
0.0
 10
-35.48618637167719
 20
129.4985221582229
 30
0.0
 10
-35.48172245308734
 20
129.6669526487503
 30
0.0
  0
CIRCLE
  5
A4
330
1F
100
AcDbEntity
  8
0
  6
Continuous
 62
     7
370
    25
100
AcDbCircle
 10
0.0
 20
0.0
 30
0.0
 40
48.16836135518233
  0
CIRCLE
  5
A5
330
1F
100
AcDbEntity
  8
0
  6
Continuous
 62
     7
370
    25
100
AcDbCircle
 10
0.0
 20
0.0
 30
0.0
 40
45.22880627331196
  0
CIRCLE
  5
A6
330
1F
100
AcDbEntity
  8
0
  6
Continuous
 62
     7
370
    25
100
AcDbCircle
 10
0.0
 20
0.0
 30
0.0
 40
45.05043222968462
  0
LINE
  5
AA
330
1F
100
AcDbEntity
  8
0
  6
Continuous
 62
     7
370
    25
100
AcDbLine
 10
17.8858983849
 20
-38.9792847416
 30
0.0
 11
16.435647127
 21
-36.4673758792
 31
0.0
  0
LINE
  5
AB
330
1F
100
AcDbEntity
  8
0
  6
Continuous
 62
     7
370
    25
100
AcDbLine
 10
23.3638503573
 20
-32.4673758792
 30
0.0
 11
24.8141016151
 21
-34.9792847416
 31
0.0
  0
LINE
  5
AC
330
1F
100
AcDbEntity
  8
0
  6
Continuous
 62
     7
370
    25
100
AcDbLine
 10
24.0820508076
 20
-37.7113355492
 30
0.0
 11
20.6179491924
 21
-39.7113355492
 31
0.0
  0
LINE
  5
AD
330
1F
100
AcDbEntity
  8
0
  6
Continuous
 62
     7
370
    25
100
AcDbLine
 10
-42.7
 20
4.0
 30
0.0
 11
-39.7994974843
 21
4.0
 31
0.0
  0
LINE
  5
AE
330
1F
100
AcDbEntity
  8
0
  6
Continuous
 62
     7
370
    25
100
AcDbLine
 10
-44.7
 20
-2.0
 30
0.0
 11
-44.7
 21
2.0
 31
0.0
  0
LINE
  5
AF
330
1F
100
AcDbEntity
  8
0
  6
Continuous
 62
     7
370
    25
100
AcDbLine
 10
-39.7994974843
 20
-4.0
 30
0.0
 11
-42.7
 21
-4.0
 31
0.0
  0
LINE
  5
B0
330
1F
100
AcDbEntity
  8
0
  6
Continuous
 62
     7
370
    25
100
AcDbLine
 10
20.6179491924
 20
39.7113355492
 30
0.0
 11
24.0820508076
 21
37.7113355492
 31
0.0
  0
LINE
  5
B1
330
1F
100
AcDbEntity
  8
0
  6
Continuous
 62
     7
370
    25
100
AcDbLine
 10
16.435647127
 20
36.4673758792
 30
0.0
 11
17.8858983849
 21
38.9792847416
 31
0.0
  0
LINE
  5
B2
330
1F
100
AcDbEntity
  8
0
  6
Continuous
 62
     7
370
    25
100
AcDbLine
 10
24.8141016151
 20
34.9792847416
 30
0.0
 11
23.3638503573
 21
32.4673758792
 31
0.0
  0
LINE
  5
B3
330
1F
100
AcDbEntity
  8
0
  6
Continuous
 62
     7
370
    25
100
AcDbLine
 10
151.3847886694
 20
54.2626177493
 30
0.0
 11
150.3335090049
 21
55.0
 31
0.0
  0
LINE
  5
B4
330
1F
100
AcDbEntity
  8
0
  6
Continuous
 62
     7
370
    25
100
AcDbLine
 10
-35.0
 20
156.2055182435
 30
0.0
 11
-35.7373822507
 21
156.7948514313
 31
0.0
  0
LINE
  5
B5
330
1F
100
AcDbEntity
  8
0
  6
Continuous
 62
     7
370
    25
100
AcDbLine
 10
300.0
 20
55.0
 30
0.0
 11
300.7417837622
 21
54.2582162378
 31
0.0
  0
LINE
  5
B6
330
1F
100
AcDbEntity
  8
0
  6
Continuous
 62
     7
370
    25
100
AcDbLine
 10
300.0
 20
180.0
 30
0.0
 11
300.0
 21
55.0
 31
0.0
  0
LINE
  5
B7
330
1F
100
AcDbEntity
  8
0
  6
Continuous
 62
     7
370
    25
100
AcDbLine
 10
-35.7417837622
 20
180.0
 30
0.0
 11
300.7417837622
 21
180.0
 31
0.0
  0
LINE
  5
B8
330
1F
100
AcDbEntity
  8
0
  6
Continuous
 62
     7
370
    25
100
AcDbLine
 10
300.7417837622
 20
180.0
 30
0.0
 11
300.7417837622
 21
54.2582162378
 31
0.0
  0
LINE
  5
B9
330
1F
100
AcDbEntity
  8
0
  6
Continuous
 62
     7
370
    25
100
AcDbLine
 10
300.0
 20
55.0
 30
0.0
 11
150.3335090049
 21
55.0
 31
0.0
  0
LINE
  5
BA
330
1F
100
AcDbEntity
  8
0
  6
Continuous
 62
     7
370
    25
100
AcDbLine
 10
300.7417837622
 20
54.2582162378
 30
0.0
 11
151.3863865068
 21
54.2582162378
 31
0.0
  0
LINE
  5
BB
330
1F
100
AcDbEntity
  8
0
  6
Continuous
 62
     7
370
    25
100
AcDbLine
 10
-35.0
 20
156.2055182435
 30
0.0
 11
-35.0
 21
180.0
 31
0.0
  0
LINE
  5
BC
330
1F
100
AcDbEntity
  8
0
  6
Continuous
 62
     7
370
    25
100
AcDbLine
 10
141.5269867985
 20
55.0
 30
0.0
 11
-35.0
 21
55.0
 31
0.0
  0
LINE
  5
BD
330
1F
100
AcDbEntity
  8
0
  6
Continuous
 62
     7
370
    25
100
AcDbLine
 10
-35.0
 20
55.0
 30
0.0
 11
-35.0
 21
147.7494094481
 31
0.0
  0
LINE
  5
BE
330
1F
100
AcDbEntity
  8
0
  6
Continuous
 62
     7
370
    25
100
AcDbLine
 10
-35.0
 20
55.0
 30
0.0
 11
-35.6125982673
 21
54.3874017327
 31
0.0
  0
LINE
  5
BF
330
1F
100
AcDbEntity
  8
0
  6
Continuous
 62
     7
370
    25
100
AcDbLine
 10
-35.7417837622
 20
156.793867681
 30
0.0
 11
-35.7417837622
 21
180.0
 31
0.0
  0
ARC
  5
C0
330
1F
100
AcDbEntity
  8
0
  6
Continuous
 62
     7
370
    25
100
AcDbCircle
 10
0.0
 20
0.0
 30
0.0
 40
160.816019254564
100
AcDbArc
 50
102.8397568631
 51
19.7199409552
  0
ARC
  5
C1
330
1F
100
AcDbEntity
  8
0
  6
Continuous
 62
     7
370
    25
100
AcDbCircle
 10
23.0820508076
 20
-35.9792847416
 30
0.0
 40
2.000000000000031
100
AcDbArc
 50
300.0
 51
30.0
  0
ARC
  5
C2
330
1F
100
AcDbEntity
  8
0
  6
Continuous
 62
     7
370
    25
100
AcDbCircle
 10
19.6179491924
 20
-37.9792847416
 30
0.0
 40
2.000000000000002
100
AcDbArc
 50
210.0
 51
300.0
  0
ARC
  5
C3
330
1F
100
AcDbEntity
  8
0
  6
Continuous
 62
     7
370
    25
100
AcDbCircle
 10
-42.7
 20
2.0
 30
0.0
 40
1.999999999999994
100
AcDbArc
 50
90.0
 51
180.0
  0
ARC
  5
C4
330
1F
100
AcDbEntity
  8
0
  6
Continuous
 62
     7
370
    25
100
AcDbCircle
 10
-42.7
 20
-2.0
 30
0.0
 40
1.999999999999996
100
AcDbArc
 50
180.0
 51
270.0
  0
ARC
  5
C5
330
1F
100
AcDbEntity
  8
0
  6
Continuous
 62
     7
370
    25
100
AcDbCircle
 10
19.6179491924
 20
37.9792847416
 30
0.0
 40
2.000000000000008
100
AcDbArc
 50
60.0
 51
150.0
  0
ARC
  5
C6
330
1F
100
AcDbEntity
  8
0
  6
Continuous
 62
     7
370
    25
100
AcDbCircle
 10
23.0820508076
 20
35.9792847416
 30
0.0
 40
2.000000000000011
100
AcDbArc
 50
330.0
 51
60.0
  0
ARC
  5
C7
330
1F
100
AcDbEntity
  8
0
  6
Continuous
 62
     7
370
    25
100
AcDbCircle
 10
0.0
 20
0.0
 30
0.0
 40
151.8383613987412
100
AcDbArc
 50
21.2370454259
 51
103.3269983376
  0
ARC
  5
C8
330
1F
100
AcDbEntity
  8
0
  6
Continuous
 62
     7
370
    25
100
AcDbCircle
 10
0.0
 20
0.0
 30
0.0
 40
134.4338916994192
100
AcDbArc
 50
105.3036415998
 51
23.9249507444
  0
ARC
  5
C9
330
1F
100
AcDbEntity
  8
0
  6
Continuous
 62
     7
370
    25
100
AcDbCircle
 10
0.0
 20
0.0
 30
0.0
 40
160.8160002160963
100
AcDbArc
 50
102.8397686729
 51
19.71979566
  0
ARC
  5
CA
330
1F
100
AcDbEntity
  8
0
  6
Continuous
 62
     7
370
    25
100
AcDbCircle
 10
0.0
 20
0.0
 30
0.0
 40
160.0786179654384
100
AcDbArc
 50
20.0952095886
 51
102.6293169507
  0
ARC
  5
CB
330
1F
100
AcDbEntity
  8
0
  6
Continuous
 62
     7
370
    25
100
AcDbCircle
 10
0.0
 20
0.0
 30
0.0
 40
115.7594727084468
100
AcDbArc
 50
107.9126399403
 51
28.0283007733
  0
ARC
  5
CC
330
1F
100
AcDbEntity
  8
0
  6
Continuous
 62
    60
370
    25
100
AcDbCircle
 10
0.0
 20
0.0
 30
0.0
 40
42.11087714781428
100
AcDbArc
 50
185.4505908721
 51
294.5494091279
  0
ARC
  5
CD
330
1F
100
AcDbEntity
  8
0
  6
Continuous
 62
    60
370
    25
100
AcDbCircle
 10
0.0
 20
0.0
 30
0.0
 40
42.11087714781433
100
AcDbArc
 50
305.4505908721
 51
54.5494091279
  0
ARC
  5
CE
330
1F
100
AcDbEntity
  8
0
  6
Continuous
 62
    60
370
    25
100
AcDbCircle
 10
0.0
 20
0.0
 30
0.0
 40
42.11087714781436
100
AcDbArc
 50
65.4505908721
 51
174.5494091279
  0
SPLINE
  5
30D
330
307
100
AcDbEntity
 67
     1
  8
0
  6
Continuous
 62
     7
370
    25
100
AcDbSpline
210
0.0
220
0.0
230
1.0
 70
     8
 71
     3
 72
    27
 73
    23
 74
     0
 42
0.000000001
 43
0.00000001
 40
0.0
 40
0.0
 40
0.0
 40
0.0
 40
0.0041056212338654
 40
0.0572520794598799
 40
0.110403601335257
 40
0.1635610244267734
 40
0.2167252817696776
 40
0.2698974180053761
 40
0.3230786068144222
 40
0.3762701690826844
 40
0.4294735905978255
 40
0.4826905369782999
 40
0.5359228616919175
 40
0.5891725999478693
 40
0.6424419361820359
 40
0.6957331246133138
 40
0.7490483291624686
 40
0.8023893284797937
 40
0.8557570012077789
 40
0.9091504645427784
 40
0.9625656906750352
 40
1.0
 40
1.0
 40
1.0
 40
1.0
 10
-57.81087257387789
 20
159.5537177914149
 30
0.0
 10
-57.98268101422062
 20
159.5327482975447
 30
0.0
 10
-60.37851587527506
 20
159.2403328356934
 30
0.0
 10
-64.89321837952859
 20
158.5841227969498
 30
0.0
 10
-71.33018306075671
 20
157.5797631298304
 30
0.0
 10
-77.61478815023463
 20
156.469958560774
 30
0.0
 10
-83.74992303996063
 20
155.2703956617076
 30
0.0
 10
-89.71949748560297
 20
153.9797023485016
 30
0.0
 10
-95.51292833967055
 20
152.6012794149262
 30
0.0
 10
-101.1186072399937
 20
151.1374382060163
 30
0.0
 10
-106.5256800683736
 20
149.5909586753714
 30
0.0
 10
-111.7235966226764
 20
147.9646568431073
 30
0.0
 10
-116.7022565936369
 20
146.261483902521
 30
0.0
 10
-121.4519882318053
 20
144.484479991232
 30
0.0
 10
-125.9635830236774
 20
142.6367670486393
 30
0.0
 10
-130.228250597009
 20
140.721520421047
 30
0.0
 10
-134.2378048300141
 20
138.7419781476227
 30
0.0
 10
-137.983960018004
 20
136.701318158962
 30
0.0
 10
-141.4608971202421
 20
134.6030364922333
 30
0.0
 10
-144.6555510797796
 20
132.4494868734841
 30
0.0
 10
-147.2914129871976
 20
130.4671542742547
 30
0.0
 10
-148.7792820759724
 20
129.1909171237903
 30
0.0
 10
-149.3923545746256
 20
128.665047002143
 30
0.0
  0
SPLINE
  5
30E
330
307
100
AcDbEntity
 67
     1
  8
0
  6
Continuous
 62
     7
370
    25
100
AcDbSpline
210
0.0
220
0.0
230
1.0
 70
     8
 71
     3
 72
    34
 73
    30
 74
     0
 42
0.000000001
 43
0.00000001
 40
0.0
 40
0.0
 40
0.0
 40
0.0
 40
0.0232794517559403
 40
0.0617011239236332
 40
0.100333717425091
 40
0.1391434311349538
 40
0.1780813555166847
 40
0.2170997279260282
 40
0.2561603211156786
 40
0.2952363243124168
 40
0.3343075359191014
 40
0.3733654820004281
 40
0.4124064933657247
 40
0.4514294360623075
 40
0.4904346251073401
 40
0.5294231395948368
 40
0.5683964089954301
 40
0.6073559732121915
 40
0.6463033500943849
 40
0.6852399676115926
 40
0.7241671339367185
 40
0.7630860290802244
 40
0.8019977082485955
 40
0.8409031111254611
 40
0.8798030737222574
 40
0.9186983409186998
 40
0.9575895786901277
 40
0.9964773855341559
 40
1.0
 40
1.0
 40
1.0
 40
1.0
 10
158.4204311544923
 20
116.7386218081748
 30
0.0
 10
158.2239327559776
 20
117.2257077942887
 30
0.0
 10
157.703122722964
 20
118.5167069598083
 30
0.0
 10
156.5093032525021
 20
120.5834677323993
 30
0.0
 10
154.8758243832924
 20
122.9399906497858
 30
0.0
 10
152.9185707573208
 20
125.2678325591117
 30
0.0
 10
150.6586859234546
 20
127.5627129668069
 30
0.0
 10
148.0968517938754
 20
129.8185654315449
 30
0.0
 10
145.2406304876321
 20
132.0303107982049
 30
0.0
 10
142.0966558317977
 20
134.1932235744205
 30
0.0
 10
138.6723357575626
 20
136.3031157057873
 30
0.0
 10
134.9752154330044
 20
138.3561598043359
 30
0.0
 10
131.0130071215827
 20
140.3488314849997
 30
0.0
 10
126.7937286917851
 20
142.2777417793698
 30
0.0
 10
122.3257728250456
 20
144.139593245612
 30
0.0
 10
117.6179332026524
 20
145.9311676761701
 30
0.0
 10
112.6794218764655
 20
147.6493268611028
 30
0.0
 10
107.5198750810927
 20
149.2910204144753
 30
0.0
 10
102.1493501217735
 20
150.8532961464614
 30
0.0
 10
96.5783180876702
 20
152.3333142986945
 30
0.0
 10
90.81764303534301
 20
153.7283514178483
 30
0.0
 10
84.87859040017295
 20
155.0358419682033
 30
0.0
 10
78.77271069039284
 20
156.2532757359286
 30
0.0
 10
72.51217694702028
 20
157.3786288025411
 30
0.0
 10
66.10842049465178
 20
158.4087989187799
 30
0.0
 10
59.57710964944014
 20
159.3454822939487
 30
0.0
 10
52.91945539823755
 20
160.173279248649
 30
0.0
 10
48.23106992036103
 20
160.7085889442958
 30
0.0
 10
45.74201767580695
 20
160.9381319653585
 30
0.0
 10
45.5352767104474
 20
160.9571978350564
 30
0.0
  0
SPLINE
  5
30F
330
307
100
AcDbEntity
 67
     1
  8
0
  6
Continuous
 62
     7
370
    25
100
AcDbSpline
210
0.0
220
0.0
230
1.0
 70
     8
 71
     3
 72
    13
 73
     9
 74
     0
 42
0.000000001
 43
0.00000001
 40
0.0
 40
0.0
 40
0.0
 40
0.0
 40
0.1031089527875412
 40
0.2995531321139697
 40
0.4958307497427492
 40
0.6916977186254034
 40
0.88690351249914
 40
1.0
 40
1.0
 40
1.0
 40
1.0
 10
-149.3923545746256
 20
128.665047002143
 30
0.0
 10
-149.8324846992374
 20
128.2684445868333
 30
0.0
 10
-151.1111550164198
 20
127.1162313939135
 30
0.0
 10
-153.0005128481521
 20
125.1750944911036
 30
0.0
 10
-154.9598951666731
 20
122.8323387402292
 30
0.0
 10
-156.5902281743078
 20
120.4543455983303
 30
0.0
 10
-157.7699765972589
 20
118.3872508517433
 30
0.0
 10
-158.2763039931546
 20
117.1032747703598
 30
0.0
 10
-158.4620432933827
 20
116.6322656549158
 30
0.0
  0
SPLINE
  5
310
330
307
100
AcDbEntity
 67
     1
  8
0
  6
Continuous
 62
     7
370
    25
100
AcDbSpline
210
0.0
220
0.0
230
1.0
 70
     8
 71
     3
 72
    18
 73
    14
 74
     0
 42
0.000000001
 43
0.00000001
 40
0.0
 40
0.0
 40
0.0
 40
0.0
 40
0.0901127372735466
 40
0.1852444150399317
 40
0.2803311019011539
 40
0.3753694050384676
 40
0.4703575453971642
 40
0.5652969006437921
 40
0.6601944849834132
 40
0.7550667718523186
 40
0.8499379741849613
 40
0.9448484990177961
 40
1.0
 40
1.0
 40
1.0
 40
1.0
 10
-117.4259723606706
 20
76.15846161627547
 30
0.0
 10
-118.844318215609
 20
76.7173209096813
 30
0.0
 10
-121.760006454274
 20
77.86616585689816
 30
0.0
 10
-125.8649931765287
 20
79.68480860697339
 30
0.0
 10
-129.8048560244995
 20
81.5890632053298
 30
0.0
 10
-133.4725832598797
 20
83.54849624450961
 30
0.0
 10
-136.8672904877273
 20
85.55649632714761
 30
0.0
 10
-139.9807917778698
 20
87.60858607910075
 30
0.0
 10
-142.8063422946714
 20
89.6995549529265
 30
0.0
 10
-145.3433925636521
 20
91.8239741617115
 30
0.0
 10
-147.5701230165146
 20
93.97719429381569
 30
0.0
 10
-149.2720571434293
 20
95.8470302759596
 30
0.0
 10
-150.1076448290997
 20
97.0023015758246
 30
0.0
 10
-150.4147439423941
 20
97.42689231344231
 30
0.0
  0
SPLINE
  5
311
330
307
100
AcDbEntity
 67
     1
  8
0
  6
Continuous
 62
     7
370
    25
100
AcDbSpline
210
0.0
220
0.0
230
1.0
 70
     8
 71
     3
 72
    17
 73
    13
 74
     0
 42
0.000000001
 43
0.00000001
 40
0.0
 40
0.0
 40
0.0
 40
0.0
 40
0.0861656864115356
 40
0.1900388307200732
 40
0.2937855357061283
 40
0.3974857194193362
 40
0.5011830980357843
 40
0.6049040113611681
 40
0.7086665138168577
 40
0.8124784602098654
 40
0.916341624110753
 40
1.0
 40
1.0
 40
1.0
 40
1.0
 10
149.1391864781062
 20
95.7889233333377
 30
0.0
 10
148.619021247414
 20
95.18555396771325
 30
0.0
 10
147.4717943600213
 20
93.85481996545698
 30
0.0
 10
145.3337468475692
 20
91.82247768181112
 30
0.0
 10
142.8031169894562
 20
89.69523664679807
 30
0.0
 10
139.9733852489605
 20
87.60384054603162
 30
0.0
 10
136.8605093912377
 20
85.55217313127706
 30
0.0
 10
133.4665680097344
 20
83.5452534294792
 30
0.0
 10
129.8012145162574
 20
81.58699959304866
 30
0.0
 10
125.8622486371657
 20
79.68445780804198
 30
0.0
 10
121.9627582264885
 20
77.95307927178833
 30
0.0
 10
119.2636262246668
 20
76.88794176745681
 30
0.0
 10
118.0594712255355
 20
76.41275542987223
 30
0.0
  0
SPLINE
  5
313
330
307
100
AcDbEntity
 67
     1
  8
0
  6
Continuous
 62
     7
370
    25
100
AcDbSpline
210
0.0
220
0.0
230
1.0
 70
     8
 71
     3
 72
    10
 73
     6
 74
     0
 42
0.000000001
 43
0.00000001
 40
0.0
 40
0.0
 40
0.0
 40
0.0
 40
0.3602575496644657
 40
0.7902365601374651
 40
1.0
 40
1.0
 40
1.0
 40
1.0
 10
-151.8947188053628
 20
3.25533665432335
 30
0.0
 10
-151.2250197534074
 20
2.623288478428312
 30
0.0
 10
-149.7560132728008
 20
1.236870409395088
 30
0.0
 10
-147.6450042684576
 20
-0.4835332271379972
 30
0.0
 10
-146.1236064110343
 20
-1.556203906665929
 30
0.0
 10
-145.6247593393648
 20
-1.907919024928671
 30
0.0
  0
LWPOLYLINE
  5
317
330
307
100
AcDbEntity
 67
     1
  8
0
  6
Continuous
 62
     7
370
    25
100
AcDbPolyline
 90
        9
 70
   128
 43
0.0
 10
-160.815234748
 20
21.1935757896
 10
-160.7535576648
 20
19.5345047255
 10
-160.3665030313
 20
17.023036816
 10
-159.6265111168
 20
14.5203834951
 10
-158.5352105077
 20
12.0320526441
 10
-157.0950029567
 20
9.5635206231
 10
-155.3090580966
 20
7.1202202188
 10
-153.1813064647
 20
4.7075286874
 10
-152.0413724031
 20
3.5632734813
  0
LWPOLYLINE
  5
318
330
307
100
AcDbEntity
 67
     1
  8
0
  6
Continuous
 62
     7
370
    25
100
AcDbPolyline
 90
        8
 70
   128
 43
0.0
 10
151.4118954165
 20
2.9658697213
 10
153.6952929648
 20
5.2535783477
 10
155.7456498873
 20
7.6737043161
 10
157.4532391796
 20
10.1232210404
 10
158.8143027506
 20
12.5967375833
 10
159.8258451487
 20
15.0888101882
 10
160.4856401547
 20
17.59395426
 10
160.7922356805
 20
20.1066564358
  0
LWPOLYLINE
  5
31A
330
307
100
AcDbEntity
 67
     1
  8
0
  6
Continuous
 62
     7
370
    25
100
AcDbPolyline
 90
       38
 70
   128
 43
0.0
 10
-120.1129582295
 20
75.3921881389
 10
-118.9904776571
 20
74.9654509281
 10
-113.8773282335
 20
73.1315865679
 10
-108.510073962
 20
71.3802567545
 10
-102.9006912855
 20
69.7153693894
 10
-97.0616969302
 20
68.1406394875
 10
-91.0061199758
 20
66.6595808869
 10
-84.7474727822
 20
65.2754984084
 10
-78.2997208387
 20
63.9914804813
 10
-71.6772516009
 20
62.8103922517
 10
-64.8948423875
 20
61.7348691891
 10
-57.9676274052
 20
60.7673112062
 10
-50.9110639796
 20
59.909877303
 10
-43.7408980629
 20
59.1644807501
 10
-36.4731290988
 20
58.5327848184
 10
-29.123974322
 20
58.0161990686
 10
-21.7098325703
 20
57.6158762057
 10
-14.247247693
 20
57.3327095063
 10
-6.7528716352
 20
57.1673308261
 10
0.7565727198
 20
57.1201091896
 10
8.2643288652
 20
57.1911499668
 10
15.7536440613
 20
57.3802946379
 10
23.2078067175
 20
57.6871211472
 10
30.6101836822
 20
58.1109448447
 10
37.9442573578
 20
58.6508200141
 10
45.1936625581
 20
59.3055419828
 10
52.3422230255
 20
60.07364981
 10
59.3739875264
 20
60.9534295469
 10
66.2732654445
 20
61.9429180607
 10
73.024661793
 20
63.0399074158
 10
79.6131115667
 20
64.2419498
 10
86.023913358
 20
65.5463629866
 10
92.2427621613
 20
66.9502363198
 10
98.2557812932
 20
68.4504372092
 10
104.0495533567
 20
70.04361812
 10
109.611150181
 20
71.7262240427
 10
114.9281616688
 20
73.4945004254
 10
119.5859788989
 20
75.1906962098
  0
LWPOLYLINE
  5
31C
330
307
100
AcDbEntity
 67
     1
  8
0
  6
Continuous
 62
     7
370
    25
100
AcDbPolyline
 90
       38
 70
   128
 43
0.0
 10
-117.7871029832
 20
76.1647430069
 10
-115.685057073
 20
75.3710410594
 10
-110.5938272747
 20
73.5755604199
 10
-105.2520668869
 20
71.8628636069
 10
-99.6718767149
 20
70.2368304295
 10
-93.8658976843
 20
68.7011443757
 10
-87.847282205
 20
67.2592842686
 10
-81.6296643768
 20
65.9145163849
 10
-75.2271291039
 20
64.6698870565
 10
-68.654180188
 20
63.528215769
 10
-61.9257074725
 20
62.4920887752
 10
-55.0569531121
 20
61.563853236
 10
-48.0634770447
 20
60.7456119033
 10
-40.961121743
 20
60.0392183571
 10
-33.765976326
 20
59.4462728058
 10
-26.4943401124
 20
58.9681184618
 10
-19.162685697
 20
58.6058384986
 10
-11.787621635
 20
58.3602535968
 10
-4.3858548188
 20
58.2319200851
 10
3.0258473692
 20
58.2211286803
 10
10.4306950398
 20
58.3279038283
 10
17.8119138312
 20
58.5520036491
 10
25.1527829088
 20
58.8929204845
 10
32.4366728432
 20
59.3498820483
 10
39.6470832808
 20
59.9218531755
 10
46.767680323
 20
60.6075381676
 10
53.7823335272
 20
61.4053837274
 10
60.6751524477
 20
62.3135824783
 10
67.4305226327
 20
63.3300770579
 10
74.033140996
 20
64.452564779
 10
80.4680504834
 20
65.678502846
 10
86.7206739551
 20
67.0051141148
 10
92.7768472081
 20
68.4293933842
 10
98.6228510619
 20
69.9481142036
 10
104.2454424376
 20
71.5578361818
 10
109.6318843573
 20
73.2549127809
 10
114.7699747976
 20
75.0354995764
 10
118.4423413984
 20
76.4189507208
  0
LWPOLYLINE
  5
321
330
307
100
AcDbEntity
 67
     1
  8
0
  6
Continuous
 62
     7
370
    25
100
AcDbPolyline
 90
       30
 70
   128
 43
0.0
 10
19.4978025212
 20
150.8851934308
 10
26.9104281118
 20
150.5029839234
 10
34.2573830969
 20
149.9992172709
 10
41.5207384052
 20
149.3751228355
 10
48.6827689773
 20
148.63222362
 10
55.7259970202
 20
147.7723325515
 10
62.6332346601
 20
146.7975480569
 10
69.3876258855
 20
145.7102489422
 10
75.9726876827
 20
144.5130885874
 10
82.3723502591
 20
143.2089884712
 10
88.5709962593
 20
141.8011310419
 10
94.5534988772
 20
140.292951951
 10
100.3052587695
 20
138.6881316687
 10
105.8122396843
 20
136.9905865029
 10
111.0610027133
 20
135.2044590418
 10
116.0387390879
 20
133.3341080443
 10
120.7333014369
 20
131.3840978035
 10
125.1332334301
 20
129.3591870084
 10
129.2277977354
 20
127.2643171306
 10
133.0070022221
 20
125.1046003656
 10
136.4616243448
 20
122.8853071577
 10
139.5832336493
 20
120.6118533378
 10
142.3642123465
 20
118.289786907
 10
144.7977739014
 20
115.9247744981
 10
146.8779795956
 20
113.5225875463
 10
148.5997530188
 20
111.0890882057
 10
149.958892458
 20
108.6302150429
 10
150.9520811501
 20
106.1519685456
 10
151.5768953766
 20
103.6603964789
 10
151.8318103781
 20
101.1615791269
  0
LWPOLYLINE
  5
322
330
307
100
AcDbEntity
 67
     1
  8
0
  6
Continuous
 62
     7
370
    25
100
AcDbPolyline
 90
       52
 70
   128
 43
0.0
 10
-145.3642641188
 20
-1.9823881694
 10
-144.2850516336
 20
-2.7402780858
 10
-140.8487053795
 20
-4.970459982
 10
-137.1023320607
 20
-7.1444620301
 10
-133.0541779519
 20
-9.2574989573
 10
-128.7131535882
 20
-11.3049196834
 10
-124.0888141519
 20
-13.2822175582
 10
-119.19133844
 20
-15.1850402814
 10
-114.0315064593
 20
-17.0091994828
 10
-108.6206756984
 20
-18.7506799409
 10
-102.9707561284
 20
-20.4056484217
 10
-97.0941839867
 20
-21.9704621154
 10
-91.0038944042
 20
-23.4416766553
 10
-84.7132929325
 20
-24.8160536991
 10
-78.2362260369
 20
-26.0905680568
 10
-71.5869506184
 20
-27.26241435
 10
-64.7801026321
 20
-28.3290131862
 10
-57.8306648718
 20
-29.2880168371
 10
-50.7539339906
 20
-30.1373144058
 10
-43.565486831
 20
-30.8750364734
 10
-36.2811461382
 20
-31.4995592138
 10
-28.916945732
 20
-32.009507968
 10
-21.4890952143
 20
-32.4037602696
 10
-14.0139442894
 20
-32.6814483161
 10
-6.5079467764
 20
-32.8419608784
 10
1.0123756084
 20
-32.8849446466
 10
8.5304696175
 20
-32.8103050077
 10
16.0297869083
 20
-32.6182062536
 10
23.4938204684
 20
-32.3090712197
 10
30.9061409498
 20
-31.883580354
 10
38.2504328317
 20
-31.3426702195
 10
45.5105303336
 20
-30.6875314327
 10
52.6704529984
 20
-29.9196060426
 10
59.714440867
 20
-29.040584357
 10
66.6269891688
 20
-28.0524012217
 10
73.3928824493
 20
-26.9572317613
 10
79.9972280617
 20
-25.7574865923
 10
86.4254889473
 20
-24.455806516
 10
92.6635156338
 20
-23.0550567064
 10
98.6975773802
 20
-21.5583204036
 10
104.5143923999
 20
-19.9688921267
 10
110.1011570956
 20
-18.2902704225
 10
115.4455742421
 20
-16.5261501646
 10
120.5358800539
 20
-14.6804144203
 10
125.3608700789
 20
-12.757125904
 10
129.909923861
 20
-10.760518034
 10
134.173028317
 20
-8.6949856143
 10
138.1407997771
 20
-6.5650751616
 10
141.8045046393
 20
-4.3754748969
 10
145.1560785931
 20
-2.1310044268
 10
148.1881443708
 20
0.1633958654
 10
149.8719196825
 20
1.5800694642
  0
LWPOLYLINE
  5
32D
330
307
100
AcDbEntity
 67
     1
  8
0
  6
Continuous
 62
    60
370
    25
100
AcDbPolyline
 90
       63
 70
   128
 43
0.0
 10
-158.674919729
 20
102.3352050949
 10
-158.0962249167
 20
100.9820704095
 10
-156.768998801
 20
98.5209770042
 10
-155.0971604026
 20
96.0833253047
 10
-153.0843847851
 20
93.6744737982
 10
-150.7350964661
 20
91.2997176634
 10
-148.0544596913
 20
88.9642771294
 10
-145.0483670821
 20
86.6732860015
 10
-141.7234266823
 20
84.4317803753
 10
-138.0869474327
 20
82.2446875668
 10
-134.1469231038
 20
80.1168152805
 10
-129.9120147243
 20
78.0528410416
 10
-125.3915315417
 20
76.0573019134
 10
-120.5954105593
 20
74.1345845239
 10
-115.5341946918
 20
72.2889154233
 10
-110.2190095901
 20
70.5243517929
 10
-104.6615391847
 20
68.8447725264
 10
-98.8740000016
 20
67.2538697035
 10
-92.869114308
 20
65.7551404741
 10
-86.660082146
 20
64.3518793701
 10
-80.2605523156
 20
63.0471710641
 10
-73.6845923725
 20
61.843883588
 10
-66.9466577036
 20
60.7446620288
 10
-60.0615597518
 20
59.7519227142
 10
-53.0444334565
 20
58.8678479006
 10
-45.9107039844
 20
58.0943809762
 10
-38.676052821
 20
57.4332221894
 10
-31.3563832996
 20
56.8858249104
 10
-23.9677856426
 20
56.4533924375
 10
-16.526501591
 20
56.136875351
 10
-9.0488887022
 20
55.9369694241
 10
-1.5513843921
 20
55.8541140935
 10
5.9495301975
 20
55.8884914932
 10
13.4373664286
 20
56.0400260541
 10
20.8956644119
 20
56.3083846705
 10
28.3080291899
 20
56.6929774318
 10
35.6581667762
 20
57.1929589198
 10
42.9299199729
 20
57.8072300665
 10
50.1073038886
 20
58.5344405706
 10
57.1745410756
 20
59.3729918658
 10
64.1160962128
 20
60.3210406341
 10
70.9167102555
 20
61.3765028588
 10
77.5614339781
 20
62.5370584047
 10
84.0356608358
 20
63.8001561188
 10
90.3251590728
 20
65.1630194384
 10
96.4161030071
 20
66.622652494
 10
102.2951034219
 20
68.1758466953
 10
107.9492369984
 20
69.8191877845
 10
113.3660747239
 20
71.5490633412
 10
118.5337092135
 20
73.3616707235
 10
123.440780885
 20
75.2530254269
 10
128.07650293
 20
77.2189698433
 10
132.4306850253
 20
79.2551824003
 10
136.4937557336
 20
81.3571870607
 10
140.2567835438
 20
83.5203631621
 10
143.711496504
 20
85.739955574
 10
146.8503004054
 20
88.0110851504
 10
149.6662954759
 20
90.3287594558
 10
152.153291547
 20
92.6878837389
 10
154.3058216616
 20
95.0832721327
 10
156.1191540915
 20
97.5096590535
 10
157.5893027384
 20
99.9617107763
 10
158.690526247
 20
102.3754952101
  0
LWPOLYLINE
  5
32E
330
307
100
AcDbEntity
 67
     1
  8
0
  6
Continuous
 62
    60
370
    25
100
AcDbPolyline
 90
       55
 70
   128
 43
0.0
 10
-152.0413724031
 20
3.5632734813
 10
-150.7164308525
 20
2.3307559208
 10
-147.9198559993
 20
-0.0048672396
 10
-144.7977366539
 20
-2.2942005155
 10
-141.3569440287
 20
-4.5322055039
 10
-137.6050506777
 20
-6.7139567659
 10
-133.5503138305
 20
-8.8346526669
 10
-129.2016572197
 20
-10.889625944
 10
-124.5686514414
 20
-12.8743539775
 10
-119.6614928924
 20
-14.7844687449
 10
-114.4909813291
 20
-16.6157664336
 10
-109.0684960999
 20
-18.364216693
 10
-103.4059711008
 20
-20.0259715047
 10
-97.5158685117
 20
-21.5973736507
 10
-91.4111513688
 20
-23.074964763
 10
-85.1052550355
 20
-24.4554929344
 10
-78.6120576341
 20
-25.7359198754
 10
-71.9458495018
 20
-26.913427601
 10
-65.1213017411
 20
-27.9854246324
 10
-58.1534339307
 20
-28.9495517007
 10
-51.0575810706
 20
-29.8036869389
 10
-43.8493598324
 20
-30.545950552
 10
-36.5446341899
 20
-31.1747089536
 10
-29.1594805056
 20
-31.6885783619
 10
-21.710152149
 20
-32.0864278445
 10
-14.2130437265
 20
-32.3673818075
 10
-6.6846549998
 20
-32.5308219227
 10
0.8584454274
 20
-32.5763884885
 10
8.3996565735
 20
-32.5039812212
 10
15.922381615
 20
-32.3137594759
 10
23.4100644129
 20
-32.0061418958
 10
30.8462259496
 20
-31.5818054907
 10
38.2145005964
 20
-31.0416841475
 10
45.4986721315
 20
-30.3869665741
 10
52.6827094282
 20
-29.6190936839
 10
59.7508017371
 20
-28.7397554244
 10
66.6873934826
 20
-27.750887058
 10
73.4772184975
 20
-26.6546649028
 10
80.1053336215
 20
-25.4535015426
 10
86.5571515879
 20
-24.1500405181
 10
92.8184731278
 20
-22.7471505079
 10
98.8755182203
 20
-21.2479190158
 10
104.7149564191
 20
-19.6556455757
 10
110.323936191
 20
-17.9738344894
 10
115.6901131996
 20
-16.206187115
 10
120.8016774727
 20
-14.3565937204
 10
125.6473793944
 20
-12.4291249216
 10
130.2165544626
 20
-10.4280227242
 10
134.4991467607
 20
-8.3576911874
 10
138.4857310878
 20
-6.2226867314
 10
142.1675337026
 20
-4.0277081097
 10
145.5364516321
 20
-1.7775860679
 10
148.5850705056
 20
0.5227272876
 10
151.3066808717
 20
2.8681693889
 10
151.4118954165
 20
2.9658697213
  0
LWPOLYLINE
  5
32F
330
307
100
AcDbEntity
 67
     1
  8
0
  6
Continuous
 62
    60
370
    25
100
AcDbPolyline
 90
       24
 70
   128
 43
0.0
 10
-148.7309167469
 20
128.8578560438
 10
-151.2196994608
 20
126.4957057981
 10
-153.3710518949
 20
124.0970138827
 10
-155.1801735406
 20
121.6671327171
 10
-156.6430275402
 20
119.2114843162
 10
-157.7563496944
 20
116.735548192
 10
-158.517655746
 20
114.244849126
 10
-158.9252469236
 20
111.7449448418
 10
-158.978213732
 20
109.2414136033
 10
-158.6764379814
 20
106.7398417677
 10
-158.0205930515
 20
104.24581132
 10
-157.012142389
 20
101.7648874172
 10
-155.6533362414
 20
99.3026059708
 10
-153.9472066366
 20
96.8644612933
 10
-151.8975606169
 20
94.4558938391
 10
-149.5089717442
 20
92.0822780637
 10
-146.786769894
 20
89.7489104323
 10
-143.7370293632
 20
87.4609976004
 10
-140.3665553154
 20
85.223644796
 10
-136.6828685962
 20
83.0418444283
 10
-132.6941889511
 20
80.9204649469
 10
-128.4094166839
 20
78.8642399791
 10
-123.8381127971
 20
76.8777577666
 10
-120.1129582295
 20
75.3921881389
  0
LWPOLYLINE
  5
330
330
307
100
AcDbEntity
 67
     1
  8
0
  6
Continuous
 62
    60
370
    25
100
AcDbPolyline
 90
       45
 70
   128
 43
0.0
 10
119.5859788989
 20
75.1906962098
 10
119.9887234883
 20
75.3445015522
 10
124.7815435474
 20
77.2720993472
 10
129.2959271904
 20
79.2729925859
 10
133.5218010622
 20
81.3427164931
 10
137.4497355858
 20
83.4766527055
 10
141.0709660032
 20
85.6700395769
 10
144.3774119336
 20
87.9179828036
 10
147.361695403
 20
90.2154663453
 10
150.0171573083
 20
92.5573636177
 10
152.3378722754
 20
94.9384489325
 10
154.3186618819
 20
97.3534091571
 10
155.9551062117
 20
99.7968555709
 10
157.2435537174
 20
102.2633358897
 10
158.181129369
 20
104.7473464313
 10
158.7657410686
 20
107.243344397
 10
158.9960843188
 20
109.7457602392
 10
158.8716451337
 20
112.2490100898
 10
158.392701186
 20
114.7475082194
 10
157.5603211867
 20
117.2356795019
 10
156.3763625012
 20
119.7079718541
 10
154.8434670042
 20
122.158868625
 10
152.965055185
 20
124.5829009057
 10
150.7453185149
 20
126.9746597322
 10
148.1892100943
 20
129.3288081554
 10
145.3024336006
 20
131.6400931496
 10
142.0914305609
 20
133.9033573342
 10
138.5633659787
 20
136.1135504818
 10
134.7261123456
 20
138.2657407874
 10
130.5882320748
 20
140.3551258727
 10
126.1589583953
 20
142.3770435027
 10
121.4481747486
 20
144.3269819885
 10
116.466392735
 20
146.2005902548
 10
111.2247286581
 20
147.993687549
 10
105.7348787203
 20
149.7022727699
 10
100.0090929233
 20
151.3225333958
 10
94.0601477341
 20
152.8508539917
 10
87.9013175756
 20
154.2838242766
 10
81.5463452062
 20
155.6182467336
 10
75.0094110542
 20
156.8511437444
 10
68.3051015758
 20
157.9797642336
 10
61.4483767068
 20
159.0015898077
 10
54.4545364817
 20
159.9143403741
 10
47.3391868928
 20
160.7159792296
 10
45.3713833372
 20
160.9159015154
  0
LWPOLYLINE
  5
331
330
307
100
AcDbEntity
 67
     1
  8
0
  6
Continuous
 62
    60
370
    25
100
AcDbPolyline
 90
       19
 70
   128
 43
0.0
 10
-57.4619793192
 20
159.5373920353
 10
-62.8411568297
 20
158.8044512071
 10
-69.6683985094
 20
157.7609211666
 10
-76.3401827501
 20
156.6110845353
 10
-82.8416221923
 20
155.3575070485
 10
-89.1582095824
 20
154.0029859276
 10
-95.275850144
 20
152.550543639
 10
-101.180893029
 20
151.0034211493
 10
-106.8601617775
 20
149.3650706937
 10
-112.3009837204
 20
147.6391480728
 10
-117.4912182563
 20
145.8295044948
 10
-122.4192839426
 20
143.9401779821
 10
-127.0741843376
 20
141.975384361
 10
-131.4455325385
 20
139.9395078543
 10
-135.5235743581
 20
137.8370912985
 10
-139.2992100905
 20
135.6728260071
 10
-142.764014816
 20
133.4515413023
 10
-145.9102572005
 20
131.1781937387
 10
-148.7309167469
 20
128.8578560438
  0
LWPOLYLINE
  5
332
330
307
100
AcDbEntity
 67
     1
  8
0
  6
Continuous
 62
    60
370
    25
100
AcDbPolyline
 90
       24
 70
   128
 43
0.0
 10
-145.6670059177
 20
128.4718395633
 10
-148.1217299162
 20
126.1406808748
 10
-150.2409105556
 20
123.7732291081
 10
-152.0197472099
 20
121.374847303
 10
-153.4542102421
 20
118.9509685657
 10
-154.541050132
 20
116.5070837611
 10
-155.2778048376
 20
114.0487290744
 10
-155.6628053728
 20
111.5814734696
 10
-155.6951795872
 20
109.1109060742
 10
-155.3748541431
 20
106.6426235179
 10
-154.7025546805
 20
104.1822172547
 10
-153.679804174
 20
101.7352608961
 10
-152.3089194823
 20
99.3072975852
 10
-150.5930061003
 20
96.9038274399
 10
-148.5359511237
 20
94.530295093
 10
-146.1424144435
 20
92.1920773589
 10
-143.4178181903
 20
89.8944710526
 10
-140.3683344508
 20
87.6426809915
 10
-137.0008712866
 20
85.4418082042
 10
-133.3230570847
 20
83.2968383756
 10
-129.3432232774
 20
81.2126305522
 10
-125.0703854681
 20
79.193906135
 10
-120.5142230089
 20
77.2452381842
 10
-117.7871029832
 20
76.1647430069
  0
LWPOLYLINE
  5
333
330
307
100
AcDbEntity
 67
     1
  8
0
  6
Continuous
 62
    60
370
    25
100
AcDbPolyline
 90
       43
 70
   128
 43
0.0
 10
118.4423413984
 20
76.4189507208
 10
119.6480743311
 20
76.8955629666
 10
124.2551324933
 20
78.8308893097
 10
128.5807128158
 20
80.837094469
 10
132.6150164678
 20
82.9096337445
 10
136.348904454
 20
85.0438121683
 10
139.7739183171
 20
87.2347951398
 10
142.8822992993
 20
89.4776193778
 10
145.6670059177
 20
91.767204164
 10
148.1217299162
 20
94.0983628526
 10
150.2409105556
 20
96.4658146193
 10
152.0197472099
 20
98.8641964243
 10
153.4542102421
 20
101.2880751616
 10
154.541050132
 20
103.7319599662
 10
155.2778048376
 20
106.1903146529
 10
155.6628053728
 20
108.6575702577
 10
155.6951795872
 20
111.1281376532
 10
155.3748541431
 20
113.5964202094
 10
154.7025546805
 20
116.0568264726
 10
153.679804174
 20
118.5037828313
 10
152.3089194823
 20
120.9317461422
 10
150.5930061003
 20
123.3352162875
 10
148.5359511237
 20
125.7087486343
 10
146.1424144435
 20
128.0469663685
 10
143.4178181903
 20
130.3445726747
 10
140.3683344508
 20
132.5963627359
 10
137.0008712866
 20
134.7972355231
 10
133.3230570847
 20
136.9422053517
 10
129.3432232774
 20
139.0264131752
 10
125.0703854681
 20
141.0451375923
 10
120.5142230089
 20
142.9938055431
 10
115.685057073
 20
144.8680026679
 10
110.5938272747
 20
146.6634833074
 10
105.2520668869
 20
148.3761801204
 10
99.6718767149
 20
150.0022132979
 10
93.8658976843
 20
151.5378993516
 10
87.847282205
 20
152.9797594587
 10
81.6296643768
 20
154.3245273424
 10
75.2271291039
 20
155.5691566708
 10
68.654180188
 20
156.7108279583
 10
61.9257074725
 20
157.7469549521
 10
55.0569531121
 20
158.6751904913
 10
50.8252677303
 20
159.18516593
  0
LWPOLYLINE
  5
334
330
307
100
AcDbEntity
 67
     1
  8
0
  6
Continuous
 62
    60
370
    25
100
AcDbPolyline
 90
       20
 70
   128
 43
0.0
 10
-50.9841346869
 20
159.1668490068
 10
-53.7823335272
 20
158.8336599999
 10
-60.6751524477
 20
157.925461249
 10
-67.4305226327
 20
156.9089666695
 10
-74.033140996
 20
155.7864789483
 10
-80.4680504834
 20
154.5605408813
 10
-86.7206739551
 20
153.2339296125
 10
-92.7768472081
 20
151.8096503431
 10
-98.6228510619
 20
150.2909295237
 10
-104.2454424376
 20
148.6812075455
 10
-109.6318843573
 20
146.9841309465
 10
-114.7699747976
 20
145.2035441509
 10
-119.6480743311
 20
143.3434807607
 10
-124.2551324933
 20
141.4081544176
 10
-128.5807128158
 20
139.4019492583
 10
-132.6150164678
 20
137.3294099828
 10
-136.348904454
 20
135.195231559
 10
-139.7739183171
 20
133.0042485876
 10
-142.8822992993
 20
130.7614243496
 10
-145.6670059177
 20
128.4718395633
  0
LWPOLYLINE
  5
335
330
307
100
AcDbEntity
 67
     1
  8
0
  6
Continuous
 62
    60
370
    25
100
AcDbPolyline
 90
        9
 70
   128
 43
0.0
 10
-144.7748853992
 20
127.7001420479
 10
-147.2145757281
 20
125.3832602677
 10
-149.3207776938
 20
123.0303076821
 10
-151.0887200714
 20
120.6466144855
 10
-152.5143979027
 20
118.2375805097
 10
-153.594581569
 20
115.8086629914
 10
-154.3268241067
 20
113.36536421
 10
-154.7094667512
 20
110.9132190232
 10
-154.7575651502
 20
110.1364820395
  0
LWPOLYLINE
  5
336
330
307
100
AcDbEntity
 67
     1
  8
0
  6
Continuous
 62
    60
370
    25
100
AcDbPolyline
 90
       60
 70
   128
 43
0.0
 10
154.7500823659
 20
110.3055966441
 10
154.7416426936
 20
110.4626596089
 10
154.4232790451
 20
112.9158254577
 10
153.7550970018
 20
115.3611632509
 10
152.738610211
 20
117.7931335119
 10
151.3761213421
 20
120.2062270458
 10
149.6707168706
 20
122.5949774197
 10
147.6262600863
 20
124.9539733456
 10
145.2473823412
 20
127.2778709391
 10
142.5394725587
 20
129.5614058247
 10
139.5086650252
 20
131.7994050613
 10
136.1618254948
 20
133.9867988609
 10
132.5065356353
 20
136.118632073
 10
128.551075854
 20
138.1900754097
 10
124.3044065395
 20
140.1964363856
 10
119.7761477637
 20
142.1331699477
 10
114.9765574891
 20
143.9958887717
 10
109.9165083314
 20
145.7803732003
 10
104.6074629295
 20
147.4825808023
 10
99.0614479787
 20
149.0986555299
 10
93.2910269867
 20
150.6249364543
 10
87.309271813
 20
152.057966058
 10
81.1297330571
 20
153.3944980683
 10
74.7664093617
 20
154.6315048102
 10
68.2337157016
 20
155.7661840655
 10
61.5464507293
 20
156.7959654209
 10
54.7197632505
 20
157.7185160903
 10
47.7691179083
 20
158.5317461997
 10
40.7102601499
 20
159.2338135215
 10
33.5591805584
 20
159.8231276472
 10
26.3320786292
 20
160.2983535908
 10
19.0453260726
 20
160.6584148128
 10
11.7154297268
 20
160.9024956587
 10
4.3589941646
 20
161.0300432068
 10
-3.0073159214
 20
161.0407685209
 10
-10.3668134696
 20
160.9346473048
 10
-17.7028268509
 20
160.7119199571
 10
-24.9987376356
 20
160.3730910269
 10
-32.2380182391
 20
159.9189280707
 10
-39.4042693624
 20
159.3504599137
 10
-46.4812571419
 20
158.6689743191
 10
-53.452949924
 20
157.8760150709
 10
-60.3035545823
 20
156.9733784769
 10
-67.0175522937
 20
155.9631092994
 10
-73.5797336941
 20
154.8474961228
 10
-79.9752333319
 20
153.6290661699
 10
-86.1895633435
 20
152.3105795765
 10
-92.2086462726
 20
150.8950231387
 10
-98.0188469604
 20
149.3856035471
 10
-103.6070034338
 20
147.7857401226
 10
-108.9604567207
 20
146.0990570704
 10
-114.0670795279
 20
144.3293752702
 10
-118.915303712
 20
142.4807036204
 10
-123.4941464861
 20
140.5572299569
 10
-127.7932352984
 20
138.5633115661
 10
-131.8028313302
 20
136.5034653146
 10
-135.5138515567
 20
134.3823574167
 10
-138.9178893235
 20
132.2047928638
 10
-142.0072333904
 20
129.9757045402
 10
-144.7748853992
 20
127.7001420479
  0
LWPOLYLINE
  5
337
330
307
100
AcDbEntity
 67
     1
  8
0
  6
Continuous
 62
    60
370
    25
100
AcDbPolyline
 90
       19
 70
   128
 43
0.0
 10
-13.6363107604
 20
93.2286102716
 10
-14.822565351
 20
93.1865195359
 10
-21.6396082237
 20
92.8753806892
 10
-28.3999631474
 20
92.4483832561
 10
-35.0859204365
 20
91.9066458153
 10
-41.6799653005
 20
91.2515875231
 10
-48.1648237261
 20
90.4849243953
 10
-54.5235077291
 20
89.6086648122
 10
-60.7393598566
 20
88.625104257
 10
-66.7960968234
 20
87.5368193028
 10
-72.6778521689
 20
86.3466608625
 10
-78.3692178206
 20
85.057746721
 10
-83.8552844585
 20
83.6734533673
 10
-89.1216805717
 20
82.1974071494
 10
-94.1546101066
 20
80.6334747748
 10
-98.9408886076
 20
78.9857531807
 10
-103.4679777557
 20
77.2585588019
 10
-107.7240182141
 20
75.4564162632
 10
-111.2596076759
 20
73.800802489
  0
LINE
  5
339
330
307
100
AcDbEntity
 67
     1
  8
0
  6
Continuous
 62
     7
370
    25
100
AcDbLine
 10
160.0778560072
 20
100.856067701
 30
0.0
 11
159.999238416
 21
109.3494956757
 31
0.0
  0
LINE
  5
33A
330
307
100
AcDbEntity
 67
     1
  8
0
  6
Continuous
 62
     7
370
    25
100
AcDbLine
 10
-159.999238416
 20
109.3494956757
 30
0.0
 11
-160.815234748
 21
21.1935757896
 31
0.0
  0
LINE
  5
33B
330
307
100
AcDbEntity
 67
     1
  8
0
  6
Continuous
 62
     7
370
    25
100
AcDbLine
 10
150.2904298006
 20
1.785314945
 30
0.0
 11
151.2489622448
 21
2.6555235611
 31
0.0
  0
LINE
  5
33C
330
307
100
AcDbEntity
 67
     1
  8
0
  6
Continuous
 62
     7
370
    25
100
AcDbLine
 10
160.7922356805
 20
20.1066564358
 30
0.0
 11
160.0695575947
 21
100.1237205322
 31
0.0
  0
LINE
  5
33D
330
307
100
AcDbEntity
 67
     1
  8
0
  6
Continuous
 62
     7
370
    25
100
AcDbLine
 10
160.0695575947
 20
100.1237205322
 30
0.0
 11
160.0778560072
 21
100.856067701
 31
0.0
  0
LINE
  5
33E
330
307
100
AcDbEntity
 67
     1
  8
0
  6
Continuous
 62
     7
370
    25
100
AcDbLine
 10
151.8318103781
 20
101.1615791269
 30
0.0
 11
150.7107148368
 21
97.9787457176
 31
0.0
  0
LINE
  5
33F
330
307
100
AcDbEntity
 67
     1
  8
0
  6
Continuous
 62
     7
370
    25
100
AcDbLine
 10
300.0697404954
 20
82.485355424
 30
0.0
 11
160.0695575947
 21
100.1237205322
 31
0.0
  0
LINE
  5
340
330
307
100
AcDbEntity
 67
     1
  8
0
  6
Continuous
 62
     7
370
    25
100
AcDbLine
 10
300.0697404954
 20
82.485355424
 30
0.0
 11
300.5013555046
 21
2.027875108
 31
0.0
  0
LINE
  5
341
330
307
100
AcDbEntity
 67
     1
  8
0
  6
Continuous
 62
     7
370
    25
100
AcDbLine
 10
300.5013555046
 20
2.027875108
 30
0.0
 11
160.7615565732
 21
19.6334349197
 31
0.0
  0
LINE
  5
342
330
307
100
AcDbEntity
 67
     1
  8
0
  6
Continuous
 62
     7
370
    25
100
AcDbLine
 10
344.2639143094
 20
121.4609531949
 30
0.0
 11
300.0697404954
 21
82.485355424
 31
0.0
  0
LINE
  5
343
330
307
100
AcDbEntity
 67
     1
  8
0
  6
Continuous
 62
     7
370
    25
100
AcDbLine
 10
344.2639143094
 20
121.4609531949
 30
0.0
 11
344.9577894828
 21
41.2347646033
 31
0.0
  0
LINE
  5
344
330
307
100
AcDbEntity
 67
     1
  8
0
  6
Continuous
 62
     7
370
    25
100
AcDbLine
 10
344.9577894828
 20
41.2347646033
 30
0.0
 11
300.5013555046
 21
2.027875108
 31
0.0
  0
LINE
  5
345
330
307
100
AcDbEntity
 67
     1
  8
0
  6
Continuous
 62
     7
370
    25
100
AcDbLine
 10
93.5235594353
 20
153.0512685431
 30
0.0
 11
344.2639143094
 21
121.4609531949
 31
0.0
  0
LINE
  5
346
330
307
100
AcDbEntity
 67
     1
  8
0
  6
Continuous
 62
     7
370
    25
100
AcDbLine
 10
-13.2940656572
 20
121.9654840218
 30
0.0
 11
-14.0508314812
 21
58.4230586038
 31
0.0
  0
LINE
  5
347
330
307
100
AcDbEntity
 67
     1
  8
0
  6
Continuous
 62
     7
370
    25
100
AcDbLine
 10
151.8318103781
 20
101.1615791269
 30
0.0
 11
-13.2940656572
 21
121.9654840218
 31
0.0
  0
LINE
  5
348
330
307
100
AcDbEntity
 67
     1
  8
0
  6
Continuous
 62
     7
370
    25
100
AcDbLine
 10
-13.2940656572
 20
121.9654840218
 30
0.0
 11
19.4978025212
 21
150.8851934308
 31
0.0
  0
ARC
  5
349
330
307
100
AcDbEntity
 67
     1
  8
0
  6
Continuous
 62
     7
370
    25
100
AcDbCircle
 10
-141.3958272114
 20
109.1881039949
 30
0.0
 40
18.58841740346771
100
AcDbArc
 50
157.4615617346
 51
201.6333079079
  0
ARC
  5
34A
330
307
100
AcDbEntity
 67
     1
  8
0
  6
Continuous
 62
     7
370
    25
100
AcDbCircle
 10
141.38305756
 20
109.1896968547
 30
0.0
 40
18.60058645315531
100
AcDbArc
 50
338.5097202103
 51
22.8557273637
  0
ARC
  5
34B
330
307
100
AcDbEntity
 67
     1
  8
0
  6
Continuous
 62
     7
370
    25
100
AcDbCircle
 10
0.1003277627
 20
-298.2216780482
 30
0.0
 40
461.3640487081242
100
AcDbArc
 50
84.3688265629
 51
97.167212765
  0
ARC
  5
34C
330
307
100
AcDbEntity
 67
     1
  8
0
  6
Continuous
 62
     7
370
    25
100
AcDbCircle
 10
0.0015948336
 20
-291.1967915572
 30
0.0
 40
453.2405027761296
100
AcDbArc
 50
83.5616537138
 51
96.4589628965
  0
ARC
  5
34D
330
307
100
AcDbEntity
 67
     1
  8
0
  6
Continuous
 62
     7
370
    25
100
AcDbCircle
 10
-134.1707818003
 20
109.9473151884
 30
0.0
 40
20.58765243525656
100
AcDbArc
 50
179.4735380956
 51
218.2797017753
  0
ARC
  5
34E
330
307
100
AcDbEntity
 67
     1
  8
0
  6
Continuous
 62
     7
370
    25
100
AcDbCircle
 10
133.3659500503
 20
110.0960669099
 30
0.0
 40
21.38515881636335
100
AcDbArc
 50
317.0125735819
 51
0.5613875325
  0
ARC
  5
34F
330
307
100
AcDbEntity
 67
     1
  8
0
  6
Continuous
 62
    60
370
    25
100
AcDbCircle
 10
-6.5431481315
 20
-190.2546162397
 30
0.0
 40
264.1309886093301
100
AcDbArc
 50
91.5891236953
 51
105.1316457034
  0
VIEWPORT
  5
360
330
307
100
AcDbEntity
 67
     1
  8
0
100
AcDbViewport
 10
0.0
 20
0.0
 30
0.0
 40
205.6
 41
156.0
 68
     1
 69
     1
 12
69.9628822538
 22
9.5919903727
 13
0.0
 23
0.0
 14
10.0
 24
10.0
 15
10.0
 25
10.0
 16
0.0
 26
0.0
 36
1.0
 17
0.0
 27
0.0
 37
0.0
 42
50.0
 43
0.0
 44
0.0
 45
357.2134125293
 50
0.0
 51
0.0
 72
   100
 90
   557152
  1

281
     0
 71
     1
 74
     0
110
0.0
120
0.0
130
0.0
111
1.0
121
0.0
131
0.0
112
0.0
122
1.0
132
0.0
 79
     0
146
0.0
  0
ENDSEC
  0
SECTION
  2
OBJECTS
  0
DICTIONARY
  5
C
330
0
100
AcDbDictionary
281
     1
  3
ACAD_GROUP
350
D
  3
ACAD_LAYOUT
350
1A
  3
ACAD_MLINESTYLE
350
17
  3
ACAD_PLOTSETTINGS
350
19
  3
ACAD_PLOTSTYLENAME
350
E
  3
ACAD_SCALELIST
350
47
  0
DICTIONARY
  5
D
102
{ACAD_REACTORS
330
C
102
}
330
C
100
AcDbDictionary
281
     1
  0
DICTIONARY
  5
1A
102
{ACAD_REACTORS
330
C
102
}
330
C
100
AcDbDictionary
281
     1
  3
_Dimetrisch
350
308
  3
_Isometrisch
350
231
  3
_Links
350
186
  3
_Normal auf
350
126
  3
_Rechts
350
26
  3
_Rückseite
350
155
  3
_Trimetrisch
350
298
  3
_Unten
350
1BB
  3
_Vorderseite
350
1E
  3
Model
350
22
  0
DICTIONARY
  5
17
102
{ACAD_REACTORS
330
C
102
}
330
C
100
AcDbDictionary
281
     1
  3
Standard
350
18
  0
DICTIONARY
  5
19
102
{ACAD_REACTORS
330
C
102
}
330
C
100
AcDbDictionary
281
     1
  0
ACDBDICTIONARYWDFLT
  5
E
102
{ACAD_REACTORS
330
C
102
}
330
C
100
AcDbDictionary
281
     1
  3
Normal
350
F
100
AcDbDictionaryWithDefault
340
F
  0
DICTIONARY
  5
47
102
{ACAD_REACTORS
330
C
102
}
330
C
100
AcDbDictionary
281
     1
  3
A0
350
48
  3
A1
350
49
  3
A2
350
4A
  3
A3
350
4B
  3
A4
350
4C
  3
A5
350
4D
  3
A6
350
4E
  3
A7
350
4F
  3
A8
350
50
  3
A9
350
51
  3
B0
350
52
  3
B1
350
53
  3
B2
350
54
  3
B3
350
55
  3
B4
350
56
  3
B5
350
57
  3
B6
350
58
  3
B7
350
59
  3
B8
350
5A
  3
B9
350
5B
  3
C0
350
5C
  3
C1
350
5D
  3
C2
350
5E
  3
C3
350
5F
  3
C4
350
60
  3
C5
350
61
  3
C6
350
62
  3
C7
350
63
  3
C8
350
64
  3
C9
350
65
  3
D0
350
66
  3
D1
350
67
  3
D2
350
68
  0
LAYOUT
  5
308
102
{ACAD_REACTORS
330
1A
102
}
330
1A
100
AcDbPlotSettings
  1

  2
none_device
  4
ANSI_A_(11.00_x_8.50_Inches)
  6

 40
6.35
 41
19.05
 42
6.35000508
 43
19.05000254
 44
279.4
 45
215.9
 46
91.4220896612
 47
83.1516350978
 48
0.0
 49
0.0
140
0.0
141
0.0
142
0.0235940113
143
1.0
 70
  1696
 72
     0
 73
     0
 74
     1
  7

 75
     0
147
0.0205389404
148
4084.7268890659
149
4084.7268890659
100
AcDbLayout
  1
_Dimetrisch
 70
     1
 71
     9
 10
0.0
 20
0.0
 11
0.0
 21
0.0
 12
0.0
 22
0.0
 32
0.0
 14
-160.8160192546
 24
-160.8160192546
 34
0.0
 15
300.7417837622
 25
180.0
 35
0.0
146
0.0
 13
0.0
 23
0.0
 33
0.0
 16
1.0
 26
0.0
 36
0.0
 17
0.0
 27
1.0
 37
0.0
 76
     0
330
307
331
360
  0
LAYOUT
  5
231
102
{ACAD_REACTORS
330
1A
102
}
330
1A
100
AcDbPlotSettings
  1

  2
none_device
  4
ISO_A4_(210.00_x_297.00_MM)
  6

 40
7.5
 41
20.0
 42
7.5
 43
20.0
 44
210.0
 45
297.0
 46
0.0
 47
0.0
 48
0.0
 49
0.0
140
0.0
141
0.0
142
1.0
143
1.7959447588
 70
   688
 72
     1
 73
     1
 74
     1
  7

 75
     0
147
0.5568099994
148
160.8160192546
149
0.0
100
AcDbLayout
  1
_Isometrisch
 70
     1
 71
     7
 10
0.0
 20
0.0
 11
0.0
 21
0.0
 12
0.0
 22
0.0
 32
0.0
 14
0.0
 24
0.0
 34
0.0
 15
0.0
 25
0.0
 35
0.0
146
0.0
 13
0.0
 23
0.0
 33
0.0
 16
1.0
 26
0.0
 36
0.0
 17
0.0
 27
1.0
 37
0.0
 76
     0
330
230
331
35C
  0
LAYOUT
  5
186
102
{ACAD_REACTORS
330
1A
102
}
330
1A
100
AcDbPlotSettings
  1

  2
none_device
  4
ISO_A4_(210.00_x_297.00_MM)
  6

 40
7.5
 41
20.0
 42
7.5
 43
20.0
 44
210.0
 45
297.0
 46
0.0
 47
0.0
 48
0.0
 49
0.0
140
0.0
141
0.0
142
1.0
143
1.7959447588
 70
   688
 72
     1
 73
     1
 74
     1
  7

 75
     0
147
0.5568099994
148
160.8160192546
149
0.0
100
AcDbLayout
  1
_Links
 70
     1
 71
     5
 10
0.0
 20
0.0
 11
0.0
 21
0.0
 12
0.0
 22
0.0
 32
0.0
 14
0.0
 24
0.0
 34
0.0
 15
0.0
 25
0.0
 35
0.0
146
0.0
 13
0.0
 23
0.0
 33
0.0
 16
1.0
 26
0.0
 36
0.0
 17
0.0
 27
1.0
 37
0.0
 76
     0
330
185
331
358
  0
LAYOUT
  5
126
102
{ACAD_REACTORS
330
1A
102
}
330
1A
100
AcDbPlotSettings
  1

  2
none_device
  4
ISO_A4_(210.00_x_297.00_MM)
  6

 40
7.5
 41
20.0
 42
7.5
 43
20.0
 44
210.0
 45
297.0
 46
0.0
 47
0.0
 48
0.0
 49
0.0
140
0.0
141
0.0
142
1.0
143
1.7959447588
 70
   688
 72
     1
 73
     1
 74
     1
  7

 75
     0
147
0.5568099994
148
160.8160192546
149
0.0
100
AcDbLayout
  1
_Normal auf
 70
     1
 71
     3
 10
0.0
 20
0.0
 11
0.0
 21
0.0
 12
0.0
 22
0.0
 32
0.0
 14
0.0
 24
0.0
 34
0.0
 15
0.0
 25
0.0
 35
0.0
146
0.0
 13
0.0
 23
0.0
 33
0.0
 16
1.0
 26
0.0
 36
0.0
 17
0.0
 27
1.0
 37
0.0
 76
     0
330
125
331
354
  0
LAYOUT
  5
26
102
{ACAD_REACTORS
330
1A
102
}
330
1A
100
AcDbPlotSettings
  1

  2
none_device
  4
ISO_A4_(210.00_x_297.00_MM)
  6

 40
7.5
 41
20.0
 42
7.5
 43
20.0
 44
210.0
 45
297.0
 46
0.0
 47
0.0
 48
0.0
 49
0.0
140
0.0
141
0.0
142
1.0
143
1.7959447588
 70
   688
 72
     1
 73
     1
 74
     1
  7

 75
     0
147
0.5568099994
148
160.8160192546
149
0.0
100
AcDbLayout
  1
_Rechts
 70
     1
 71
     2
 10
0.0
 20
0.0
 11
0.0
 21
0.0
 12
0.0
 22
0.0
 32
0.0
 14
0.0
 24
0.0
 34
0.0
 15
0.0
 25
0.0
 35
0.0
146
0.0
 13
0.0
 23
0.0
 33
0.0
 16
1.0
 26
0.0
 36
0.0
 17
0.0
 27
1.0
 37
0.0
 76
     0
330
23
331
352
  0
LAYOUT
  5
155
102
{ACAD_REACTORS
330
1A
102
}
330
1A
100
AcDbPlotSettings
  1

  2
none_device
  4
ISO_A4_(210.00_x_297.00_MM)
  6

 40
7.5
 41
20.0
 42
7.5
 43
20.0
 44
210.0
 45
297.0
 46
0.0
 47
0.0
 48
0.0
 49
0.0
140
0.0
141
0.0
142
1.0
143
1.7959447588
 70
   688
 72
     1
 73
     1
 74
     1
  7

 75
     0
147
0.5568099994
148
160.8160192546
149
0.0
100
AcDbLayout
  1
_Rückseite
 70
     1
 71
     4
 10
0.0
 20
0.0
 11
0.0
 21
0.0
 12
0.0
 22
0.0
 32
0.0
 14
0.0
 24
0.0
 34
0.0
 15
0.0
 25
0.0
 35
0.0
146
0.0
 13
0.0
 23
0.0
 33
0.0
 16
1.0
 26
0.0
 36
0.0
 17
0.0
 27
1.0
 37
0.0
 76
     0
330
154
331
356
  0
LAYOUT
  5
298
102
{ACAD_REACTORS
330
1A
102
}
330
1A
100
AcDbPlotSettings
  1

  2
none_device
  4
ISO_A4_(210.00_x_297.00_MM)
  6

 40
7.5
 41
20.0
 42
7.5
 43
20.0
 44
210.0
 45
297.0
 46
0.0
 47
0.0
 48
0.0
 49
0.0
140
0.0
141
0.0
142
1.0
143
1.7959447588
 70
   688
 72
     1
 73
     1
 74
     1
  7

 75
     0
147
0.5568099994
148
160.8160192546
149
0.0
100
AcDbLayout
  1
_Trimetrisch
 70
     1
 71
     8
 10
0.0
 20
0.0
 11
0.0
 21
0.0
 12
0.0
 22
0.0
 32
0.0
 14
0.0
 24
0.0
 34
0.0
 15
0.0
 25
0.0
 35
0.0
146
0.0
 13
0.0
 23
0.0
 33
0.0
 16
1.0
 26
0.0
 36
0.0
 17
0.0
 27
1.0
 37
0.0
 76
     0
330
297
331
35E
  0
LAYOUT
  5
1BB
102
{ACAD_REACTORS
330
1A
102
}
330
1A
100
AcDbPlotSettings
  1

  2
none_device
  4
ISO_A4_(210.00_x_297.00_MM)
  6

 40
7.5
 41
20.0
 42
7.5
 43
20.0
 44
210.0
 45
297.0
 46
0.0
 47
0.0
 48
0.0
 49
0.0
140
0.0
141
0.0
142
1.0
143
1.7959447588
 70
   688
 72
     1
 73
     1
 74
     1
  7

 75
     0
147
0.5568099994
148
160.8160192546
149
0.0
100
AcDbLayout
  1
_Unten
 70
     1
 71
     6
 10
0.0
 20
0.0
 11
0.0
 21
0.0
 12
0.0
 22
0.0
 32
0.0
 14
0.0
 24
0.0
 34
0.0
 15
0.0
 25
0.0
 35
0.0
146
0.0
 13
0.0
 23
0.0
 33
0.0
 16
1.0
 26
0.0
 36
0.0
 17
0.0
 27
1.0
 37
0.0
 76
     0
330
1BA
331
35A
  0
LAYOUT
  5
1E
102
{ACAD_REACTORS
330
1A
102
}
330
1A
100
AcDbPlotSettings
  1

  2
none_device
  4
ISO_A4_(210.00_x_297.00_MM)
  6

 40
7.5
 41
20.0
 42
7.5
 43
20.0
 44
210.0
 45
297.0
 46
0.0
 47
0.0
 48
0.0
 49
0.0
140
0.0
141
0.0
142
1.0
143
1.7959447588
 70
   688
 72
     1
 73
     1
 74
     1
  7

 75
     0
147
0.5568099994
148
160.8160192546
149
0.0
100
AcDbLayout
  1
_Vorderseite
 70
     1
 71
     1
 10
-196.734914431
 20
-13.4695856912
 11
336.6606789386
 21
363.6788136611
 12
0.0
 22
0.0
 32
0.0
 14
1.0000000000E+20
 24
1.0000000000E+20
 34
1.0000000000E+20
 15
-1.0000000000E+20
 25
-1.0000000000E+20
 35
-1.0000000000E+20
146
0.0
 13
0.0
 23
0.0
 33
0.0
 16
1.0
 26
0.0
 36
0.0
 17
0.0
 27
1.0
 37
0.0
 76
     0
330
1B
331
350
  0
LAYOUT
  5
22
102
{ACAD_REACTORS
330
1A
102
}
330
1A
100
AcDbPlotSettings
  1

  2
none_device
  4
Letter_(8.50_x_11.00_Inches)
  6

 40
6.35
 41
6.35
 42
6.35000508
 43
6.35000508
 44
215.9
 45
279.4
 46
0.0
 47
0.0
 48
0.0
 49
0.0
140
0.0
141
0.0
142
1.0
143
1.0
 70
  1712
 72
     1
 73
     0
 74
     0
  7

 75
     0
147
1.0
148
0.0
149
0.0
100
AcDbLayout
  1
Model
 70
     1
 71
     0
 10
0.0
 20
0.0
 11
420.0
 21
297.0
 12
0.0
 22
0.0
 32
0.0
 14
-160.8160192546
 24
-160.8160192546
 34
0.0
 15
300.7417837622
 25
180.0
 35
0.0
146
0.0
 13
0.0
 23
0.0
 33
0.0
 16
1.0
 26
0.0
 36
0.0
 17
0.0
 27
1.0
 37
0.0
 76
     0
330
1F
331
29
  0
MLINESTYLE
  5
18
102
{ACAD_REACTORS
330
17
102
}
330
17
100
AcDbMlineStyle
  2
Standard
 70
     0
  3

 62
   256
 51
90.0
 52
90.0
 71
     2
 49
0.5
 62
   256
  6
BYLAYER
 49
-0.5
 62
   256
  6
BYLAYER
  0
ACDBPLACEHOLDER
  5
F
102
{ACAD_REACTORS
330
E
102
}
330
E
  0
SCALE
  5
48
102
{ACAD_REACTORS
330
47
102
}
330
47
100
AcDbScale
 70
     0
300
1:1
140
1.0
141
1.0
290
     1
  0
SCALE
  5
49
102
{ACAD_REACTORS
330
47
102
}
330
47
100
AcDbScale
 70
     0
300
1:2
140
1.0
141
2.0
290
     0
  0
SCALE
  5
4A
102
{ACAD_REACTORS
330
47
102
}
330
47
100
AcDbScale
 70
     0
300
1:4
140
1.0
141
4.0
290
     0
  0
SCALE
  5
4B
102
{ACAD_REACTORS
330
47
102
}
330
47
100
AcDbScale
 70
     0
300
1:5
140
1.0
141
5.0
290
     0
  0
SCALE
  5
4C
102
{ACAD_REACTORS
330
47
102
}
330
47
100
AcDbScale
 70
     0
300
1:8
140
1.0
141
8.0
290
     0
  0
SCALE
  5
4D
102
{ACAD_REACTORS
330
47
102
}
330
47
100
AcDbScale
 70
     0
300
1:10
140
1.0
141
10.0
290
     0
  0
SCALE
  5
4E
102
{ACAD_REACTORS
330
47
102
}
330
47
100
AcDbScale
 70
     0
300
1:16
140
1.0
141
16.0
290
     0
  0
SCALE
  5
4F
102
{ACAD_REACTORS
330
47
102
}
330
47
100
AcDbScale
 70
     0
300
1:20
140
1.0
141
20.0
290
     0
  0
SCALE
  5
50
102
{ACAD_REACTORS
330
47
102
}
330
47
100
AcDbScale
 70
     0
300
1:30
140
1.0
141
30.0
290
     0
  0
SCALE
  5
51
102
{ACAD_REACTORS
330
47
102
}
330
47
100
AcDbScale
 70
     0
300
1:40
140
1.0
141
40.0
290
     0
  0
SCALE
  5
52
102
{ACAD_REACTORS
330
47
102
}
330
47
100
AcDbScale
 70
     0
300
1:50
140
1.0
141
50.0
290
     0
  0
SCALE
  5
53
102
{ACAD_REACTORS
330
47
102
}
330
47
100
AcDbScale
 70
     0
300
1:100
140
1.0
141
100.0
290
     0
  0
SCALE
  5
54
102
{ACAD_REACTORS
330
47
102
}
330
47
100
AcDbScale
 70
     0
300
2:1
140
2.0
141
1.0
290
     0
  0
SCALE
  5
55
102
{ACAD_REACTORS
330
47
102
}
330
47
100
AcDbScale
 70
     0
300
4:1
140
4.0
141
1.0
290
     0
  0
SCALE
  5
56
102
{ACAD_REACTORS
330
47
102
}
330
47
100
AcDbScale
 70
     0
300
8:1
140
8.0
141
1.0
290
     0
  0
SCALE
  5
57
102
{ACAD_REACTORS
330
47
102
}
330
47
100
AcDbScale
 70
     0
300
10:1
140
10.0
141
1.0
290
     0
  0
SCALE
  5
58
102
{ACAD_REACTORS
330
47
102
}
330
47
100
AcDbScale
 70
     0
300
100:1
140
100.0
141
1.0
290
     0
  0
SCALE
  5
59
102
{ACAD_REACTORS
330
47
102
}
330
47
100
AcDbScale
 70
     0
300
1/128" = 1'-0"
140
0.0078125
141
12.0
290
     0
  0
SCALE
  5
5A
102
{ACAD_REACTORS
330
47
102
}
330
47
100
AcDbScale
 70
     0
300
1/64" = 1'-0"
140
0.015625
141
12.0
290
     0
  0
SCALE
  5
5B
102
{ACAD_REACTORS
330
47
102
}
330
47
100
AcDbScale
 70
     0
300
1/32" = 1'-0"
140
0.03125
141
12.0
290
     0
  0
SCALE
  5
5C
102
{ACAD_REACTORS
330
47
102
}
330
47
100
AcDbScale
 70
     0
300
1/16" = 1'-0"
140
0.0625
141
12.0
290
     0
  0
SCALE
  5
5D
102
{ACAD_REACTORS
330
47
102
}
330
47
100
AcDbScale
 70
     0
300
3/32" = 1'-0"
140
0.09375
141
12.0
290
     0
  0
SCALE
  5
5E
102
{ACAD_REACTORS
330
47
102
}
330
47
100
AcDbScale
 70
     0
300
1/8" = 1'-0"
140
0.125
141
12.0
290
     0
  0
SCALE
  5
5F
102
{ACAD_REACTORS
330
47
102
}
330
47
100
AcDbScale
 70
     0
300
3/16" = 1'-0"
140
0.1875
141
12.0
290
     0
  0
SCALE
  5
60
102
{ACAD_REACTORS
330
47
102
}
330
47
100
AcDbScale
 70
     0
300
1/4" = 1'-0"
140
0.25
141
12.0
290
     0
  0
SCALE
  5
61
102
{ACAD_REACTORS
330
47
102
}
330
47
100
AcDbScale
 70
     0
300
3/8" = 1'-0"
140
0.375
141
12.0
290
     0
  0
SCALE
  5
62
102
{ACAD_REACTORS
330
47
102
}
330
47
100
AcDbScale
 70
     0
300
1/2" = 1'-0"
140
0.5
141
12.0
290
     0
  0
SCALE
  5
63
102
{ACAD_REACTORS
330
47
102
}
330
47
100
AcDbScale
 70
     0
300
3/4" = 1'-0"
140
0.75
141
12.0
290
     0
  0
SCALE
  5
64
102
{ACAD_REACTORS
330
47
102
}
330
47
100
AcDbScale
 70
     0
300
1" = 1'-0"
140
1.0
141
12.0
290
     0
  0
SCALE
  5
65
102
{ACAD_REACTORS
330
47
102
}
330
47
100
AcDbScale
 70
     0
300
1-1/2" = 1'-0"
140
1.5
141
12.0
290
     0
  0
SCALE
  5
66
102
{ACAD_REACTORS
330
47
102
}
330
47
100
AcDbScale
 70
     0
300
3" = 1'-0"
140
3.0
141
12.0
290
     0
  0
SCALE
  5
67
102
{ACAD_REACTORS
330
47
102
}
330
47
100
AcDbScale
 70
     0
300
6" = 1'-0"
140
6.0
141
12.0
290
     0
  0
SCALE
  5
68
102
{ACAD_REACTORS
330
47
102
}
330
47
100
AcDbScale
 70
     0
300
1'-0" = 1'-0"
140
12.0
141
12.0
290
     0
  0
ENDSEC
  0
EOF
