  0
SECTION
  2
HEADER
  9
$ACADVER
  1
AC1015
  9
$ACADMAINTVER
 70
     6
  9
$DWGCODEPAGE
  3
ANSI_1252
  9
$INSBASE
 10
0.0
 20
0.0
 30
0.0
  9
$EXTMIN
 10
-300.7417837622
 20
-160.8160192546
 30
0.0
  9
$EXTMAX
 10
160.8160192546
 20
180.0
 30
0.0
  9
$LIMMIN
 10
0.0
 20
0.0
  9
$LIMMAX
 10
420.0
 20
297.0
  9
$ORTHOMODE
 70
     0
  9
$REGENMODE
 70
     1
  9
$FILLMODE
 70
     1
  9
$QTEXTMODE
 70
     0
  9
$MIRRTEXT
 70
     1
  9
$LTSCALE
 40
1.0
  9
$ATTMODE
 70
     1
  9
$TEXTSIZE
 40
3.5
  9
$TRACEWID
 40
1.0
  9
$TEXTSTYLE
  7
STANDARD
  9
$CLAYER
  8
0
  9
$CELTYPE
  6
ByLayer
  9
$CECOLOR
 62
   256
  9
$CELTSCALE
 40
1.0
  9
$DISPSILH
 70
     0
  9
$DIMSCALE
 40
1.0
  9
$DIMASZ
 40
6.0
  9
$DIMEXO
 40
1.0
  9
$DIMDLI
 40
3.75
  9
$DIMRND
 40
0.0
  9
$DIMDLE
 40
0.0
  9
$DIMEXE
 40
1.0
  9
$DIMTP
 40
0.0
  9
$DIMTM
 40
0.0
  9
$DIMTXT
 40
3.5
  9
$DIMCEN
 40
2.5
  9
$DIMTSZ
 40
0.0
  9
$DIMTOL
 70
     0
  9
$DIMLIM
 70
     0
  9
$DIMTIH
 70
     1
  9
$DIMTOH
 70
     1
  9
$DIMSE1
 70
     0
  9
$DIMSE2
 70
     0
  9
$DIMTAD
 70
     1
  9
$DIMZIN
 70
     0
  9
$DIMBLK
  1

  9
$DIMASO
 70
     1
  9
$DIMSHO
 70
     1
  9
$DIMPOST
  1

  9
$DIMAPOST
  1

  9
$DIMALT
 70
     0
  9
$DIMALTD
 70
     3
  9
$DIMALTF
 40
0.0393700787
  9
$DIMLFAC
 40
1.0
  9
$DIMTOFL
 70
     1
  9
$DIMTVP
 40
0.0
  9
$DIMTIX
 70
     0
  9
$DIMSOXD
 70
     0
  9
$DIMSAH
 70
     0
  9
$DIMBLK1
  1

  9
$DIMBLK2
  1

  9
$DIMSTYLE
  2
ISO-25
  9
$DIMCLRD
 70
     0
  9
$DIMCLRE
 70
     0
  9
$DIMCLRT
 70
     0
  9
$DIMTFAC
 40
1.0
  9
$DIMGAP
 40
1.524
  9
$DIMJUST
 70
     0
  9
$DIMSD1
 70
     0
  9
$DIMSD2
 70
     0
  9
$DIMTOLJ
 70
     0
  9
$DIMTZIN
 70
     0
  9
$DIMALTZ
 70
     0
  9
$DIMALTTZ
 70
     0
  9
$DIMUPT
 70
     0
  9
$DIMDEC
 70
     2
  9
$DIMTDEC
 70
     2
  9
$DIMALTU
 70
     2
  9
$DIMALTTD
 70
     3
  9
$DIMTXSTY
  7
STANDARD
  9
$DIMAUNIT
 70
     0
  9
$DIMADEC
 70
     2
  9
$DIMALTRND
 40
0.0
  9
$DIMAZIN
 70
     0
  9
$DIMDSEP
 70
    44
  9
$DIMATFIT
 70
     3
  9
$DIMFRAC
 70
     0
  9
$DIMLDRBLK
  1

  9
$DIMLUNIT
 70
     2
  9
$DIMLWD
 70
    -2
  9
$DIMLWE
 70
    -2
  9
$DIMTMOVE
 70
     0
  9
$LUNITS
 70
     2
  9
$LUPREC
 70
     2
  9
$SKETCHINC
 40
1.0
  9
$FILLETRAD
 40
10.0
  9
$AUNITS
 70
     0
  9
$AUPREC
 70
     2
  9
$MENU
  1
.
  9
$ELEVATION
 40
0.0
  9
$PELEVATION
 40
0.0
  9
$THICKNESS
 40
0.0
  9
$LIMCHECK
 70
     0
  9
$CHAMFERA
 40
0.0
  9
$CHAMFERB
 40
0.0
  9
$CHAMFERC
 40
0.0
  9
$CHAMFERD
 40
0.0
  9
$SKPOLY
 70
     0
  9
$TDCREATE
 40
2459051.663124966
  9
$TDUCREATE
 40
2459051.579791632
  9
$TDUPDATE
 40
2459051.663156377
  9
$TDUUPDATE
 40
2459051.579823044
  9
$TDINDWG
 40
0.0000000116
  9
$TDUSRTIMER
 40
0.0000000116
  9
$USRTIMER
 70
     1
  9
$ANGBASE
 50
0.0
  9
$ANGDIR
 70
     0
  9
$PDMODE
 70
     0
  9
$PDSIZE
 40
-1.0
  9
$PLINEWID
 40
0.0
  9
$SPLFRAME
 70
     0
  9
$SPLINETYPE
 70
     6
  9
$SPLINESEGS
 70
     8
  9
$HANDSEED
  5
364
  9
$SURFTAB1
 70
     6
  9
$SURFTAB2
 70
     6
  9
$SURFTYPE
 70
     6
  9
$SURFU
 70
     6
  9
$SURFV
 70
     6
  9
$UCSBASE
  2

  9
$UCSNAME
  2

  9
$UCSORG
 10
0.0
 20
0.0
 30
0.0
  9
$UCSXDIR
 10
1.0
 20
0.0
 30
0.0
  9
$UCSYDIR
 10
0.0
 20
1.0
 30
0.0
  9
$UCSORTHOREF
  2

  9
$UCSORTHOVIEW
 70
     0
  9
$UCSORGTOP
 10
0.0
 20
0.0
 30
0.0
  9
$UCSORGBOTTOM
 10
0.0
 20
0.0
 30
0.0
  9
$UCSORGLEFT
 10
0.0
 20
0.0
 30
0.0
  9
$UCSORGRIGHT
 10
0.0
 20
0.0
 30
0.0
  9
$UCSORGFRONT
 10
0.0
 20
0.0
 30
0.0
  9
$UCSORGBACK
 10
0.0
 20
0.0
 30
0.0
  9
$PUCSBASE
  2

  9
$PUCSNAME
  2

  9
$PUCSORG
 10
0.0
 20
0.0
 30
0.0
  9
$PUCSXDIR
 10
1.0
 20
0.0
 30
0.0
  9
$PUCSYDIR
 10
0.0
 20
1.0
 30
0.0
  9
$PUCSORTHOREF
  2

  9
$PUCSORTHOVIEW
 70
     0
  9
$PUCSORGTOP
 10
0.0
 20
0.0
 30
0.0
  9
$PUCSORGBOTTOM
 10
0.0
 20
0.0
 30
0.0
  9
$PUCSORGLEFT
 10
0.0
 20
0.0
 30
0.0
  9
$PUCSORGRIGHT
 10
0.0
 20
0.0
 30
0.0
  9
$PUCSORGFRONT
 10
0.0
 20
0.0
 30
0.0
  9
$PUCSORGBACK
 10
0.0
 20
0.0
 30
0.0
  9
$USERI1
 70
     0
  9
$USERI2
 70
     0
  9
$USERI3
 70
     0
  9
$USERI4
 70
     0
  9
$USERI5
 70
     0
  9
$USERR1
 40
0.0
  9
$USERR2
 40
0.0
  9
$USERR3
 40
0.0
  9
$USERR4
 40
0.0
  9
$USERR5
 40
0.0
  9
$WORLDVIEW
 70
     1
  9
$SHADEDGE
 70
     3
  9
$SHADEDIF
 70
    70
  9
$TILEMODE
 70
     1
  9
$MAXACTVP
 70
    64
  9
$PINSBASE
 10
0.0
 20
0.0
 30
0.0
  9
$PLIMCHECK
 70
     0
  9
$PEXTMIN
 10
-300.7417837622
 20
0.0
 30
0.0
  9
$PEXTMAX
 10
160.8160192546
 20
116.7993909728
 30
0.0
  9
$PLIMMIN
 10
-336.6606789386
 20
-13.4695856912
  9
$PLIMMAX
 10
196.734914431
 20
363.6788136611
  9
$UNITMODE
 70
     0
  9
$VISRETAIN
 70
     1
  9
$PLINEGEN
 70
     0
  9
$PSLTSCALE
 70
     1
  9
$TREEDEPTH
 70
  3020
  9
$CMLSTYLE
  2
Standard
  9
$CMLJUST
 70
     0
  9
$CMLSCALE
 40
20.0
  9
$PROXYGRAPHICS
 70
     1
  9
$MEASUREMENT
 70
     1
  9
$CELWEIGHT
370
    -1
  9
$ENDCAPS
280
     0
  9
$JOINSTYLE
280
     0
  9
$LWDISPLAY
290
     1
  9
$INSUNITS
 70
     4
  9
$HYPERLINKBASE
  1

  9
$STYLESHEET
  1

  9
$XEDIT
290
     1
  9
$CEPSNTYPE
380
     0
  9
$PSTYLEMODE
290
     1
  9
$FINGERPRINTGUID
  2
{dee144c8-cdb9-4ddc-bf9e-0dac1eb236dc}
  9
$VERSIONGUID
  2
{FAEB1C32-E019-11D5-929B-00C0DF256EC4}
  9
$EXTNAMES
290
     1
  9
$PSVPSCALE
 40
0.0
  9
$OLESTARTUP
290
     0
  0
ENDSEC
  0
SECTION
  2
CLASSES
  0
CLASS
  1
ACDBDICTIONARYWDFLT
  2
AcDbDictionaryWithDefault
  3
ObjectDBX Classes
 90
        0
280
     0
281
     0
  0
CLASS
  1
VISUALSTYLE
  2
AcDbVisualStyle
  3
ObjectDBX Classes
 90
     4095
280
     0
281
     0
  0
CLASS
  1
MATERIAL
  2
AcDbMaterial
  3
ObjectDBX Classes
 90
     1153
280
     0
281
     0
  0
CLASS
  1
SCALE
  2
AcDbScale
  3
ObjectDBX Classes
 90
     1153
280
     0
281
     0
  0
CLASS
  1
TABLESTYLE
  2
AcDbTableStyle
  3
ObjectDBX Classes
 90
     4095
280
     0
281
     0
  0
CLASS
  1
MLEADERSTYLE
  2
AcDbMLeaderStyle
  3
ACDB_MLEADERSTYLE_CLASS
 90
     4095
280
     0
281
     0
  0
CLASS
  1
SUN
  2
AcDbSun
  3
SCENEOE
 90
     1153
280
     0
281
     0
  0
CLASS
  1
ACDBPLACEHOLDER
  2
AcDbPlaceHolder
  3
ObjectDBX Classes
 90
        0
280
     0
281
     0
  0
CLASS
  1
LAYOUT
  2
AcDbLayout
  3
ObjectDBX Classes
 90
        0
280
     0
281
     0
  0
ENDSEC
  0
SECTION
  2
TABLES
  0
TABLE
  2
VPORT
  5
8
330
0
100
AcDbSymbolTable
 70
     1
  0
VPORT
  5
29
330
8
100
AcDbSymbolTableRecord
100
AcDbViewportTableRecord
  2
*Active
 70
     0
 10
0.0
 20
0.0
 11
1.0
 21
1.0
 12
-69.9628822538
 22
9.5919903727
 13
0.0
 23
0.0
 14
10.0
 24
10.0
 15
10.0
 25
10.0
 16
0.0
 26
0.0
 36
1.0
 17
0.0
 27
0.0
 37
0.0
 40
347.6323396397
 41
1.3542726191
 42
50.0
 43
0.0
 44
0.0
 50
0.0
 51
0.0
 71
     0
 72
   100
 73
     1
 74
     3
 75
     0
 76
     0
 77
     0
 78
     0
281
     0
 65
     1
110
0.0
120
0.0
130
0.0
111
1.0
121
0.0
131
0.0
112
0.0
122
1.0
132
0.0
 79
     0
146
0.0
  0
ENDTAB
  0
TABLE
  2
LTYPE
  5
5
330
0
100
AcDbSymbolTable
 70
     6
  0
LTYPE
  5
14
330
5
100
AcDbSymbolTableRecord
100
AcDbLinetypeTableRecord
  2
ByBlock
 70
     0
  3

 72
    65
 73
     0
 40
0.0
  0
LTYPE
  5
15
330
5
100
AcDbSymbolTableRecord
100
AcDbLinetypeTableRecord
  2
ByLayer
 70
     0
  3

 72
    65
 73
     0
 40
0.0
  0
LTYPE
  5
16
330
5
100
AcDbSymbolTableRecord
100
AcDbLinetypeTableRecord
  2
Continuous
 70
     0
  3
Solid line
 72
    65
 73
     0
 40
0.0
  0
LTYPE
  5
6E
330
5
100
AcDbSymbolTableRecord
100
AcDbLinetypeTableRecord
  2
HIDDEN
 70
     0
  3
Hidden __ __ __ __ __ __ __ __ __ __ __ __ __ __
 72
    65
 73
     2
 40
1.905
 49
1.27
 74
     0
 49
-0.635
 74
     0
  0
LTYPE
  5
6F
330
5
100
AcDbSymbolTableRecord
100
AcDbLinetypeTableRecord
  2
PHANTOM
 70
     0
  3
Phantom ______  __  __  ______  __  __  ______
 72
    65
 73
     6
 40
12.7
 49
6.35
 74
     0
 49
-1.27
 74
     0
 49
1.27
 74
     0
 49
-1.27
 74
     0
 49
1.27
 74
     0
 49
-1.27
 74
     0
  0
LTYPE
  5
70
330
5
100
AcDbSymbolTableRecord
100
AcDbLinetypeTableRecord
  2
CENTER
 70
     0
  3
Center ____ _ ____ _ ____ _ ____ _ ____ _ ____
 72
    65
 73
     4
 40
10.16
 49
6.35
 74
     0
 49
-1.27
 74
     0
 49
1.27
 74
     0
 49
-1.27
 74
     0
  0
LTYPE
  5
71
330
5
100
AcDbSymbolTableRecord
100
AcDbLinetypeTableRecord
  2
CENTERX2
 70
     0
  3
Center (2x) ________  __  ________  __  _____
 72
    65
 73
     4
 40
20.32
 49
12.7
 74
     0
 49
-2.54
 74
     0
 49
2.54
 74
     0
 49
-2.54
 74
     0
  0
LTYPE
  5
72
330
5
100
AcDbSymbolTableRecord
100
AcDbLinetypeTableRecord
  2
DOT2
 70
     0
  3
Dot (.5x) ........................................
 72
    65
 73
     2
 40
0.635
 49
0.0
 74
     0
 49
-0.635
 74
     0
  0
ENDTAB
  0
TABLE
  2
LAYER
  5
2
330
0
100
AcDbSymbolTable
 70
     1
  0
LAYER
  5
10
330
2
100
AcDbSymbolTableRecord
100
AcDbLayerTableRecord
  2
0
 70
     0
 62
     7
  6
Continuous
370
    -3
390
F
  0
ENDTAB
  0
TABLE
  2
STYLE
  5
3
330
0
100
AcDbSymbolTable
 70
     1
  0
STYLE
  5
11
330
3
100
AcDbSymbolTableRecord
100
AcDbTextStyleTableRecord
  2
STANDARD
 70
     0
 40
0.0
 41
1.0
 50
0.0
 71
     0
 42
3.5
  3
GOTHIC.TTF
  4

1001
ACAD
1000
CENTURY GOTHIC
1071
       34
  0
ENDTAB
  0
TABLE
  2
VIEW
  5
6
330
0
100
AcDbSymbolTable
 70
     0
  0
ENDTAB
  0
TABLE
  2
UCS
  5
7
330
0
100
AcDbSymbolTable
 70
     0
  0
ENDTAB
  0
TABLE
  2
APPID
  5
9
330
0
100
AcDbSymbolTable
 70
     1
  0
APPID
  5
12
330
9
100
AcDbSymbolTableRecord
100
AcDbRegAppTableRecord
  2
ACAD
 70
     0
  0
ENDTAB
  0
TABLE
  2
DIMSTYLE
  5
A
330
0
100
AcDbSymbolTable
 70
     1
100
AcDbDimStyleTable
  0
DIMSTYLE
105
27
330
A
100
AcDbSymbolTableRecord
100
AcDbDimStyleTableRecord
  2
ISO-25
 70
     0
 41
2.5
 42
0.625
 43
3.75
 44
1.25
 73
     0
 74
     0
 77
     1
 78
     8
140
2.5
141
2.5
143
0.0393700787
147
0.625
171
     3
172
     1
178
     0
271
     2
272
     2
274
     3
278
    44
283
     0
284
     8
340
11
  0
ENDTAB
  0
TABLE
  2
BLOCK_RECORD
  5
1
330
0
100
AcDbSymbolTable
 70
     8
  0
BLOCK_RECORD
  5
1F
330
1
100
AcDbSymbolTableRecord
100
AcDbBlockTableRecord
  2
*Model_Space
340
22
  0
BLOCK_RECORD
  5
1B
330
1
100
AcDbSymbolTableRecord
100
AcDbBlockTableRecord
  2
*Paper_Space
340
1E
  0
BLOCK_RECORD
  5
23
330
1
100
AcDbSymbolTableRecord
100
AcDbBlockTableRecord
  2
*Paper_Space0
340
26
  0
BLOCK_RECORD
  5
12C
330
1
100
AcDbSymbolTableRecord
100
AcDbBlockTableRecord
  2
*Paper_Space1
340
12D
  0
BLOCK_RECORD
  5
15B
330
1
100
AcDbSymbolTableRecord
100
AcDbBlockTableRecord
  2
*Paper_Space2
340
15C
  0
BLOCK_RECORD
  5
18C
330
1
100
AcDbSymbolTableRecord
100
AcDbBlockTableRecord
  2
*Paper_Space3
340
18D
  0
BLOCK_RECORD
  5
1BB
330
1
100
AcDbSymbolTableRecord
100
AcDbBlockTableRecord
  2
*Paper_Space4
340
1BC
  0
BLOCK_RECORD
  5
231
330
1
100
AcDbSymbolTableRecord
100
AcDbBlockTableRecord
  2
*Paper_Space5
340
232
  0
BLOCK_RECORD
  5
299
330
1
100
AcDbSymbolTableRecord
100
AcDbBlockTableRecord
  2
*Paper_Space6
340
29A
  0
BLOCK_RECORD
  5
303
330
1
100
AcDbSymbolTableRecord
100
AcDbBlockTableRecord
  2
*Paper_Space7
340
304
  0
ENDTAB
  0
ENDSEC
  0
SECTION
  2
BLOCKS
  0
BLOCK
  5
20
330
1F
100
AcDbEntity
  8
0
100
AcDbBlockBegin
  2
*Model_Space
 70
     0
 10
0.0
 20
0.0
 30
0.0
  3
*Model_Space
  1

  0
ENDBLK
  5
21
330
1F
100
AcDbEntity
  8
0
100
AcDbBlockEnd
  0
BLOCK
  5
1C
330
1B
100
AcDbEntity
 67
     1
  8
0
100
AcDbBlockBegin
  2
*Paper_Space
 70
     0
 10
0.0
 20
0.0
 30
0.0
  3
*Paper_Space
  1

  0
ENDBLK
  5
1D
330
1B
100
AcDbEntity
 67
     1
  8
0
100
AcDbBlockEnd
  0
BLOCK
  5
24
330
23
100
AcDbEntity
  8
0
100
AcDbBlockBegin
  2
*Paper_Space0
 70
     0
 10
0.0
 20
0.0
 30
0.0
  3
*Paper_Space0
  1

  0
SPLINE
  5
106
330
23
100
AcDbEntity
  8
0
  6
Continuous
 62
     7
370
    25
100
AcDbSpline
210
0.0
220
0.0
230
1.0
 70
     8
 71
     3
 72
    10
 73
     6
 74
     0
 42
0.000000001
 43
0.00000001
 40
0.0
 40
0.0
 40
0.0
 40
0.0
 40
0.5
 40
0.5
 40
1.0
 40
1.0
 40
1.0
 40
1.0
 10
156.7948514313328
 20
22.30375424050183
 30
0.0
 10
156.795789218925
 20
22.16904579958347
 30
0.0
 10
156.7385530643898
 20
22.0374480108472
 30
0.0
 10
156.5476083752259
 20
21.85253482032191
 30
0.0
 10
156.4141915839032
 20
21.79939097275265
 30
0.0
 10
156.2809998788234
 20
21.79939097275265
 30
0.0
  0
LINE
  5
117
330
23
100
AcDbEntity
  8
0
  6
Continuous
 62
     7
370
    25
100
AcDbLine
 10
160.0786179654
 20
106.7993909728
 30
0.0
 11
160.0
 21
115.8081175083
 31
0.0
  0
LINE
  5
118
330
23
100
AcDbEntity
  8
0
  6
Continuous
 62
     7
370
    25
100
AcDbLine
 10
-160.0
 20
115.8081175083
 30
0.0
 11
-160.8160002161
 21
22.3037542405
 31
0.0
  0
LINE
  5
119
330
23
100
AcDbEntity
  8
0
  6
Continuous
 62
     7
370
    25
100
AcDbLine
 10
-60.0
 20
6.7993909728
 30
0.0
 11
-60.0
 21
1.0
 31
0.0
  0
LINE
  5
11A
330
23
100
AcDbEntity
  8
0
  6
Continuous
 62
     7
370
    25
100
AcDbLine
 10
60.0
 20
1.0
 30
0.0
 11
60.0
 21
6.7993909728
 31
0.0
  0
LINE
  5
11B
330
23
100
AcDbEntity
  8
0
  6
Continuous
 62
     7
370
    25
100
AcDbLine
 10
180.0
 20
21.7993909728
 30
0.0
 11
-160.3160192546
 21
21.7993909728
 31
0.0
  0
LINE
  5
11C
330
23
100
AcDbEntity
  8
0
  6
Continuous
 62
     7
370
    25
100
AcDbLine
 10
156.2055182435
 20
106.7993909728
 30
0.0
 11
156.7948514313
 21
22.3037542405
 31
0.0
  0
LINE
  5
11D
330
23
100
AcDbEntity
  8
0
  6
Continuous
 62
     7
370
    25
100
AcDbLine
 10
159.0000380769
 20
116.7993909728
 30
0.0
 11
-159.0000380769
 21
116.7993909728
 31
0.0
  0
LINE
  5
11E
330
23
100
AcDbEntity
  8
0
  6
Continuous
 62
     7
370
    25
100
AcDbLine
 10
59.0
 20
0.0
 30
0.0
 11
-59.0
 21
0.0
 31
0.0
  0
LINE
  5
11F
330
23
100
AcDbEntity
  8
0
  6
Continuous
 62
     7
370
    25
100
AcDbLine
 10
156.2055182435
 20
106.7993909728
 30
0.0
 11
180.0
 21
106.7993909728
 31
0.0
  0
LINE
  5
120
330
23
100
AcDbEntity
  8
0
  6
Continuous
 62
     7
370
    25
100
AcDbLine
 10
180.0
 20
106.7993909728
 30
0.0
 11
180.0
 21
21.7993909728
 31
0.0
  0
LINE
  5
121
330
23
100
AcDbEntity
  8
0
  6
Continuous
 62
    60
370
    25
100
AcDbLine
 10
156.7948514313
 20
22.3037542405
 30
0.0
 11
-160.8160002161
 21
22.3037542405
 31
0.0
  0
LINE
  5
122
330
23
100
AcDbEntity
  8
0
  6
Continuous
 62
    60
370
    25
100
AcDbLine
 10
160.0
 20
115.8081175083
 30
0.0
 11
-160.0
 21
115.8081175083
 31
0.0
  0
LINE
  5
123
330
23
100
AcDbEntity
  8
0
  6
Continuous
 62
    60
370
    25
100
AcDbLine
 10
60.0
 20
6.7993909728
 30
0.0
 11
-60.0
 21
6.7993909728
 31
0.0
  0
LINE
  5
124
330
23
100
AcDbEntity
  8
0
  6
Continuous
 62
    60
370
    25
100
AcDbLine
 10
60.0
 20
1.0
 30
0.0
 11
-60.0
 21
1.0
 31
0.0
  0
ARC
  5
125
330
23
100
AcDbEntity
  8
0
  6
Continuous
 62
     7
370
    25
100
AcDbCircle
 10
-160.3160192546
 20
22.2993909728
 30
0.0
 40
0.5000000000000593
100
AcDbArc
 50
179.5
 51
270.0
  0
ARC
  5
126
330
23
100
AcDbEntity
  8
0
  6
Continuous
 62
     7
370
    25
100
AcDbCircle
 10
-159.0000380769
 20
115.7993909728
 30
0.0
 40
1.000000000000014
100
AcDbArc
 50
90.0
 51
179.5
  0
ARC
  5
127
330
23
100
AcDbEntity
  8
0
  6
Continuous
 62
     7
370
    25
100
AcDbCircle
 10
159.0000380769
 20
115.7993909728
 30
0.0
 40
1.000000000000034
100
AcDbArc
 50
0.5
 51
90.0
  0
ARC
  5
128
330
23
100
AcDbEntity
  8
0
  6
Continuous
 62
     7
370
    25
100
AcDbCircle
 10
-75.0
 20
6.7993909728
 30
0.0
 40
15.0
100
AcDbArc
 50
0.0
 51
90.0
  0
ARC
  5
129
330
23
100
AcDbEntity
  8
0
  6
Continuous
 62
     7
370
    25
100
AcDbCircle
 10
75.0
 20
6.7993909728
 30
0.0
 40
14.99999999999997
100
AcDbArc
 50
90.0
 51
180.0
  0
ARC
  5
12A
330
23
100
AcDbEntity
  8
0
  6
Continuous
 62
     7
370
    25
100
AcDbCircle
 10
-59.0
 20
1.0
 30
0.0
 40
1.000000000000036
100
AcDbArc
 50
180.0
 51
270.0
  0
ARC
  5
12B
330
23
100
AcDbEntity
  8
0
  6
Continuous
 62
     7
370
    25
100
AcDbCircle
 10
59.0
 20
1.0
 30
0.0
 40
1.0
100
AcDbArc
 50
270.0
 51
0.0
  0
VIEWPORT
  5
354
330
23
100
AcDbEntity
  8
0
100
AcDbViewport
 10
0.0
 20
0.0
 30
0.0
 40
205.6
 41
156.0
 68
     1
 69
     1
 12
-69.9628822538
 22
9.5919903727
 13
0.0
 23
0.0
 14
10.0
 24
10.0
 15
10.0
 25
10.0
 16
0.0
 26
0.0
 36
1.0
 17
0.0
 27
0.0
 37
0.0
 42
50.0
 43
0.0
 44
0.0
 45
357.2134125293
 50
0.0
 51
0.0
 72
   100
 90
   557152
  1

281
     0
 71
     1
 74
     0
110
0.0
120
0.0
130
0.0
111
1.0
121
0.0
131
0.0
112
0.0
122
1.0
132
0.0
 79
     0
146
0.0
  0
ENDBLK
  5
25
330
23
100
AcDbEntity
  8
0
100
AcDbBlockEnd
  0
BLOCK
  5
12E
330
12C
100
AcDbEntity
  8
0
100
AcDbBlockBegin
  2
*Paper_Space1
 70
     0
 10
0.0
 20
0.0
 30
0.0
  3
*Paper_Space1
  1

  0
LINE
  5
146
330
12C
100
AcDbEntity
  8
0
  6
Continuous
 62
     7
370
    25
100
AcDbLine
 10
160.8160002161
 20
22.3037542405
 30
0.0
 11
160.0
 21
115.8081175083
 31
0.0
  0
LINE
  5
147
330
12C
100
AcDbEntity
  8
0
  6
Continuous
 62
     7
370
    25
100
AcDbLine
 10
-160.0
 20
115.8081175083
 30
0.0
 11
-160.8160002161
 21
22.3037542405
 31
0.0
  0
LINE
  5
148
330
12C
100
AcDbEntity
  8
0
  6
Continuous
 62
     7
370
    25
100
AcDbLine
 10
-60.0
 20
6.7993909728
 30
0.0
 11
-60.0
 21
1.0
 31
0.0
  0
LINE
  5
149
330
12C
100
AcDbEntity
  8
0
  6
Continuous
 62
     7
370
    25
100
AcDbLine
 10
60.0
 20
1.0
 30
0.0
 11
60.0
 21
6.7993909728
 31
0.0
  0
LINE
  5
14A
330
12C
100
AcDbEntity
  8
0
  6
Continuous
 62
     7
370
    25
100
AcDbLine
 10
160.3160192546
 20
21.7993909728
 30
0.0
 11
-300.7417837622
 21
21.7993909728
 31
0.0
  0
LINE
  5
14B
330
12C
100
AcDbEntity
  8
0
  6
Continuous
 62
     7
370
    25
100
AcDbLine
 10
159.0000380769
 20
116.7993909728
 30
0.0
 11
-159.0000380769
 21
116.7993909728
 31
0.0
  0
LINE
  5
14C
330
12C
100
AcDbEntity
  8
0
  6
Continuous
 62
     7
370
    25
100
AcDbLine
 10
59.0
 20
0.0
 30
0.0
 11
-58.9999999924
 21
0.0
 31
0.0
  0
LINE
  5
14D
330
12C
100
AcDbEntity
  8
0
  6
Continuous
 62
     7
370
    25
100
AcDbLine
 10
-300.0
 20
106.7993909728
 30
0.0
 11
-300.7417837622
 21
21.7993909728
 31
0.0
  0
LINE
  5
14E
330
12C
100
AcDbEntity
  8
0
  6
Continuous
 62
     7
370
    25
100
AcDbLine
 10
-300.0
 20
106.7993909728
 30
0.0
 11
-160.0786179654
 21
106.7993909728
 31
0.0
  0
LINE
  5
14F
330
12C
100
AcDbEntity
  8
0
  6
Continuous
 62
    60
370
    25
100
AcDbLine
 10
160.8160002161
 20
22.3037542405
 30
0.0
 11
-160.8160002161
 21
22.3037542405
 31
0.0
  0
LINE
  5
150
330
12C
100
AcDbEntity
  8
0
  6
Continuous
 62
    60
370
    25
100
AcDbLine
 10
160.0
 20
115.8081175083
 30
0.0
 11
-160.0
 21
115.8081175083
 31
0.0
  0
LINE
  5
151
330
12C
100
AcDbEntity
  8
0
  6
Continuous
 62
    60
370
    25
100
AcDbLine
 10
60.0
 20
6.7993909728
 30
0.0
 11
-60.0
 21
6.7993909728
 31
0.0
  0
LINE
  5
152
330
12C
100
AcDbEntity
  8
0
  6
Continuous
 62
    60
370
    25
100
AcDbLine
 10
60.0
 20
1.0
 30
0.0
 11
-60.0
 21
1.0
 31
0.0
  0
ARC
  5
153
330
12C
100
AcDbEntity
  8
0
  6
Continuous
 62
     7
370
    25
100
AcDbCircle
 10
-160.3160192546
 20
22.2993909728
 30
0.0
 40
0.500000000000031
100
AcDbArc
 50
179.5
 51
270.0
  0
ARC
  5
154
330
12C
100
AcDbEntity
  8
0
  6
Continuous
 62
     7
370
    25
100
AcDbCircle
 10
160.3160192546
 20
22.2993909728
 30
0.0
 40
0.5000000000000029
100
AcDbArc
 50
270.0
 51
0.5
  0
ARC
  5
155
330
12C
100
AcDbEntity
  8
0
  6
Continuous
 62
     7
370
    25
100
AcDbCircle
 10
-159.0000380769
 20
115.7993909728
 30
0.0
 40
1.000000000000034
100
AcDbArc
 50
90.0
 51
179.5
  0
ARC
  5
156
330
12C
100
AcDbEntity
  8
0
  6
Continuous
 62
     7
370
    25
100
AcDbCircle
 10
159.0000380769
 20
115.7993909728
 30
0.0
 40
1.000000000000034
100
AcDbArc
 50
0.5
 51
90.0
  0
ARC
  5
157
330
12C
100
AcDbEntity
  8
0
  6
Continuous
 62
     7
370
    25
100
AcDbCircle
 10
-75.0
 20
6.7993909728
 30
0.0
 40
14.99999999999996
100
AcDbArc
 50
0.0
 51
90.0
  0
ARC
  5
158
330
12C
100
AcDbEntity
  8
0
  6
Continuous
 62
     7
370
    25
100
AcDbCircle
 10
75.0
 20
6.7993909728
 30
0.0
 40
14.99999999999998
100
AcDbArc
 50
90.0
 51
180.0
  0
ARC
  5
159
330
12C
100
AcDbEntity
  8
0
  6
Continuous
 62
     7
370
    25
100
AcDbCircle
 10
-59.0
 20
1.0
 30
0.0
 40
1.000000000000009
100
AcDbArc
 50
180.0
 51
270.0
  0
ARC
  5
15A
330
12C
100
AcDbEntity
  8
0
  6
Continuous
 62
     7
370
    25
100
AcDbCircle
 10
59.0
 20
1.0
 30
0.0
 40
0.9999999999999717
100
AcDbArc
 50
270.0
 51
0.0
  0
VIEWPORT
  5
356
330
12C
100
AcDbEntity
  8
0
100
AcDbViewport
 10
0.0
 20
0.0
 30
0.0
 40
205.6
 41
156.0
 68
     1
 69
     1
 12
-69.9628822538
 22
9.5919903727
 13
0.0
 23
0.0
 14
10.0
 24
10.0
 15
10.0
 25
10.0
 16
0.0
 26
0.0
 36
1.0
 17
0.0
 27
0.0
 37
0.0
 42
50.0
 43
0.0
 44
0.0
 45
357.2134125293
 50
0.0
 51
0.0
 72
   100
 90
   557152
  1

281
     0
 71
     1
 74
     0
110
0.0
120
0.0
130
0.0
111
1.0
121
0.0
131
0.0
112
0.0
122
1.0
132
0.0
 79
     0
146
0.0
  0
ENDBLK
  5
12F
330
12C
100
AcDbEntity
  8
0
100
AcDbBlockEnd
  0
BLOCK
  5
15D
330
15B
100
AcDbEntity
  8
0
100
AcDbBlockBegin
  2
*Paper_Space2
 70
     0
 10
0.0
 20
0.0
 30
0.0
  3
*Paper_Space2
  1

  0
CIRCLE
  5
16B
330
15B
100
AcDbEntity
  8
0
  6
Continuous
 62
     7
370
    25
100
AcDbCircle
 10
257.5
 20
71.7993909728
 30
0.0
 40
7.000000000000057
  0
CIRCLE
  5
16E
330
15B
100
AcDbEntity
  8
0
  6
Continuous
 62
     7
370
    25
100
AcDbCircle
 10
7.5
 20
71.7993909728
 30
0.0
 40
7.000000000000014
  0
LINE
  5
177
330
15B
100
AcDbEntity
  8
0
  6
Continuous
 62
     7
370
    25
100
AcDbLine
 10
160.0786179654
 20
106.7993909728
 30
0.0
 11
160.0
 21
115.8081175083
 31
0.0
  0
LINE
  5
178
330
15B
100
AcDbEntity
  8
0
  6
Continuous
 62
     7
370
    25
100
AcDbLine
 10
-160.0
 20
115.8081175083
 30
0.0
 11
-160.8160002161
 21
22.3037542405
 31
0.0
  0
LINE
  5
179
330
15B
100
AcDbEntity
  8
0
  6
Continuous
 62
     7
370
    25
100
AcDbLine
 10
-60.0
 20
6.7993909728
 30
0.0
 11
-60.0
 21
1.0
 31
0.0
  0
LINE
  5
17A
330
15B
100
AcDbEntity
  8
0
  6
Continuous
 62
     7
370
    25
100
AcDbLine
 10
60.0
 20
1.0
 30
0.0
 11
60.0
 21
6.7993909728
 31
0.0
  0
LINE
  5
17B
330
15B
100
AcDbEntity
  8
0
  6
Continuous
 62
     7
370
    25
100
AcDbLine
 10
-160.3160192546
 20
21.7993909728
 30
0.0
 11
300.7417837622
 21
21.7993909728
 31
0.0
  0
LINE
  5
17C
330
15B
100
AcDbEntity
  8
0
  6
Continuous
 62
     7
370
    25
100
AcDbLine
 10
300.0
 20
106.7993909728
 30
0.0
 11
300.7417837622
 21
21.7993909728
 31
0.0
  0
LINE
  5
17D
330
15B
100
AcDbEntity
  8
0
  6
Continuous
 62
     7
370
    25
100
AcDbLine
 10
-35.0
 20
106.7993909728
 30
0.0
 11
300.0
 21
106.7993909728
 31
0.0
  0
LINE
  5
17E
330
15B
100
AcDbEntity
  8
0
  6
Continuous
 62
     7
370
    25
100
AcDbLine
 10
-35.0
 20
106.7993909728
 30
0.0
 11
-35.7417837622
 21
21.7993909728
 31
0.0
  0
LINE
  5
17F
330
15B
100
AcDbEntity
  8
0
  6
Continuous
 62
     7
370
    25
100
AcDbLine
 10
159.0000380769
 20
116.7993909728
 30
0.0
 11
-159.0000380769
 21
116.7993909728
 31
0.0
  0
LINE
  5
180
330
15B
100
AcDbEntity
  8
0
  6
Continuous
 62
     7
370
    25
100
AcDbLine
 10
58.9999999924
 20
0.0
 30
0.0
 11
-59.0
 21
0.0
 31
0.0
  0
LINE
  5
181
330
15B
100
AcDbEntity
  8
0
  6
Continuous
 62
    60
370
    25
100
AcDbLine
 10
160.0
 20
115.8081175083
 30
0.0
 11
-160.0
 21
115.8081175083
 31
0.0
  0
LINE
  5
182
330
15B
100
AcDbEntity
  8
0
  6
Continuous
 62
    60
370
    25
100
AcDbLine
 10
-35.7373822507
 20
22.3037542405
 30
0.0
 11
-160.8160002161
 21
22.3037542405
 31
0.0
  0
LINE
  5
183
330
15B
100
AcDbEntity
  8
0
  6
Continuous
 62
    60
370
    25
100
AcDbLine
 10
60.0
 20
6.7993909728
 30
0.0
 11
-60.0
 21
6.7993909728
 31
0.0
  0
LINE
  5
184
330
15B
100
AcDbEntity
  8
0
  6
Continuous
 62
    60
370
    25
100
AcDbLine
 10
60.0
 20
1.0
 30
0.0
 11
-60.0
 21
1.0
 31
0.0
  0
ARC
  5
185
330
15B
100
AcDbEntity
  8
0
  6
Continuous
 62
     7
370
    25
100
AcDbCircle
 10
-159.0000380769
 20
115.7993909728
 30
0.0
 40
1.000000000000014
100
AcDbArc
 50
90.0
 51
179.5
  0
ARC
  5
186
330
15B
100
AcDbEntity
  8
0
  6
Continuous
 62
     7
370
    25
100
AcDbCircle
 10
159.0000380769
 20
115.7993909728
 30
0.0
 40
1.000000000000034
100
AcDbArc
 50
0.5
 51
90.0
  0
ARC
  5
187
330
15B
100
AcDbEntity
  8
0
  6
Continuous
 62
     7
370
    25
100
AcDbCircle
 10
-160.3160192546
 20
22.2993909728
 30
0.0
 40
0.500000000000031
100
AcDbArc
 50
179.5
 51
270.0
  0
ARC
  5
188
330
15B
100
AcDbEntity
  8
0
  6
Continuous
 62
     7
370
    25
100
AcDbCircle
 10
-75.0
 20
6.7993909728
 30
0.0
 40
14.99999999999999
100
AcDbArc
 50
0.0
 51
90.0
  0
ARC
  5
189
330
15B
100
AcDbEntity
  8
0
  6
Continuous
 62
     7
370
    25
100
AcDbCircle
 10
75.0
 20
6.7993909728
 30
0.0
 40
14.99999999999996
100
AcDbArc
 50
90.0
 51
180.0
  0
ARC
  5
18A
330
15B
100
AcDbEntity
  8
0
  6
Continuous
 62
     7
370
    25
100
AcDbCircle
 10
-59.0
 20
1.0
 30
0.0
 40
0.9999999999999787
100
AcDbArc
 50
180.0
 51
270.0
  0
ARC
  5
18B
330
15B
100
AcDbEntity
  8
0
  6
Continuous
 62
     7
370
    25
100
AcDbCircle
 10
59.0
 20
1.0
 30
0.0
 40
1.0
100
AcDbArc
 50
270.0
 51
0.0
  0
VIEWPORT
  5
358
330
15B
100
AcDbEntity
  8
0
100
AcDbViewport
 10
0.0
 20
0.0
 30
0.0
 40
205.6
 41
156.0
 68
     1
 69
     1
 12
-69.9628822538
 22
9.5919903727
 13
0.0
 23
0.0
 14
10.0
 24
10.0
 15
10.0
 25
10.0
 16
0.0
 26
0.0
 36
1.0
 17
0.0
 27
0.0
 37
0.0
 42
50.0
 43
0.0
 44
0.0
 45
357.2134125293
 50
0.0
 51
0.0
 72
   100
 90
   557152
  1

281
     0
 71
     1
 74
     0
110
0.0
120
0.0
130
0.0
111
1.0
121
0.0
131
0.0
112
0.0
122
1.0
132
0.0
 79
     0
146
0.0
  0
ENDBLK
  5
15E
330
15B
100
AcDbEntity
  8
0
100
AcDbBlockEnd
  0
BLOCK
  5
18E
330
18C
100
AcDbEntity
  8
0
100
AcDbBlockBegin
  2
*Paper_Space3
 70
     0
 10
0.0
 20
0.0
 30
0.0
  3
*Paper_Space3
  1

  0
LINE
  5
1A6
330
18C
100
AcDbEntity
  8
0
  6
Continuous
 62
     7
370
    25
100
AcDbLine
 10
160.8160002161
 20
22.3037542405
 30
0.0
 11
160.0
 21
115.8081175083
 31
0.0
  0
LINE
  5
1A7
330
18C
100
AcDbEntity
  8
0
  6
Continuous
 62
     7
370
    25
100
AcDbLine
 10
-160.0
 20
115.8081175083
 30
0.0
 11
-160.0786179654
 21
106.7993909728
 31
0.0
  0
LINE
  5
1A8
330
18C
100
AcDbEntity
  8
0
  6
Continuous
 62
     7
370
    25
100
AcDbLine
 10
-60.0
 20
6.7993909728
 30
0.0
 11
-60.0
 21
1.0
 31
0.0
  0
LINE
  5
1A9
330
18C
100
AcDbEntity
  8
0
  6
Continuous
 62
     7
370
    25
100
AcDbLine
 10
60.0
 20
1.0
 30
0.0
 11
60.0
 21
6.7993909728
 31
0.0
  0
LINE
  5
1AA
330
18C
100
AcDbEntity
  8
0
  6
Continuous
 62
     7
370
    25
100
AcDbLine
 10
-180.0
 20
106.7993909728
 30
0.0
 11
-180.0
 21
21.7993909728
 31
0.0
  0
LINE
  5
1AB
330
18C
100
AcDbEntity
  8
0
  6
Continuous
 62
     7
370
    25
100
AcDbLine
 10
-180.0
 20
106.7993909728
 30
0.0
 11
-55.0
 21
106.7993909728
 31
0.0
  0
LINE
  5
1AC
330
18C
100
AcDbEntity
  8
0
  6
Continuous
 62
     7
370
    25
100
AcDbLine
 10
160.3160192546
 20
21.7993909728
 30
0.0
 11
-180.0
 21
21.7993909728
 31
0.0
  0
LINE
  5
1AD
330
18C
100
AcDbEntity
  8
0
  6
Continuous
 62
     7
370
    25
100
AcDbLine
 10
-55.0
 20
106.7993909728
 30
0.0
 11
-54.2582162378
 21
21.7993909728
 31
0.0
  0
LINE
  5
1AE
330
18C
100
AcDbEntity
  8
0
  6
Continuous
 62
     7
370
    25
100
AcDbLine
 10
159.0000380769
 20
116.7993909728
 30
0.0
 11
-159.0000380769
 21
116.7993909728
 31
0.0
  0
LINE
  5
1AF
330
18C
100
AcDbEntity
  8
0
  6
Continuous
 62
     7
370
    25
100
AcDbLine
 10
59.0
 20
0.0
 30
0.0
 11
-59.0
 21
0.0
 31
0.0
  0
LINE
  5
1B0
330
18C
100
AcDbEntity
  8
0
  6
Continuous
 62
    60
370
    25
100
AcDbLine
 10
160.8160002161
 20
22.3037542405
 30
0.0
 11
-54.2626177493
 21
22.3037542405
 31
0.0
  0
LINE
  5
1B1
330
18C
100
AcDbEntity
  8
0
  6
Continuous
 62
    60
370
    25
100
AcDbLine
 10
160.0
 20
115.8081175083
 30
0.0
 11
-160.0
 21
115.8081175083
 31
0.0
  0
LINE
  5
1B2
330
18C
100
AcDbEntity
  8
0
  6
Continuous
 62
    60
370
    25
100
AcDbLine
 10
60.0
 20
6.7993909728
 30
0.0
 11
-60.0
 21
6.7993909728
 31
0.0
  0
LINE
  5
1B3
330
18C
100
AcDbEntity
  8
0
  6
Continuous
 62
    60
370
    25
100
AcDbLine
 10
60.0
 20
1.0
 30
0.0
 11
-60.0
 21
1.0
 31
0.0
  0
ARC
  5
1B4
330
18C
100
AcDbEntity
  8
0
  6
Continuous
 62
     7
370
    25
100
AcDbCircle
 10
160.3160192546
 20
22.2993909728
 30
0.0
 40
0.5000000000000029
100
AcDbArc
 50
270.0
 51
0.5
  0
ARC
  5
1B5
330
18C
100
AcDbEntity
  8
0
  6
Continuous
 62
     7
370
    25
100
AcDbCircle
 10
-159.0000380769
 20
115.7993909728
 30
0.0
 40
1.000000000000014
100
AcDbArc
 50
90.0
 51
179.5
  0
ARC
  5
1B6
330
18C
100
AcDbEntity
  8
0
  6
Continuous
 62
     7
370
    25
100
AcDbCircle
 10
159.0000380769
 20
115.7993909728
 30
0.0
 40
1.000000000000034
100
AcDbArc
 50
0.5
 51
90.0
  0
ARC
  5
1B7
330
18C
100
AcDbEntity
  8
0
  6
Continuous
 62
     7
370
    25
100
AcDbCircle
 10
-75.0
 20
6.7993909728
 30
0.0
 40
14.99999999999998
100
AcDbArc
 50
0.0
 51
90.0
  0
ARC
  5
1B8
330
18C
100
AcDbEntity
  8
0
  6
Continuous
 62
     7
370
    25
100
AcDbCircle
 10
75.0
 20
6.7993909728
 30
0.0
 40
14.99999999999998
100
AcDbArc
 50
90.0
 51
180.0
  0
ARC
  5
1B9
330
18C
100
AcDbEntity
  8
0
  6
Continuous
 62
     7
370
    25
100
AcDbCircle
 10
-59.0
 20
1.0
 30
0.0
 40
1.000000000000014
100
AcDbArc
 50
180.0
 51
270.0
  0
ARC
  5
1BA
330
18C
100
AcDbEntity
  8
0
  6
Continuous
 62
     7
370
    25
100
AcDbCircle
 10
59.0
 20
1.0
 30
0.0
 40
1.000000000000021
100
AcDbArc
 50
270.0
 51
0.0
  0
VIEWPORT
  5
35A
330
18C
100
AcDbEntity
  8
0
100
AcDbViewport
 10
0.0
 20
0.0
 30
0.0
 40
205.6
 41
156.0
 68
     1
 69
     1
 12
-69.9628822538
 22
9.5919903727
 13
0.0
 23
0.0
 14
10.0
 24
10.0
 15
10.0
 25
10.0
 16
0.0
 26
0.0
 36
1.0
 17
0.0
 27
0.0
 37
0.0
 42
50.0
 43
0.0
 44
0.0
 45
357.2134125293
 50
0.0
 51
0.0
 72
   100
 90
   557152
  1

281
     0
 71
     1
 74
     0
110
0.0
120
0.0
130
0.0
111
1.0
121
0.0
131
0.0
112
0.0
122
1.0
132
0.0
 79
     0
146
0.0
  0
ENDBLK
  5
18F
330
18C
100
AcDbEntity
  8
0
100
AcDbBlockEnd
  0
BLOCK
  5
1BD
330
1BB
100
AcDbEntity
  8
0
100
AcDbBlockBegin
  2
*Paper_Space4
 70
     0
 10
0.0
 20
0.0
 30
0.0
  3
*Paper_Space4
  1

  0
CIRCLE
  5
1BF
330
1BB
100
AcDbEntity
  8
0
  6
Continuous
 62
     7
370
    25
100
AcDbCircle
 10
0.0
 20
0.0
 30
0.0
 40
59.0
  0
CIRCLE
  5
1C0
330
1BB
100
AcDbEntity
  8
0
  6
Continuous
 62
     7
370
    25
100
AcDbCircle
 10
0.0
 20
0.0
 30
0.0
 40
23.00000000000001
  0
CIRCLE
  5
1C1
330
1BB
100
AcDbEntity
  8
0
  6
Continuous
 62
     7
370
    25
100
AcDbCircle
 10
0.0
 20
0.0
 30
0.0
 40
59.99999999999998
  0
LWPOLYLINE
  5
1E2
330
1BB
100
AcDbEntity
  8
0
  6
Continuous
 62
     7
370
    25
100
AcDbPolyline
 90
       37
 70
   128
 43
0.0
 10
-7.5
 20
-168.8740053725
 10
-8.7155372437
 20
-168.8712206116
 10
-9.8941410033
 20
-168.8629509424
 10
-11.0
 20
-168.8494476346
 10
-11.9995132678
 20
-168.8311209795
 10
-12.8623111018
 20
-168.8085278231
 10
-13.5621778265
 20
-168.782354647
 10
-14.0778483455
 20
-168.7533967101
 10
-14.3936542711
 20
-168.7225338845
 10
-14.5
 20
-168.6907039215
 10
-14.3936542711
 20
-168.6588739586
 10
-14.0778483455
 20
-168.628011133
 10
-13.5621778265
 20
-168.599053196
 10
-12.8623111018
 20
-168.57288002
 10
-11.9995132678
 20
-168.5502868636
 10
-11.0
 20
-168.5319602084
 10
-9.8941410033
 20
-168.5184569007
 10
-8.7155372437
 20
-168.5101872315
 10
-7.5
 20
-168.5074024706
 10
-6.2844627563
 20
-168.5101872315
 10
-5.1058589967
 20
-168.5184569007
 10
-4.0
 20
-168.5319602084
 10
-3.0004867322
 20
-168.5502868636
 10
-2.1376888982
 20
-168.57288002
 10
-1.4378221735
 20
-168.599053196
 10
-0.9221516545
 20
-168.628011133
 10
-0.6063457289
 20
-168.6588739586
 10
-0.5
 20
-168.6907039215
 10
-0.6063457289
 20
-168.7225338845
 10
-0.9221516545
 20
-168.7533967101
 10
-1.4378221735
 20
-168.782354647
 10
-2.1376888982
 20
-168.8085278231
 10
-3.0004867322
 20
-168.8311209795
 10
-4.0
 20
-168.8494476346
 10
-5.1058589967
 20
-168.8629509424
 10
-6.2844627563
 20
-168.8712206116
 10
-7.5
 20
-168.8740053725
  0
LWPOLYLINE
  5
1E3
330
1BB
100
AcDbEntity
  8
0
  6
Continuous
 62
     7
370
    25
100
AcDbPolyline
 90
       37
 70
   128
 43
0.0
 10
-257.5
 20
-168.8740053725
 10
-258.7155372437
 20
-168.8712206116
 10
-259.8941410033
 20
-168.8629509424
 10
-261.0
 20
-168.8494476346
 10
-261.9995132678
 20
-168.8311209795
 10
-262.8623111018
 20
-168.8085278231
 10
-263.5621778265
 20
-168.782354647
 10
-264.0778483455
 20
-168.7533967101
 10
-264.3936542711
 20
-168.7225338845
 10
-264.5
 20
-168.6907039215
 10
-264.3936542711
 20
-168.6588739586
 10
-264.0778483455
 20
-168.628011133
 10
-263.5621778265
 20
-168.599053196
 10
-262.8623111018
 20
-168.57288002
 10
-261.9995132678
 20
-168.5502868636
 10
-261.0
 20
-168.5319602084
 10
-259.8941410033
 20
-168.5184569007
 10
-258.7155372437
 20
-168.5101872315
 10
-257.5
 20
-168.5074024706
 10
-256.2844627563
 20
-168.5101872315
 10
-255.1058589967
 20
-168.5184569007
 10
-254.0
 20
-168.5319602084
 10
-253.0004867322
 20
-168.5502868636
 10
-252.1376888982
 20
-168.57288002
 10
-251.4378221735
 20
-168.599053196
 10
-250.9221516545
 20
-168.628011133
 10
-250.6063457289
 20
-168.6588739586
 10
-250.5
 20
-168.6907039215
 10
-250.6063457289
 20
-168.7225338845
 10
-250.9221516545
 20
-168.7533967101
 10
-251.4378221735
 20
-168.782354647
 10
-252.1376888982
 20
-168.8085278231
 10
-253.0004867322
 20
-168.8311209795
 10
-254.0
 20
-168.8494476346
 10
-255.1058589967
 20
-168.8629509424
 10
-256.2844627563
 20
-168.8712206116
 10
-257.5
 20
-168.8740053725
  0
LINE
  5
1FB
330
1BB
100
AcDbEntity
  8
0
  6
Continuous
 62
     7
370
    25
100
AcDbLine
 10
0.0
 20
-75.0
 30
0.0
 11
9.2417837622
 21
-75.0
 31
0.0
  0
LINE
  5
1FC
330
1BB
100
AcDbEntity
  8
0
  6
Continuous
 62
     7
370
    25
100
AcDbLine
 10
-274.2417837622
 20
-64.2582162378
 30
0.0
 11
-43.0158169757
 21
-64.2582162378
 31
0.0
  0
LINE
  5
1FD
330
1BB
100
AcDbEntity
  8
0
  6
Continuous
 62
     7
370
    25
100
AcDbLine
 10
-290.7417837622
 20
-153.5
 30
0.0
 11
-290.7417837622
 21
-80.7582162378
 31
0.0
  0
LINE
  5
1FE
330
1BB
100
AcDbEntity
  8
0
  6
Continuous
 62
     7
370
    25
100
AcDbLine
 10
9.2417837622
 20
-170.0
 30
0.0
 11
-274.2417837622
 21
-170.0
 31
0.0
  0
LINE
  5
1FF
330
1BB
100
AcDbEntity
  8
0
  6
Continuous
 62
     7
370
    25
100
AcDbLine
 10
25.7417837622
 20
-91.5
 30
0.0
 11
25.7417837622
 21
-153.5
 31
0.0
  0
LINE
  5
200
330
1BB
100
AcDbEntity
  8
0
  6
Continuous
 62
     7
370
    25
100
AcDbLine
 10
35.7417837622
 20
-180.0
 30
0.0
 11
-300.7417837622
 21
-180.0
 31
0.0
  0
LINE
  5
201
330
1BB
100
AcDbEntity
  8
0
  6
Continuous
 62
     7
370
    25
100
AcDbLine
 10
-300.7417837622
 20
-180.0
 30
0.0
 11
-300.7417837622
 21
-54.2582162378
 31
0.0
  0
LINE
  5
202
330
1BB
100
AcDbEntity
  8
0
  6
Continuous
 62
     7
370
    25
100
AcDbLine
 10
35.7417837622
 20
-156.2809998788
 30
0.0
 11
35.7417837622
 21
-180.0
 31
0.0
  0
LINE
  5
203
330
1BB
100
AcDbEntity
  8
0
  6
Continuous
 62
     7
370
    25
100
AcDbLine
 10
-300.7417837622
 20
-54.2582162378
 30
0.0
 11
-150.8551358102
 21
-54.2582162378
 31
0.0
  0
LINE
  5
204
330
1BB
100
AcDbEntity
  8
0
  6
Continuous
 62
     7
370
    25
100
AcDbLine
 10
-36.1452208467
 20
-67.8593077226
 30
0.0
 11
-35.2588663736
 21
-66.1952592113
 31
0.0
  0
LINE
  5
205
330
1BB
100
AcDbEntity
  8
0
  6
Continuous
 62
     7
370
    25
100
AcDbLine
 10
-43.0158169757
 20
-66.1436025908
 30
0.0
 11
-43.0158169757
 21
-64.2582162378
 31
0.0
  0
LINE
  5
206
330
1BB
100
AcDbEntity
  8
0
  6
Continuous
 62
     7
370
    25
100
AcDbLine
 10
0.0
 20
-76.885386353
 30
0.0
 11
0.0
 21
-75.0
 31
0.0
  0
LINE
  5
207
330
1BB
100
AcDbEntity
  8
0
  6
Continuous
 62
     7
370
    25
100
AcDbLine
 10
23.8563974092
 20
-153.5
 30
0.0
 11
25.7417837622
 21
-153.5
 31
0.0
  0
LINE
  5
208
330
1BB
100
AcDbEntity
  8
0
  6
Continuous
 62
     7
370
    25
100
AcDbLine
 10
23.8563974092
 20
-91.5
 30
0.0
 11
23.8563974092
 21
-153.5
 31
0.0
  0
LINE
  5
209
330
1BB
100
AcDbEntity
  8
0
  6
Continuous
 62
     7
370
    25
100
AcDbLine
 10
23.8563974092
 20
-91.5
 30
0.0
 11
25.7417837622
 21
-91.5
 31
0.0
  0
LINE
  5
20A
330
1BB
100
AcDbEntity
  8
0
  6
Continuous
 62
     7
370
    25
100
AcDbLine
 10
9.2417837622
 20
-168.114613647
 30
0.0
 11
9.2417837622
 21
-170.0
 31
0.0
  0
LINE
  5
20B
330
1BB
100
AcDbEntity
  8
0
  6
Continuous
 62
     7
370
    25
100
AcDbLine
 10
9.2417837622
 20
-76.885386353
 30
0.0
 11
9.2417837622
 21
-75.0
 31
0.0
  0
LINE
  5
20C
330
1BB
100
AcDbEntity
  8
0
  6
Continuous
 62
     7
370
    25
100
AcDbLine
 10
-274.2417837622
 20
-168.114613647
 30
0.0
 11
-274.2417837622
 21
-170.0
 31
0.0
  0
LINE
  5
20D
330
1BB
100
AcDbEntity
  8
0
  6
Continuous
 62
     7
370
    25
100
AcDbLine
 10
9.2417837622
 20
-168.114613647
 30
0.0
 11
-274.2417837622
 21
-168.114613647
 31
0.0
  0
LINE
  5
20E
330
1BB
100
AcDbEntity
  8
0
  6
Continuous
 62
     7
370
    25
100
AcDbLine
 10
0.0
 20
-76.885386353
 30
0.0
 11
9.2417837622
 21
-76.885386353
 31
0.0
  0
LINE
  5
20F
330
1BB
100
AcDbEntity
  8
0
  6
Continuous
 62
     7
370
    25
100
AcDbLine
 10
-274.2417837622
 20
-66.1436025908
 30
0.0
 11
-43.0158169757
 21
-66.1436025908
 31
0.0
  0
LINE
  5
210
330
1BB
100
AcDbEntity
  8
0
  6
Continuous
 62
     7
370
    25
100
AcDbLine
 10
-274.2417837622
 20
-66.1436025908
 30
0.0
 11
-274.2417837622
 21
-64.2582162378
 31
0.0
  0
LINE
  5
211
330
1BB
100
AcDbEntity
  8
0
  6
Continuous
 62
     7
370
    25
100
AcDbLine
 10
-288.8563974092
 20
-80.7582162378
 30
0.0
 11
-290.7417837622
 21
-80.7582162378
 31
0.0
  0
LINE
  5
212
330
1BB
100
AcDbEntity
  8
0
  6
Continuous
 62
     7
370
    25
100
AcDbLine
 10
-288.8563974092
 20
-153.5
 30
0.0
 11
-288.8563974092
 21
-80.7582162378
 31
0.0
  0
LINE
  5
213
330
1BB
100
AcDbEntity
  8
0
  6
Continuous
 62
     7
370
    25
100
AcDbLine
 10
-288.8563974092
 20
-153.5
 30
0.0
 11
-290.7417837622
 21
-153.5
 31
0.0
  0
LINE
  5
214
330
1BB
100
AcDbEntity
  8
0
  6
Continuous
 62
     7
370
    25
100
AcDbLine
 10
-19.7
 20
-2.0
 30
0.0
 11
-19.7
 21
2.0
 31
0.0
  0
LINE
  5
215
330
1BB
100
AcDbEntity
  8
0
  6
Continuous
 62
     7
370
    25
100
AcDbLine
 10
-22.6495033058
 20
-4.0
 30
0.0
 11
-21.7
 21
-4.0
 31
0.0
  0
LINE
  5
216
330
1BB
100
AcDbEntity
  8
0
  6
Continuous
 62
     7
370
    25
100
AcDbLine
 10
-21.7
 20
4.0
 30
0.0
 11
-22.6495033058
 21
4.0
 31
0.0
  0
LINE
  5
217
330
1BB
100
AcDbEntity
  8
0
  6
Continuous
 62
     7
370
    25
100
AcDbLine
 10
14.788853268
 20
-17.6150452459
 30
0.0
 11
14.3141016151
 21
-16.7927512621
 31
0.0
  0
LINE
  5
218
330
1BB
100
AcDbEntity
  8
0
  6
Continuous
 62
     7
370
    25
100
AcDbLine
 10
7.3858983849
 20
-20.7927512621
 30
0.0
 11
7.8606500378
 21
-21.6150452459
 31
0.0
  0
LINE
  5
219
330
1BB
100
AcDbEntity
  8
0
  6
Continuous
 62
     7
370
    25
100
AcDbLine
 10
11.5820508076
 20
-16.0607004546
 30
0.0
 11
8.1179491924
 21
-18.0607004546
 31
0.0
  0
LINE
  5
21A
330
1BB
100
AcDbEntity
  8
0
  6
Continuous
 62
     7
370
    25
100
AcDbLine
 10
7.8606500378
 20
21.6150452459
 30
0.0
 11
7.3858983849
 21
20.7927512621
 31
0.0
  0
LINE
  5
21B
330
1BB
100
AcDbEntity
  8
0
  6
Continuous
 62
     7
370
    25
100
AcDbLine
 10
14.3141016151
 20
16.7927512621
 30
0.0
 11
14.788853268
 21
17.6150452459
 31
0.0
  0
LINE
  5
21C
330
1BB
100
AcDbEntity
  8
0
  6
Continuous
 62
     7
370
    25
100
AcDbLine
 10
8.1179491924
 20
18.0607004546
 30
0.0
 11
11.5820508076
 21
16.0607004546
 31
0.0
  0
ARC
  5
21D
330
1BB
100
AcDbEntity
  8
0
  6
Continuous
 62
     7
370
    25
100
AcDbCircle
 10
0.0
 20
0.0
 30
0.0
 40
75.00000000000013
100
AcDbArc
 50
270.0
 51
241.9580293859
  0
ARC
  5
21E
330
1BB
100
AcDbEntity
  8
0
  6
Continuous
 62
     7
370
    25
100
AcDbCircle
 10
0.0
 20
0.0
 30
0.0
 40
160.3160192545639
100
AcDbArc
 50
282.8821133762
 51
199.7821865645
  0
ARC
  5
21F
330
1BB
100
AcDbEntity
  8
0
  6
Continuous
 62
     7
370
    25
100
AcDbCircle
 10
0.0
 20
0.0
 30
0.0
 40
160.8160002160962
100
AcDbArc
 50
282.8397686729
 51
199.71979566
  0
ARC
  5
220
330
1BB
100
AcDbEntity
  8
0
  6
Continuous
 62
     7
370
    25
100
AcDbCircle
 10
-43.0158169757
 20
-80.7582162378
 30
0.0
 40
16.49999999999933
100
AcDbArc
 50
61.9580293859
 51
90.0
  0
ARC
  5
221
330
1BB
100
AcDbEntity
  8
0
  6
Continuous
 62
     7
370
    25
100
AcDbCircle
 10
-274.2417837622
 20
-80.7582162378
 30
0.0
 40
16.5
100
AcDbArc
 50
90.0
 51
180.0
  0
ARC
  5
222
330
1BB
100
AcDbEntity
  8
0
  6
Continuous
 62
     7
370
    25
100
AcDbCircle
 10
-274.2417837622
 20
-153.5
 30
0.0
 40
16.50000000000006
100
AcDbArc
 50
180.0
 51
270.0
  0
ARC
  5
223
330
1BB
100
AcDbEntity
  8
0
  6
Continuous
 62
     7
370
    25
100
AcDbCircle
 10
9.2417837622
 20
-153.5
 30
0.0
 40
16.50000000000001
100
AcDbArc
 50
270.0
 51
0.0
  0
ARC
  5
224
330
1BB
100
AcDbEntity
  8
0
  6
Continuous
 62
     7
370
    25
100
AcDbCircle
 10
9.2417837622
 20
-91.5
 30
0.0
 40
16.49999999999999
100
AcDbArc
 50
0.0
 51
90.0
  0
ARC
  5
225
330
1BB
100
AcDbEntity
  8
0
  6
Continuous
 62
     7
370
    25
100
AcDbCircle
 10
-43.0158169757
 20
-80.7582162378
 30
0.0
 40
14.61461364701877
100
AcDbArc
 50
61.9580293859
 51
90.0
  0
ARC
  5
226
330
1BB
100
AcDbEntity
  8
0
  6
Continuous
 62
     7
370
    25
100
AcDbCircle
 10
0.0
 20
0.0
 30
0.0
 40
76.88538635298094
100
AcDbArc
 50
241.9580293859
 51
270.0
  0
ARC
  5
227
330
1BB
100
AcDbEntity
  8
0
  6
Continuous
 62
     7
370
    25
100
AcDbCircle
 10
9.2417837622
 20
-153.5
 30
0.0
 40
14.61461364701861
100
AcDbArc
 50
270.0
 51
0.0
  0
ARC
  5
228
330
1BB
100
AcDbEntity
  8
0
  6
Continuous
 62
     7
370
    25
100
AcDbCircle
 10
9.2417837622
 20
-91.5
 30
0.0
 40
14.61461364701855
100
AcDbArc
 50
0.0
 51
90.0
  0
ARC
  5
229
330
1BB
100
AcDbEntity
  8
0
  6
Continuous
 62
     7
370
    25
100
AcDbCircle
 10
-274.2417837622
 20
-153.5
 30
0.0
 40
14.61461364701859
100
AcDbArc
 50
180.0
 51
270.0
  0
ARC
  5
22A
330
1BB
100
AcDbEntity
  8
0
  6
Continuous
 62
     7
370
    25
100
AcDbCircle
 10
-274.2417837622
 20
-80.7582162378
 30
0.0
 40
14.61461364701847
100
AcDbArc
 50
90.0
 51
180.0
  0
ARC
  5
22B
330
1BB
100
AcDbEntity
  8
0
  6
Continuous
 62
     7
370
    25
100
AcDbCircle
 10
-21.7
 20
-2.0
 30
0.0
 40
2.000000000000004
100
AcDbArc
 50
270.0
 51
0.0
  0
ARC
  5
22C
330
1BB
100
AcDbEntity
  8
0
  6
Continuous
 62
     7
370
    25
100
AcDbCircle
 10
-21.7
 20
2.0
 30
0.0
 40
2.0
100
AcDbArc
 50
0.0
 51
90.0
  0
ARC
  5
22D
330
1BB
100
AcDbEntity
  8
0
  6
Continuous
 62
     7
370
    25
100
AcDbCircle
 10
9.1179491924
 20
-19.7927512621
 30
0.0
 40
2.000000000000005
100
AcDbArc
 50
120.0
 51
210.0
  0
ARC
  5
22E
330
1BB
100
AcDbEntity
  8
0
  6
Continuous
 62
     7
370
    25
100
AcDbCircle
 10
12.5820508076
 20
-17.7927512621
 30
0.0
 40
2.000000000000014
100
AcDbArc
 50
30.0
 51
120.0
  0
ARC
  5
22F
330
1BB
100
AcDbEntity
  8
0
  6
Continuous
 62
     7
370
    25
100
AcDbCircle
 10
12.5820508076
 20
17.7927512621
 30
0.0
 40
1.999999999999992
100
AcDbArc
 50
240.0
 51
330.0
  0
ARC
  5
230
330
1BB
100
AcDbEntity
  8
0
  6
Continuous
 62
     7
370
    25
100
AcDbCircle
 10
9.1179491924
 20
19.7927512621
 30
0.0
 40
2.000000000000012
100
AcDbArc
 50
150.0
 51
240.0
  0
VIEWPORT
  5
35C
330
1BB
100
AcDbEntity
  8
0
100
AcDbViewport
 10
0.0
 20
0.0
 30
0.0
 40
205.6
 41
156.0
 68
     1
 69
     1
 12
-69.9628822538
 22
9.5919903727
 13
0.0
 23
0.0
 14
10.0
 24
10.0
 15
10.0
 25
10.0
 16
0.0
 26
0.0
 36
1.0
 17
0.0
 27
0.0
 37
0.0
 42
50.0
 43
0.0
 44
0.0
 45
357.2134125293
 50
0.0
 51
0.0
 72
   100
 90
   557152
  1

281
     0
 71
     1
 74
     0
110
0.0
120
0.0
130
0.0
111
1.0
121
0.0
131
0.0
112
0.0
122
1.0
132
0.0
 79
     0
146
0.0
  0
ENDBLK
  5
1BE
330
1BB
100
AcDbEntity
  8
0
100
AcDbBlockEnd
  0
BLOCK
  5
233
330
231
100
AcDbEntity
  8
0
100
AcDbBlockBegin
  2
*Paper_Space5
 70
     0
 10
0.0
 20
0.0
 30
0.0
  3
*Paper_Space5
  1

  0
SPLINE
  5
237
330
231
100
AcDbEntity
  8
0
  6
Continuous
 62
     7
370
    25
100
AcDbSpline
210
0.0
220
0.0
230
1.0
 70
     8
 71
     3
 72
    66
 73
    62
 74
     0
 42
0.000000001
 43
0.00000001
 40
0.0
 40
0.0
 40
0.0
 40
0.0
 40
0.0103823469637116
 40
0.0275107064579425
 40
0.0446517099778584
 40
0.0618041565688987
 40
0.0789664802889566
 40
0.0961369610297958
 40
0.1133138886244679
 40
0.1304956750652305
 40
0.147680919703197
 40
0.1648684372881146
 40
0.1820572598344559
 40
0.1992466221317874
 40
0.2164357816995897
 40
0.2336243484322344
 40
0.2508120537683919
 40
0.2679987242220359
 40
0.2851842613255935
 40
0.3023686248634023
 40
0.3195518191938801
 40
0.3367338823080695
 40
0.3539148772212213
 40
0.371094885300178
 40
0.3882740011647483
 40
0.4054523288487366
 40
0.4226299789556942
 40
0.4398070665906316
 40
0.4569837098892094
 40
0.4741600289996156
 40
0.4913361453993892
 40
0.5085121814503643
 40
0.5256882597446232
 40
0.5428644629537783
 40
0.5600409146928261
 40
0.5772177386478687
 40
0.5943950582734122
 40
0.6115729963344373
 40
0.6287516742031609
 40
0.6459312108109351
 40
0.6631117211338814
 40
0.6802933140625824
 40
0.6974760894709437
 40
0.7146601342572454
 40
0.7318455170820414
 40
0.7490322814753708
 40
0.7662204369352241
 40
0.7834099476002211
 40
0.80060071806963
 40
0.8177925759914951
 40
0.8349852511885199
 40
0.8521783448341212
 40
0.8693711061183946
 40
0.8865627525330382
 40
0.9037522905914028
 40
0.9209384995341219
 40
0.9381199315243669
 40
0.955294938443388
 40
0.9724617367391765
 40
0.9896185207427821
 40
0.9999999999999999
 40
0.9999999999999999
 40
0.9999999999999999
 40
0.9999999999999999
 10
153.863881020982
 20
119.9617919327951
 30
0.0
 10
153.4739160595343
 20
120.7655801927846
 30
0.0
 10
152.4406033007941
 20
122.8954245287715
 30
0.0
 10
150.4250366314592
 20
126.2894557292432
 30
0.0
 10
147.8568336215251
 20
130.1413777187665
 30
0.0
 10
144.9823831711036
 20
133.9206427093257
 30
0.0
 10
141.8241333994038
 20
137.6225262255433
 30
0.0
 10
138.3839048236265
 20
141.2387275890671
 30
0.0
 10
134.6698353485923
 20
144.7621496916961
 30
0.0
 10
130.6891094967205
 20
148.1856545541556
 30
0.0
 10
126.4498632888537
 20
151.5024227325877
 30
0.0
 10
121.9606317159932
 20
154.7058734400036
 30
0.0
 10
117.2304594248972
 20
157.7896961413753
 30
0.0
 10
112.268853122543
 20
160.7478396085596
 30
0.0
 10
107.0857527534919
 20
163.5745304232305
 30
0.0
 10
101.6915073138967
 20
166.2642754455727
 30
0.0
 10
96.09683787689566
 20
168.8118722406038
 30
0.0
 10
90.31283859617739
 20
171.2124020915019
 30
0.0
 10
84.35095801115789
 20
173.4612355305993
 30
0.0
 10
78.22297934866035
 20
175.5540385350533
 30
0.0
 10
71.94100005414326
 20
177.4867790265556
 30
0.0
 10
65.51741044568998
 20
179.2557334754261
 30
0.0
 10
58.96487147954802
 20
180.8574934307658
 30
0.0
 10
52.29629165298366
 20
182.2889718215151
 30
0.0
 10
45.52480310085647
 20
183.5474088994981
 30
0.0
 10
38.66373695880518
 20
184.6303777198835
 30
0.0
 10
31.72659807533845
 20
185.5357890760139
 30
0.0
 10
24.72703915931801
 20
186.2618958237028
 30
0.0
 10
17.67883445047669
 20
186.807296545027
 30
0.0
 10
10.59585300014646
 20
187.1709385137206
 30
0.0
 10
3.492031647729751
 20
187.352119933983
 30
0.0
 10
-3.618652171583886
 20
187.350491432431
 30
0.0
 10
-10.72220225199605
 20
187.1660569405017
 30
0.0
 10
-17.8046367373073
 20
186.7991741589032
 30
0.0
 10
-24.85201575472458
 20
186.250553730303
 30
0.0
 10
-31.85047425678197
 20
185.5212568483829
 30
0.0
 10
-38.78624354359122
 20
184.6126930388708
 30
0.0
 10
-45.64567812350757
 20
183.5266170357926
 30
0.0
 10
-52.4152822253868
 20
182.265124913452
 30
0.0
 10
-59.08173587332089
 20
180.8306494964336
 30
0.0
 10
-65.63192043414034
 20
179.2259550788319
 30
0.0
 10
-72.05294354503616
 20
177.4541314953015
 30
0.0
 10
-78.33216332665262
 20
175.5185876011033
 30
0.0
 10
-84.45721178656689
 20
173.4230442369487
 30
0.0
 10
-90.416017319894
 20
171.1715267777955
 30
0.0
 10
-96.19682622319284
 20
168.7683573941203
 30
0.0
 10
-101.788223145763
 20
166.2181471877431
 30
0.0
 10
-107.1791504586942
 20
163.5257884093284
 30
0.0
 10
-112.3589264621564
 20
160.6964469895092
 30
0.0
 10
-117.3172628173938
 20
157.7355557250039
 30
0.0
 10
-122.04427961728
 20
154.6488086283107
 30
0.0
 10
-126.5305064809604
 20
151.4421694232244
 30
0.0
 10
-130.7669058898342
 20
148.1218598051654
 30
0.0
 10
-134.7449294479248
 20
144.6943648734624
 30
0.0
 10
-138.4564111334232
 20
141.1663946813264
 30
0.0
 10
-141.8940989240596
 20
137.5449852340172
 30
0.0
 10
-145.049732219074
 20
133.8371561841736
 30
0.0
 10
-147.9213446783839
 20
130.0511789670796
 30
0.0
 10
-150.4861793127695
 20
126.1918193869149
 30
0.0
 10
-152.4975567039758
 20
122.7923408787435
 30
0.0
 10
-153.5273832112026
 20
120.6595825538717
 30
0.0
 10
-153.9156111260152
 20
119.8555672061859
 30
0.0
  0
SPLINE
  5
238
330
231
100
AcDbEntity
  8
0
  6
Continuous
 62
     7
370
    25
100
AcDbSpline
210
0.0
220
0.0
230
1.0
 70
     8
 71
     3
 72
    12
 73
     8
 74
     0
 42
0.000000001
 43
0.00000001
 40
0.0
 40
0.0
 40
0.0
 40
0.0
 40
0.1508403284079977
 40
0.3839197940018612
 40
0.6169757608342353
 40
0.8500204185238555
 40
1.0
 40
1.0
 40
1.0
 40
1.0
 10
128.5470571371746
 20
45.1635369122821
 30
0.0
 10
127.7107293654645
 20
44.44401966178225
 30
0.0
 10
125.5821024311311
 20
42.61269963279423
 30
0.0
 10
121.8674587955851
 20
39.78534018426857
 30
0.0
 10
117.4450769688587
 20
36.67867903591805
 30
0.0
 10
113.3385844977984
 20
34.04148902750591
 30
0.0
 10
110.6620061445255
 20
32.4692206836677
 30
0.0
 10
109.61394688309
 20
31.8535725756246
 30
0.0
  0
SPLINE
  5
239
330
231
100
AcDbEntity
  8
0
  6
Continuous
 62
     7
370
    25
100
AcDbSpline
210
0.0
220
0.0
230
1.0
 70
     8
 71
     3
 72
    48
 73
    44
 74
     0
 42
0.000000001
 43
0.00000001
 40
0.0
 40
0.0
 40
0.0
 40
0.0
 40
0.0131793876043194
 40
0.0382416048318218
 40
0.0633066642862009
 40
0.0883731135941446
 40
0.1134411972906499
 40
0.1385110481387813
 40
0.1635827124902501
 40
0.1886561710294001
 40
0.2137313552244453
 40
0.2388081601744741
 40
0.2638864544997225
 40
0.2889660878488761
 40
0.3140468965129701
 40
0.3391287075531904
 40
0.3642113417760908
 40
0.3892946158265521
 40
0.4143783436170084
 40
0.4394623372704857
 40
0.4645464077236877
 40
0.4896303272884431
 40
0.5147138801868574
 40
0.5397968759517007
 40
0.5648791244149705
 40
0.5899604363790958
 40
0.6150406246686333
 40
0.6401195057132929
 40
0.6651969018518612
 40
0.6902726445913001
 40
0.7153465791111376
 40
0.7404185703710142
 40
0.7654885112575727
 40
0.7905563332933667
 40
0.8156220205169575
 40
0.8406856272163947
 40
0.8657473002316207
 40
0.8908073064934453
 40
0.9158660662707744
 40
0.940924192155404
 40
0.9659822994903293
 40
0.9910413468275724
 40
1.0
 40
1.0
 40
1.0
 40
1.0
 10
109.61394688309
 20
31.85357257562459
 30
0.0
 10
108.7438195374862
 20
31.35839323627255
 30
0.0
 10
106.219038636966
 20
29.92156982801521
 30
0.0
 10
101.871419415862
 20
27.64191143390642
 30
0.0
 10
96.51091128328945
 20
25.06391373294441
 30
0.0
 10
90.94981336290803
 20
22.6288746325911
 30
0.0
 10
85.20347053397992
 20
20.33978787988546
 30
0.0
 10
79.28253796511507
 20
18.20201369905015
 30
0.0
 10
73.19937198068546
 20
16.21986766922949
 30
0.0
 10
66.96631795160584
 20
14.39753720555047
 30
0.0
 10
60.59613381445961
 20
12.73882320506688
 30
0.0
 10
54.10184085093188
 20
11.24719809012473
 30
0.0
 10
47.49672761250962
 20
9.925780470518786
 30
0.0
 10
40.79431253208067
 20
8.777333421244718
 30
0.0
 10
34.0083173747763
 20
7.804257596902328
 30
0.0
 10
27.15263758387411
 20
7.008586813389561
 30
0.0
 10
20.24131328583865
 20
6.391983990981995
 30
0.0
 10
13.28849997312557
 20
5.955737978089251
 30
0.0
 10
6.30843915680955
 20
5.700761083777373
 30
0.0
 10
-0.6845710568136876
 20
5.627587341466691
 30
0.0
 10
-7.676201905845254
 20
5.736371426187977
 30
0.0
 10
-14.65212462178905
 20
6.02688787391939
 30
0.0
 10
-21.59804237504175
 20
6.49853127861004
 30
0.0
 10
-28.49972323700655
 20
7.150317832112549
 30
0.0
 10
-35.34302829683759
 20
7.980887407565321
 30
0.0
 10
-42.1139384879268
 20
8.988505915925302
 30
0.0
 10
-48.79858363540546
 20
10.17106845672468
 30
0.0
 10
-55.38327134655265
 20
11.52610317295966
 30
0.0
 10
-61.85451571600497
 20
13.0507758278335
 30
0.0
 10
-68.19906586062976
 20
14.74189511650953
 30
0.0
 10
-74.40393415941496
 20
16.59591878753407
 30
0.0
 10
-80.45642460952787
 20
18.60896047964531
 30
0.0
 10
-86.34415971799739
 20
20.77679789088149
 30
0.0
 10
-92.05511177302319
 20
23.09488034787787
 30
0.0
 10
-97.57761659935623
 20
25.55834348719167
 30
0.0
 10
-102.900451338251
 20
28.16200293333279
 30
0.0
 10
-108.012671670724
 20
30.90043273456053
 30
0.0
 10
-112.9043445303565
 20
33.76773493685965
 30
0.0
 10
-117.5639360392046
 20
36.75847038184251
 30
0.0
 10
-121.9881632476306
 20
39.86425637803227
 30
0.0
 10
-126.1452953534745
 20
43.08652087814961
 30
0.0
 10
-129.262561127246
 20
45.68164174205658
 30
0.0
 10
-130.8989505872938
 20
47.23230220805348
 30
0.0
 10
-131.329898164818
 20
47.64067282378961
 30
0.0
  0
SPLINE
  5
23A
330
231
100
AcDbEntity
  8
0
  6
Continuous
 62
     7
370
    25
100
AcDbSpline
210
0.0
220
0.0
230
1.0
 70
     8
 71
     3
 72
    20
 73
    16
 74
     0
 42
0.000000001
 43
0.00000001
 40
0.0
 40
0.0
 40
0.0
 40
0.0
 40
0.0681585587000436
 40
0.1599746189952148
 40
0.2506099657043802
 40
0.3394965640331821
 40
0.4267690344398555
 40
0.5128568711991931
 40
0.598194553609942
 40
0.6831191868580663
 40
0.7678619313528202
 40
0.8031849588217206
 40
0.847491819153425
 40
0.9321878610246097
 40
1.0
 40
1.0
 40
1.0
 40
1.0
 10
45.19783300063515
 20
27.0149302442004
 30
0.0
 10
45.1872667630603
 20
26.51283488499027
 30
0.0
 10
45.16246679864663
 20
25.33436932878049
 30
0.0
 10
44.75571394989644
 20
23.48505733402691
 30
0.0
 10
44.03663239293133
 20
21.47984313275475
 30
0.0
 10
43.00431733903701
 20
19.51388681951169
 30
0.0
 10
41.68441447301491
 20
17.60191390748898
 30
0.0
 10
40.08433544908256
 20
15.75390391843746
 30
0.0
 10
38.21417826497683
 20
13.97901054933201
 30
0.0
 10
36.08360021611584
 20
12.28745583621792
 30
0.0
 10
34.16522616334575
 20
11.00070038047828
 30
0.0
 10
32.51964453296877
 20
10.01733474443528
 30
0.0
 10
30.80248765348283
 20
9.069870287434654
 30
0.0
 10
28.6319707257182
 20
7.992515712819795
 30
0.0
 10
26.80032952674132
 20
7.260608197942747
 30
0.0
 10
25.98589775758248
 20
6.935168514376477
 30
0.0
  0
SPLINE
  5
23B
330
231
100
AcDbEntity
  8
0
  6
Continuous
 62
     7
370
    25
100
AcDbSpline
210
0.0
220
0.0
230
1.0
 70
     8
 71
     3
 72
    20
 73
    16
 74
     0
 42
0.000000001
 43
0.00000001
 40
0.0
 40
0.0
 40
0.0
 40
0.0
 40
0.0455382524251013
 40
0.1306932854247733
 40
0.2157072979781148
 40
0.3006009571696287
 40
0.3854244965958045
 40
0.4702476200688011
 40
0.5551962307488693
 40
0.6404872595241847
 40
0.7264361129557892
 40
0.8134537549648859
 40
0.9019813127828825
 40
0.9922957133446599
 40
1.0
 40
1.0
 40
1.0
 40
1.0
 10
-25.98276968605465
 20
6.943337803781466
 30
0.0
 10
-26.53409939282717
 20
7.155175198103062
 30
0.0
 10
-28.11639750250735
 20
7.763141546509825
 30
0.0
 10
-30.5215403795035
 20
8.915441690043963
 30
0.0
 10
-33.18562367005104
 20
10.37403835107621
 30
0.0
 10
-35.60521882463475
 20
11.94575950514719
 30
0.0
 10
-37.77655643616144
 20
13.60754266334617
 30
0.0
 10
-39.68428009289698
 20
15.34679646500826
 30
0.0
 10
-41.31987592686728
 20
17.14819052763476
 30
0.0
 10
-42.67811656766663
 20
18.99867359539786
 30
0.0
 10
-43.75333003675397
 20
20.88794290243093
 30
0.0
 10
-44.55423487345636
 20
22.80997309663404
 30
0.0
 10
-45.03751139134043
 20
24.76329452698586
 30
0.0
 10
-45.25263826596536
 20
26.13091298933064
 30
0.0
 10
-45.21664333024002
 20
26.84947123063604
 30
0.0
 10
-45.21381412174068
 20
26.90595003918519
 30
0.0
  0
SPLINE
  5
23C
330
231
100
AcDbEntity
  8
0
  6
Continuous
 62
     7
370
    25
100
AcDbSpline
210
0.0
220
0.0
230
1.0
 70
     8
 71
     3
 72
    43
 73
    39
 74
     0
 42
0.000000001
 43
0.00000001
 40
0.0
 40
0.0
 40
0.0
 40
0.0
 40
0.0092135203708923
 40
0.0368148776224963
 40
0.0644318388206956
 40
0.0922054850224775
 40
0.120236976972164
 40
0.1485610049748854
 40
0.1771509987878686
 40
0.2059427403788402
 40
0.2348624031042958
 40
0.2638464606076035
 40
0.2928467419247859
 40
0.3218327662046888
 40
0.3507939939509122
 40
0.379727576933247
 40
0.4086352534194166
 40
0.437521331883848
 40
0.4663914850840458
 40
0.4952520775895603
 40
0.5241098185019274
 40
0.5529710903483659
 40
0.5818410846307911
 40
0.6107268456728178
 40
0.6396353645105508
 40
0.6685733431865224
 40
0.6975467122303979
 40
0.7265597178055627
 40
0.7556133119541749
 40
0.784702500769018
 40
0.8138111203991987
 40
0.8428961881598128
 40
0.8719000057330497
 40
0.9007446852770762
 40
0.9293455795162747
 40
0.9576394454004442
 40
0.9856178304308605
 40
0.9999999999999999
 40
0.9999999999999999
 40
0.9999999999999999
 40
0.9999999999999999
 10
39.96453673666245
 20
28.04740045502292
 30
0.0
 10
39.97319657415144
 20
28.28682834289745
 30
0.0
 10
40.00779907618688
 20
29.24352112010782
 30
0.0
 10
39.74434263214607
 20
30.913714939708
 30
0.0
 10
39.17652495722768
 20
33.02968196093351
 30
0.0
 10
38.28051262002093
 20
35.09976281449621
 30
0.0
 10
37.08915179692244
 20
37.11189417677186
 30
0.0
 10
35.60045822707741
 20
39.05268977549661
 30
0.0
 10
33.82534599643622
 20
40.9068303064931
 30
0.0
 10
31.77644055286391
 20
42.6581631219497
 30
0.0
 10
29.47124155010568
 20
44.29109913808971
 30
0.0
 10
26.93025441190097
 20
45.79160323126599
 30
0.0
 10
24.17613536431456
 20
47.14761407306699
 30
0.0
 10
21.2326459372607
 20
48.3490891046501
 30
0.0
 10
18.12416195605647
 20
49.38773003821977
 30
0.0
 10
14.87551740238263
 20
50.25668013380853
 30
0.0
 10
11.51222433871597
 20
50.95028670627239
 30
0.0
 10
8.060416517397764
 20
51.4640620820541
 30
0.0
 10
4.546751538847538
 20
51.79468645224401
 30
0.0
 10
0.9982726139672604
 20
51.94002673489074
 30
0.0
 10
-2.557739526448152
 20
51.89915458893491
 30
0.0
 10
-6.093902845414043
 20
51.67236233419142
 30
0.0
 10
-9.583011741284647
 20
51.26116521819594
 30
0.0
 10
-12.99826298900429
 20
50.66826568816774
 30
0.0
 10
-16.31349122950899
 20
49.89748175931587
 30
0.0
 10
-19.50325721633368
 20
48.95368572527338
 30
0.0
 10
-22.54297309324023
 20
47.84272959907741
 30
0.0
 10
-25.40897412170751
 20
46.57137802902034
 30
0.0
 10
-28.07852755609058
 20
45.14727884002776
 30
0.0
 10
-30.52971863768555
 20
43.57904313784877
 30
0.0
 10
-32.74111223505624
 20
41.87670184300305
 30
0.0
 10
-34.69184526978859
 20
40.05213856124408
 30
0.0
 10
-36.36269834257986
 20
38.11978163872184
 30
0.0
 10
-37.73462208211916
 20
36.09690911091832
 30
0.0
 10
-38.79933230722861
 20
34.00408309518325
 30
0.0
 10
-39.52647497520324
 20
31.86346125434063
 30
0.0
 10
-39.91696081551191
 20
30.04359484582854
 30
0.0
 10
-39.94041087602612
 20
28.94231216340829
 30
0.0
 10
-39.94837259300338
 20
28.56840690102791
 30
0.0
  0
SPLINE
  5
23F
330
231
100
AcDbEntity
  8
0
  6
Continuous
 62
     7
370
    25
100
AcDbSpline
210
0.0
220
0.0
230
1.0
 70
     8
 71
     3
 72
    17
 73
    13
 74
     0
 42
0.000000001
 43
0.00000001
 40
0.0
 40
0.0
 40
0.0
 40
0.0
 40
0.0548564275995817
 40
0.1683286891402412
 40
0.2817964193964326
 40
0.395822587460212
 40
0.5108609714947376
 40
0.6270977911633105
 40
0.7444580162354144
 40
0.8626939342218866
 40
0.9815016281828002
 40
1.0
 40
1.0
 40
1.0
 40
1.0
 10
-39.94837259300338
 20
25.30224365348514
 30
0.0
 10
-39.97048862333706
 20
24.95564463086255
 30
0.0
 10
-40.03835236434164
 20
23.89209452947399
 30
0.0
 10
-39.81069202761054
 20
22.11159916985539
 30
0.0
 10
-39.28712537171123
 20
19.98988603395455
 30
0.0
 10
-38.4394668186635
 20
17.91184266345734
 30
0.0
 10
-37.29467749737869
 20
15.88973254345182
 30
0.0
 10
-35.85075893621962
 20
13.93739378434286
 30
0.0
 10
-34.12291790551189
 20
12.0666479979589
 30
0.0
 10
-32.10293485563034
 20
10.30597880583997
 30
0.0
 10
-30.51083142914744
 20
9.099551812311702
 30
0.0
 10
-29.55350047693608
 20
8.511868993057572
 30
0.0
 10
-29.4245253744469
 20
8.432694229440706
 30
0.0
  0
SPLINE
  5
240
330
231
100
AcDbEntity
  8
0
  6
Continuous
 62
     7
370
    25
100
AcDbSpline
210
0.0
220
0.0
230
1.0
 70
     8
 71
     3
 72
    16
 73
    12
 74
     0
 42
0.000000001
 43
0.00000001
 40
0.0
 40
0.0
 40
0.0
 40
0.0
 40
0.0785607706691607
 40
0.2009197210740631
 40
0.3231481140534071
 40
0.4449888669628001
 40
0.5661048022397194
 40
0.6861449840480867
 40
0.8048706970782735
 40
0.9222920669084228
 40
1.0
 40
1.0
 40
1.0
 40
1.0
 10
29.2995648896575
 20
8.371365660702097
 30
0.0
 10
29.82477237659145
 20
8.70670573960028
 30
0.0
 10
31.16799420196242
 20
9.564340339455704
 30
0.0
 10
33.05657688128633
 20
11.09577763245766
 30
0.0
 10
34.97241911729719
 20
12.93371270467099
 30
0.0
 10
36.59594933587569
 20
14.88256203787582
 30
0.0
 10
37.92090719096197
 20
16.91742349692195
 30
0.0
 10
38.93513864313727
 20
19.01931220776595
 30
0.0
 10
39.61499992386531
 20
21.16492415307123
 30
0.0
 10
39.97326143931048
 20
23.09342280384387
 30
0.0
 10
39.96702165631464
 20
24.30052361183899
 30
0.0
 10
39.96453673666245
 20
24.78123720748024
 30
0.0
  0
LWPOLYLINE
  5
244
330
231
100
AcDbEntity
  8
0
  6
Continuous
 62
     7
370
    25
100
AcDbPolyline
 90
       70
 70
   128
 43
0.0
 10
160.8129393169
 20
18.7847142187
 10
160.8157667236
 20
18.0537249551
 10
160.6259511876
 20
13.6998494693
 10
160.0826273726
 20
9.3559042361
 10
159.1869910347
 20
5.0314494827
 10
157.9410133055
 20
0.7360025416
 10
156.3474363535
 20
-3.5209830959
 10
154.4097673495
 20
-7.7301385846
 10
152.1322707478
 20
-11.8822003447
 10
149.5199589012
 20
-15.9680304493
 10
146.578581029
 20
-19.9786367352
 10
143.314610565
 20
-23.9051925929
 10
139.7352309099
 20
-27.7390563928
 10
135.8483196224
 20
-31.4717905032
 10
131.6624310816
 20
-35.0951798605
 10
127.1867776612
 20
-38.6012500489
 10
122.4312094541
 20
-41.9822848504
 10
117.4061925942
 20
-45.2308432272
 10
112.1227862226
 20
-48.3397756976
 10
106.5926181485
 20
-51.302240071
 10
100.8278592581
 20
-54.1117165065
 10
94.8411967294
 20
-56.7620218611
 10
88.6458061091
 20
-59.2473232987
 10
82.2553223167
 20
-61.5621511263
 10
75.6838096356
 20
-63.701410832
 10
68.9457307609
 20
-65.6603942973
 10
62.0559149692
 20
-67.4347901587
 10
55.0295254823
 20
-69.0206932961
 10
47.8820260956
 20
-70.4146134274
 10
40.6291471453
 20
-71.6134827897
 10
33.2868508887
 20
-72.6146628915
 10
25.8712963741
 20
-73.4159503188
 10
18.3988038779
 20
-74.0155815847
 10
10.8858189865
 20
-74.4122370109
 10
3.3488764027
 20
-74.6050436313
 10
-4.1954364443
 20
-74.593577114
 10
-11.7305159046
 20
-74.3778626947
 10
-19.2397786494
 20
-73.9583751213
 10
-26.7066981677
 20
-73.336037609
 10
-34.1148411381
 20
-72.5122198086
 10
-41.4479035958
 20
-71.4887347922
 10
-48.6897468142
 20
-70.2678350626
 10
-55.8244328238
 20
-68.8522075965
 10
-62.8362594882
 20
-67.2449679303
 10
-69.7097950622
 20
-65.4496533041
 10
-76.4299121537
 20
-63.4702148762
 10
-82.9818210166
 20
-61.3110090279
 10
-89.3511021005
 20
-58.9767877755
 10
-95.5237377849
 20
-56.4726883122
 10
-101.4861432301
 20
-53.8042217018
 10
-107.2251962745
 20
-50.9772607504
 10
-112.7282663141
 20
-47.9980270809
 10
-117.9832421005
 20
-44.8730774406
 10
-122.9785583951
 20
-41.6092892708
 10
-127.7032214222
 20
-38.2138455711
 10
-132.1468330644
 20
-34.6942190909
 10
-136.299613747
 20
-31.0581558828
 10
-140.1524239608
 20
-27.3136582557
 10
-143.6967843767
 20
-23.4689671625
 10
-146.9248945069
 20
-19.5325440636
 10
-149.8296498729
 20
-15.5130523048
 10
-152.4046576403
 20
-11.4193380507
 10
-154.644250689
 20
-7.2604108162
 10
-156.5435000852
 20
-3.0454236379
 10
-158.0982259291
 20
1.2163470701
 10
-159.305006554
 20
5.5155219314
 10
-160.1611860571
 20
9.8426392502
 10
-160.664880144
 20
14.1881758343
 10
-160.8149802764
 20
18.5425679542
 10
-160.8129393169
 20
18.7847142187
  0
LWPOLYLINE
  5
245
330
231
100
AcDbEntity
  8
0
  6
Continuous
 62
     7
370
    25
100
AcDbPolyline
 90
      134
 70
   128
 43
0.0
 10
112.4300051331
 20
30.4670090996
 10
106.9951252195
 20
27.4743469391
 10
101.3214973439
 20
24.6331898085
 10
95.4217815888
 20
21.9498774402
 10
89.3091425268
 20
19.4303973534
 10
82.997219846
 20
17.0803714934
 10
76.5000979139
 20
14.9050436866
 10
69.83227435
 20
12.9092679402
 10
63.008627676
 20
11.09749761
 10
56.0443841159
 20
9.4737754643
 10
48.9550836202
 20
8.0417246621
 10
41.7565451904
 20
6.8045406685
 10
34.4648315805
 20
5.7649841249
 10
27.0962134548
 20
4.9253746885
 10
19.6671330817
 20
4.2875858562
 10
12.1941676443
 20
3.8530407842
 10
4.6939922507
 20
3.6227091125
 10
-2.816657275
 20
3.5971048012
 10
-10.321021737
 20
3.7762849835
 10
-17.8023559637
 20
4.1598498383
 10
-25.2439661731
 20
4.7469434825
 10
-32.6292472231
 20
5.5362558806
 10
-39.9417196637
 20
6.5260257679
 10
-47.1650665096
 20
7.7140445809
 10
-54.2831696495
 20
9.097661385
 10
-61.280145812
 20
10.6737887901
 10
-68.1403820072
 20
12.4389098397
 10
-74.8485703657
 20
14.3890858585
 10
-81.3897422963
 20
16.5199652412
 10
-87.7493018865
 20
18.8267931627
 10
-93.9130584722
 20
21.3044221879
 10
-99.8672583024
 20
23.9473237577
 10
-105.5986152288
 20
26.7496005251
 10
-111.0943403533
 20
29.704999515
 10
-116.342170564
 20
32.8069260767
 10
-121.3303958997
 20
36.0484585989
 10
-126.0478856792
 20
39.4223639552
 10
-130.4841133381
 20
42.9211136434
 10
-134.629179918
 20
46.5369005849
 10
-138.4738361543
 20
50.2616565451
 10
-142.0095031158
 20
54.0870701371
 10
-145.2282913468
 20
58.0046053672
 10
-148.1230184723
 20
62.0055206826
 10
-150.6872252241
 20
66.0808884768
 10
-152.9151898542
 20
70.2216150106
 10
-154.8019409025
 20
74.4184607039
 10
-156.3432682895
 20
78.6620607531
 10
-157.5357327112
 20
82.9429460271
 10
-158.3766733131
 20
87.2515641968
 10
-158.864213628
 20
91.5783010503
 10
-158.9972657627
 20
95.913501946
 10
-158.775532826
 20
100.2474933554
 10
-158.1995095906
 20
104.5706044491
 10
-157.2704813898
 20
108.8731886756
 10
-155.9905212486
 20
113.1456452873
 10
-154.3624852587
 20
117.3784407627
 10
-152.3900062048
 20
121.5621300802
 10
-150.0774854592
 20
125.6873777927
 10
-147.4300831598
 20
129.7449788598
 10
-144.4537066963
 20
133.7258791867
 10
-141.1549975285
 20
137.6211958282
 10
-137.5413163664
 20
141.4222368098
 10
-133.6207267457
 20
145.1205205226
 10
-129.4019770348
 20
148.7077946497
 10
-124.8944809141
 20
152.1760545797
 10
-120.1082963698
 20
155.5175612686
 10
-115.0541032513
 20
158.7248585083
 10
-109.7431794396
 20
161.7907895646
 10
-104.1873756825
 20
164.7085131465
 10
-98.3990891506
 20
167.4715186717
 10
-92.3912357745
 20
170.0736407944
 10
-86.1772214244
 20
172.5090731629
 10
-79.7709119959
 20
174.7723813751
 10
-73.1866024706
 20
176.8585151053
 10
-66.4389850175
 20
178.7628193737
 10
-59.5431162097
 20
180.4810449326
 10
-52.5143834269
 20
182.009357749
 10
-45.3684705203
 20
183.3443475593
 10
-38.1213228159
 20
184.4830354795
 10
-30.789111534
 20
185.4228806513
 10
-23.3881977051
 20
186.1617859128
 10
-15.9350956617
 20
186.6981024773
 10
-8.4464361889
 20
187.0306336129
 10
-0.9389294142
 20
187.1586373127
 10
6.5706724791
 20
187.0818279502
 10
14.0656126328
 20
186.8003769173
 10
21.5291669048
 20
186.3149122412
 10
28.9446811871
 20
185.6265171835
 10
36.2956085675
 20
184.7367278227
 10
43.5655462529
 20
183.6475296267
 10
50.7382721694
 20
182.3613530228
 10
57.7977811609
 20
180.8810679737
 10
64.7283207024
 20
179.2099775743
 10
71.5144260501
 20
177.3518106808
 10
78.1409547496
 20
175.3107135899
 10
84.5931204241
 20
173.0912407874
 10
90.8565257691
 20
170.6983447851
 10
96.9171946781
 20
168.1373650696
 10
102.761603429
 20
165.414016188
 10
108.3767108605
 20
162.5343749966
 10
113.7499874723
 20
159.5048671008
 10
118.8694433831
 20
156.3322525175
 10
123.7236550852
 20
153.0236105903
 10
128.301790934
 20
149.586324193
 10
132.5936353182
 20
146.0280632558
 10
136.589611455
 20
142.3567676501
 10
140.2808027589
 20
138.580629472
 10
143.6589727388
 20
134.7080747622
 10
146.7165833767
 20
130.7477447047
 10
149.4468119475
 20
126.7084763444
 10
151.8435662437
 20
122.5992828683
 10
153.9014981694
 20
118.4293334941
 10
155.6160156736
 20
114.2079330091
 10
156.9832929974
 20
109.9445010087
 10
158.0002792105
 20
105.6485508767
 10
158.664705019
 20
101.3296685576
 10
158.9750878291
 20
96.9974911667
 10
158.9307350553
 20
92.6616854857
 10
158.5317456661
 20
88.3319263925
 10
157.7790099627
 20
84.0178752727
 10
156.6742075929
 20
79.7291584611
 10
155.2198038028
 20
75.4753457621
 10
153.419043936
 20
71.2659290951
 10
151.2759461917
 20
67.1103013146
 10
148.7952926592
 20
63.0177352511
 10
145.9826186464
 20
58.9973630199
 10
142.8442003288
 20
55.0581556434
 10
139.387040745
 20
51.2089030336
 10
135.6188541697
 20
47.4581943783
 10
131.5480489007
 20
43.814398975
 10
127.1837084964
 20
40.2856475561
 10
122.5355715066
 20
36.8798141459
 10
117.6140097426
 20
33.6044984904
 10
112.4300051331
 20
30.4670090996
  0
LWPOLYLINE
  5
246
330
231
100
AcDbEntity
  8
0
  6
Continuous
 62
     7
370
    25
100
AcDbPolyline
 90
      133
 70
   128
 43
0.0
 10
110.1139062494
 20
31.8040645251
 10
104.7497539242
 20
28.8514059198
 10
99.1483097153
 20
26.0494366537
 10
93.3222626954
 20
23.4045040884
 10
87.2848107349
 20
20.9225998468
 10
81.0496306043
 20
18.6093462404
 10
74.6308469921
 20
16.4699835325
 10
68.0430005076
 20
14.5093580678
 10
61.3010147421
 20
12.7319112936
 10
54.4201624616
 20
11.1416696985
 10
47.4160310099
 20
9.7422356911
 10
40.3044869972
 20
8.5367794397
 10
33.1016403582
 20
7.5280316904
 10
25.8238078572
 20
6.7182775812
 10
18.4874761256
 20
6.1093514656
 10
11.1092643144
 20
5.7026327572
 10
3.7058864464
 20
5.4990428046
 10
-3.7058864464
 20
5.4990428046
 10
-11.1092643144
 20
5.7026327572
 10
-18.4874761256
 20
6.1093514656
 10
-25.8238078572
 20
6.7182775812
 10
-33.1016403582
 20
7.5280316904
 10
-40.3044869972
 20
8.5367794397
 10
-47.4160310099
 20
9.7422356911
 10
-54.4201624616
 20
11.1416696985
 10
-61.3010147421
 20
12.7319112936
 10
-68.0430005076
 20
14.5093580678
 10
-74.6308469921
 20
16.4699835325
 10
-81.0496306043
 20
18.6093462404
 10
-87.2848107349
 20
20.9225998468
 10
-93.3222626954
 20
23.4045040884
 10
-99.1483097153
 20
26.0494366537
 10
-104.7497539242
 20
28.8514059198
 10
-110.1139062494
 20
31.8040645251
 10
-115.2286151606
 20
34.9007237482
 10
-120.082294197
 20
38.13436866
 10
-124.6639482145
 20
41.4976740146
 10
-128.9631982931
 20
44.9830208437
 10
-132.9703052486
 20
48.5825137157
 10
-136.676191695
 20
52.2879986216
 10
-140.0724626075
 20
56.0910814462
 10
-143.1514243401
 20
59.9831469837
 10
-145.9061020542
 20
63.9553784538
 10
-148.3302555188
 20
67.9987774748
 10
-150.4183932466
 20
72.1041844472
 10
-152.1657849341
 20
76.262299304
 10
-153.5684721769
 20
80.4637025774
 10
-154.6232774375
 20
84.6988767378
 10
-155.3278112425
 20
88.9582277536
 10
-155.6804775964
 20
93.2321068248
 10
-155.6804775964
 20
97.5108322405
 10
-155.3278112425
 20
101.7847113117
 10
-154.6232774375
 20
106.0440623275
 10
-153.5684721769
 20
110.2792364879
 10
-152.1657849341
 20
114.4806397613
 10
-150.4183932466
 20
118.6387546181
 10
-148.3302555188
 20
122.7441615905
 10
-145.9061020542
 20
126.7875606115
 10
-143.1514243401
 20
130.7597920816
 10
-140.0724626075
 20
134.6518576191
 10
-136.676191695
 20
138.4549404437
 10
-132.9703052486
 20
142.1604253496
 10
-128.9631982931
 20
145.7599182216
 10
-124.6639482145
 20
149.2452650507
 10
-120.082294197
 20
152.6085704053
 10
-115.2286151606
 20
155.8422153171
 10
-110.1139062494
 20
158.9388745402
 10
-104.7497539242
 20
161.8915331455
 10
-99.1483097153
 20
164.6935024116
 10
-93.3222626954
 20
167.3384349769
 10
-87.2848107349
 20
169.8203392185
 10
-81.0496306043
 20
172.1335928249
 10
-74.6308469921
 20
174.2729555328
 10
-68.0430005076
 20
176.2335809975
 10
-61.3010147421
 20
178.0110277717
 10
-54.4201624616
 20
179.6012693669
 10
-47.4160310099
 20
181.0007033742
 10
-40.3044869972
 20
182.2061596256
 10
-33.1016403582
 20
183.2149073749
 10
-25.8238078572
 20
184.0246614841
 10
-18.4874761256
 20
184.6335875997
 10
-11.1092643144
 20
185.0403063081
 10
-3.7058864464
 20
185.2438962607
 10
3.7058864464
 20
185.2438962607
 10
11.1092643144
 20
185.0403063081
 10
18.4874761256
 20
184.6335875997
 10
25.8238078573
 20
184.0246614841
 10
33.1016403582
 20
183.2149073749
 10
40.3044869972
 20
182.2061596256
 10
47.4160310099
 20
181.0007033742
 10
54.4201624616
 20
179.6012693669
 10
61.3010147421
 20
178.0110277717
 10
68.0430005076
 20
176.2335809975
 10
74.6308469921
 20
174.2729555328
 10
81.0496306043
 20
172.1335928249
 10
87.2848107349
 20
169.8203392185
 10
93.3222626954
 20
167.3384349769
 10
99.1483097153
 20
164.6935024116
 10
104.7497539242
 20
161.8915331455
 10
110.1139062494
 20
158.9388745402
 10
115.2286151606
 20
155.8422153171
 10
120.082294197
 20
152.6085704053
 10
124.6639482145
 20
149.2452650507
 10
128.9631982931
 20
145.7599182216
 10
132.9703052486
 20
142.1604253496
 10
136.676191695
 20
138.4549404437
 10
140.0724626075
 20
134.6518576191
 10
143.1514243401
 20
130.7597920816
 10
145.9061020542
 20
126.7875606115
 10
148.3302555188
 20
122.7441615905
 10
150.4183932466
 20
118.6387546181
 10
152.1657849341
 20
114.4806397613
 10
153.5684721769
 20
110.2792364879
 10
154.6232774375
 20
106.0440623275
 10
155.3278112425
 20
101.7847113117
 10
155.6804775964
 20
97.5108322405
 10
155.6804775964
 20
93.2321068248
 10
155.3278112425
 20
88.9582277536
 10
154.6232774375
 20
84.6988767378
 10
153.5684721769
 20
80.4637025774
 10
152.1657849341
 20
76.262299304
 10
150.4183932466
 20
72.1041844472
 10
148.3302555188
 20
67.9987774748
 10
145.9061020542
 20
63.9553784538
 10
143.1514243401
 20
59.9831469837
 10
140.0724626075
 20
56.0910814462
 10
136.676191695
 20
52.2879986216
 10
132.9703052486
 20
48.5825137157
 10
128.9631982931
 20
44.9830208437
 10
124.6639482145
 20
41.4976740146
 10
120.082294197
 20
38.13436866
 10
115.2286151606
 20
34.9007237482
 10
110.1139062494
 20
31.8040645251
  0
LWPOLYLINE
  5
247
330
231
100
AcDbEntity
  8
0
  6
Continuous
 62
     7
370
    25
100
AcDbPolyline
 90
       15
 70
   128
 43
0.0
 10
-131.2331253422
 20
47.4351213083
 10
-132.1559441865
 20
48.2980649419
 10
-135.8391343653
 20
51.9808560394
 10
-139.2146052144
 20
55.7606473286
 10
-142.2747102064
 20
59.6288763665
 10
-145.0125172195
 20
63.5767803703
 10
-147.4218242401
 20
67.5954160674
 10
-149.4971734129
 20
71.6756799557
 10
-151.2338634046
 20
75.8083289249
 10
-152.6279600537
 20
79.984001196
 10
-153.676305283
 20
84.1932375283
 10
-154.3765242533
 20
88.4265026476
 10
-154.7270307434
 20
92.6742068469
 10
-154.7270307434
 20
96.92672771
 10
-154.6761631731
 20
97.9255341341
  0
LWPOLYLINE
  5
248
330
231
100
AcDbEntity
  8
0
  6
Continuous
 62
     7
370
    25
100
AcDbPolyline
 90
       15
 70
   128
 43
0.0
 10
154.7222669058
 20
97.039276263
 10
154.7270307434
 20
96.92672771
 10
154.7270307434
 20
92.6742068469
 10
154.3765242533
 20
88.4265026476
 10
153.676305283
 20
84.1932375283
 10
152.6279600537
 20
79.984001196
 10
151.2338634046
 20
75.8083289249
 10
149.4971734129
 20
71.6756799557
 10
147.4218242401
 20
67.5954160674
 10
145.0125172195
 20
63.5767803702
 10
142.2747102064
 20
59.6288763665
 10
139.2146052144
 20
55.7606473286
 10
135.8391343653
 20
51.9808560394
 10
132.1559441865
 20
48.2980649419
 10
128.4784155206
 20
44.9817863753
  0
SPLINE
  5
249
330
231
100
AcDbEntity
  8
0
  6
Continuous
 62
     7
370
    25
100
AcDbSpline
210
0.0
220
0.0
230
1.0
 70
     8
 71
     3
 72
     8
 73
     4
 74
     0
 42
0.000000001
 43
0.00000001
 40
0.0
 40
0.0
 40
0.0
 40
0.0
 40
1.0
 40
1.0
 40
1.0
 40
1.0
 10
116.7777480684835
 20
80.5798622915473
 30
0.0
 10
120.9462666178262
 20
98.13411776032332
 30
0.0
 10
125.0923700595194
 20
115.6839613748731
 30
0.0
 10
129.2233466785703
 20
133.2308276521088
 30
0.0
  0
LWPOLYLINE
  5
24A
330
231
100
AcDbEntity
  8
0
  6
Continuous
 62
     7
370
    25
100
AcDbPolyline
 90
       30
 70
   128
 43
0.0
 10
129.2233466786
 20
133.2308276521
 10
125.128431497
 20
136.8587235915
 10
120.7281603461
 20
140.3654501323
 10
116.0332713852
 20
143.7424496679
 10
111.0552217418
 20
146.9814811699
 10
105.8061595515
 20
150.0746402988
 10
100.2988943131
 20
153.0143786933
 10
94.5468656285
 20
155.7935223909
 10
88.5641104059
 20
158.405289335
 10
82.3652286046
 20
160.8433059252
 10
75.9653476065
 20
163.1016225709
 10
69.3800852999
 20
165.1747282108
 10
62.6255119666
 20
167.0575637613
 10
55.7181110649
 20
168.7455344629
 10
48.6747390044
 20
170.2345210923
 10
41.5125840109
 20
171.5208900153
 10
34.2491241804
 20
172.6015020538
 10
26.9020848278
 20
173.4737201465
 10
19.4893952302
 20
174.1354157845
 10
12.0291448735
 20
174.584974205
 10
4.5395393083
 20
174.8212983326
 10
-2.9611442781
 20
174.8438114558
 10
-10.4546016645
 20
174.652458635
 10
-17.9225462638
 20
174.2477068362
 10
-25.346753749
 20
173.6305437916
 10
-32.7091065264
 20
172.8024755891
 10
-39.991637949
 20
171.7655229971
 10
-47.1765761608
 20
170.5222165328
 10
-54.2463874669
 20
169.0755902872
 10
-61.1838191208
 20
167.429174521
  0
SPLINE
  5
24B
330
231
100
AcDbEntity
  8
0
  6
Continuous
 62
     7
370
    25
100
AcDbSpline
210
0.0
220
0.0
230
1.0
 70
     8
 71
     3
 72
     8
 73
     4
 74
     0
 42
0.000000001
 43
0.00000001
 40
0.0
 40
0.0
 40
0.0
 40
0.0
 40
1.0
 40
1.0
 40
1.0
 40
1.0
 10
-61.18381912083761
 20
167.4291745209683
 30
0.0
 10
-56.93662964075156
 20
149.8086808183833
 30
0.0
 10
-52.66078030680151
 20
132.182883763004
 30
0.0
 10
-48.34115009905319
 20
114.548985290901
 30
0.0
  0
LWPOLYLINE
  5
24C
330
231
100
AcDbEntity
  8
0
  6
Continuous
 62
     7
370
    25
100
AcDbPolyline
 90
       33
 70
   128
 43
0.0
 10
114.4014075441
 20
-47.0351107969
 10
111.6778976492
 20
-48.5987191396
 10
106.16023213
 20
-51.5495146737
 10
100.4088935708
 20
-54.3476623359
 10
94.4365414463
 20
-56.9870030247
 10
88.2563217119
 20
-59.4617271938
 10
81.8818378677
 20
-61.7663876404
 10
75.3271210155
 20
-63.895911495
 10
68.6065989742
 20
-65.8456113872
 10
61.7350645225
 20
-67.6111957637
 10
54.7276428378
 20
-69.1887783344
 10
47.5997582037
 20
-70.5748866264
 10
40.3671000591
 20
-71.7664696279
 10
33.0455884635
 20
-72.7609045032
 10
25.6513390549
 20
-73.5560023668
 10
18.200627577
 20
-74.1500131005
 10
10.7098540544
 20
-74.5416292063
 10
3.1955066934
 20
-74.7299886842
 10
-4.3258744104
 20
-74.7146769295
 10
-11.8377336791
 20
-74.4957276454
 10
-19.3235364937
 20
-74.0736227689
 10
-26.766805589
 20
-73.44929141
 10
-34.1511573222
 20
-72.6241078066
 10
-41.4603377357
 20
-71.5998882993
 10
-48.6782583341
 20
-70.3788873341
 10
-55.7890314973
 20
-68.9637924992
 10
-62.7770054509
 20
-67.3577186099
 10
-69.6267987185
 20
-65.5642008523
 10
-76.323333978
 20
-63.5871870017
 10
-82.8518712489
 20
-61.4310287332
 10
-89.1980403369
 20
-59.1004720429
 10
-95.347872465
 20
-56.6006468017
 10
-99.921052441
 20
-54.5730231202
  0
SPLINE
  5
24D
330
231
100
AcDbEntity
  8
0
  6
Continuous
 62
     7
370
    25
100
AcDbSpline
210
0.0
220
0.0
230
1.0
 70
     8
 71
     3
 72
    28
 73
    24
 74
     0
 42
0.000000001
 43
0.00000001
 40
0.0
 40
0.0
 40
0.0
 40
0.0
 40
0.0625000000000009
 40
0.0625000000000009
 40
0.1250000000000018
 40
0.1250000000000018
 40
0.2500000000000037
 40
0.2500000000000037
 40
0.3125000000000037
 40
0.3125000000000037
 40
0.3750000000000037
 40
0.3750000000000037
 40
0.5000000000000022
 40
0.5000000000000022
 40
0.6250000000000008
 40
0.6250000000000008
 40
0.7500000000000006
 40
0.7500000000000006
 40
0.8750000000000002
 40
0.8750000000000002
 40
0.9375000000000002
 40
0.9375000000000002
 40
1.0
 40
1.0
 40
1.0
 40
1.0
 10
103.062195845132
 20
61.14564609088392
 30
0.0
 10
103.4396178131513
 20
61.37189459863089
 30
0.0
 10
103.8197621421674
 20
61.61586692667367
 30
0.0
 10
104.5741696466655
 20
62.13253534617391
 30
0.0
 10
104.9478820750531
 20
62.40469247871007
 30
0.0
 10
106.0587464274758
 20
63.26183668746008
 30
0.0
 10
106.7856828834379
 20
63.887269059498
 30
0.0
 10
107.8553705026197
 20
64.90744105562831
 30
0.0
 10
108.2084660248058
 20
65.26122507636367
 30
0.0
 10
108.9074958173916
 20
65.99714609636743
 30
0.0
 10
109.2539301039768
 20
66.38004095196412
 30
0.0
 10
110.2642660011238
 20
67.55187228672112
 30
0.0
 10
110.9054228832224
 20
68.36989448968367
 30
0.0
 10
112.1233000387387
 20
70.07912790196048
 30
0.0
 10
112.7002858066385
 20
70.97072521694436
 30
0.0
 10
113.7845139168052
 20
72.83036915248046
 30
0.0
 10
114.2770872334421
 20
73.77320469312137
 30
0.0
 10
115.1658548145511
 20
75.68419303567326
 30
0.0
 10
115.5620625679136
 20
76.6523422942649
 30
0.0
 10
116.0806793505205
 20
78.12445002813669
 30
0.0
 10
116.240924657694
 20
78.61900209222128
 30
0.0
 10
116.53118526914
 20
79.60178464008
 30
0.0
 10
116.6618061935785
 20
80.0916137045448
 30
0.0
 10
116.7777480684835
 20
80.57986229154729
 30
0.0
  0
SPLINE
  5
24E
330
231
100
AcDbEntity
  8
0
  6
Continuous
 62
     7
370
    25
100
AcDbSpline
210
0.0
220
0.0
230
1.0
 70
     8
 71
     3
 72
    28
 73
    24
 74
     0
 42
0.000000001
 43
0.00000001
 40
0.0
 40
0.0
 40
0.0
 40
0.0
 40
0.1250000000000003
 40
0.1250000000000003
 40
0.1875000000000001
 40
0.1875000000000001
 40
0.2499999999999999
 40
0.2499999999999999
 40
0.3750000000000001
 40
0.3750000000000001
 40
0.4375000000000007
 40
0.4375000000000007
 40
0.5000000000000013
 40
0.5000000000000013
 40
0.625000000000001
 40
0.625000000000001
 40
0.6875000000000002
 40
0.6875000000000002
 40
0.7499999999999996
 40
0.7499999999999996
 40
0.8749999999999998
 40
0.8749999999999998
 40
1.0
 40
1.0
 40
1.0
 40
1.0
 10
-48.34115009905321
 20
114.548985290901
 30
0.0
 10
-48.09354989884599
 20
113.5382143262256
 30
0.0
 10
-47.78255063038267
 20
112.5275739719834
 30
0.0
 10
-47.22583361846566
 20
111.011799301811
 30
0.0
 10
-47.02514201487018
 20
110.5065722261007
 30
0.0
 10
-46.59340110600957
 20
109.496180615545
 30
0.0
 10
-46.36134355743803
 20
108.9891583742569
 30
0.0
 10
-45.63196130072293
 20
107.4944170091378
 30
0.0
 10
-45.09912132347213
 20
106.5259041062599
 30
0.0
 10
-44.23424779091251
 20
105.1125455077144
 30
0.0
 10
-43.93496389032559
 20
104.6480287484378
 30
0.0
 10
-43.31449587031774
 20
103.7321495852937
 30
0.0
 10
-42.9924522874126
 20
103.2797909004809
 30
0.0
 10
-42.00895439832644
 20
101.963128519594
 30
0.0
 10
-41.32596284238922
 20
101.1322514540695
 30
0.0
 10
-40.26305248885426
 20
99.95187809580543
 30
0.0
 10
-39.90231469178469
 20
99.56946304361084
 30
0.0
 10
-39.16806510214752
 20
98.82655588763421
 30
0.0
 10
-38.79320629094877
 20
98.46487950163173
 30
0.0
 10
-37.66290147573783
 20
97.42519873963268
 30
0.0
 10
-36.90028053806847
 20
96.79023232654956
 30
0.0
 10
-35.3579868722198
 20
95.62945718580218
 30
0.0
 10
-34.57830884273343
 20
95.10368239465681
 30
0.0
 10
-33.79011024467658
 20
94.6324523472473
 30
0.0
  0
SPLINE
  5
24F
330
231
100
AcDbEntity
  8
0
  6
Continuous
 62
     7
370
    25
100
AcDbSpline
210
0.0
220
0.0
230
1.0
 70
     8
 71
     3
 72
    10
 73
     6
 74
     0
 42
0.000000001
 43
0.00000001
 40
0.0
 40
0.0
 40
0.0
 40
0.0
 40
0.5
 40
0.5
 40
1.0
 40
1.0
 40
1.0
 40
1.0
 10
63.6396103067893
 20
37.55145331167242
 30
0.0
 10
70.21030166120421
 20
41.47270337192226
 30
0.0
 10
76.78078090417306
 20
45.40300650555663
 30
0.0
 10
89.92158950963287
 20
53.2700097824647
 30
0.0
 10
96.49191117824476
 20
57.2070383061881
 30
0.0
 10
103.062195845132
 20
61.14564609088392
 30
0.0
  0
SPLINE
  5
250
330
231
100
AcDbEntity
  8
0
  6
Continuous
 62
     7
370
    25
100
AcDbSpline
210
0.0
220
0.0
230
1.0
 70
     8
 71
     3
 72
    14
 73
    10
 74
     0
 42
0.000000001
 43
0.00000001
 40
0.0
 40
0.0
 40
0.0
 40
0.0
 40
0.2499999999999999
 40
0.2499999999999999
 40
0.4999999999999999
 40
0.4999999999999999
 40
0.7499999999999999
 40
0.7499999999999999
 40
1.0
 40
1.0
 40
1.0
 40
1.0
 10
-33.79011024467658
 20
94.6324523472473
 30
0.0
 10
-25.67247898588331
 20
89.7792696945954
 30
0.0
 10
-17.55475664473774
 20
84.93160595012716
 30
0.0
 10
-1.318857453046683
 20
75.26381832576455
 30
0.0
 10
6.799307145943713
 20
70.44295209341836
 30
0.0
 10
23.03679977709708
 20
60.87171496285715
 30
0.0
 10
31.15618634285103
 20
56.12489076173951
 30
0.0
 10
47.39704013603684
 20
46.75731486943162
 30
0.0
 10
55.51847093448396
 20
42.13603927007187
 30
0.0
 10
63.63961030678932
 20
37.55145331167241
 30
0.0
  0
LWPOLYLINE
  5
253
330
231
100
AcDbEntity
  8
0
  6
Continuous
 62
     7
370
    25
100
AcDbPolyline
 90
        3
 70
   128
 43
0.0
 10
33.3239189629
 20
11.2211075679
 10
33.1490566003
 20
10.8551588685
 10
32.7432885646
 20
10.0943726829
  0
LWPOLYLINE
  5
25E
330
231
100
AcDbEntity
  8
0
  6
Continuous
 62
     7
370
    25
100
AcDbPolyline
 90
       66
 70
   128
 43
0.0
 10
-26.8700576851
 20
14.1007172746
 10
-24.1512838183
 20
12.6760315982
 10
-21.2070159216
 20
11.409476897
 10
-18.0647438313
 20
10.3128786508
 10
-14.753806095
 20
9.3964755022
 10
-11.3051160465
 20
8.6688236604
 10
-7.7508731754
 20
8.1367170145
 10
-4.1242624899
 20
7.805123701
 10
-0.4591446767
 20
7.6771397173
 10
3.2102600467
 20
7.7539600154
 10
6.8496914369
 20
8.0348673448
 10
10.4251691038
 20
8.5172389495
 10
13.9033097756
 20
9.1965710558
 10
17.2516389901
 20
10.0665209228
 10
20.4388942996
 20
11.118966063
 10
23.4353171599
 20
12.3440800798
 10
26.2129307782
 20
13.7304244136
 10
28.7458013245
 20
15.2650551409
 10
31.010280069
 20
16.9336438281
 10
32.9852241838
 20
18.7206113123
 10
34.6521941477
 20
20.6092731594
 10
35.9956259114
 20
22.5819954427
 10
37.0029762145
 20
24.6203593857
 10
37.6648396985
 20
26.7053333336
 10
37.9750367225
 20
28.8174504463
 10
37.9306710605
 20
30.9369904554
 10
37.5321569426
 20
33.044163787
 10
36.7832151879
 20
35.1192963314
 10
35.6908384636
 20
37.1430131351
 10
34.265225997
 20
39.0964192996
 10
32.5196883475
 20
40.9612763979
 10
30.4705231298
 20
42.7201727617
 10
28.1368628475
 20
44.3566860495
 10
25.5404962579
 20
45.8555365778
 10
22.7056649362
 20
47.2027299829
 10
19.6588369388
 20
48.3856878831
 10
16.4284596776
 20
49.3933653191
 10
13.0446943148
 20
50.2163538783
 10
9.5391341559
 20
50.8469695382
 10
5.9445096715
 20
51.2793244103
 10
2.294382902
 20
51.5093817136
 10
-1.3771659024
 20
51.5349934652
 10
-5.0358564799
 20
51.3559205349
 10
-8.6475286222
 20
50.9738348784
 10
-12.1784611198
 20
50.3923039267
 10
-15.5956866072
 20
49.6167572775
 10
-18.8672993708
 20
48.6544360009
 10
-21.9627532436
 20
47.5143250314
 10
-24.853146807
 20
46.2070692779
 10
-27.511493235
 20
44.7448742353
 10
-29.9129722631
 20
43.1413920245
 10
-32.0351619289
 20
41.411593927
 10
-33.8582479192
 20
39.5716306016
 10
-35.3652085712
 20
37.63868129
 10
-36.5419737994
 20
35.6307934193
 10
-37.377556464
 20
33.5667140974
 10
-37.8641549547
 20
31.4657150768
 10
-37.9972260325
 20
29.3474128193
 10
-37.7755272487
 20
27.2315853424
 10
-37.201128545
 20
25.1379875571
 10
-36.2793929273
 20
23.0861668219
 10
-35.0189263929
 20
21.0952804341
 10
-33.431497578
 20
19.1839167635
 10
-31.5319278779
 20
17.3699216977
 10
-29.337953063
 20
15.6702320199
 10
-26.8700576851
 20
14.1007172746
  0
LWPOLYLINE
  5
264
330
231
100
AcDbEntity
  8
0
  6
Continuous
 62
     7
370
    25
100
AcDbPolyline
 90
        9
 70
   128
 43
0.0
 10
43.6945225253
 20
28.6436742149
 10
43.7583887192
 20
28.4203609517
 10
43.7455605955
 20
28.1941457723
 10
43.6565311317
 20
27.9737219991
 10
43.4947216803
 20
27.767560394
 10
43.2663504877
 20
27.5835836319
 10
42.9801937308
 20
27.4288618367
 10
42.6472482532
 20
27.3093408801
 10
42.280308963
 20
27.2296138855
  0
LWPOLYLINE
  5
266
330
231
100
AcDbEntity
  8
0
  6
Continuous
 62
    60
370
    25
100
AcDbPolyline
 90
       46
 70
   128
 43
0.0
 10
113.1370849898
 20
29.2494053473
 10
107.7097439137
 20
26.2598394119
 10
102.0456334444
 20
23.4204165683
 10
96.1572045259
 20
20.7373784842
 10
90.057401203
 20
18.2166230595
 10
83.7596321673
 20
15.8636914619
 10
77.2777412818
 20
13.6837559456
 10
70.6259771495
 20
11.6816084819
 10
63.8189617916
 20
9.8616502255
 10
56.8716585051
 20
8.2278818397
 10
49.7993389704
 20
6.783894702
 10
42.6175496808
 20
5.5328630094
 10
35.3420777678
 20
4.4775368011
 10
27.9889162976
 20
3.6202359131
 10
20.574229115
 20
2.962844879
 10
13.1143153116
 20
2.5068087868
 10
5.625573397
 20
2.2531301028
 10
-1.8755347489
 20
2.2023664678
 10
-9.3725200624
 20
2.3546294714
 10
-16.8489025426
 20
2.7095844064
 10
-24.2882474784
 20
3.2664510049
 10
-31.6742015749
 20
4.0240051531
 10
-38.9905289022
 20
4.9805815826
 10
-46.221146585
 20
6.1340775309
 10
-53.3501601562
 20
7.4819573636
 10
-60.3618984968
 20
9.0212581481
 10
-67.2409482844
 20
10.7485961674
 10
-73.9721878743
 20
12.6601743576
 10
-80.5408205413
 20
14.7517906549
 10
-86.9324070051
 20
17.0188472328
 10
-93.1328971714
 20
19.4563606089
 10
-99.1286610172
 20
22.0589725998
 10
-104.9065185524
 20
24.8209620995
 10
-110.4537687921
 20
27.7362576556
 10
-115.7582176764
 20
30.7984508159
 10
-120.8082048754
 20
34.0008102152
 10
-125.5926294212
 20
37.3362963724
 10
-130.1009741104
 20
40.7975771652
 10
-134.3233286228
 20
44.3770439471
 10
-138.2504113069
 20
48.0668282734
 10
-141.8735895827
 20
51.8588191972
 10
-145.184898918
 20
55.7446810996
 10
-148.1770603361
 20
59.7158720128
 10
-150.843496417
 20
63.7636623972
 10
-153.1783457554
 20
67.8791543312
 10
-154.9404094322
 20
71.5177185306
  0
LWPOLYLINE
  5
267
330
231
100
AcDbEntity
  8
0
  6
Continuous
 62
    60
370
    25
100
AcDbPolyline
 90
       13
 70
   128
 43
0.0
 10
154.9348135895
 20
71.5051835206
 10
154.219792696
 20
69.9594665432
 10
152.0527074343
 20
65.8135078355
 10
149.5513773219
 20
61.7307446722
 10
146.7213008252
 20
57.7201518528
 10
143.5686990666
 20
53.7905455307
 10
140.1005021489
 20
49.9505638334
 10
136.3243339217
 20
46.2086478742
 10
132.2484952223
 20
42.5730231963
 10
127.8819456286
 20
39.0516816918
 10
123.2342837644
 20
35.6523640337
 10
118.3157261992
 20
32.3825426599
 10
113.1370849898
 20
29.2494053473
  0
LWPOLYLINE
  5
268
330
231
100
AcDbEntity
  8
0
  6
Continuous
 62
    60
370
    25
100
AcDbPolyline
 90
       66
 70
   128
 43
0.0
 10
-154.6761631731
 20
97.9255341341
 10
-154.3765242533
 20
101.1744319092
 10
-153.676305283
 20
105.4076970286
 10
-152.6279600537
 20
109.6169333608
 10
-151.2338634046
 20
113.792605632
 10
-149.4971734129
 20
117.9252546012
 10
-147.4218242401
 20
122.0055184894
 10
-145.0125172195
 20
126.0241541866
 10
-142.2747102064
 20
129.9720581903
 10
-139.2146052144
 20
133.8402872283
 10
-135.8391343653
 20
137.6200785175
 10
-132.1559441865
 20
141.302869615
 10
-128.1733782882
 20
144.8803178145
 10
-123.9004584632
 20
148.3443190451
 10
-119.3468642492
 20
151.68702623
 10
-114.5229110016
 20
154.9008670621
 10
-109.4395265262
 20
157.9785611585
 10
-104.1082263237
 20
160.9131365519
 10
-98.5410875039
 20
163.6979454854
 10
-92.7507214266
 20
166.326679471
 10
-86.7502451336
 20
168.7933835807
 10
-80.5532516335
 20
171.0924699364
 10
-74.1737791098
 20
173.2187303679
 10
-67.6262791197
 20
175.1673482115
 10
-60.9255838564
 20
176.9339092211
 10
-54.0868725499
 20
178.5144115678
 10
-47.1256370809
 20
179.9052749055
 10
-40.0576468867
 20
181.1033484812
 10
-32.8989132385
 20
182.1059182731
 10
-25.6656529703
 20
182.9107131381
 10
-18.3742517432
 20
183.515909957
 10
-11.0412269261
 20
183.9201377643
 10
-3.6831901788
 20
184.1224808541
 10
3.6831901788
 20
184.1224808541
 10
11.0412269261
 20
183.9201377643
 10
18.3742517432
 20
183.515909957
 10
25.6656529703
 20
182.9107131381
 10
32.8989132385
 20
182.1059182731
 10
40.0576468867
 20
181.1033484812
 10
47.1256370809
 20
179.9052749055
 10
54.0868725499
 20
178.5144115678
 10
60.9255838564
 20
176.9339092211
 10
67.6262791197
 20
175.1673482115
 10
74.1737791098
 20
173.2187303679
 10
80.5532516335
 20
171.0924699364
 10
86.7502451336
 20
168.7933835807
 10
92.7507214267
 20
166.326679471
 10
98.5410875039
 20
163.6979454854
 10
104.1082263237
 20
160.9131365519
 10
109.4395265262
 20
157.9785611585
 10
114.5229110016
 20
154.9008670621
 10
119.3468642492
 20
151.68702623
 10
123.9004584632
 20
148.3443190451
 10
128.1733782882
 20
144.8803178145
 10
132.1559441865
 20
141.302869615
 10
135.8391343653
 20
137.6200785175
 10
139.2146052144
 20
133.8402872283
 10
142.2747102064
 20
129.9720581903
 10
145.0125172195
 20
126.0241541866
 10
147.4218242401
 20
122.0055184894
 10
149.4971734129
 20
117.9252546012
 10
151.2338634046
 20
113.792605632
 10
152.6279600537
 20
109.6169333608
 10
153.676305283
 20
105.4076970286
 10
154.3765242533
 20
101.1744319092
 10
154.7222669058
 20
97.039276263
  0
LWPOLYLINE
  5
269
330
231
100
AcDbEntity
  8
0
  6
Continuous
 62
    60
370
    25
100
AcDbPolyline
 90
       10
 70
   128
 43
0.0
 10
116.7777480685
 20
80.5798622915
 10
120.0323716036
 20
77.0802050703
 10
122.9725537266
 20
73.4889989897
 10
125.5905922235
 20
69.815651711
 10
127.87962878
 20
66.069786076
 10
129.8336669481
 20
62.2612148982
 10
131.4475878543
 20
58.3999152569
 10
132.7171636093
 20
54.4960023611
 10
133.6390683838
 20
50.5597030509
 10
133.7661490299
 20
49.8585639956
  0
LWPOLYLINE
  5
26A
330
231
100
AcDbEntity
  8
0
  6
Continuous
 62
    60
370
    25
100
AcDbPolyline
 90
       23
 70
   128
 43
0.0
 10
-133.7661490299
 20
49.8585639956
 10
-133.3337773689
 20
52.0411673165
 10
-132.2809686738
 20
55.9665087054
 10
-130.8816316711
 20
59.855611485
 10
-129.1394321179
 20
63.6982876123
 10
-127.058933947
 20
67.4844706652
 10
-124.6455873113
 20
71.2042422132
 10
-121.9057143064
 20
74.8478577998
 10
-118.846492409
 20
78.4057724697
 10
-115.4759356741
 20
81.8686657729
 10
-111.8028737418
 20
85.227466181
 10
-107.8369287062
 20
88.4733748515
 10
-103.5884899092
 20
91.5978886773
 10
-99.0686867244
 20
94.592822562
 10
-94.2893594017
 20
97.4503308617
 10
-89.2630280508
 20
100.1629279378
 10
-84.0028598423
 20
102.7235077669
 10
-78.5226345148
 20
105.1253625556
 10
-72.8367082773
 20
107.362200313
 10
-66.9599762006
 20
109.4281613328
 10
-60.9078331977
 20
111.3178335442
 10
-54.6961336949
 20
113.0262666892
 10
-48.3411500991
 20
114.5489852909
  0
LWPOLYLINE
  5
26C
330
231
100
AcDbEntity
  8
0
  6
Continuous
 62
    60
370
    25
100
AcDbPolyline
 90
       23
 70
   128
 43
0.0
 10
-115.4795860861
 20
35.3605222084
 10
-115.0862005841
 20
37.913239654
 10
-114.2163873522
 20
41.5912680967
 10
-112.9941376167
 20
45.2357397132
 10
-111.4232228627
 20
48.8354087894
 10
-109.5084904482
 20
52.3791678581
 10
-107.2558486461
 20
55.8560819729
 10
-104.6722484134
 20
59.2554224506
 10
-101.7656619428
 20
62.566699976
 10
-98.5450580626
 20
65.7796969692
 10
-95.0203745619
 20
68.8844991135
 10
-91.2024875256
 20
71.8715259483
 10
-87.1031777743
 20
74.731560431
 10
-82.735094512
 20
77.4557773784
 10
-78.1117162949
 20
80.0357706982
 10
-73.2473094407
 20
82.4635793275
 10
-68.1568840067
 20
84.7317117987
 10
-62.8561474742
 20
86.8331693552
 10
-57.3614562792
 20
88.7614675481
 10
-51.6897653422
 20
90.5106562443
 10
-45.8585757501
 20
92.0753379878
 10
-39.8858807534
 20
93.4506846538
 10
-33.7901102447
 20
94.6324523472
  0
LWPOLYLINE
  5
26D
330
231
100
AcDbEntity
  8
0
  6
Continuous
 62
    60
370
    25
100
AcDbPolyline
 90
        3
 70
   128
 43
0.0
 10
34.0601749529
 20
9.9499509275
 10
31.0061140587
 20
8.3324535236
 10
28.4024035287
 20
7.1538683955
  0
LWPOLYLINE
  5
26E
330
231
100
AcDbEntity
  8
0
  6
Continuous
 62
    60
370
    25
100
AcDbPolyline
 90
       59
 70
   128
 43
0.0
 10
-28.2345221599
 20
7.0834325762
 10
-30.205808396
 20
7.9522535245
 10
-33.3194480468
 20
9.5314420557
 10
-36.1864021618
 20
11.2593035025
 10
-38.7854448156
 20
13.1230453832
 10
-41.0973336058
 20
15.1088692049
 10
-43.1049521167
 20
17.202072623
 10
-44.7934366432
 20
19.3871582915
 10
-46.1502862367
 20
21.6479486008
 10
-47.1654552574
 20
23.9677054504
 10
-47.8314277492
 20
26.3292541721
 10
-48.1432730846
 20
28.7151106854
 10
-48.09868247
 20
31.1076109435
 10
-47.6979860386
 20
33.4890417116
 10
-46.9441504066
 20
35.8417717093
 10
-45.8427567094
 20
38.148382147
 10
-44.4019592804
 20
40.391795688
 10
-42.6324252798
 20
42.5554028833
 10
-40.5472557182
 20
44.6231851422
 10
-38.1618884615
 20
46.5798333283
 10
-35.4939839343
 20
48.4108611031
 10
-32.5632943683
 20
50.1027121775
 10
-29.3915175637
 20
51.642860678
 10
-26.0021362462
 20
53.0199038842
 10
-22.4202442093
 20
54.2236466497
 10
-18.6723605285
 20
55.2451768843
 10
-14.7862332232
 20
56.0769315357
 10
-10.7906338203
 20
56.7127525833
 10
-6.71514434
 20
57.1479326306
 10
-2.5899382803
 20
57.3792497567
 10
1.5544427762
 20
57.4049913706
 10
5.6873152822
 20
57.2249668904
 10
9.7780808957
 20
56.8405091543
 10
13.7964530194
 20
56.2544645529
 10
17.7126810318
 20
55.4711719555
 10
21.4977705509
 20
54.4964305863
 10
25.1236980984
 20
53.3374570894
 10
28.5636185751
 20
52.002832099
 10
31.7920640134
 20
50.5024367118
 10
34.7851321328
 20
48.8473793302
 10
37.5206633042
 20
47.0499134199
 10
39.9784046117
 20
45.1233467897
 10
42.1401597988
 20
43.081943065
 10
43.9899239862
 20
40.9408160845
 10
45.5140021672
 20
38.7158180035
 10
46.7011106001
 20
36.4234219291
 10
47.5424603493
 20
34.08059996
 10
48.0318223558
 20
31.7046975303
 10
48.1655735544
 20
29.3133049904
 10
47.9427236981
 20
26.9241273738
 10
47.3649226892
 20
24.5548533158
 10
46.4364483642
 20
22.2230240927
 10
45.1641748223
 20
19.945903752
 10
43.5575215315
 20
17.7403512962
 10
41.6283835907
 20
15.6226958639
 10
39.3910436623
 20
13.6086158351
 10
36.8620662283
 20
11.7130227536
 10
34.0601749529
 20
9.9499509275
 10
34.0601749529
 20
9.9499509275
  0
LWPOLYLINE
  5
26F
330
231
100
AcDbEntity
  8
0
  6
Continuous
 62
    60
370
    25
100
AcDbPolyline
 90
       38
 70
   128
 43
0.0
 10
-45.2258673298
 20
26.9084422279
 10
-45.2039033204
 20
28.072414872
 10
-44.8943821177
 20
30.3753617678
 10
-44.2335015049
 20
32.6535048191
 10
-43.2264337688
 20
34.889014468
 10
-41.8810605799
 20
37.0643948202
 10
-40.2079113075
 20
39.1626205752
 10
-38.2200806133
 20
41.1672702714
 10
-35.9331259675
 20
43.062654807
 10
-33.3649458911
 20
44.8339402282
 10
-30.5356398753
 20
46.4672638249
 10
-27.4673510756
 20
47.9498426254
 10
-24.1840930122
 20
49.2700734405
 10
-20.711561631
 20
50.417623674
 10
-17.0769341982
 20
51.3835121894
 10
-13.3086566016
 20
52.1601795995
 10
-9.4362207225
 20
52.7415474288
 10
-5.4899336222
 20
53.1230656858
 10
-1.5006803477
 20
53.3017484727
 10
2.5003177852
 20
53.2761973546
 10
6.4817475413
 20
53.0466123035
 10
10.4124488347
 20
52.6147901339
 10
14.2616585982
 20
51.9841104396
 10
17.9992515465
 20
51.1595091443
 10
21.5959759472
 20
50.1474398713
 10
25.0236825551
 20
48.9558234348
 10
28.2555449188
 20
47.5939858491
 10
31.2662693331
 20
46.0725853397
 10
34.0322927976
 20
44.4035289285
 10
36.5319674282
 20
42.5998792447
 10
38.7457298818
 20
40.6757522927
 10
40.6562544657
 20
38.6462069747
 10
42.2485887346
 20
36.5271272346
 10
43.5102705139
 20
34.3350977445
 10
44.431425433
 20
32.0872741072
 10
45.0048442058
 20
29.8012485904
 10
45.2260390528
 20
27.4949124433
 10
45.2278425662
 20
27.0356452232
  0
LWPOLYLINE
  5
271
330
231
100
AcDbEntity
  8
0
  6
Continuous
 62
    60
370
    25
100
AcDbPolyline
 90
        3
 70
   128
 43
0.0
 10
43.7626708727
 20
25.0355683629
 10
44.2561961119
 20
23.7237586769
 10
44.5651942749
 20
22.6686388132
  0
LWPOLYLINE
  5
273
330
231
100
AcDbEntity
  8
0
  6
Continuous
 62
    60
370
    25
100
AcDbPolyline
 90
        3
 70
   128
 43
0.0
 10
41.5013073009
 20
20.5767884716
 10
41.7070519805
 20
19.8140384388
 10
42.0243668328
 20
18.0128987888
  0
LWPOLYLINE
  5
275
330
231
100
AcDbEntity
  8
0
  6
Continuous
 62
    60
370
    25
100
AcDbPolyline
 90
       16
 70
   128
 43
0.0
 10
11.3569294417
 20
5.8381658201
 10
13.337540039
 20
6.2093655431
 10
16.8102370711
 20
7.026025244
 10
20.1352051353
 20
8.0268238659
 10
23.2832242928
 20
9.2029663544
 10
26.2266296381
 20
10.5441167271
 10
28.9395544191
 20
12.0384889062
 10
31.3981573553
 20
13.6729502953
 10
33.5808321557
 20
15.433137189
 10
35.4683973957
 20
17.3035810015
 10
37.044265084
 20
19.2678442054
 10
38.2945864389
 20
21.308664785
 10
39.2083735911
 20
23.4081079356
 10
39.7775961465
 20
25.5477236755
 10
39.9972517567
 20
27.7087089844
 10
39.9998556019
 20
28.0414363282
  0
LWPOLYLINE
  5
276
330
231
100
AcDbEntity
  8
0
  6
Continuous
 62
    60
370
    25
100
AcDbPolyline
 90
       10
 70
   128
 43
0.0
 10
-40.0
 20
27.9793897755
 10
-39.975268076
 20
27.1674961766
 10
-39.6679192613
 20
25.010077362
 10
-39.0119673458
 20
22.8787529717
 10
-38.0131768586
 20
20.7922531611
 10
-36.6803252063
 20
18.7689141654
 10
-35.0251255372
 20
16.8265171605
 10
-33.0621238056
 20
14.9821320013
 10
-30.8085709411
 20
13.2519672106
 10
-28.2842712475
 20
11.651227539
  0
LWPOLYLINE
  5
277
330
231
100
AcDbEntity
  8
0
  6
Continuous
 62
    60
370
    25
100
AcDbPolyline
 90
        3
 70
   128
 43
0.0
 10
-28.2842712475
 20
8.3850642915
 10
-25.5114083611
 20
6.9278170967
 10
-25.2039188975
 20
6.7823089507
  0
LWPOLYLINE
  5
278
330
231
100
AcDbEntity
  8
0
  6
Continuous
 62
    60
370
    25
100
AcDbPolyline
 90
       12
 70
   128
 43
0.0
 10
25.3055225179
 20
6.8300632598
 10
26.2266296381
 20
7.2779534795
 10
28.9395544191
 20
8.7723256586
 10
31.3981573553
 20
10.4067870477
 10
33.5808321557
 20
12.1669739414
 10
35.4683973957
 20
14.0374177539
 10
37.044265084
 20
16.0016809578
 10
38.2945864389
 20
18.0425015374
 10
39.2083735911
 20
20.1419446881
 10
39.7775961465
 20
22.2815604279
 10
39.9972517567
 20
24.4425457369
 10
40.0
 20
24.7132265279
  0
LWPOLYLINE
  5
279
330
231
100
AcDbEntity
  8
0
  6
Continuous
 62
    60
370
    25
100
AcDbPolyline
 90
       10
 70
   128
 43
0.0
 10
-40.0
 20
24.7132265279
 10
-39.975268076
 20
23.9013329291
 10
-39.6679192613
 20
21.7439141145
 10
-39.0119673458
 20
19.6125897242
 10
-38.0131768586
 20
17.5260899135
 10
-36.6803252063
 20
15.5027509179
 10
-35.0251255372
 20
13.560353913
 10
-33.0621238056
 20
11.7159687537
 10
-30.8085709411
 20
9.9858039631
 10
-28.2842712475
 20
8.3850642915
  0
LINE
  5
27B
330
231
100
AcDbEntity
  8
0
  6
Continuous
 62
     7
370
    25
100
AcDbLine
 10
160.8129393169
 20
18.7847142187
 30
0.0
 11
159.9969546322
 21
95.1319365161
 31
0.0
  0
LINE
  5
27C
330
231
100
AcDbEntity
  8
0
  6
Continuous
 62
     7
370
    25
100
AcDbLine
 10
-159.9969546322
 20
95.1319365161
 30
0.0
 11
-160.8129393169
 21
18.7847142187
 31
0.0
  0
LINE
  5
27D
330
231
100
AcDbEntity
  8
0
  6
Continuous
 62
     7
370
    25
100
AcDbLine
 10
-40.0
 20
27.9793897755
 30
0.0
 11
-40.0
 21
24.7132265279
 31
0.0
  0
LINE
  5
27E
330
231
100
AcDbEntity
  8
0
  6
Continuous
 62
     7
370
    25
100
AcDbLine
 10
40.0
 20
24.7132265279
 30
0.0
 11
40.0
 21
27.9793897755
 31
0.0
  0
LINE
  5
27F
330
231
100
AcDbEntity
  8
0
  6
Continuous
 62
     7
370
    25
100
AcDbLine
 10
43.7626708727
 20
23.0239827249
 30
0.0
 11
43.7626708727
 21
28.3448481061
 31
0.0
  0
LINE
  5
280
330
231
100
AcDbEntity
  8
0
  6
Continuous
 62
     7
370
    25
100
AcDbLine
 10
45.2278425662
 20
27.0356452232
 30
0.0
 11
45.2253621917
 21
26.88387735
 31
0.0
  0
LINE
  5
281
330
231
100
AcDbEntity
  8
0
  6
Continuous
 62
     7
370
    25
100
AcDbLine
 10
-32.7662818456
 20
10.1347494457
 30
0.0
 11
-33.3500314331
 21
11.2782022676
 31
0.0
  0
LINE
  5
282
330
231
100
AcDbEntity
  8
0
  6
Continuous
 62
     7
370
    25
100
AcDbLine
 10
-61.1838191208
 20
167.429174521
 30
0.0
 11
63.6396103068
 21
95.370142532
 31
0.0
  0
LINE
  5
283
330
231
100
AcDbEntity
  8
0
  6
Continuous
 62
     7
370
    25
100
AcDbLine
 10
63.6396103068
 20
95.370142532
 30
0.0
 11
63.6396103068
 21
37.5514533117
 31
0.0
  0
LINE
  5
284
330
231
100
AcDbEntity
  8
0
  6
Continuous
 62
     7
370
    25
100
AcDbLine
 10
63.6396103068
 20
95.370142532
 30
0.0
 11
129.2233466786
 21
133.2308276521
 31
0.0
  0
LINE
  5
285
330
231
100
AcDbEntity
  8
0
  6
Continuous
 62
     7
370
    25
100
AcDbLine
 10
-173.2411613907
 20
232.1185012623
 30
0.0
 11
-76.2490172938
 21
176.1261283063
 31
0.0
  0
LINE
  5
286
330
231
100
AcDbEntity
  8
0
  6
Continuous
 62
     7
370
    25
100
AcDbLine
 10
-84.8528137424
 20
283.1440082512
 30
0.0
 11
-173.2411613907
 21
232.1185012623
 31
0.0
  0
LINE
  5
287
330
231
100
AcDbEntity
  8
0
  6
Continuous
 62
     7
370
    25
100
AcDbLine
 10
152.0279579551
 20
146.3956495209
 30
0.0
 11
-84.8528137424
 21
283.1440082512
 31
0.0
  0
LINE
  5
288
330
231
100
AcDbEntity
  8
0
  6
Continuous
 62
     7
370
    25
100
AcDbLine
 10
140.0149513878
 20
139.4606884444
 30
0.0
 11
152.0279579551
 21
146.3956495209
 31
0.0
  0
LINE
  5
289
330
231
100
AcDbEntity
  8
0
  6
Continuous
 62
     7
370
    25
100
AcDbLine
 10
152.0279579551
 20
146.3956495209
 30
0.0
 11
152.2027979443
 21
123.1594094568
 31
0.0
  0
LINE
  5
28A
330
231
100
AcDbEntity
  8
0
  6
Continuous
 62
     7
370
    25
100
AcDbLine
 10
-173.2411613907
 20
232.1185012623
 30
0.0
 11
-174.2902020476
 21
162.712532252
 31
0.0
  0
LINE
  5
28B
330
231
100
AcDbEntity
  8
0
  6
Continuous
 62
     7
370
    25
100
AcDbLine
 10
-174.2902020476
 20
162.712532252
 30
0.0
 11
-137.8551075475
 21
141.6789999085
 31
0.0
  0
LINE
  5
28C
330
231
100
AcDbEntity
  8
0
  6
Continuous
 62
     7
370
    25
100
AcDbLine
 10
-39.9892076295
 20
28.5157621891
 30
0.0
 11
-40.0
 21
27.9793897755
 31
0.0
  0
LINE
  5
28D
330
231
100
AcDbEntity
  8
0
  6
Continuous
 62
     7
370
    25
100
AcDbLine
 10
42.2629758241
 20
20.694606235
 30
0.0
 11
39.2670481137
 21
20.2311848234
 31
0.0
  0
LINE
  5
28E
330
231
100
AcDbEntity
  8
0
  6
Continuous
 62
     7
370
    25
100
AcDbLine
 10
42.280308963
 20
27.2296138855
 30
0.0
 11
40.0
 21
26.8768870841
 31
0.0
  0
LINE
  5
28F
330
231
100
AcDbEntity
  8
0
  6
Continuous
 62
     7
370
    25
100
AcDbLine
 10
42.6592463449
 20
30.8741426561
 30
0.0
 11
43.6945225253
 21
28.6436742149
 31
0.0
  0
LINE
  5
290
330
231
100
AcDbEntity
  8
0
  6
Continuous
 62
     7
370
    25
100
AcDbLine
 10
39.519600443
 20
31.583794807
 30
0.0
 11
40.2097566021
 21
31.6905507679
 31
0.0
  0
LINE
  5
291
330
231
100
AcDbEntity
  8
0
  6
Continuous
 62
    60
370
    25
100
AcDbLine
 10
42.280308963
 20
20.7014717728
 30
0.0
 11
42.280308963
 21
27.2296138855
 31
0.0
  0
ARC
  5
292
330
231
100
AcDbEntity
  8
0
  6
Continuous
 62
     7
370
    25
100
AcDbCircle
 10
-104.3280098859
 20
94.5876936457
 30
0.0
 40
55.62228635759284
100
AcDbArc
 50
153.2898087848
 51
204.5042890632
  0
ARC
  5
293
330
231
100
AcDbEntity
  8
0
  6
Continuous
 62
     7
370
    25
100
AcDbCircle
 10
104.4584960566
 20
94.5919046517
 30
0.0
 40
55.50545310384159
100
AcDbArc
 50
335.421719637
 51
26.8873430491
  0
ARC
  5
294
330
231
100
AcDbEntity
  8
0
  6
Continuous
 62
     7
370
    25
100
AcDbCircle
 10
40.8048965119
 20
29.3933271479
 30
0.0
 40
2.373062972688984
100
AcDbArc
 50
38.6095758316
 51
104.5242514331
  0
ARC
  5
295
330
231
100
AcDbEntity
  8
0
  6
Continuous
 62
    60
370
    25
100
AcDbCircle
 10
68.5271526287
 20
28.6315793703
 30
0.0
 40
47.43241238511241
100
AcDbArc
 50
8.1695420493
 51
43.2735285245
  0
ARC
  5
296
330
231
100
AcDbEntity
  8
0
  6
Continuous
 62
    60
370
    25
100
AcDbCircle
 10
-25.0817788509
 20
17.1345481126
 30
0.0
 40
20.254827338076
100
AcDbArc
 50
136.2067203782
 51
164.0660044606
  0
ARC
  5
297
330
231
100
AcDbEntity
  8
0
  6
Continuous
 62
    60
370
    25
100
AcDbCircle
 10
-26.5301450719
 20
16.1771939912
 30
0.0
 40
15.60250680612386
100
AcDbArc
 50
150.479546935
 51
173.2841025755
  0
ARC
  5
298
330
231
100
AcDbEntity
  8
0
  6
Continuous
 62
    60
370
    25
100
AcDbCircle
 10
-3.1931993909
 20
57.1580085581
 30
0.0
 40
51.96565217166348
100
AcDbArc
 50
241.1289780052
 51
261.0126809042
  0
VIEWPORT
  5
35E
330
231
100
AcDbEntity
  8
0
100
AcDbViewport
 10
0.0
 20
0.0
 30
0.0
 40
205.6
 41
156.0
 68
     1
 69
     1
 12
-69.9628822538
 22
9.5919903727
 13
0.0
 23
0.0
 14
10.0
 24
10.0
 15
10.0
 25
10.0
 16
0.0
 26
0.0
 36
1.0
 17
0.0
 27
0.0
 37
0.0
 42
50.0
 43
0.0
 44
0.0
 45
357.2134125293
 50
0.0
 51
0.0
 72
   100
 90
   557152
  1

281
     0
 71
     1
 74
     0
110
0.0
120
0.0
130
0.0
111
1.0
121
0.0
131
0.0
112
0.0
122
1.0
132
0.0
 79
     0
146
0.0
  0
ENDBLK
  5
234
330
231
100
AcDbEntity
  8
0
100
AcDbBlockEnd
  0
BLOCK
  5
29B
330
299
100
AcDbEntity
  8
0
100
AcDbBlockBegin
  2
*Paper_Space6
 70
     0
 10
0.0
 20
0.0
 30
0.0
  3
*Paper_Space6
  1

  0
SPLINE
  5
29F
330
299
100
AcDbEntity
  8
0
  6
Continuous
 62
     7
370
    25
100
AcDbSpline
210
0.0
220
0.0
230
1.0
 70
     8
 71
     3
 72
    68
 73
    64
 74
     0
 42
0.000000001
 43
0.00000001
 40
0.0
 40
0.0
 40
0.0
 40
0.0
 40
0.0067052785020887
 40
0.0232409407473199
 40
0.0397966351729145
 40
0.0563706738230055
 40
0.0729604679423439
 40
0.0895630317768323
 40
0.106175375063822
 40
0.1227947609194914
 40
0.1394188421317096
 40
0.1560457058190017
 40
0.1726738588514905
 40
0.1893019963096111
 40
0.205929286831653
 40
0.2225552481018375
 40
0.2391795781327581
 40
0.2558021110729052
 40
0.2724227816062096
 40
0.2890415970861235
 40
0.3056586162153056
 40
0.3222739330430299
 40
0.3388876651624417
 40
0.3554999451576505
 40
0.3721109145270776
 40
0.3887207194710725
 40
0.4053295080692341
 40
0.4219374284849267
 40
0.438544627922952
 40
0.4551512521347683
 40
0.4717574453176397
 40
0.4883633502928648
 40
0.504969108876568
 40
0.5215748623765558
 40
0.5381807172598947
 40
0.5547868032299479
 40
0.5713932632139718
 40
0.58800024173761
 40
0.6046078853749852
 40
0.6212163430464205
 40
0.6378257660849859
 40
0.6544363079706262
 40
0.6710481235966124
 40
0.6876613678870366
 40
0.7042761935229312
 40
0.7208927474546345
 40
0.7375111657755172
 40
0.7541315664039189
 40
0.7707540388648851
 40
0.787378630285563
 40
0.8040053265318018
 40
0.8206340272528773
 40
0.8372645135325689
 40
0.8538964069880343
 40
0.8705291197112689
 40
0.8871614953292932
 40
0.9037921704316327
 40
0.920419421903342
 40
0.9370410758996959
 40
0.9536545134726834
 40
0.9702567517015617
 40
0.9868446346887053
 40
0.9999999999999999
 40
0.9999999999999999
 40
0.9999999999999999
 40
0.9999999999999999
 10
155.7678547303526
 20
118.1575464941212
 30
0.0
 10
155.5580519000739
 20
118.6451788357162
 30
0.0
 10
154.8308613522678
 20
120.3353449270956
 30
0.0
 10
153.2644458926762
 20
123.184782798454
 30
0.0
 10
151.0787696904118
 20
126.6990450745423
 30
0.0
 10
148.5742915884504
 20
130.1566141760267
 30
0.0
 10
145.7799966325263
 20
133.5535534329306
 30
0.0
 10
142.6950295409273
 20
136.8819732142045
 30
0.0
 10
139.327422102571
 20
140.1352537681041
 30
0.0
 10
135.6836307998826
 20
143.3067048335153
 30
0.0
 10
131.7712733435197
 20
146.3899602038707
 30
0.0
 10
127.5983331281368
 20
149.378886783761
 30
0.0
 10
123.1733391944478
 20
152.2676005074424
 30
0.0
 10
118.5052738668989
 20
155.0504663495535
 30
0.0
 10
113.6035558079068
 20
157.7221015398727
 30
0.0
 10
108.4779975437654
 20
160.2773791447385
 30
0.0
 10
103.1388046993091
 20
162.7114160300565
 30
0.0
 10
97.59657201574859
 20
165.019568260373
 30
0.0
 10
91.86226823997521
 20
167.1974348701866
 30
0.0
 10
85.94721981532687
 20
169.2408630121358
 30
0.0
 10
79.86309327124347
 20
171.1459540422151
 30
0.0
 10
73.62187621985369
 20
172.9090701400951
 30
0.0
 10
67.23585700783133
 20
174.5268411393964
 30
0.0
 10
60.7176031159617
 20
175.9961713111954
 30
0.0
 10
54.07993842816668
 20
177.3142459053003
 30
0.0
 10
47.33591949996956
 20
178.478537303488
 30
0.0
 10
40.49881095577951
 20
179.4868106778856
 30
0.0
 10
33.58206013854358
 20
180.3371290773073
 30
0.0
 10
26.59927112750859
 20
181.0278578864188
 30
0.0
 10
19.56417823167069
 20
181.5576686187393
 30
0.0
 10
12.49061905899892
 20
181.9255420161693
 30
0.0
 10
5.392507254750469
 20
182.1307704360698
 30
0.0
 10
-1.716195002202145
 20
182.172959512925
 30
0.0
 10
-8.821499685562491
 20
182.0520291704396
 30
0.0
 10
-15.9094239345
 20
181.7682143084717
 30
0.0
 10
-22.96601967172729
 20
181.3220643555335
 30
0.0
 10
-29.9774062469139
 20
180.7144413681144
 30
0.0
 10
-36.92979467041625
 20
179.9465178222294
 30
0.0
 10
-43.80951315223157
 20
179.01977389439
 30
0.0
 10
-50.60303405261665
 20
177.9359939340502
 30
0.0
 10
-57.29700042438591
 20
176.6972622045998
 30
0.0
 10
-63.87825205199552
 20
175.3059579058127
 30
0.0
 10
-70.33385088538982
 20
173.7647494979553
 30
0.0
 10
-76.65110575741524
 20
172.0765883584068
 30
0.0
 10
-82.8175962629128
 20
170.2447018169241
 30
0.0
 10
-88.82119566598936
 20
168.2725856374935
 30
0.0
 10
-94.65009268995074
 20
166.1639960452515
 30
0.0
 10
-100.2928120363407
 20
163.9229414394872
 30
0.0
 10
-105.7382334706634
 20
161.553673990335
 30
0.0
 10
-110.9756093411033
 20
159.0606813953353
 30
0.0
 10
-115.9945803527518
 20
156.4486791581551
 30
0.0
 10
-120.785189767244
 20
153.7226039080644
 30
0.0
 10
-125.3378952828335
 20
150.8876082634547
 30
0.0
 10
-129.6435819527173
 20
147.9490584147931
 30
0.0
 10
-133.6935409344455
 20
144.9125519264503
 30
0.0
 10
-137.4795248886657
 20
141.7839212013503
 30
0.0
 10
-140.9936696951117
 20
138.5692276219742
 30
0.0
 10
-144.2289035224637
 20
135.2748072266009
 30
0.0
 10
-147.1775795830497
 20
131.9071007047323
 30
0.0
 10
-149.8366663959106
 20
128.4733872366498
 30
0.0
 10
-152.1885766293912
 20
124.9791082230386
 30
0.0
 10
-154.1298422244931
 20
121.6808865614348
 30
0.0
 10
-155.1418407530519
 20
119.5286487315014
 30
0.0
 10
-155.5894452044588
 20
118.5767192513899
 30
0.0
  0
SPLINE
  5
2A0
330
299
100
AcDbEntity
  8
0
  6
Continuous
 62
     7
370
    25
100
AcDbSpline
210
0.0
220
0.0
230
1.0
 70
     8
 71
     3
 72
    56
 73
    52
 74
     0
 42
0.000000001
 43
0.00000001
 40
0.0
 40
0.0
 40
0.0
 40
0.0
 40
0.0108393989536323
 40
0.0314611809130181
 40
0.0520809720939384
 40
0.0726980151776723
 40
0.0933140725164475
 40
0.1139301546271661
 40
0.1345471805303255
 40
0.1551658447263859
 40
0.1757865873918791
 40
0.1964096569789252
 40
0.217035160457128
 40
0.2376631025299185
 40
0.2582934155883242
 40
0.278925982173908
 40
0.2995606515424835
 40
0.3201972516713118
 40
0.3408355977985214
 40
0.3614754983539397
 40
0.3821167589464581
 40
0.4027591849156165
 40
0.4234025828308416
 40
0.4440467612257543
 40
0.4646915307821356
 40
0.485336704123546
 40
0.5059820953388685
 40
0.5266275193276634
 40
0.5472727332858164
 40
0.5679175473138274
 40
0.5885617735702398
 40
0.6092052217471926
 40
0.6298476985588236
 40
0.6504890074876899
 40
0.6711289489073262
 40
0.6917673207392032
 40
0.7124039198562038
 40
0.7330385445171969
 40
0.753670998212661
 40
0.7743010954251986
 40
0.7949286699661051
 40
0.8155535867439733
 40
0.8361757580529676
 40
0.8567951657275783
 40
0.8774118907695799
 40
0.8980261522519195
 40
0.9186383573290069
 40
0.9392491638322515
 40
0.959859506139436
 40
0.9804703186788707
 40
0.9999999999999999
 40
0.9999999999999999
 40
0.9999999999999999
 40
0.9999999999999999
 10
137.02716205123
 20
62.54420485042147
 30
0.0
 10
136.4521302963957
 20
61.99255123181792
 30
0.0
 10
134.7831098878877
 20
60.391385487255
 30
0.0
 10
131.8084383661694
 20
57.79784765912925
 30
0.0
 10
128.0202303223372
 20
54.79623337162995
 30
0.0
 10
123.9669661403773
 20
51.88471136681584
 30
0.0
 10
119.6617132711009
 20
49.06826126161218
 30
0.0
 10
115.111769150686
 20
46.35308376156215
 30
0.0
 10
110.3266217982585
 20
43.74478957857021
 30
0.0
 10
105.3158149800753
 20
41.24888183624061
 30
0.0
 10
100.0895040891616
 20
38.87061068606548
 30
0.0
 10
94.65828763434119
 20
36.61499570294139
 30
0.0
 10
89.03321988749008
 20
34.48679963731762
 30
0.0
 10
83.2257719483665
 20
32.4905173168179
 30
0.0
 10
77.24780620063711
 20
30.63036327414547
 30
0.0
 10
71.1115470277651
 20
28.91026199522094
 30
0.0
 10
64.82955250295258
 20
27.33383932314868
 30
0.0
 10
58.41468582243525
 20
25.90441507985893
 30
0.0
 10
51.88008679853811
 20
24.62499663938456
 30
0.0
 10
45.23914329595476
 20
23.49827334192066
 30
0.0
 10
38.5054626087571
 20
22.5266116492264
 30
0.0
 10
31.69284275188616
 20
21.71205097898368
 30
0.0
 10
24.81524365811191
 20
21.05630017518189
 30
0.0
 10
17.88675827884797
 20
20.56073458722214
 30
0.0
 10
10.92158359692134
 20
20.22639374050905
 30
0.0
 10
3.933991566741138
 20
20.05397958793489
 30
0.0
 10
-3.061699994859404
 20
20.04385533550334
 30
0.0
 10
-10.05115002629402
 20
20.19604469571806
 30
0.0
 10
-17.02002947997407
 20
20.51023128914589
 30
0.0
 10
-23.95405101602752
 20
20.98575914440348
 30
0.0
 10
-30.83900448708318
 20
21.62163460125216
 30
0.0
 10
-37.66077977069279
 20
22.41652786617458
 30
0.0
 10
-44.40539513290611
 20
23.36877517456493
 30
0.0
 10
-51.05902587539315
 20
24.47638151747748
 30
0.0
 10
-57.60803281425607
 20
25.73702391148355
 30
0.0
 10
-64.03899058139625
 20
27.14805521325778
 30
0.0
 10
-70.33871574550425
 20
28.70650848812942
 30
0.0
 10
-76.49429477453582
 20
30.40910194939756
 30
0.0
 10
-82.49311182567594
 20
32.25224451395525
 30
0.0
 10
-88.32287654461673
 20
34.23204199860251
 30
0.0
 10
-93.97165138790325
 20
36.34430418597937
 30
0.0
 10
-99.42788052880147
 20
38.58455240369219
 30
0.0
 10
-104.6804129329821
 20
40.94802968946671
 30
0.0
 10
-109.7185475173395
 20
43.42970687855183
 30
0.0
 10
-114.5319963688796
 20
46.02431097138177
 30
0.0
 10
-119.1111540186618
 20
48.72627944369636
 30
0.0
 10
-123.4462243221553
 20
51.53000258064009
 30
0.0
 10
-127.5306049695745
 20
54.42900359660316
 30
0.0
 10
-131.3483453828021
 20
57.41907445018401
 30
0.0
 10
-134.8584126002058
 20
60.43289202297312
 30
0.0
 10
-136.9494199798073
 20
62.48606908871921
 30
0.0
 10
-137.9667644077459
 20
63.48500781451466
 30
0.0
  0
SPLINE
  5
2A1
330
299
100
AcDbEntity
  8
0
  6
Continuous
 62
     7
370
    25
100
AcDbSpline
210
0.0
220
0.0
230
1.0
 70
     8
 71
     3
 72
    11
 73
     7
 74
     0
 42
0.000000001
 43
0.00000001
 40
0.0
 40
0.0
 40
0.0
 40
0.0
 40
0.2918492979123731
 40
0.6435539986010501
 40
0.9854307551710494
 40
1.0
 40
1.0
 40
1.0
 40
1.0
 10
45.2055103769777
 20
28.36251891307828
 30
0.0
 10
45.18762293719488
 20
27.87876427348778
 30
0.0
 10
45.14817952074909
 20
26.81204170510335
 30
0.0
 10
44.67663395022966
 20
25.16061822989769
 30
0.0
 10
44.23528408407355
 20
23.95933927146986
 30
0.0
 10
43.85550596785943
 20
23.34938470503264
 30
0.0
 10
43.83998305461567
 20
23.32445364288554
 30
0.0
  0
SPLINE
  5
2A2
330
299
100
AcDbEntity
  8
0
  6
Continuous
 62
     7
370
    25
100
AcDbSpline
210
0.0
220
0.0
230
1.0
 70
     8
 71
     3
 72
    11
 73
     7
 74
     0
 42
0.000000001
 43
0.00000001
 40
0.0
 40
0.0
 40
0.0
 40
0.0
 40
0.0346011461023112
 40
0.3598526913732522
 40
0.6934112701027171
 40
0.9999999999999999
 40
0.9999999999999999
 40
0.9999999999999999
 40
0.9999999999999999
 10
-43.82792973575001
 20
23.31528181190658
 30
0.0
 10
-43.86380515446015
 20
23.37381657979906
 30
0.0
 10
-44.23691030938204
 20
23.98257947171987
 30
0.0
 10
-44.67111214528789
 20
25.14517613413597
 30
0.0
 10
-45.13109882104777
 20
26.74559227875022
 30
0.0
 10
-45.18544091406447
 20
27.7949390798363
 30
0.0
 10
-45.2114672255922
 20
28.29750762715537
 30
0.0
  0
SPLINE
  5
2A3
330
299
100
AcDbEntity
  8
0
  6
Continuous
 62
     7
370
    25
100
AcDbSpline
210
0.0
220
0.0
230
1.0
 70
     8
 71
     3
 72
    43
 73
    39
 74
     0
 42
0.000000001
 43
0.00000001
 40
0.0
 40
0.0
 40
0.0
 40
0.0
 40
0.0170448513029499
 40
0.0439751051106987
 40
0.0710114614175916
 40
0.0983669747990521
 40
0.1261519191472472
 40
0.154358554682128
 40
0.1828922277613042
 40
0.2116274450088501
 40
0.2404544616849419
 40
0.269290635391367
 40
0.2980945749074493
 40
0.3268536417270923
 40
0.3555665028932304
 40
0.3842376053919143
 40
0.4128740321513006
 40
0.4414838738700693
 40
0.4700754724617539
 40
0.4986571380389665
 40
0.5272371124190558
 40
0.5558221278390707
 40
0.5844193411462171
 40
0.6130373590509474
 40
0.6416851049228104
 40
0.6703717777217172
 40
0.6991065469422967
 40
0.7278977304239399
 40
0.7567510077748364
 40
0.7856659318017348
 40
0.8146297005006738
 40
0.8435954857930196
 40
0.8724733352683224
 40
0.9011376963639801
 40
0.9294429714906447
 40
0.9572819850780707
 40
0.9846549603655714
 40
1.0
 40
1.0
 40
1.0
 40
1.0
 10
39.96214657770768
 20
29.51842923380445
 30
0.0
 10
39.9594543875952
 20
29.93060199888378
 30
0.0
 10
39.9525086336505
 20
30.99399295172796
 30
0.0
 10
39.58431003298728
 20
32.69445321567397
 30
0.0
 10
38.90604445812301
 20
34.59498211914921
 30
0.0
 10
37.91157459049646
 20
36.44744186844034
 30
0.0
 10
36.62031786064545
 20
38.24336035379798
 30
0.0
 10
35.0322613022994
 20
39.97040353261764
 30
0.0
 10
33.15859694483429
 20
41.61348560428586
 30
0.0
 10
31.01487659465851
 20
43.15696201239731
 30
0.0
 10
28.62173348030036
 20
44.58658439422031
 30
0.0
 10
26.00209282581768
 20
45.89056563480449
 30
0.0
 10
23.17971914704617
 20
47.05953519318496
 30
0.0
 10
20.1783630039925
 20
48.08602404591413
 30
0.0
 10
17.02203460572504
 20
48.96382616001308
 30
0.0
 10
13.73539613936287
 20
49.68767943474702
 30
0.0
 10
10.3438139313291
 20
50.25321849469104
 30
0.0
 10
6.873318038340146
 20
50.6569973064255
 30
0.0
 10
3.350488049932612
 20
50.89653569932091
 30
0.0
 10
-0.1977123723430826
 20
50.97036409364171
 30
0.0
 10
-3.744069918543882
 20
50.87805503398791
 30
0.0
 10
-7.261350398761107
 20
50.62024731930997
 30
0.0
 10
-10.72257833685562
 20
50.19863735266902
 30
0.0
 10
-14.10132078013416
 20
49.61592239460321
 30
0.0
 10
-17.3718750879051
 20
48.87571938303865
 30
0.0
 10
-20.50939590310351
 20
47.98247319149177
 30
0.0
 10
-23.49002698604377
 20
46.94133868075628
 30
0.0
 10
-26.29096035497061
 20
45.75805358575958
 30
0.0
 10
-28.89039310465887
 20
44.43883503584475
 30
0.0
 10
-31.26732491826644
 20
42.99037014086867
 30
0.0
 10
-33.40096997240402
 20
41.42024270406012
 30
0.0
 10
-35.27019214180386
 20
39.73781237042611
 30
0.0
 10
-36.85452466987648
 20
37.95538964566217
 30
0.0
 10
-38.1331192315021
 20
36.08944584345557
 30
0.0
 10
-39.09591040949719
 20
34.16100194939927
 30
0.0
 10
-39.71420136962249
 20
32.19492049899156
 30
0.0
 10
-40.01013085412715
 20
30.49691993821127
 30
0.0
 10
-39.97159354626031
 20
29.46440049118121
 30
0.0
 10
-39.95775028791364
 20
29.09350189331914
 30
0.0
  0
SPLINE
  5
2A6
330
299
100
AcDbEntity
  8
0
  6
Continuous
 62
     7
370
    25
100
AcDbSpline
210
0.0
220
0.0
230
1.0
 70
     8
 71
     3
 72
    10
 73
     6
 74
     0
 42
0.000000001
 43
0.00000001
 40
0.0
 40
0.0
 40
0.0
 40
0.0
 40
0.2849077748120071
 40
0.9410070512085289
 40
1.0
 40
1.0
 40
1.0
 40
1.0
 10
-39.95775028791365
 20
25.66483269051084
 30
0.0
 10
-39.958883652963
 20
25.38234543051026
 30
0.0
 10
-39.96262698535796
 20
24.44933297161011
 30
0.0
 10
-39.80844710915858
 20
23.45511504342855
 30
0.0
 10
-39.57150431282544
 20
22.76823997787462
 30
0.0
 10
-39.55195724776413
 20
22.71157485952893
 30
0.0
  0
SPLINE
  5
2A7
330
299
100
AcDbEntity
  8
0
  6
Continuous
 62
     7
370
    25
100
AcDbSpline
210
0.0
220
0.0
230
1.0
 70
     8
 71
     3
 72
    10
 73
     6
 74
     0
 42
0.000000001
 43
0.00000001
 40
0.0
 40
0.0
 40
0.0
 40
0.0
 40
0.2162649135897837
 40
0.8173381966738401
 40
1.0
 40
1.0
 40
1.0
 40
1.0
 10
39.52381928813569
 20
22.70163848117916
 30
0.0
 10
39.59635105857073
 20
22.93278691695275
 30
0.0
 10
39.87047313165642
 20
23.8063749739481
 30
0.0
 10
40.01652707281779
 20
24.90854519243191
 30
0.0
 10
39.97570012692097
 20
25.76854085467252
 30
0.0
 10
39.96618476427976
 20
25.96897638606752
 30
0.0
  0
LWPOLYLINE
  5
2AC
330
299
100
AcDbEntity
  8
0
  6
Continuous
 62
     7
370
    25
100
AcDbPolyline
 90
       69
 70
   128
 43
0.0
 10
160.8137893292
 20
19.5523597185
 10
160.7422977282
 20
16.6107258968
 10
160.3370958706
 20
12.7307125365
 10
159.5790214516
 20
8.8647565326
 10
158.4697428542
 20
5.0213661459
 10
157.0117013971
 20
1.2089999741
 10
155.2081059625
 20
-2.5639516636
 10
153.0629259332
 20
-6.2891851921
 10
150.5808824574
 20
-9.9585020552
 10
147.7674380579
 20
-13.563826759
 10
144.62878461
 20
-17.0972246446
 10
141.1718297149
 20
-20.5509193509
 10
137.4041814966
 20
-23.9173099288
 10
133.3341318583
 20
-27.1889875696
 10
128.9706382334
 20
-30.3587519105
 10
124.3233038715
 20
-33.4196268811
 10
119.4023567038
 20
-36.3648760567
 10
114.2186268331
 20
-39.1880174835
 10
108.7835226988
 20
-41.8828379448
 10
103.109005969
 20
-44.4434066345
 10
97.2075652148
 20
-46.8640882104
 10
91.0921884259
 20
-49.1395551959
 10
84.7763344257
 20
-51.2647997053
 10
78.2739032512
 20
-53.2351444649
 10
71.5992055618
 20
-55.046253107
 10
64.7669311436
 20
-56.6941397134
 10
57.7921165806
 20
-58.1751775878
 10
50.6901121611
 20
-59.4861072372
 10
43.4765480952
 20
-60.6240435457
 10
36.1673001154
 20
-61.5864821241
 10
28.7784545368
 20
-62.3713048214
 10
21.3262728543
 20
-62.9767843868
 10
13.8271559539
 20
-63.4015882707
 10
6.2976080175
 20
-63.6447815576
 10
-1.2457997999
 20
-63.7058290236
 10
-8.7864658403
 20
-63.5845963145
 10
-16.3077944798
 20
-63.2813502413
 10
-23.7932326525
 20
-62.7967581929
 10
-31.2263062809
 20
-62.1318866677
 10
-38.5906565324
 20
-61.288198926
 10
-45.8700758218
 20
-60.2675517699
 10
-53.0485434814
 20
-59.0721914567
 10
-60.1102610196
 20
-57.7047487555
 10
-67.0396868903
 20
-56.1682331569
 10
-73.8215706972
 20
-54.4660262502
 10
-80.4409867571
 20
-52.6018742807
 10
-86.8833669484
 20
-50.5798799054
 10
-93.134532773
 20
-48.4044931633
 10
-99.1807265607
 20
-46.0805016818
 10
-105.0086417472
 20
-43.6130201403
 10
-110.6054521592
 20
-41.0074790134
 10
-115.9588402429
 20
-38.2696126195
 10
-121.0570241721
 20
-35.4054465009
 10
-125.8887837786
 20
-32.4212841622
 10
-130.4434852449
 20
-29.3236931977
 10
-134.7111045079
 20
-26.1194908375
 10
-138.6822493198
 20
-22.8157289436
 10
-142.3481799187
 20
-19.4196784906
 10
-145.7008282632
 20
-15.9388135629
 10
-148.7328157889
 20
-12.3807949064
 10
-151.4374696468
 20
-8.753453068
 10
-153.8088373895
 20
-5.0647711622
 10
-155.8417000713
 20
-1.3228673019
 10
-157.531583734
 20
2.4640232683
 10
-158.8747692534
 20
6.2875662965
 10
-159.8683005243
 20
10.1393468651
 10
-160.5099909664
 20
14.0108879111
 10
-160.7984283368
 20
17.8936688822
 10
-160.8137893292
 20
19.5523597185
  0
LWPOLYLINE
  5
2AD
330
299
100
AcDbEntity
  8
0
  6
Continuous
 62
     7
370
    25
100
AcDbPolyline
 90
      134
 70
   128
 43
0.0
 10
140.6225150226
 20
61.8984322766
 10
136.9613543284
 20
58.5207983728
 10
132.9945792977
 20
55.2359810089
 10
128.7310413566
 20
52.0513098971
 10
124.1802541255
 20
48.9738912838
 10
119.3523721901
 20
46.0105920934
 10
114.2581684428
 20
43.1680246049
 10
108.9090100442
 20
40.452531698
 10
103.3168330583
 20
37.8701726992
 10
97.4941158186
 20
35.4267098612
 10
91.4538510841
 20
33.127595505
 10
85.2095170472
 20
30.9779598537
 10
78.775047259
 20
28.9825995851
 10
72.1647995375
 20
27.1459671282
 10
65.3935239301
 20
25.472160728
 10
58.4763298005
 20
23.9649153012
 10
51.4286521135
 20
22.6275941017
 10
44.2662169939
 20
21.4631812161
 10
37.0050066351
 20
20.4742749047
 10
29.6612236366
 20
19.6630818043
 10
22.25125485
 20
19.0314120038
 10
14.7916348131
 20
18.5806750056
 10
7.2990088551
 20
18.3118765801
 10
-0.2099040458
 20
18.2256165219
 10
-7.7183485687
 20
18.3220873106
 10
-15.2095704379
 20
18.6010736824
 10
-22.6668538081
 20
19.0619531096
 10
-30.0735585642
 20
19.7036971898
 10
-37.4131574518
 20
20.5248739412
 10
-44.6692729556
 20
21.5236509974
 10
-51.8257138448
 20
22.697799696
 10
-58.8665113014
 20
24.0447000524
 10
-65.775954553
 20
25.5613466051
 10
-72.5386259302
 20
27.2443551226
 10
-79.1394352687
 20
29.0899701548
 10
-85.5636535818
 20
31.0940734129
 10
-91.7969459264
 20
33.2521929589
 10
-97.8254033899
 20
35.5595131843
 10
-103.6355741265
 20
38.0108855553
 10
-109.2144933733
 20
40.6008401016
 10
-114.5497123801
 20
43.3235976221
 10
-119.629326187
 20
46.1730825798
 10
-124.4420001893
 20
49.1429366598
 10
-128.9769954296
 20
52.2265329563
 10
-133.2241925602
 20
55.4169907601
 10
-137.1741144234
 20
58.7071909124
 10
-140.8179471991
 20
62.0897916901
 10
-144.1475600716
 20
65.5572451881
 10
-147.1555233726
 20
69.101814162
 10
-149.8351251598
 20
72.7155892922
 10
-152.1803861938
 20
76.3905068334
 10
-154.1860732802
 20
80.1183666076
 10
-155.8477109468
 20
83.890850302
 10
-157.1615914303
 20
87.6995400302
 10
-158.1247829496
 20
91.5359371164
 10
-158.7351362476
 20
95.3914810583
 10
-158.9912893877
 20
99.2575686299
 10
-158.8926707919
 20
103.1255730781
 10
-158.4395005169
 20
106.9868633724
 10
-157.6327897628
 20
110.8328234645
 10
-156.4743386167
 20
114.6548715134
 10
-154.9667320361
 20
118.4444790354
 10
-153.1133340808
 20
122.1931899344
 10
-150.9182804064
 20
125.8926393705
 10
-148.3864690359
 20
129.5345724254
 10
-145.5235494304
 20
133.1108625224
 10
-142.3359098832
 20
136.61352956
 10
-138.8306632644
 20
140.0347577182
 10
-135.0156311499
 20
143.3669128993
 10
-130.8993263682
 20
146.6025597622
 10
-126.4909340046
 20
149.7344783135
 10
-121.8002909065
 20
152.7556800182
 10
-116.8378637327
 20
155.6594233941
 10
-111.6147255986
 20
158.4392290541
 10
-106.1425313677
 20
161.0888941649
 10
-100.4334916453
 20
163.6025062875
 10
-94.5003455312
 20
165.9744565705
 10
-88.3563321944
 20
168.1994522652
 10
-82.0151613312
 20
170.2725285363
 10
-75.4909825732
 20
172.1890595399
 10
-68.7983539144
 20
173.944768746
 10
-61.9522092263
 20
175.5357384809
 10
-54.9678249347
 20
176.9584186688
 10
-47.860785932
 20
178.2096347541
 10
-40.6469508012
 20
179.2865947844
 10
-33.3424164293
 20
180.1868956407
 10
-25.9634820887
 20
180.9085283999
 10
-18.5266130672
 20
181.449882817
 10
-11.0484039277
 20
181.8097509186
 10
-3.5455414788
 20
181.9873296983
 10
3.9652324596
 20
181.9822229085
 10
11.4671584138
 20
181.7944419443
 10
18.9434966536
 20
181.4244058185
 10
26.3775645451
 20
180.8729402264
 10
33.7527737759
 20
180.1412757034
 10
41.0526673702
 20
179.2310448791
 10
48.2609564112
 20
178.1442788345
 10
55.3615563872
 20
176.8834025694
 10
62.3386230833
 20
175.4512295919
 10
69.1765879355
 20
173.8509556399
 10
75.8601927703
 20
172.0861515504
 10
82.3745238521
 20
170.1607552913
 10
88.7050451608
 20
168.0790631746
 10
94.837630828
 20
165.8457202694
 10
100.7585966572
 20
163.4657100369
 10
106.4547306584
 20
160.9443432107
 10
111.9133225292
 20
158.287245946
 10
117.1221920167
 20
155.5003472659
 10
122.0697160965
 20
152.589865831
 10
126.7448549076
 20
149.5622960635
 10
131.1371763872
 20
146.4243936554
 10
135.2368795487
 20
143.1831604939
 10
139.0348163512
 20
139.8458290376
 10
142.5225121127
 20
136.419846178
 10
145.6921844201
 20
132.9128566225
 10
148.536760495
 20
129.332685836
 10
151.0498929761
 20
125.6873225796
 10
153.2259740819
 20
121.9849010841
 10
155.0601481247
 20
118.2336828995
 10
156.548322345
 20
114.4420384605
 10
157.6871760442
 20
110.6184284083
 10
158.4741679943
 20
106.7713847123
 10
158.9075421086
 20
102.9094916311
 10
158.98633136
 20
99.0413665582
 10
158.7103599389
 20
95.1756407933
 10
158.0802436453
 20
91.3209402821
 10
157.0973885152
 20
87.4858663687
 10
155.7639876827
 20
83.6789766027
 10
154.0830164863
 20
79.9087656436
 10
152.0582258302
 20
76.1836463064
 10
149.694133814
 20
72.5119307889
 10
146.9960156515
 20
68.9018121241
 10
143.9698918992
 20
65.3613458985
 10
140.6225150226
 20
61.8984322766
  0
LWPOLYLINE
  5
2AE
330
299
100
AcDbEntity
  8
0
  6
Continuous
 62
     7
370
    25
100
AcDbPolyline
 90
      133
 70
   128
 43
0.0
 10
137.7256402099
 20
62.6857407782
 10
134.1115831594
 20
59.3529640957
 10
130.1937202383
 20
56.1125302017
 10
125.980926666
 20
52.9717797214
 10
121.4827457752
 20
49.9378274647
 10
116.7093673921
 20
47.0175463094
 10
111.6716047543
 20
44.2175516314
 10
106.3808700142
 20
41.5441863193
 10
100.8491483879
 20
39.0035064055
 10
95.088971004
 20
36.601267347
 10
89.1133865169
 20
34.3429109879
 10
82.9359315475
 20
32.2335532319
 10
76.5706000181
 20
30.2779724526
 10
70.0318114519
 20
28.4805986695
 10
63.3343783082
 20
26.8455035123
 10
56.4934724271
 20
25.3763909975
 10
49.5245906608
 20
24.0765891373
 10
42.4435197678
 20
22.9490424012
 10
35.2663006513
 20
21.996305045
 10
28.009192021
 20
21.2205353254
 10
20.688633562
 20
20.6234906103
 10
13.3212086938
 20
20.2065233979
 10
5.9236070034
 20
19.9705782531
 10
-1.4874135621
 20
19.9161896676
 10
-8.8950646575
 20
20.0434808491
 10
-16.2825655704
 20
20.3521634419
 10
-23.6331812354
 20
20.8415381809
 10
-30.9302601436
 20
21.5104964747
 10
-38.1572720643
 20
22.3575229178
 10
-45.2978454912
 20
23.3806987227
 10
-52.3358047287
 20
24.5777060672
 10
-59.2552065355
 20
25.9458333447
 10
-66.040376241
 20
27.4819813068
 10
-72.6759432535
 20
29.1826700843
 10
-79.1468758795
 20
31.0440470702
 10
-85.4385153753
 20
33.0618956469
 10
-91.5366091538
 20
35.2316447383
 10
-97.4273430713
 20
37.5483791649
 10
-103.0973727208
 20
40.0068507782
 10
-108.5338536615
 20
42.601490349
 10
-113.7244705154
 20
45.3264201844
 10
-118.657464866
 20
48.1754674417
 10
-123.3216618944
 20
51.1421781127
 10
-127.7064956942
 20
54.2198316434
 10
-131.8020332065
 20
57.4014561587
 10
-135.5989967215
 20
60.6798442558
 10
-139.0887848957
 20
64.0475693311
 10
-142.2634922365
 20
67.4970024043
 10
-145.1159270106
 20
71.0203293999
 10
-147.6396275357
 20
74.6095688491
 10
-149.8288768186
 20
78.2565899701
 10
-151.6787155054
 20
81.9531310871
 10
-153.1849531166
 20
85.6908183455
 10
-154.3441775395
 20
89.4611846815
 10
-155.1537627579
 20
93.2556890026
 10
-155.611874801
 20
97.0657355362
 10
-155.7174758975
 20
100.8826933014
 10
-155.4703268272
 20
104.6979156612
 10
-154.870987462
 20
108.5027599098
 10
-153.9208154984
 20
112.2886068512
 10
-152.6219633816
 20
116.0468803246
 10
-150.9773734293
 20
119.7690666316
 10
-148.9907711668
 20
123.4467338231
 10
-146.666656887
 20
127.0715508001
 10
-144.0102954564
 20
130.6353061862
 10
-141.027704388
 20
134.1299269293
 10
-137.7256402099
 20
137.5474965893
 10
-134.1115831594
 20
140.8802732719
 10
-130.1937202383
 20
144.1207071658
 10
-125.980926666
 20
147.2614576461
 10
-121.4827457752
 20
150.2954099028
 10
-116.7093673921
 20
153.2156910582
 10
-111.6716047543
 20
156.0156857361
 10
-106.3808700142
 20
158.6890510482
 10
-100.8491483879
 20
161.2297309621
 10
-95.088971004
 20
163.6319700206
 10
-89.1133865169
 20
165.8903263796
 10
-82.9359315475
 20
167.9996841357
 10
-76.5706000181
 20
169.9552649149
 10
-70.0318114519
 20
171.752638698
 10
-63.3343783082
 20
173.3877338552
 10
-56.4934724271
 20
174.8568463701
 10
-49.5245906608
 20
176.1566482302
 10
-42.4435197678
 20
177.2841949664
 10
-35.2663006513
 20
178.2369323225
 10
-28.009192021
 20
179.0127020421
 10
-20.688633562
 20
179.6097467573
 10
-13.3212086938
 20
180.0267139697
 10
-5.9236070034
 20
180.2626591144
 10
1.4874135621
 20
180.3170476999
 10
8.8950646575
 20
180.1897565185
 10
16.2825655704
 20
179.8810739256
 10
23.6331812354
 20
179.3916991867
 10
30.9302601436
 20
178.7227408928
 10
38.1572720643
 20
177.8757144498
 10
45.2978454912
 20
176.8525386448
 10
52.3358047287
 20
175.6555313003
 10
59.2552065355
 20
174.2874040229
 10
66.040376241
 20
172.7512560608
 10
72.6759432535
 20
171.0505672832
 10
79.1468758795
 20
169.1891902973
 10
85.4385153753
 20
167.1713417207
 10
91.5366091538
 20
165.0015926292
 10
97.4273430713
 20
162.6848582026
 10
103.0973727208
 20
160.2263865894
 10
108.5338536615
 20
157.6317470185
 10
113.7244705154
 20
154.9068171832
 10
118.657464866
 20
152.0577699258
 10
123.3216618944
 20
149.0910592549
 10
127.7064956942
 20
146.0134057242
 10
131.8020332065
 20
142.8317812089
 10
135.5989967215
 20
139.5533931118
 10
139.0887848957
 20
136.1856680364
 10
142.2634922365
 20
132.7362349632
 10
145.1159270106
 20
129.2129079676
 10
147.6396275357
 20
125.6236685184
 10
149.8288768186
 20
121.9766473974
 10
151.6787155054
 20
118.2801062804
 10
153.1849531166
 20
114.542419022
 10
154.3441775395
 20
110.7720526861
 10
155.1537627579
 20
106.9775483649
 10
155.611874801
 20
103.1675018313
 10
155.7174758975
 20
99.3505440662
 10
155.4703268272
 20
95.5353217064
 10
154.870987462
 20
91.7304774578
 10
153.9208154984
 20
87.9446305163
 10
152.6219633816
 20
84.1863570429
 10
150.9773734293
 20
80.4641707359
 10
148.9907711668
 20
76.7865035444
 10
146.666656887
 20
73.1616865674
 10
144.0102954564
 20
69.5979311813
 10
141.027704388
 20
66.1033104383
 10
137.7256402099
 20
62.6857407782
  0
LWPOLYLINE
  5
2B0
330
299
100
AcDbEntity
  8
0
  6
Continuous
 62
     7
370
    25
100
AcDbPolyline
 90
       13
 70
   128
 43
0.0
 10
-137.8376098445
 20
63.2634527731
 10
-138.2369519216
 20
63.6690578775
 10
-141.392216139
 20
67.0973653018
 10
-144.2271815103
 20
70.5991140939
 10
-146.7354259272
 20
74.1663716664
 10
-148.9112674092
 20
77.7910570337
 10
-150.7497769757
 20
81.4649591175
 10
-152.246789811
 20
85.179755348
 10
-153.3989146997
 20
88.9270305169
 10
-154.2035417082
 20
92.6982958407
 10
-154.6588480977
 20
96.4850081905
 10
-154.7638024527
 20
100.2785894449
 10
-154.7165821469
 20
101.6281805307
  0
LWPOLYLINE
  5
2B1
330
299
100
AcDbEntity
  8
0
  6
Continuous
 62
     7
370
    25
100
AcDbPolyline
 90
       12
 70
   128
 43
0.0
 10
154.7198767705
 20
101.5631245511
 10
154.7638024527
 20
98.7558236782
 10
154.5181670179
 20
94.963967201
 10
153.9224982365
 20
91.1824252754
 10
152.9781454898
 20
87.4197643101
 10
151.6872480407
 20
83.6845079425
 10
150.052730187
 20
79.9851177296
 10
148.0782946373
 20
76.3299739801
 10
145.7684141233
 20
72.7273567702
 10
143.1283212672
 20
69.1854271866
 10
140.1639967285
 20
65.712208839
 10
136.8821556557
 20
62.3155696841
  0
SPLINE
  5
2B2
330
299
100
AcDbEntity
  8
0
  6
Continuous
 62
     7
370
    25
100
AcDbSpline
210
0.0
220
0.0
230
1.0
 70
     8
 71
     3
 72
     8
 73
     4
 74
     0
 42
0.000000001
 43
0.00000001
 40
0.0
 40
0.0
 40
0.0
 40
0.0
 40
1.0
 40
1.0
 40
1.0
 40
1.0
 10
91.89564722362356
 20
94.76524327416385
 30
0.0
 10
94.57985661127475
 20
113.3261762585759
 30
0.0
 10
97.2492341280729
 20
131.881607583414
 30
0.0
 10
99.9086023652657
 20
150.4333261164192
 30
0.0
  0
LWPOLYLINE
  5
2B3
330
299
100
AcDbEntity
  8
0
  6
Continuous
 62
     7
370
    25
100
AcDbPolyline
 90
       30
 70
   128
 43
0.0
 10
99.9086023653
 20
150.4333261164
 10
94.1401496677
 20
152.9026492217
 10
88.1419629575
 20
155.2222386428
 10
81.9286798522
 20
157.3864337918
 10
75.5154628776
 20
159.3899532958
 10
68.9179624663
 20
161.2279078853
 10
62.1522787654
 20
162.8958123252
 10
55.2349223462
 20
164.3895963611
 10
48.1827739133
 20
165.7056146513
 10
41.0130431095
 20
166.8406556632
 10
33.7432265187
 20
167.7919495104
 10
26.3910649683
 20
168.557174712
 10
18.9745002352
 20
169.134463858
 10
11.5116312621
 20
169.5224081663
 10
4.02066999
 20
169.7200609209
 10
-3.4801030856
 20
169.7269397817
 10
-10.972383525
 20
169.5430279619
 10
-18.4378876134
 20
169.1687742689
 10
-25.8583969793
 20
168.6050920093
 10
-33.2158030538
 20
167.8533567596
 10
-40.4921512613
 20
166.9154030097
 10
-47.6696848354
 20
165.7935196861
 10
-54.7308881506
 20
164.4904445659
 10
-61.6585294671
 20
163.0093575962
 10
-68.4357029816
 20
161.3538731332
 10
-75.0458700839
 20
159.5280311227
 10
-81.4728997157
 20
157.5362872406
 10
-87.701107737
 20
155.3835020202
 10
-93.7152952
 20
153.0749289902
 10
-99.5007854398
 20
150.6162018547
  0
SPLINE
  5
2B4
330
299
100
AcDbEntity
  8
0
  6
Continuous
 62
     7
370
    25
100
AcDbSpline
210
0.0
220
0.0
230
1.0
 70
     8
 71
     3
 72
     8
 73
     4
 74
     0
 42
0.000000001
 43
0.00000001
 40
0.0
 40
0.0
 40
0.0
 40
0.0
 40
1.0
 40
1.0
 40
1.0
 40
1.0
 10
-99.50078543981569
 20
150.6162018547154
 30
0.0
 10
-94.1214533023176
 20
133.2750098306304
 30
0.0
 10
-88.70632443134389
 20
115.9358572540382
 30
0.0
 10
-83.2365123690976
 20
98.5998201432025
 30
0.0
  0
LWPOLYLINE
  5
2B5
330
299
100
AcDbEntity
  8
0
  6
Continuous
 62
     7
370
    25
100
AcDbPolyline
 90
       42
 70
   128
 43
0.0
 10
129.0741905069
 20
-30.2864593928
 10
128.4884334897
 20
-30.6933699882
 10
123.8501811549
 20
-33.7429213676
 10
118.9393178081
 20
-36.6770701998
 10
113.766652924
 20
-39.489358026
 10
108.3435722383
 20
-42.17359462
 10
102.6820126856
 20
-44.7238716139
 10
96.7944361246
 20
-47.1345755028
 10
90.6938019085
 20
-49.4004000011
 10
84.3935383587
 20
-51.5163577223
 10
77.9075132081
 20
-53.4777911573
 10
71.250003076
 20
-55.2803829254
 10
64.4356620433
 20
-56.9201652782
 10
57.4794893969
 20
-58.3935288329
 10
50.3967966144
 20
-59.6972305167
 10
43.2031736612
 20
-60.8284007059
 10
35.9144546751
 20
-61.7845495417
 10
28.5466831132
 20
-62.5635724112
 10
21.1160764379
 20
-63.1637545796
 10
13.6389904202
 20
-63.5837749646
 10
6.1318831386
 20
-63.8227090446
 10
-1.3887212478
 20
-63.8800308933
 10
-8.9062688707
 20
-63.7556143375
 10
-16.4042125904
 20
-63.449733235
 10
-23.8660484179
 20
-62.9630608714
 10
-31.2753518424
 20
-62.2966684786
 10
-38.6158139843
 20
-61.4520228762
 10
-45.871277493
 20
-60.4309832438
 10
-53.0257721111
 20
-59.2357970275
 10
-60.0635498276
 20
-57.8690949942
 10
-66.9691195412
 20
-56.33388544
 10
-73.7272811582
 20
-54.6335475689
 10
-80.3231590503
 20
-52.7718240546
 10
-86.7422347974
 20
-50.7528128027
 10
-92.970379145
 20
-48.5809579301
 10
-98.9938831043
 20
-46.2610399835
 10
-104.7994881278
 20
-43.7981654162
 10
-110.3744152931
 20
-41.1977553485
 10
-115.706393431
 20
-38.4655336349
 10
-120.7836861358
 20
-35.6075142652
 10
-125.595117599
 20
-32.629988127
 10
-127.5475104177
 20
-31.3362687454
  0
SPLINE
  5
2B6
330
299
100
AcDbEntity
  8
0
  6
Continuous
 62
     7
370
    25
100
AcDbSpline
210
0.0
220
0.0
230
1.0
 70
     8
 71
     3
 72
    28
 73
    24
 74
     0
 42
0.000000001
 43
0.00000001
 40
0.0
 40
0.0
 40
0.0
 40
0.0
 40
0.0625000000000009
 40
0.0625000000000009
 40
0.1250000000000018
 40
0.1250000000000018
 40
0.2500000000000037
 40
0.2500000000000037
 40
0.3125000000000037
 40
0.3125000000000037
 40
0.3750000000000037
 40
0.3750000000000037
 40
0.5000000000000022
 40
0.5000000000000022
 40
0.6250000000000008
 40
0.6250000000000008
 40
0.7500000000000006
 40
0.7500000000000006
 40
0.8750000000000002
 40
0.8750000000000002
 40
0.9375000000000002
 40
0.9375000000000002
 40
1.0
 40
1.0
 40
1.0
 40
1.0
 10
82.89425717240559
 20
73.86013851368902
 30
0.0
 10
83.14332126086421
 20
74.11203831817434
 30
0.0
 10
83.3941106393032
 20
74.38262013255451
 30
0.0
 10
83.8916656409797
 20
74.9536572937915
 30
0.0
 10
84.13806874550437
 20
75.25352621782352
 30
0.0
 10
84.87029159360107
 20
76.19535769279237
 30
0.0
 10
85.34916395254302
 20
76.8793087503223
 30
0.0
 10
86.05338312997155
 20
77.99038842055835
 30
0.0
 10
86.2857649898266
 20
78.37499874809575
 30
0.0
 10
86.74565845099943
 20
79.17365420397529
 30
0.0
 10
86.97349798985651
 20
79.58851318315729
 30
0.0
 10
87.63772175586968
 20
80.85621460463544
 30
0.0
 10
88.05890746307529
 20
81.73864951295887
 30
0.0
 10
88.85826171082958
 20
83.57770135245697
 30
0.0
 10
89.23660444907344
 20
84.53473333789837
 30
0.0
 10
89.94674223445607
 20
86.52618845062388
 30
0.0
 10
90.26892972383207
 20
87.53361470848087
 30
0.0
 10
90.8493355615346
 20
89.57122646834264
 30
0.0
 10
91.10756286276856
 20
90.6014087850397
 30
0.0
 10
91.44466328762066
 20
92.16455707286724
 30
0.0
 10
91.5486469198734
 20
92.6891464426138
 30
0.0
 10
91.73661291357712
 20
93.73051598995377
 30
0.0
 10
91.82098946083379
 20
94.24899527269169
 30
0.0
 10
91.89564722362356
 20
94.76524327416384
 30
0.0
  0
SPLINE
  5
2B7
330
299
100
AcDbEntity
  8
0
  6
Continuous
 62
     7
370
    25
100
AcDbSpline
210
0.0
220
0.0
230
1.0
 70
     8
 71
     3
 72
    28
 73
    24
 74
     0
 42
0.000000001
 43
0.00000001
 40
0.0
 40
0.0
 40
0.0
 40
0.0
 40
0.1250000000000003
 40
0.1250000000000003
 40
0.1875000000000001
 40
0.1875000000000001
 40
0.2499999999999999
 40
0.2499999999999999
 40
0.3750000000000001
 40
0.3750000000000001
 40
0.4375000000000007
 40
0.4375000000000007
 40
0.5000000000000013
 40
0.5000000000000013
 40
0.625000000000001
 40
0.625000000000001
 40
0.6875000000000002
 40
0.6875000000000002
 40
0.7499999999999996
 40
0.7499999999999996
 40
0.8749999999999998
 40
0.8749999999999998
 40
1.0
 40
1.0
 40
1.0
 40
1.0
 10
-83.2365123690976
 20
98.59982014320252
 30
0.0
 10
-82.92298401213806
 20
97.60612252257206
 30
0.0
 10
-82.5303214452422
 20
96.62936862183196
 30
0.0
 10
-81.82871807252499
 20
95.1883490142107
 30
0.0
 10
-81.57597853435904
 20
94.71204984496987
 30
0.0
 10
-81.03260721760168
 20
93.76756475495932
 30
0.0
 10
-80.74070872667603
 20
93.29769915180857
 30
0.0
 10
-79.82367749206244
 20
91.92449628640613
 30
0.0
 10
-79.15429955334766
 20
91.05070299813153
 30
0.0
 10
-78.06850814352985
 20
89.79871127644532
 30
0.0
 10
-77.69288576716191
 20
89.39121484520747
 30
0.0
 10
-76.91436335581366
 20
88.5958140232965
 30
0.0
 10
-76.51038612817058
 20
88.20709332368051
 30
0.0
 10
-75.27695562560271
 20
87.08789060993419
 30
0.0
 10
-74.42076747230534
 20
86.39815071079181
 30
0.0
 10
-73.08881743598079
 20
85.44283721088058
 30
0.0
 10
-72.63685160615677
 20
85.13767839991895
 30
0.0
 10
-71.71707245846757
 20
84.55372339114776
 30
0.0
 10
-71.24757254899578
 20
84.27404309911107
 30
0.0
 10
-69.83212335294323
 20
83.48404804149654
 30
0.0
 10
-68.87740878524069
 20
83.02074112710336
 30
0.0
 10
-66.94717870019007
 20
82.21305003713033
 30
0.0
 10
-65.97165671594217
 20
81.86870283397032
 30
0.0
 10
-64.98574075472851
 20
81.58377985080953
 30
0.0
  0
SPLINE
  5
2B8
330
299
100
AcDbEntity
  8
0
  6
Continuous
 62
     7
370
    25
100
AcDbSpline
210
0.0
220
0.0
230
1.0
 70
     8
 71
     3
 72
    10
 73
     6
 74
     0
 42
0.000000001
 43
0.00000001
 40
0.0
 40
0.0
 40
0.0
 40
0.0
 40
0.5
 40
0.5
 40
1.0
 40
1.0
 40
1.0
 40
1.0
 10
56.87877687217254
 20
47.58843409597492
 30
0.0
 10
61.21491200243439
 20
51.95541223392812
 30
0.0
 10
65.55086652827968
 20
56.33187011099952
 30
0.0
 10
74.22264796273522
 20
65.09148436187834
 30
0.0
 10
78.55846832031507
 20
69.47498459250241
 30
0.0
 10
82.89425717240559
 20
73.86013851368902
 30
0.0
  0
SPLINE
  5
2B9
330
299
100
AcDbEntity
  8
0
  6
Continuous
 62
     7
370
    25
100
AcDbSpline
210
0.0
220
0.0
230
1.0
 70
     8
 71
     3
 72
    14
 73
    10
 74
     0
 42
0.000000001
 43
0.00000001
 40
0.0
 40
0.0
 40
0.0
 40
0.0
 40
0.2499999999999999
 40
0.2499999999999999
 40
0.4999999999999999
 40
0.4999999999999999
 40
0.7499999999999999
 40
0.7499999999999999
 40
1.0
 40
1.0
 40
1.0
 40
1.0
 10
-64.98574075472851
 20
81.58377985080953
 30
0.0
 10
-54.83182492054431
 20
78.64936748296664
 30
0.0
 10
-44.67781982306625
 20
75.72076333554864
 30
0.0
 10
-24.36936419598083
 20
69.8925386002494
 30
0.0
 10
-14.21492567324566
 20
66.99213674431115
 30
0.0
 10
6.095091569799059
 20
61.26552387343776
 30
0.0
 10
16.25072765469131
 20
58.44304548057869
 30
0.0
 10
36.56403893205351
 20
52.93077017873698
 30
0.0
 10
46.72167097255724
 20
50.24041453222243
 30
0.0
 10
56.87877687217257
 20
47.58843409597492
 30
0.0
  0
LWPOLYLINE
  5
2C8
330
299
100
AcDbEntity
  8
0
  6
Continuous
 62
     7
370
    25
100
AcDbPolyline
 90
        9
 70
   128
 43
0.0
 10
-39.6314353513
 20
32.6700710772
 10
-39.9585833416
 20
32.7813621524
 10
-40.2372895339
 20
32.9233862854
 10
-40.4568434056
 20
33.0906855684
 10
-40.6088076245
 20
33.2768307838
 10
-40.6873422909
 20
33.4746684752
 10
-40.6894293617
 20
33.6765958512
 10
-40.6149886318
 20
33.874852956
 10
-40.4668808168
 20
34.0618208801
  0
LWPOLYLINE
  5
2CD
330
299
100
AcDbEntity
  8
0
  6
Continuous
 62
    60
370
    25
100
AcDbPolyline
 90
       53
 70
   128
 43
0.0
 10
141.5068994684
 20
60.8083883345
 10
137.8513570282
 20
57.4345404108
 10
133.8927873876
 20
54.1526491616
 10
129.6398923417
 20
50.9699288959
 10
125.1020206769
 20
47.8933759238
 10
120.28914762
 20
44.9297531763
 10
115.2118529104
 20
42.0855753395
 10
109.8812975438
 20
39.3670945335
 10
104.3091992379
 20
36.780286569
 10
98.5078066739
 20
34.3308378115
 10
92.4898725719
 20
32.0241326809
 10
86.268625657
 20
29.8652418156
 10
79.8577415802
 20
27.8589109264
 10
73.271312856
 20
26.0095503639
 10
66.5238178841
 20
24.3212254241
 10
59.630089123
 20
22.7976474115
 10
52.6052804845
 20
21.4421654814
 10
45.4648340227
 20
20.2577592772
 10
38.2244459885
 20
19.2470323807
 10
30.9000323262
 20
18.412206589
 10
23.5076936867
 20
17.7551170304
 10
16.0636800347
 20
17.2772081304
 10
8.5843549276
 20
16.9795304365
 10
1.0861595454
 20
16.8627383088
 10
-6.4144234513
 20
16.9270884817
 10
-13.900906153
 20
17.1724394996
 10
-21.3568316462
 20
17.5982520278
 10
-28.7658101884
 20
18.2035900379
 10
-36.1115552368
 20
18.9871228655
 10
-43.3779192495
 20
19.9471281355
 10
-50.5489291814
 20
21.0814955479
 10
-57.6088215965
 20
22.387731517
 10
-64.5420773189
 20
23.8629646525
 10
-71.3334555479
 20
25.503952072
 10
-77.9680273602
 20
27.3070865289
 10
-84.4312085271
 20
29.2684043424
 10
-90.7087915737
 20
31.3835941102
 10
-96.78697701
 20
33.6480061862
 10
-102.6524036652
 20
36.0566629011
 10
-108.2921780587
 20
38.6042695049
 10
-113.6939027424
 20
41.2852258052
 10
-118.845703553
 20
44.0936384782
 10
-123.7362557142
 20
47.0233340235
 10
-128.3548087311
 20
50.0678723344
 10
-132.6912100218
 20
53.2205608548
 10
-136.735927235
 20
56.4744692913
 10
-140.4800692046
 20
59.8224448469
 10
-143.9154054938
 20
63.2571279447
 10
-147.0343844881
 20
66.7709684058
 10
-149.8301499945
 20
70.3562420463
 10
-152.2965563139
 20
74.0050676566
 10
-154.4281817498
 20
77.7094243262
 10
-156.179354356
 20
81.3660478226
  0
LWPOLYLINE
  5
2CF
330
299
100
AcDbEntity
  8
0
  6
Continuous
 62
    60
370
    25
100
AcDbPolyline
 90
       67
 70
   128
 43
0.0
 10
-154.7165821469
 20
101.6281805307
 10
-154.5181670179
 20
104.0704459221
 10
-153.9224982365
 20
107.8519878477
 10
-152.9781454898
 20
111.614648813
 10
-151.6872480407
 20
115.3499051805
 10
-150.052730187
 20
119.0492953934
 10
-148.0782946373
 20
122.7044391429
 10
-145.7684141233
 20
126.3070563528
 10
-143.1283212672
 20
129.8489859364
 10
-140.1639967285
 20
133.322204284
 10
-136.8821556557
 20
136.7188434389
 10
-133.2902324744
 20
140.031208921
 10
-129.3963640459
 20
143.2517971571
 10
-125.2093712345
 20
146.3733124789
 10
-120.7387389257
 20
149.3886836503
 10
-115.9945945396
 20
152.2910798857
 10
-110.987685089
 20
155.0739263242
 10
-105.7293528343
 20
157.7309189235
 10
-100.2315095892
 20
160.2560387407
 10
-94.5066097371
 20
162.6435655675
 10
-88.5676220174
 20
164.8880908875
 10
-82.4280001475
 20
166.984530129
 10
-76.1016523456
 20
168.9281341828
 10
-69.6029098242
 20
170.7145001606
 10
-62.9464943254
 20
172.339581369
 10
-56.1474847713
 20
173.7996964763
 10
-49.2212831052
 20
175.0915378522
 10
-42.1835794016
 20
176.2121790604
 10
-35.0503163231
 20
177.1590814882
 10
-27.8376530046
 20
177.930100097
 10
-20.5619284486
 20
178.5234882817
 10
-13.2396245112
 20
178.9379018272
 10
-5.887328566
 20
179.1724019536
 10
1.4783040719
 20
179.2264574425
 10
8.8405878757
 20
179.0999458411
 10
16.1828449045
 20
178.7931537386
 10
23.4884425846
 20
178.3067761179
 10
30.7408313876
 20
177.6419147808
 10
37.9235823202
 20
176.800075852
 10
45.0204241414
 20
175.7831663675
 10
52.0152802218
 20
174.5934899543
 10
58.8923049625
 20
173.2337416121
 10
65.6359196908
 20
171.7070016083
 10
72.2308479502
 20
170.0167285
 10
78.6621501072
 20
168.1667512994
 10
84.9152571937
 20
166.1612608001
 10
90.976003911
 20
164.0048000828
 10
96.8306607185
 20
161.7022542249
 10
102.4659649355
 20
159.2588392332
 10
107.8691507853
 20
156.6800902285
 10
113.0279783142
 20
153.9718489068
 10
117.9307611186
 20
151.1402503057
 10
122.5663928186
 20
148.1917089068
 10
126.9243722172
 20
145.1329041047
 10
130.9948270896
 20
141.9707650762
 10
134.7685365463
 20
138.7124550831
 10
138.2369519216
 20
135.3653552455
 10
141.392216139
 20
131.9370478212
 10
144.2271815103
 20
128.4352990292
 10
146.7354259272
 20
124.8680414566
 10
148.9112674092
 20
121.2433560894
 10
150.7497769757
 20
117.5694540055
 10
152.246789811
 20
113.854657775
 10
153.3989146997
 20
110.1073826061
 10
154.2035417082
 20
106.3361172823
 10
154.6588480977
 20
102.5494049326
 10
154.7198767705
 20
101.5631245511
  0
LWPOLYLINE
  5
2D0
330
299
100
AcDbEntity
  8
0
  6
Continuous
 62
    60
370
    25
100
AcDbPolyline
 90
       14
 70
   128
 43
0.0
 10
91.8956472236
 20
94.7652432742
 10
96.7956862844
 20
92.2773930674
 10
101.4421556467
 20
89.6636744251
 10
105.8228832408
 20
86.930934345
 10
109.9263931444
 20
84.086331618
 10
113.7419356454
 20
81.1373180747
 10
117.259515402
 20
78.0916190642
 10
120.4699176271
 20
74.9572132168
 10
123.3647322278
 20
71.7423115423
 10
125.9363758365
 20
68.4553359207
 10
128.1781116768
 20
65.1048970397
 10
130.0840672114
 20
61.6997718376
 10
131.6492495259
 20
58.2488805113
 10
131.8404725659
 20
57.7638168655
  0
LWPOLYLINE
  5
2D1
330
299
100
AcDbEntity
  8
0
  6
Continuous
 62
    60
370
    25
100
AcDbPolyline
 90
       15
 70
   128
 43
0.0
 10
-131.8335278508
 20
57.7817494311
 10
-130.6546596303
 20
60.531213529
 10
-128.8640452948
 20
63.952905727
 10
-126.7358537554
 20
67.3229294047
 10
-124.2756601046
 20
70.6324563185
 10
-121.4899091601
 20
73.8728167047
 10
-118.3858985822
 20
77.0355219905
 10
-114.9717597562
 20
80.1122870319
 10
-111.2564364912
 20
83.0950518168
 10
-107.249661591
 20
85.97600258
 10
-102.961931357
 20
88.7475922723
 10
-98.4044780919
 20
91.4025603308
 10
-93.5892406755
 20
93.9339516992
 10
-88.5288332887
 20
96.3351350474
 10
-83.2365123691
 20
98.5998201432
  0
LWPOLYLINE
  5
2D2
330
299
100
AcDbEntity
  8
0
  6
Continuous
 62
    60
370
    25
100
AcDbPolyline
 90
       11
 70
   128
 43
0.0
 10
82.8942571724
 20
73.8601385137
 10
87.253045825
 20
71.4252548309
 10
91.3425985201
 20
68.8694716209
 10
95.1502961608
 20
66.2006752415
 10
98.6643893681
 20
63.4271007742
 10
101.8740347353
 20
60.5573066134
 10
104.7693282879
 20
57.6001480578
 10
107.3413360441
 20
54.5647499856
 10
109.5821215819
 20
51.4604786978
 10
111.4847705293
 20
48.2969130173
 10
112.9833407068
 20
45.2233172206
  0
LWPOLYLINE
  5
2D3
330
299
100
AcDbEntity
  8
0
  6
Continuous
 62
    60
370
    25
100
AcDbPolyline
 90
       15
 70
   128
 43
0.0
 10
-113.0065848418
 20
45.1695250645
 10
-112.0886434482
 20
47.1396845269
 10
-110.309826573
 20
50.3223056803
 10
-108.1906276344
 20
53.4491444915
 10
-105.7375858259
 20
56.5105525012
 10
-102.9582704772
 20
59.4970831498
 10
-99.8612576971
 20
62.3995209257
 10
-96.4561039109
 20
65.2089098023
 10
-92.7533163717
 20
67.9165808729
 10
-88.7643207384
 20
70.5141791007
 10
-84.50142582
 20
72.9936890997
 10
-79.9777855938
 20
75.3474598675
 10
-75.2073586167
 20
77.5682283945
 10
-70.2048649534
 20
79.6491420746
 10
-64.9857407547
 20
81.5837798508
  0
LWPOLYLINE
  5
2D4
330
299
100
AcDbEntity
  8
0
  6
Continuous
 62
    60
370
    25
100
AcDbPolyline
 90
       45
 70
   128
 43
0.0
 10
-45.9303757252
 20
23.6117050102
 10
-46.7175945568
 20
25.0430094502
 10
-47.5532575838
 20
27.1338071319
 10
-48.036852929
 20
29.2538641476
 10
-48.1648002217
 20
31.3874843368
 10
-47.936152185
 20
33.5188711222
 10
-47.3526016489
 20
35.6322444617
 10
-46.4184690174
 20
37.7119576785
 10
-45.1406702816
 20
39.7426133037
 10
-43.5286658165
 20
41.7091770733
 10
-41.594390339
 20
43.5970892373
 10
-39.352164548
 20
45.3923723546
 10
-36.8185890988
 20
47.081734777
 10
-34.0124216976
 20
48.6526690563
 10
-30.9544382261
 20
50.0935445446
 10
-27.6672789239
 20
51.393693504
 10
-24.1752807685
 20
52.5434900865
 10
-20.5042972925
 20
53.5344216004
 10
-16.6815071732
 20
54.3591515355
 10
-12.7352130111
 20
55.0115738799
 10
-8.6946317875
 20
55.4868583269
 10
-4.5896785521
 20
55.7814860366
 10
-0.4507449426
 20
55.8932756887
 10
3.6915258248
 20
55.8213996315
 10
7.8064658266
 20
55.5663900104
 10
11.8636094866
 20
55.1301348273
 10
15.8329191327
 20
54.5158639629
 10
19.685007385
 20
53.7281252639
 10
23.3913547298
 20
52.7727508719
 10
26.9245206681
 20
51.6568140447
 10
30.2583468754
 20
50.3885767881
 10
33.3681508689
 20
48.9774286871
 10
36.2309087479
 20
47.4338173885
 10
38.8254256545
 20
45.7691712503
 10
41.1324926935
 20
43.99581473
 10
43.1350291475
 20
42.126877139
 10
44.8182089374
 20
40.1761954371
 10
46.1695703888
 20
38.1582117894
 10
47.1791084943
 20
36.0878666407
 10
47.8393489871
 20
33.980488102
 10
48.1454036775
 20
31.8516784669
 10
48.0950066437
 20
29.717198697
 10
47.6885310076
 20
27.5928517338
 10
46.9289861727
 20
25.4943654989
 10
45.9286237129
 20
23.608849625
  0
LWPOLYLINE
  5
2D5
330
299
100
AcDbEntity
  8
0
  6
Continuous
 62
    60
370
    25
100
AcDbPolyline
 90
       38
 70
   128
 43
0.0
 10
-45.2258719063
 20
28.2943672394
 10
-45.22877505
 20
28.5323412785
 10
-45.0564837615
 20
30.5912223794
 10
-44.5315643977
 20
32.6342041645
 10
-43.6581251643
 20
34.6452975315
 10
-42.4430019077
 20
36.608762948
 10
-40.8957046148
 20
38.5092336348
 10
-39.0283429848
 20
40.3318358323
 10
-36.8555316544
 20
42.062305207
 10
-34.3942758183
 20
43.6870984897
 10
-31.6638381403
 20
45.1934994701
 10
-28.6855879975
 20
46.569718518
 10
-25.4828342353
 20
47.8049848535
 10
-22.0806427443
 20
48.8896308426
 10
-18.5056402857
 20
49.8151676598
 10
-14.7858061011
 20
50.5743517247
 10
-10.9502529363
 20
51.1612413927
 10
-7.0289991955
 20
51.5712434562
 10
-3.0527340056
 20
51.8011490934
 10
0.9474229668
 20
51.8491589808
 10
4.94016507
 20
51.714897376
 10
8.8942436835
 20
51.399415058
 10
12.7787127808
 20
50.9051811039
 10
16.5631711246
 20
50.2360635643
 10
20.2180001971
 20
49.3972991912
 10
23.7145960056
 20
48.3954524532
 10
27.0255929468
 20
47.2383641592
 10
30.1250779806
 20
45.9350900941
 10
32.9887934342
 20
44.4958301444
 10
35.5943268512
 20
42.9318484706
 10
37.9212864
 20
41.2553853499
 10
39.9514604672
 20
39.4795613792
 10
41.6689601881
 20
37.6182747888
 10
43.0603437986
 20
35.68609267
 10
44.1147218355
 20
33.6981369676
 10
44.8238423611
 20
31.6699661302
 10
45.1821555458
 20
29.6174533447
 10
45.2273785696
 20
28.374625268
  0
LWPOLYLINE
  5
2D8
330
299
100
AcDbEntity
  8
0
  6
Continuous
 62
    60
370
    25
100
AcDbPolyline
 90
        3
 70
   128
 43
0.0
 10
-40.684466355
 20
22.8712951128
 10
-40.2206999036
 20
23.6991854971
 10
-39.9633675075
 20
24.1118800951
  0
LWPOLYLINE
  5
2DA
330
299
100
AcDbEntity
  8
0
  6
Continuous
 62
    60
370
    25
100
AcDbPolyline
 90
       44
 70
   128
 43
0.0
 10
33.5886840078
 20
21.9331980536
 10
34.804195246
 20
23.229709955
 10
36.1138876273
 20
24.9964440658
 10
37.0863943702
 20
26.8200330558
 10
37.7126354412
 20
28.6834505661
 10
37.9867637962
 20
30.5692983694
 10
37.9062199727
 20
32.4599688128
 10
37.4717559865
 20
34.3378092159
 10
36.6874283109
 20
36.1852866888
 10
35.560560002
 20
37.985151832
 10
34.1016723257
 20
39.7205997897
 10
32.324386523
 20
41.3754271519
 10
30.2452966328
 20
42.9341832414
 10
27.883814557
 20
44.3823143726
 10
25.2619888176
 20
45.7062997351
 10
22.404298695
 20
46.8937776346
 10
19.3374256721
 20
47.9336609097
 10
16.0900043158
 20
48.8162404505
 10
12.6923549245
 20
49.5332758497
 10
9.176200435
 20
50.0780723408
 10
5.5743702344
 20
50.4455433059
 10
1.9204936409
 20
50.6322577675
 10
-1.7513140843
 20
50.6364724231
 10
-5.4067702618
 20
50.4581479215
 10
-9.0117448821
 20
50.0989492306
 10
-12.5325792685
 20
49.5622300917
 10
-15.936400339
 20
48.8530017068
 10
-19.1914275334
 20
47.9778859504
 10
-22.2672695397
 20
46.9450535423
 10
-25.1352080499
 20
45.7641477606
 10
-27.7684658949
 20
44.4461944043
 10
-30.1424570556
 20
43.0034988488
 10
-32.2350162163
 20
41.4495311539
 10
-34.0266057157
 20
39.7988002971
 10
-35.5004979656
 20
38.0667187077
 10
-36.6429316311
 20
36.2694583649
 10
-37.4432401168
 20
34.4237998041
 10
-37.8939511581
 20
32.5469754422
 10
-37.9908565874
 20
30.6565086825
 10
-37.7330516248
 20
28.7700503038
 10
-37.1229433258
 20
26.9052136596
 10
-36.1662281072
 20
25.0794102273
 10
-34.8718385612
 20
23.3096870416
 10
-33.5655871595
 20
21.9107490458
  0
LWPOLYLINE
  5
2DD
330
299
100
AcDbEntity
  8
0
  6
Continuous
 62
    60
370
    25
100
AcDbPolyline
 90
        3
 70
   128
 43
0.0
 10
39.4953659997
 20
22.6807087901
 10
39.8487490457
 20
24.1529440166
 10
40.0
 20
25.9428180028
  0
LINE
  5
2E0
330
299
100
AcDbEntity
  8
0
  6
Continuous
 62
     7
370
    25
100
AcDbLine
 10
160.8137893292
 20
19.5523597185
 30
0.0
 11
159.9978003314
 21
99.6990386375
 31
0.0
  0
LINE
  5
2E1
330
299
100
AcDbEntity
  8
0
  6
Continuous
 62
     7
370
    25
100
AcDbLine
 10
-159.9978003314
 20
99.6990386375
 30
0.0
 11
-160.8137893292
 21
19.5523597185
 31
0.0
  0
LINE
  5
2E2
330
299
100
AcDbEntity
  8
0
  6
Continuous
 62
     7
370
    25
100
AcDbLine
 10
-40.0
 20
29.3714872056
 30
0.0
 11
-40.0
 21
25.9428180028
 31
0.0
  0
LINE
  5
2E3
330
299
100
AcDbEntity
  8
0
  6
Continuous
 62
     7
370
    25
100
AcDbLine
 10
40.0
 20
25.9428180028
 30
0.0
 11
40.0
 21
29.3714872056
 31
0.0
  0
LINE
  5
2E4
330
299
100
AcDbEntity
  8
0
  6
Continuous
 62
     7
370
    25
100
AcDbLine
 10
-40.6980445735
 20
33.5810890908
 30
0.0
 11
-40.6980445735
 21
27.7953573697
 31
0.0
  0
LINE
  5
2E5
330
299
100
AcDbEntity
  8
0
  6
Continuous
 62
     7
370
    25
100
AcDbLine
 10
39.2055503056
 20
33.6157896592
 30
0.0
 11
39.2055503056
 21
35.069233866
 31
0.0
  0
LINE
  5
2E6
330
299
100
AcDbEntity
  8
0
  6
Continuous
 62
     7
370
    25
100
AcDbLine
 10
136.8821556557
 20
62.3155696841
 30
0.0
 11
135.7628090548
 21
61.2429823559
 31
0.0
  0
LINE
  5
2E7
330
299
100
AcDbEntity
  8
0
  6
Continuous
 62
     7
370
    25
100
AcDbLine
 10
-99.5007854398
 20
150.6162018547
 30
0.0
 11
56.6228806499
 21
108.185134737
 31
0.0
  0
LINE
  5
2E8
330
299
100
AcDbEntity
  8
0
  6
Continuous
 62
     7
370
    25
100
AcDbLine
 10
56.6228806499
 20
108.185134737
 30
0.0
 11
56.8787768722
 21
47.588434096
 31
0.0
  0
LINE
  5
2E9
330
299
100
AcDbEntity
  8
0
  6
Continuous
 62
     7
370
    25
100
AcDbLine
 10
56.6228806499
 20
108.185134737
 30
0.0
 11
99.9086023653
 21
150.4333261164
 31
0.0
  0
LINE
  5
2EA
330
299
100
AcDbEntity
  8
0
  6
Continuous
 62
     7
370
    25
100
AcDbLine
 10
-239.6571901121
 20
188.7077094562
 30
0.0
 11
-117.5515393701
 21
155.5220099921
 31
0.0
  0
LINE
  5
2EB
330
299
100
AcDbEntity
  8
0
  6
Continuous
 62
     7
370
    25
100
AcDbLine
 10
-181.3202664958
 20
245.6463353067
 30
0.0
 11
-239.6571901121
 21
188.7077094562
 31
0.0
  0
LINE
  5
2EC
330
299
100
AcDbEntity
  8
0
  6
Continuous
 62
     7
370
    25
100
AcDbLine
 10
114.9598042661
 20
165.1237605876
 30
0.0
 11
-181.3202664958
 21
245.6463353067
 31
0.0
  0
LINE
  5
2ED
330
299
100
AcDbEntity
  8
0
  6
Continuous
 62
     7
370
    25
100
AcDbLine
 10
109.4559744435
 20
159.751853953
 30
0.0
 11
114.9598042661
 21
165.1237605876
 31
0.0
  0
LINE
  5
2EE
330
299
100
AcDbEntity
  8
0
  6
Continuous
 62
     7
370
    25
100
AcDbLine
 10
-239.6571901121
 20
188.7077094562
 30
0.0
 11
-240.6594241752
 21
115.6888992294
 31
0.0
  0
LINE
  5
2EF
330
299
100
AcDbEntity
  8
0
  6
Continuous
 62
     7
370
    25
100
AcDbLine
 10
-240.6594241752
 20
115.6888992294
 30
0.0
 11
-160.05803097
 21
93.7831676351
 31
0.0
  0
LINE
  5
2F0
330
299
100
AcDbEntity
  8
0
  6
Continuous
 62
     7
370
    25
100
AcDbLine
 10
114.9598042661
 20
165.1237605876
 30
0.0
 11
115.033646705
 21
156.9029035495
 31
0.0
  0
LINE
  5
2F1
330
299
100
AcDbEntity
  8
0
  6
Continuous
 62
     7
370
    25
100
AcDbLine
 10
40.0
 20
29.3714872056
 30
0.0
 11
39.9991926575
 21
29.5023785864
 31
0.0
  0
LINE
  5
2F2
330
299
100
AcDbEntity
  8
0
  6
Continuous
 62
     7
370
    25
100
AcDbLine
 10
-40.0
 20
29.3714872056
 30
0.0
 11
-39.997187396
 21
29.1271829744
 31
0.0
  0
LINE
  5
2F3
330
299
100
AcDbEntity
  8
0
  6
Continuous
 62
     7
370
    25
100
AcDbLine
 10
40.0
 20
25.9428180028
 30
0.0
 11
39.9991926575
 21
26.0737093836
 31
0.0
  0
LINE
  5
2F4
330
299
100
AcDbEntity
  8
0
  6
Continuous
 62
     7
370
    25
100
AcDbLine
 10
-40.0
 20
25.9428180028
 30
0.0
 11
-39.997187396
 21
25.6985137716
 31
0.0
  0
LINE
  5
2F5
330
299
100
AcDbEntity
  8
0
  6
Continuous
 62
     7
370
    25
100
AcDbLine
 10
-40.4668808168
 20
34.0618208801
 30
0.0
 11
-38.6000992611
 21
35.8838569074
 31
0.0
  0
LINE
  5
2F6
330
299
100
AcDbEntity
  8
0
  6
Continuous
 62
     7
370
    25
100
AcDbLine
 10
37.8103618784
 20
36.5083171391
 30
0.0
 11
38.8983085526
 21
35.6178327144
 31
0.0
  0
LINE
  5
2F7
330
299
100
AcDbEntity
  8
0
  6
Continuous
 62
    60
370
    25
100
AcDbLine
 10
39.8552123616
 20
24.2773301043
 30
0.0
 11
40.6867530281
 21
22.866884183
 31
0.0
  0
LINE
  5
2F8
330
299
100
AcDbEntity
  8
0
  6
Continuous
 62
    60
370
    25
100
AcDbLine
 10
-39.6314353513
 20
32.3052877001
 30
0.0
 11
-39.6314353513
 21
32.6700710772
 31
0.0
  0
ARC
  5
2F9
330
299
100
AcDbEntity
  8
0
  6
Continuous
 62
     7
370
    25
100
AcDbCircle
 10
-115.6576309826
 20
99.2816845623
 30
0.0
 40
44.30553131312271
100
AcDbArc
 50
154.5985157235
 51
203.8513841199
  0
ARC
  5
2FA
330
299
100
AcDbEntity
  8
0
  6
Continuous
 62
     7
370
    25
100
AcDbCircle
 10
115.7123709679
 20
99.2772055948
 30
0.0
 40
44.25278006590313
100
AcDbArc
 50
336.2562905643
 51
24.8524442895
  0
ARC
  5
2FB
330
299
100
AcDbEntity
  8
0
  6
Continuous
 62
     7
370
    25
100
AcDbCircle
 10
-37.4063225338
 20
34.5528548315
 30
0.0
 40
1.787923208842594
100
AcDbArc
 50
108.8664997707
 51
131.8889532366
  0
ARC
  5
2FC
330
299
100
AcDbEntity
  8
0
  6
Continuous
 62
     7
370
    25
100
AcDbCircle
 10
38.5246438116
 20
35.0692481683
 30
0.0
 40
0.6637547309957683
100
AcDbArc
 50
304.2822447132
 51
55.7395242355
  0
ARC
  5
2FD
330
299
100
AcDbEntity
  8
0
  6
Continuous
 62
    60
370
    25
100
AcDbCircle
 10
96.8902908912
 20
108.1617123801
 30
0.0
 40
65.06134842661318
100
AcDbArc
 50
313.2955735031
 51
335.7685453585
  0
ARC
  5
2FE
330
299
100
AcDbEntity
  8
0
  6
Continuous
 62
    60
370
    25
100
AcDbCircle
 10
-27.9313583231
 20
17.7241871521
 30
0.0
 40
17.53885877270809
100
AcDbArc
 50
136.7113505108
 51
158.663873445
  0
ARC
  5
2FF
330
299
100
AcDbEntity
  8
0
  6
Continuous
 62
    60
370
    25
100
AcDbCircle
 10
27.9843810757
 20
17.8072888729
 30
0.0
 40
17.45886161025976
100
AcDbArc
 50
21.0591094803
 51
46.4104477731
  0
ARC
  5
300
330
299
100
AcDbEntity
  8
0
  6
Continuous
 62
    60
370
    25
100
AcDbCircle
 10
27.8126632899
 20
29.6132262325
 30
0.0
 40
12.18973395287329
100
AcDbArc
 50
323.8903603802
 51
358.863672163
  0
ARC
  5
301
330
299
100
AcDbEntity
  8
0
  6
Continuous
 62
    60
370
    25
100
AcDbCircle
 10
-27.5507884932
 20
29.711419243
 30
0.0
 40
12.46010343720351
100
AcDbArc
 50
182.6875017918
 51
215.9534178486
  0
ARC
  5
302
330
299
100
AcDbEntity
  8
0
  6
Continuous
 62
    60
370
    25
100
AcDbCircle
 10
-28.9723201722
 20
25.9810774026
 30
0.0
 40
11.02848763464453
100
AcDbArc
 50
181.4681501076
 51
197.4818948419
  0
VIEWPORT
  5
360
330
299
100
AcDbEntity
  8
0
100
AcDbViewport
 10
0.0
 20
0.0
 30
0.0
 40
205.6
 41
156.0
 68
     1
 69
     1
 12
-69.9628822538
 22
9.5919903727
 13
0.0
 23
0.0
 14
10.0
 24
10.0
 15
10.0
 25
10.0
 16
0.0
 26
0.0
 36
1.0
 17
0.0
 27
0.0
 37
0.0
 42
50.0
 43
0.0
 44
0.0
 45
357.2134125293
 50
0.0
 51
0.0
 72
   100
 90
   557152
  1

281
     0
 71
     1
 74
     0
110
0.0
120
0.0
130
0.0
111
1.0
121
0.0
131
0.0
112
0.0
122
1.0
132
0.0
 79
     0
146
0.0
  0
ENDBLK
  5
29C
330
299
100
AcDbEntity
  8
0
100
AcDbBlockEnd
  0
BLOCK
  5
305
330
303
100
AcDbEntity
  8
0
100
AcDbBlockBegin
  2
*Paper_Space7
 70
     0
 10
0.0
 20
0.0
 30
0.0
  3
*Paper_Space7
  1

  0
SPLINE
  5
309
330
303
100
AcDbEntity
  8
0
  6
Continuous
 62
     7
370
    25
100
AcDbSpline
210
0.0
220
0.0
230
1.0
 70
     8
 71
     3
 72
    31
 73
    27
 74
     0
 42
0.000000001
 43
0.00000001
 40
0.0
 40
0.0
 40
0.0
 40
0.0
 40
0.0360769505917728
 40
0.0795305654719377
 40
0.1229894616203912
 40
0.1664544560243424
 40
0.2099264655313595
 40
0.2534065215493682
 40
0.2968957848254057
 40
0.3403955588285464
 40
0.3839072990281608
 40
0.4274326132946533
 40
0.4709732452338708
 40
0.5145310266779868
 40
0.5581077765484116
 40
0.6017051091055257
 40
0.6453240930037615
 40
0.6889646717520121
 40
0.7326247174329606
 40
0.7762985546620416
 40
0.8199713962779974
 40
0.8636176682497987
 40
0.9072014147579779
 40
0.9506733559327125
 40
0.9939755498136599
 40
1.0
 40
1.0
 40
1.0
 40
1.0
 10
-63.45298721582146
 20
158.7757184241969
 30
0.0
 10
-65.25261585770853
 20
158.510910835393
 30
0.0
 10
-69.21984371874106
 20
157.927150375227
 30
0.0
 10
-75.19418232562006
 20
156.9090298025344
 30
0.0
 10
-81.39208033180925
 20
155.7466596795764
 30
0.0
 10
-87.42630584674271
 20
154.4902856703578
 30
0.0
 10
-93.28960211344642
 20
153.1457536088789
 30
0.0
 10
-98.96929112616165
 20
151.7146474989331
 30
0.0
 10
-104.4546163287139
 20
150.199875452638
 30
0.0
 10
-109.7348022901899
 20
148.6041584004831
 30
0.0
 10
-114.7996001770654
 20
146.9304190038351
 30
0.0
 10
-119.6391640400308
 20
145.1816591168418
 30
0.0
 10
-124.2441025233418
 20
143.3609720891419
 30
0.0
 10
-128.6054779114212
 20
141.4715168023379
 30
0.0
 10
-132.7148121790463
 20
139.5165005352235
 30
0.0
 10
-136.5640785984207
 20
137.499159441546
 30
0.0
 10
-140.1456902434218
 20
135.4227438094139
 30
0.0
 10
-143.4524428843313
 20
133.2905097902821
 30
0.0
 10
-146.4775508089601
 20
131.1057392340159
 30
0.0
 10
-149.214177906116
 20
128.8718184127434
 30
0.0
 10
-151.6565838490272
 20
126.5924875806453
 30
0.0
 10
-153.7955931363321
 20
124.2716413818803
 30
0.0
 10
-155.6357300426565
 20
121.914934500178
 30
0.0
 10
-157.132132560269
 20
119.5248657513845
 30
0.0
 10
-158.0570006778977
 20
117.8063573209299
 30
0.0
 10
-158.3872679950501
 20
116.8791712933869
 30
0.0
 10
-158.4276047955356
 20
116.7659305460784
 30
0.0
  0
SPLINE
  5
30A
330
303
100
AcDbEntity
  8
0
  6
Continuous
 62
     7
370
    25
100
AcDbSpline
210
0.0
220
0.0
230
1.0
 70
     8
 71
     3
 72
    10
 73
     6
 74
     0
 42
0.000000001
 43
0.00000001
 40
0.0
 40
0.0
 40
0.0
 40
0.0
 40
0.4316583862269824
 40
0.9175501192484008
 40
1.0
 40
1.0
 40
1.0
 40
1.0
 10
-49.79449812286086
 20
160.5111223855868
 30
0.0
 10
-51.78586180242316
 20
160.2849576324171
 30
0.0
 10
-56.0187831123048
 20
159.8042128980113
 30
0.0
 10
-60.56525942032753
 20
159.2136808991357
 30
0.0
 10
-63.08713607242955
 20
158.8312046346593
 30
0.0
 10
-63.45298721582146
 20
158.7757184241969
 30
0.0
  0
SPLINE
  5
30B
330
303
100
AcDbEntity
  8
0
  6
Continuous
 62
     7
370
    25
100
AcDbSpline
210
0.0
220
0.0
230
1.0
 70
     8
 71
     3
 72
    10
 73
     6
 74
     0
 42
0.000000001
 43
0.00000001
 40
0.0
 40
0.0
 40
0.0
 40
0.0
 40
0.3827670300778069
 40
0.8744580072126461
 40
1.0
 40
1.0
 40
1.0
 40
1.0
 10
67.14685139709357
 20
158.2206303523847
 30
0.0
 10
65.47002813157944
 20
158.4764397293853
 30
0.0
 10
61.63920829604856
 20
159.060854113228
 30
0.0
 10
57.16780976525406
 20
159.6628788703817
 30
0.0
 10
54.35471458380099
 20
159.9838096118193
 30
0.0
 10
53.78254557762386
 20
160.0490852642718
 30
0.0
  0
SPLINE
  5
30C
330
303
100
AcDbEntity
  8
0
  6
Continuous
 62
     7
370
    25
100
AcDbSpline
210
0.0
220
0.0
230
1.0
 70
     8
 71
     3
 72
    31
 73
    27
 74
     0
 42
0.000000001
 43
0.00000001
 40
0.0
 40
0.0
 40
0.0
 40
0.0
 40
0.0089320785670147
 40
0.052862401136898
 40
0.0970397361775282
 40
0.1414383581758742
 40
0.1860062891186369
 40
0.23068664301957
 40
0.2754307922574438
 40
0.3202030170078897
 40
0.3649775470835686
 40
0.4097396629233998
 40
0.4544835710858554
 40
0.4992070249241006
 40
0.5439098567351209
 40
0.5885930341671859
 40
0.6332580811673358
 40
0.6779067366829612
 40
0.7225407622243402
 40
0.7671618399125844
 40
0.811771524125785
 40
0.8563712240128141
 40
0.9009622031285347
 40
0.9455455880182838
 40
0.9901223809857331
 40
1.0
 40
1.0
 40
1.0
 40
1.0
 10
158.4151649254447
 20
116.7807777564754
 30
0.0
 10
158.3556931797961
 20
116.9443798190195
 30
0.0
 10
158.0037236744672
 20
117.9126200547211
 30
0.0
 10
157.0540896462712
 20
119.6637708411271
 30
0.0
 10
155.5522029779407
 20
122.0303195004603
 30
0.0
 10
153.71188154481
 20
124.3692644224688
 30
0.0
 10
151.5709065609932
 20
126.6777921207231
 30
0.0
 10
149.1247807385781
 20
128.9493642273514
 30
0.0
 10
146.382003168264
 20
131.1787945048773
 30
0.0
 10
143.3486482861599
 20
133.3611433323695
 30
0.0
 10
140.0321018016075
 20
135.4920475939809
 30
0.0
 10
136.4397896873722
 20
137.5675508382878
 30
0.0
 10
132.5793751055621
 20
139.5840257502649
 30
0.0
 10
128.4587400790979
 20
141.5380403531587
 30
0.0
 10
124.0861293442706
 20
143.4262643064106
 30
0.0
 10
119.4701778245244
 20
145.2454488486832
 30
0.0
 10
114.6199357031658
 20
146.9924251830036
 30
0.0
 10
109.5448694772008
 20
148.6641038362495
 30
0.0
 10
104.2548935768994
 20
150.2575076002192
 30
0.0
 10
98.76024735122672
 20
151.7696978438438
 30
0.0
 10
93.0719160991981
 20
153.1981055788337
 30
0.0
 10
87.19999859912146
 20
154.5393531913404
 30
0.0
 10
81.1597181575207
 20
155.7937045234029
 30
0.0
 10
74.9489030731867
 20
156.9485116712261
 30
0.0
 10
70.27070554840047
 20
157.7568551864961
 30
0.0
 10
67.62649179838408
 20
158.1494217440755
 30
0.0
 10
67.14685139709357
 20
158.2206303523847
 30
0.0
  0
SPLINE
  5
30D
330
303
100
AcDbEntity
  8
0
  6
Continuous
 62
     7
370
    25
100
AcDbSpline
210
0.0
220
0.0
230
1.0
 70
     8
 71
     3
 72
    10
 73
     6
 74
     0
 42
0.000000001
 43
0.00000001
 40
0.0
 40
0.0
 40
0.0
 40
0.0
 40
0.1363347870538345
 40
0.6267285237545446
 40
0.9999999999999999
 40
0.9999999999999999
 40
0.9999999999999999
 40
0.9999999999999999
 10
149.3034047782729
 20
95.99651747136919
 30
0.0
 10
149.1442770152899
 20
95.79325723884384
 30
0.0
 10
148.412769597867
 20
94.85887366571876
 30
0.0
 10
146.982284343918
 20
93.38169341667229
 30
0.0
 10
145.6020834982539
 20
92.11978512352455
 30
0.0
 10
145.0055680899062
 20
91.57439512238876
 30
0.0
  0
SPLINE
  5
30E
330
303
100
AcDbEntity
  8
0
  6
Continuous
 62
     7
370
    25
100
AcDbSpline
210
0.0
220
0.0
230
1.0
 70
     8
 71
     3
 72
    19
 73
    15
 74
     0
 42
0.000000001
 43
0.00000001
 40
0.0
 40
0.0
 40
0.0
 40
0.0
 40
0.0810378603206962
 40
0.1727855995511287
 40
0.264491309647146
 40
0.3561514044356283
 40
0.4477634817843306
 40
0.5393275696323815
 40
0.6308481551831538
 40
0.7223373631694198
 40
0.8138177244347247
 40
0.9053177077257214
 40
0.9968978101212924
 40
1.0
 40
1.0
 40
1.0
 40
1.0
 10
-116.0837375625339
 20
75.65206475041094
 30
0.0
 10
-117.4311182240789
 20
76.16640399323468
 30
0.0
 10
-120.3039479669589
 20
77.26305701556619
 30
0.0
 10
-124.4040388812637
 20
79.02205651517887
 30
0.0
 10
-128.4373832625785
 20
80.90592911671392
 30
0.0
 10
-132.2006024202808
 20
82.84687410589203
 30
0.0
 10
-135.6936943638366
 20
84.83802768335859
 30
0.0
 10
-138.9073834627876
 20
86.87508905414116
 30
0.0
 10
-141.8368410090756
 20
88.9528001874255
 30
0.0
 10
-144.4732511404274
 20
91.06608886928436
 30
0.0
 10
-146.8241849201472
 20
93.20921739670621
 30
0.0
 10
-148.8407935940157
 20
95.37833118236554
 30
0.0
 10
-150.0933571221517
 20
96.85849246269298
 30
0.0
 10
-150.5873052699187
 20
97.61602605980572
 30
0.0
 10
-150.6034890874816
 20
97.64084604463389
 30
0.0
  0
SPLINE
  5
30F
330
303
100
AcDbEntity
  8
0
  6
Continuous
 62
     7
370
    25
100
AcDbSpline
210
0.0
220
0.0
230
1.0
 70
     8
 71
     3
 72
    15
 73
    11
 74
     0
 42
0.000000001
 43
0.00000001
 40
0.0
 40
0.0
 40
0.0
 40
0.0
 40
0.0713010729346059
 40
0.2063976479327857
 40
0.3415010288325525
 40
0.4766221295648426
 40
0.6117909314907569
 40
0.7470216564156364
 40
0.882318946868012
 40
1.0
 40
1.0
 40
1.0
 40
1.0
 10
145.0055680899062
 20
91.57439512238876
 30
0.0
 10
144.5712306702851
 20
91.19946972664282
 30
0.0
 10
143.3139393262793
 20
90.11416039471719
 30
0.0
 10
141.0083757179215
 20
88.34240140949902
 30
0.0
 10
137.9991892253184
 20
86.27588945653908
 30
0.0
 10
134.7032753926356
 20
84.25265341165496
 30
0.0
 10
131.1342957274897
 20
82.27644137666184
 30
0.0
 10
127.2896787901556
 20
80.35408742784477
 30
0.0
 10
123.3853238468934
 20
78.56355879409601
 30
0.0
 10
120.6431662010094
 20
77.44650533875999
 30
0.0
 10
119.3675629416579
 20
76.92687181928117
 30
0.0
  0
SPLINE
  5
310
330
303
100
AcDbEntity
  8
0
  6
Continuous
 62
     7
370
    25
100
AcDbSpline
210
0.0
220
0.0
230
1.0
 70
     8
 71
     3
 72
    10
 73
     6
 74
     0
 42
0.000000001
 43
0.00000001
 40
0.0
 40
0.0
 40
0.0
 40
0.0
 40
0.1899081584738236
 40
0.6452037747036347
 40
1.0
 40
1.0
 40
1.0
 40
1.0
 10
147.1440056854654
 20
-0.7862637494266689
 30
0.0
 10
147.5525203352426
 20
-0.4823944772269773
 30
0.0
 10
148.9404290811131
 20
0.5499866643483564
 30
0.0
 10
150.8379238770849
 20
2.189831261543804
 30
0.0
 10
152.1836603041766
 20
3.542787903131242
 30
0.0
 10
152.7730529879449
 20
4.135342826929192
 30
0.0
  0
SPLINE
  5
311
330
303
100
AcDbEntity
  8
0
  6
Continuous
 62
     7
370
    25
100
AcDbSpline
210
0.0
220
0.0
230
1.0
 70
     8
 71
     3
 72
     9
 73
     5
 74
     0
 42
0.000000001
 43
0.00000001
 40
0.0
 40
0.0
 40
0.0
 40
0.0
 40
0.1216356112241844
 40
1.0
 40
1.0
 40
1.0
 40
1.0
 10
-151.2281360286036
 20
2.617857662605708
 30
0.0
 10
-151.1413491197047
 20
2.531867603604798
 30
0.0
 10
-150.4278499394445
 20
1.824919546736553
 30
0.0
 10
-149.5764005525202
 20
1.136737989209713
 30
0.0
 10
-148.8285177322009
 20
0.5322638160658588
 30
0.0
  0
LWPOLYLINE
  5
314
330
303
100
AcDbEntity
  8
0
  6
Continuous
 62
     7
370
    25
100
AcDbPolyline
 90
        9
 70
   128
 43
0.0
 10
160.815234748
 20
21.1935757896
 10
160.8159997937
 20
21.0320663258
 10
160.6395831655
 20
18.5179743092
 10
160.1096282568
 20
16.0094067979
 10
159.2273014013
 20
13.5118846891
 10
157.9945444387
 20
11.0309045712
 10
156.414070441
 20
8.5719266269
 10
154.489357742
 20
6.1403626157
 10
152.918317241
 20
4.4357659699
  0
LWPOLYLINE
  5
315
330
303
100
AcDbEntity
  8
0
  6
Continuous
 62
     7
370
    25
100
AcDbPolyline
 90
       10
 70
   128
 43
0.0
 10
-151.3731912178
 20
2.9298604745
 10
-152.3132299419
 20
3.8284850743
 10
-154.5656181313
 20
6.2285729959
 10
-156.4778357241
 20
8.6612321426
 10
-158.0456742797
 20
11.1211086774
 10
-159.265683273
 20
13.602788863
 10
-160.1351776876
 20
16.1008109761
 10
-160.6522439259
 20
18.6096773279
 10
-160.8157440196
 20
21.1238663633
 10
-160.815234748
 20
21.1935757896
  0
LWPOLYLINE
  5
316
330
303
100
AcDbEntity
  8
0
  6
Continuous
 62
     7
370
    25
100
AcDbPolyline
 90
       39
 70
   128
 43
0.0
 10
122.5595779909
 20
76.3553693638
 10
122.4192839426
 20
76.2988657452
 10
117.4912182563
 20
74.4095392325
 10
112.3009837204
 20
72.5998956545
 10
106.8601617775
 20
70.8739730336
 10
101.180893029
 20
69.235622578
 10
95.275850144
 20
67.6885000883
 10
89.1582095824
 20
66.2360577997
 10
82.8416221923
 20
64.8815366788
 10
76.3401827501
 20
63.627959192
 10
69.6683985094
 20
62.4781225607
 10
62.8411568297
 20
61.4345925202
 10
55.8736919568
 20
60.4996975939
 10
48.7815510293
 20
59.6755238981
 10
41.5805593867
 20
58.9639104865
 10
34.2867852572
 20
58.3664452469
 10
26.9165039028
 20
57.8844613578
 10
19.4861613033
 20
57.5190343139
 10
12.0123374584
 20
57.2709795256
 10
4.5117093915
 20
57.1408505003
 10
-2.9989860632
 20
57.1289376067
 10
-10.5029896074
 20
57.2352674271
 10
-17.9835568748
 20
57.4596026981
 10
-25.4239957949
 20
57.80144284
 10
-32.8077038389
 20
58.2600250737
 10
-40.1182050672
 20
58.834326123
 10
-47.3391868928
 20
59.5230644977
 10
-54.4545364817
 20
60.3247033532
 10
-61.4483767068
 20
61.2374539197
 10
-68.3051015758
 20
62.2592794937
 10
-75.0094110542
 20
63.387899983
 10
-81.5463452063
 20
64.6207969937
 10
-87.9013175756
 20
65.9552194507
 10
-94.0601477341
 20
67.3881897357
 10
-100.0090929233
 20
68.9165103315
 10
-105.7348787203
 20
70.5367709574
 10
-111.2247286581
 20
72.2453561783
 10
-116.466392735
 20
74.0384534725
 10
-116.8168923676
 20
74.1645720259
  0
LWPOLYLINE
  5
318
330
303
100
AcDbEntity
  8
0
  6
Continuous
 62
     7
370
    25
100
AcDbPolyline
 90
       39
 70
   128
 43
0.0
 10
119.7536073506
 20
76.937836452
 10
119.6480743311
 20
76.8955629666
 10
114.7699747976
 20
75.0354995764
 10
109.6318843573
 20
73.2549127809
 10
104.2454424376
 20
71.5578361818
 10
98.6228510619
 20
69.9481142036
 10
92.7768472081
 20
68.4293933842
 10
86.7206739551
 20
67.0051141148
 10
80.4680504834
 20
65.678502846
 10
74.033140996
 20
64.452564779
 10
67.4305226327
 20
63.3300770579
 10
60.6751524477
 20
62.3135824783
 10
53.7823335272
 20
61.4053837274
 10
46.767680323
 20
60.6075381676
 10
39.6470832808
 20
59.9218531755
 10
32.4366728432
 20
59.3498820483
 10
25.1527829088
 20
58.8929204845
 10
17.8119138312
 20
58.5520036491
 10
10.4306950398
 20
58.3279038283
 10
3.0258473692
 20
58.2211286803
 10
-4.3858548188
 20
58.2319200851
 10
-11.787621635
 20
58.3602535968
 10
-19.162685697
 20
58.6058384986
 10
-26.4943401124
 20
58.9681184618
 10
-33.765976326
 20
59.4462728058
 10
-40.961121743
 20
60.0392183571
 10
-48.0634770447
 20
60.7456119033
 10
-55.0569531121
 20
61.563853236
 10
-61.9257074725
 20
62.4920887752
 10
-68.654180188
 20
63.528215769
 10
-75.2271291039
 20
64.6698870565
 10
-81.6296643768
 20
65.9145163849
 10
-87.847282205
 20
67.2592842686
 10
-93.8658976843
 20
68.7011443757
 10
-99.6718767149
 20
70.2368304295
 10
-105.2520668869
 20
71.8628636069
 10
-110.5938272747
 20
73.5755604199
 10
-115.685057073
 20
75.3710410594
 10
-116.4429832756
 20
75.6534736104
  0
LWPOLYLINE
  5
31B
330
303
100
AcDbEntity
  8
0
  6
Continuous
 62
     7
370
    25
100
AcDbPolyline
 90
        8
 70
   128
 43
0.0
 10
154.7485296351
 20
110.3366092858
 10
154.7094667512
 20
108.0072229142
 10
154.3268241067
 20
105.5550777274
 10
153.594581569
 20
103.111778946
 10
152.5143979027
 20
100.6828614277
 10
151.0887200714
 20
98.2738274519
 10
149.3207776938
 20
95.8901342553
 10
149.1862687965
 20
95.7267374165
  0
SPLINE
  5
31C
330
303
100
AcDbEntity
  8
0
  6
Continuous
 62
     7
370
    25
100
AcDbSpline
210
0.0
220
0.0
230
1.0
 70
     8
 71
     3
 72
     8
 73
     4
 74
     0
 42
0.000000001
 43
0.00000001
 40
0.0
 40
0.0
 40
0.0
 40
0.0
 40
1.0
 40
1.0
 40
1.0
 40
1.0
 10
79.03430297544816
 20
84.89765729591764
 30
0.0
 10
81.02517729735492
 20
104.1437175138802
 30
0.0
 10
83.00479149039684
 20
123.3896941275304
 30
0.0
 10
84.97680679188178
 20
142.6356143208579
 30
0.0
  0
LWPOLYLINE
  5
31D
330
303
100
AcDbEntity
  8
0
  6
Continuous
 62
     7
370
    25
100
AcDbPolyline
 90
       30
 70
   128
 43
0.0
 10
84.9768067919
 20
142.6356143209
 10
78.6589141189
 20
143.9832875124
 10
72.1490669183
 20
145.2253138376
 10
65.4631514331
 20
146.3586623294
 10
58.6174835732
 20
147.3805672317
 10
51.6287690988
 20
148.2885347487
 10
44.514062852
 20
149.0803491304
 10
37.2907271384
 20
149.7540780803
 10
29.9763893558
 20
150.3080774703
 10
22.5888989786
 20
150.7409953534
 10
15.1462839981
 20
151.0517752625
 10
7.6667069285
 20
151.2396587889
 10
0.1684204841
 20
151.3041874328
 10
-7.3302769636
 20
151.2452037224
 10
-14.8110860402
 20
151.0628515979
 10
-22.2557510248
 20
150.7575760607
 10
-29.6461044005
 20
150.330122087
 10
-36.9641111892
 20
149.7815328099
 10
-44.1919129633
 20
149.1131469742
 10
-51.3118714257
 20
148.3265956687
 10
-58.3066114541
 20
147.4237983463
 10
-65.1590635017
 20
146.40695814
 10
-71.8525052527
 20
145.2785564859
 10
-78.3706024306
 20
144.0413470682
 10
-84.6974486594
 20
142.6983490992
 10
-90.8176042805
 20
141.2528399509
 10
-96.7161340308
 20
139.7083471578
 10
-102.3786434897
 20
138.0686398082
 10
-107.7913142064
 20
136.337719346
 10
-112.9409374218
 20
134.5198098066
  0
SPLINE
  5
31E
330
303
100
AcDbEntity
  8
0
  6
Continuous
 62
     7
370
    25
100
AcDbSpline
210
0.0
220
0.0
230
1.0
 70
     8
 71
     3
 72
     8
 73
     4
 74
     0
 42
0.000000001
 43
0.00000001
 40
0.0
 40
0.0
 40
0.0
 40
0.0
 40
1.0
 40
1.0
 40
1.0
 40
1.0
 10
-112.9409374217589
 20
134.5198098066475
 30
0.0
 10
-107.2289205329832
 20
116.3800993374291
 30
0.0
 10
-101.4790595248671
 20
98.24853113562754
 30
0.0
 10
-95.67138773304262
 20
80.12940108455436
 30
0.0
  0
LWPOLYLINE
  5
31F
330
303
100
AcDbEntity
  8
0
  6
Continuous
 62
     7
370
    25
100
AcDbPolyline
 90
       52
 70
   128
 43
0.0
 10
146.8710574775
 20
-0.8693364335
 10
146.1845020149
 20
-1.3849187402
 10
142.9367779625
 20
-3.6462891622
 10
139.3744307149
 20
-5.8543944152
 10
135.5053014807
 20
-8.0043741609
 10
131.337906737
 20
-10.0914960026
 10
126.8814194837
 20
-12.1111659029
 10
122.1456490524
 20
-14.0589382948
 10
117.1410195148
 20
-15.9305258677
 10
111.878546738
 20
-17.721809004
 10
106.3698141369
 20
-19.4288448471
 10
100.6269471774
 20
-21.04787598
 10
94.6625866871
 20
-22.5753386961
 10
88.4898610307
 20
-24.0078708432
 10
82.1223572128
 20
-25.3423192241
 10
75.5740909713
 20
-26.5757465374
 10
68.8594759265
 20
-27.7054378425
 10
61.9932918548
 20
-28.7289065361
 10
54.9906521568
 20
-29.6438998249
 10
47.8669705904
 20
-30.4484036849
 10
40.6379273427
 20
-31.1406472942
 10
33.3194345166
 20
-31.719106931
 10
25.9276011052
 20
-32.1825093272
 10
18.4786975344
 20
-32.5298344715
 10
10.9891198492
 20
-32.7603178542
 10
3.4753536238
 20
-32.8734521503
 10
-4.0460623253
 20
-32.8689883357
 10
-11.5585723435
 20
-32.746936236
 10
-19.0456403796
 20
-32.5075645044
 10
-26.4907863833
 20
-32.1514000304
 10
-33.8776225806
 20
-31.6792267803
 10
-41.1898895452
 20
-31.0920840712
 10
-48.4114919878
 20
-30.3912642838
 10
-55.5265341839
 20
-29.5783100173
 10
-62.5193549626
 20
-28.655010694
 10
-69.3745621789
 20
-27.6233986208
 10
-76.0770665938
 20
-26.4857445154
 10
-82.612115088
 20
-25.2445525084
 10
-88.9653231351
 20
-23.9025546316
 10
-95.1227064644
 20
-22.4627048039
 10
-101.0707118416
 20
-20.9281723296
 10
-106.796246902
 20
-19.3023349224
 10
-112.2867089677
 20
-17.5887712705
 10
-117.5300127888
 20
-15.7912531594
 10
-122.5146171438
 20
-13.9137371699
 10
-127.2295502439
 20
-11.9603559687
 10
-131.664433883
 20
-9.9354092122
 10
-135.8095062821
 20
-7.8433540823
 10
-139.6556435757
 20
-5.6887954756
 10
-143.1943798951
 20
-3.4764758671
 10
-146.4179260027
 20
-1.2112648717
 10
-148.4066980802
 20
0.3407907317
  0
SPLINE
  5
320
330
303
100
AcDbEntity
  8
0
  6
Continuous
 62
     7
370
    25
100
AcDbSpline
210
0.0
220
0.0
230
1.0
 70
     8
 71
     3
 72
    28
 73
    24
 74
     0
 42
0.000000001
 43
0.00000001
 40
0.0
 40
0.0
 40
0.0
 40
0.0
 40
0.0625000000000009
 40
0.0625000000000009
 40
0.1250000000000018
 40
0.1250000000000018
 40
0.2500000000000037
 40
0.2500000000000037
 40
0.3125000000000037
 40
0.3125000000000037
 40
0.3750000000000037
 40
0.3750000000000037
 40
0.5000000000000022
 40
0.5000000000000022
 40
0.6250000000000008
 40
0.6250000000000008
 40
0.7500000000000006
 40
0.7500000000000006
 40
0.8750000000000002
 40
0.8750000000000002
 40
0.9375000000000002
 40
0.9375000000000002
 40
1.0
 40
1.0
 40
1.0
 40
1.0
 10
72.24752441255885
 20
65.61499367424972
 30
0.0
 10
72.43618381199033
 20
65.79103700692333
 30
0.0
 10
72.62610481484693
 20
65.98684297931293
 30
0.0
 10
73.00280823378351
 20
66.41277268316156
 30
0.0
 10
73.18931663888105
 20
66.64239956190413
 30
0.0
 10
73.74341808297042
 20
67.38030683891553
 30
0.0
 10
74.10561769021677
 20
67.93733963305061
 30
0.0
 10
74.63797917108043
 20
68.87175913887903
 30
0.0
 10
74.81360252660328
 20
69.19977833459507
 30
0.0
 10
75.16106833182583
 20
69.88999315137568
 30
0.0
 10
75.3331578970232
 20
70.25294846834299
 30
0.0
 10
75.83469732227509
 20
71.3748587961958
 30
0.0
 10
76.15251456040887
 20
72.17229903711484
 30
0.0
 10
76.75525020353678
 20
73.86562321953389
 30
0.0
 10
77.04029992034069
 20
74.76189181226023
 30
0.0
 10
77.57480812630922
 20
76.6578000081447
 30
0.0
 10
77.81703532071047
 20
77.63173027208978
 30
0.0
 10
78.2528010988162
 20
79.63012614395593
 30
0.0
 10
78.44634649681619
 20
80.65458467911908
 30
0.0
 10
78.69842519556695
 20
82.23096228028491
 30
0.0
 10
78.77606928149868
 20
82.76365433818039
 30
0.0
 10
78.91617383752185
 20
83.82849870480229
 30
0.0
 10
78.97892941794814
 20
84.3623533792406
 30
0.0
 10
79.03430297544816
 20
84.89765729591764
 30
0.0
  0
SPLINE
  5
321
330
303
100
AcDbEntity
  8
0
  6
Continuous
 62
     7
370
    25
100
AcDbSpline
210
0.0
220
0.0
230
1.0
 70
     8
 71
     3
 72
    14
 73
    10
 74
     0
 42
0.000000001
 43
0.00000001
 40
0.0
 40
0.0
 40
0.0
 40
0.0
 40
0.1416924556832384
 40
0.2867695020971301
 40
0.4456246033169603
 40
0.6086412689056309
 40
0.7765107573953155
 40
0.9484376977083064
 40
1.0
 40
1.0
 40
1.0
 40
1.0
 10
-95.67138773304265
 20
80.12940108455437
 30
0.0
 10
-95.34547657767078
 20
79.24032556788904
 30
0.0
 10
-94.6858692661649
 20
77.44093729409948
 30
0.0
 10
-93.16533390844158
 20
74.82380592071178
 30
0.0
 10
-91.22644916094586
 20
72.3085432103864
 30
0.0
 10
-88.83736589243418
 20
69.97957693383638
 30
0.0
 10
-86.08760825470904
 20
67.99741573617463
 30
0.0
 10
-83.80208310759446
 20
66.68037883928011
 30
0.0
 10
-82.41903475824311
 20
66.18952286751085
 30
0.0
 10
-82.09994487166888
 20
66.07627507221173
 30
0.0
  0
LWPOLYLINE
  5
32E
330
303
100
AcDbEntity
  8
0
  6
Continuous
 62
    60
370
    25
100
AcDbPolyline
 90
       58
 70
   128
 43
0.0
 10
149.6662954759
 20
90.3287594558
 10
146.8503004054
 20
88.0110851504
 10
143.711496504
 20
85.739955574
 10
140.2567835438
 20
83.5203631621
 10
136.4937557336
 20
81.3571870607
 10
132.4306850253
 20
79.2551824003
 10
128.07650293
 20
77.2189698433
 10
123.440780885
 20
75.2530254269
 10
118.5337092135
 20
73.3616707235
 10
113.3660747239
 20
71.5490633412
 10
107.9492369984
 20
69.8191877845
 10
102.2951034219
 20
68.1758466953
 10
96.4161030071
 20
66.622652494
 10
90.3251590728
 20
65.1630194384
 10
84.0356608358
 20
63.8001561188
 10
77.5614339781
 20
62.5370584047
 10
70.9167102555
 20
61.3765028588
 10
64.1160962128
 20
60.3210406341
 10
57.1745410756
 20
59.3729918658
 10
50.1073038886
 20
58.5344405706
 10
42.9299199729
 20
57.8072300665
 10
35.6581667761
 20
57.1929589198
 10
28.3080291899
 20
56.6929774318
 10
20.8956644119
 20
56.3083846705
 10
13.4373664286
 20
56.0400260541
 10
5.9495301975
 20
55.8884914932
 10
-1.5513843921
 20
55.8541140935
 10
-9.0488887022
 20
55.9369694241
 10
-16.526501591
 20
56.136875351
 10
-23.9677856426
 20
56.4533924375
 10
-31.3563832996
 20
56.8858249104
 10
-38.676052821
 20
57.4332221894
 10
-45.9107039844
 20
58.0943809762
 10
-53.0444334565
 20
58.8678479006
 10
-60.0615597518
 20
59.7519227142
 10
-66.9466577036
 20
60.7446620288
 10
-73.6845923725
 20
61.843883588
 10
-80.2605523156
 20
63.0471710641
 10
-86.660082146
 20
64.3518793701
 10
-92.869114308
 20
65.7551404741
 10
-98.8740000016
 20
67.2538697035
 10
-104.6615391847
 20
68.8447725264
 10
-110.2190095901
 20
70.5243517929
 10
-115.5341946918
 20
72.2889154233
 10
-120.5954105593
 20
74.1345845239
 10
-125.3915315417
 20
76.0573019134
 10
-129.9120147243
 20
78.0528410416
 10
-134.1469231038
 20
80.1168152805
 10
-138.0869474327
 20
82.2446875668
 10
-141.7234266823
 20
84.4317803753
 10
-145.0483670821
 20
86.6732860015
 10
-148.0544596913
 20
88.9642771294
 10
-150.7350964661
 20
91.2997176634
 10
-153.0843847851
 20
93.6744737982
 10
-155.0971604026
 20
96.0833253047
 10
-156.768998801
 20
98.5209770042
 10
-158.0962249167
 20
100.9820704095
 10
-158.8111119164
 20
102.6953697423
  0
LWPOLYLINE
  5
330
330
303
100
AcDbEntity
  8
0
  6
Continuous
 62
    60
370
    25
100
AcDbPolyline
 90
       55
 70
   128
 43
0.0
 10
152.918317241
 20
4.4357659699
 10
152.2246422815
 20
3.7415639645
 10
149.6249082831
 20
1.3808099895
 10
146.6958772849
 20
-0.9367037226
 10
143.4439955472
 20
-3.2058767487
 10
139.8764198659
 20
-5.4217150551
 10
136.001001821
 20
-7.5793419876
 10
131.8262704975
 20
-9.6740090049
 10
127.3614137138
 20
-11.7011061287
 10
122.6162578013
 20
-13.6561720899
 10
117.6012459786
 20
-15.5349041465
 10
112.3274153675
 20
-17.3331675537
 10
106.8063727027
 20
-19.0470046632
 10
101.050268787
 20
-20.6726436337
 10
95.0717717502
 20
-22.2065067318
 10
88.8840391686
 20
-23.645218206
 10
82.5006891076
 20
-24.9856117158
 10
75.9357701505
 20
-26.224737301
 10
69.2037304809
 20
-27.3598678732
 10
62.3193860842
 20
-28.3885052181
 10
55.2978881407
 20
-29.3083854933
 10
48.1546896804
 20
-30.1174842111
 10
40.9055115739
 20
-30.8140206934
 10
33.5663079336
 20
-31.396461991
 10
26.1532310016
 20
-31.8635262576
 10
18.6825956015
 20
-32.21418557
 10
11.1708432327
 20
-32.4476681917
 10
3.6345058853
 20
-32.5634602699
 10
-3.9098303434
 20
-32.5613069677
 10
-11.4455617521
 20
-32.441213024
 10
-18.9561035771
 20
-32.2034427436
 10
-26.4249264925
 20
-31.8485194153
 10
-33.8355929878
 20
-31.3772241603
 10
-41.1717935443
 20
-30.7905942131
 10
-48.4173825293
 20
-30.0899206387
 10
-55.5564137292
 20
-29.2767454912
 10
-62.5731754449
 20
-28.35285842
 10
-69.45222507
 20
-27.3202927312
 10
-76.1784230769
 20
-26.1813209128
 10
-82.7369663366
 20
-24.9384496329
 10
-89.1134206974
 20
-23.5944142234
 10
-95.2937527521
 20
-22.1521726599
 10
-101.2643607225
 20
-20.6148990518
 10
-107.0121043946
 20
-18.9859766564
 10
-112.5243340382
 20
-17.2689904336
 10
-117.7889182462
 20
-15.4677191552
 10
-122.7942706334
 20
-13.5861270891
 10
-127.5293753368
 20
-11.6283552748
 10
-131.9838112587
 20
-9.5987124091
 10
-136.1477750021
 20
-7.5016653639
 10
-140.012102446
 20
-5.3418293555
 10
-143.5682889138
 20
-3.123957787
 10
-146.808507891
 20
-0.8529317874
 10
-149.7256282495
 20
1.4662505315
 10
-151.3731912178
 20
2.9298604745
  0
LWPOLYLINE
  5
331
330
303
100
AcDbEntity
  8
0
  6
Continuous
 62
    60
370
    25
100
AcDbPolyline
 90
        8
 70
   128
 43
0.0
 10
148.7309167469
 20
91.3811876836
 10
145.9102572005
 20
89.0608499886
 10
142.764014816
 20
86.7875024251
 10
139.2992100905
 20
84.5662177202
 10
135.5235743581
 20
82.4019524288
 10
131.4455325385
 20
80.2995358731
 10
127.0741843376
 20
78.2636593663
 10
122.5595779909
 20
76.3553693638
  0
LWPOLYLINE
  5
332
330
303
100
AcDbEntity
  8
0
  6
Continuous
 62
    60
370
    25
100
AcDbPolyline
 90
       44
 70
   128
 43
0.0
 10
-116.8168923676
 20
74.1645720259
 10
-121.4481747486
 20
75.9120617389
 10
-126.1589583953
 20
77.8620002246
 10
-130.5882320748
 20
79.8839178546
 10
-134.7261123456
 20
81.9733029399
 10
-138.5633659787
 20
84.1254932455
 10
-142.0914305609
 20
86.3356863932
 10
-145.3024336006
 20
88.5989505778
 10
-148.1892100943
 20
90.910235572
 10
-150.7453185149
 20
93.2643839952
 10
-152.965055185
 20
95.6561428217
 10
-154.8434670042
 20
98.0801751023
 10
-156.3763625012
 20
100.5310718733
 10
-157.5603211867
 20
103.0033642255
 10
-158.392701186
 20
105.4915355079
 10
-158.8716451337
 20
107.9900336376
 10
-158.9960843188
 20
110.4932834881
 10
-158.7657410686
 20
112.9956993304
 10
-158.181129369
 20
115.491697296
 10
-157.2435537174
 20
117.9757078376
 10
-155.9551062117
 20
120.4421881564
 10
-154.3186618819
 20
122.8856345703
 10
-152.3378722754
 20
125.3005947949
 10
-150.0171573083
 20
127.6816801096
 10
-147.361695403
 20
130.0235773821
 10
-144.3774119336
 20
132.3210609237
 10
-141.0709660032
 20
134.5690041504
 10
-137.4497355858
 20
136.7623910219
 10
-133.5218010622
 20
138.8963272342
 10
-129.2959271904
 20
140.9660511414
 10
-124.7815435474
 20
142.9669443801
 10
-119.9887234883
 20
144.8945421751
 10
-114.9281616688
 20
146.7445433019
 10
-109.611150181
 20
148.5128196847
 10
-104.0495533567
 20
150.1954256073
 10
-98.2557812932
 20
151.7886065182
 10
-92.2427621613
 20
153.2888074076
 10
-86.023913358
 20
154.6926807407
 10
-79.6131115667
 20
155.9970939273
 10
-73.024661793
 20
157.1991363115
 10
-66.2732654444
 20
158.2961256666
 10
-59.3739875264
 20
159.2856141805
 10
-52.3422230255
 20
160.1653939173
 10
-49.5471875114
 20
160.4805388723
  0
LWPOLYLINE
  5
333
330
303
100
AcDbEntity
  8
0
  6
Continuous
 62
    60
370
    25
100
AcDbPolyline
 90
       35
 70
   128
 43
0.0
 10
53.6604308051
 20
160.0100356175
 10
57.9676274052
 20
159.4717325212
 10
64.8948423875
 20
158.5041745382
 10
71.6772516009
 20
157.4286514757
 10
78.2997208387
 20
156.247563246
 10
84.7474727822
 20
154.9635453189
 10
91.0061199758
 20
153.5794628404
 10
97.0616969302
 20
152.0984042398
 10
102.9006912855
 20
150.5236743379
 10
108.510073962
 20
148.8587869729
 10
113.8773282335
 20
147.1074571594
 10
118.9904776571
 20
145.2735927993
 10
123.8381127971
 20
143.3612859608
 10
128.4094166839
 20
141.3748037483
 10
132.6941889511
 20
139.3185787804
 10
136.6828685962
 20
137.197199299
 10
140.3665553154
 20
135.0153989313
 10
143.7370293632
 20
132.778046127
 10
146.786769894
 20
130.490133295
 10
149.5089717442
 20
128.1567656636
 10
151.8975606169
 20
125.7831498883
 10
153.9472066366
 20
123.374582434
 10
155.6533362414
 20
120.9364377565
 10
157.012142389
 20
118.4741563101
 10
158.0205930515
 20
115.9932324073
 10
158.6764379814
 20
113.4992019596
 10
158.978213732
 20
110.997630124
 10
158.9252469236
 20
108.4940988856
 10
158.517655746
 20
105.9941946013
 10
157.7563496944
 20
103.5034955354
 10
156.6430275402
 20
101.0275594111
 10
155.1801735406
 20
98.5719110103
 10
153.3710518949
 20
96.1420298446
 10
151.2196994608
 20
93.7433379292
 10
148.7309167469
 20
91.3811876836
  0
LWPOLYLINE
  5
334
330
303
100
AcDbEntity
  8
0
  6
Continuous
 62
    60
370
    25
100
AcDbPolyline
 90
        8
 70
   128
 43
0.0
 10
145.6670059177
 20
91.767204164
 10
142.8822992993
 20
89.4776193778
 10
139.7739183171
 20
87.2347951398
 10
136.348904454
 20
85.0438121683
 10
132.6150164678
 20
82.9096337445
 10
128.5807128158
 20
80.837094469
 10
124.2551324933
 20
78.8308893097
 10
119.7536073506
 20
76.937836452
  0
LWPOLYLINE
  5
335
330
303
100
AcDbEntity
  8
0
  6
Continuous
 62
    60
370
    25
100
AcDbPolyline
 90
       42
 70
   128
 43
0.0
 10
-116.4429832756
 20
75.6534736104
 10
-120.5142230089
 20
77.2452381842
 10
-125.0703854681
 20
79.193906135
 10
-129.3432232774
 20
81.2126305522
 10
-133.3230570847
 20
83.2968383756
 10
-137.0008712866
 20
85.4418082042
 10
-140.3683344508
 20
87.6426809915
 10
-143.4178181903
 20
89.8944710526
 10
-146.1424144435
 20
92.1920773589
 10
-148.5359511237
 20
94.530295093
 10
-150.5930061003
 20
96.9038274399
 10
-152.3089194823
 20
99.3072975852
 10
-153.679804174
 20
101.7352608961
 10
-154.7025546805
 20
104.1822172547
 10
-155.3748541431
 20
106.6426235179
 10
-155.6951795872
 20
109.1109060742
 10
-155.6628053728
 20
111.5814734696
 10
-155.2778048376
 20
114.0487290744
 10
-154.541050132
 20
116.5070837611
 10
-153.4542102421
 20
118.9509685657
 10
-152.0197472099
 20
121.374847303
 10
-150.2409105556
 20
123.7732291081
 10
-148.1217299162
 20
126.1406808748
 10
-145.6670059177
 20
128.4718395633
 10
-142.8822992993
 20
130.7614243496
 10
-139.7739183171
 20
133.0042485876
 10
-136.348904454
 20
135.195231559
 10
-132.6150164678
 20
137.3294099828
 10
-128.5807128158
 20
139.4019492584
 10
-124.2551324933
 20
141.4081544176
 10
-119.6480743311
 20
143.3434807607
 10
-114.7699747976
 20
145.2035441509
 10
-109.6318843573
 20
146.9841309465
 10
-104.2454424376
 20
148.6812075455
 10
-98.6228510619
 20
150.2909295237
 10
-92.7768472081
 20
151.8096503431
 10
-86.7206739551
 20
153.2339296125
 10
-80.4680504834
 20
154.5605408813
 10
-74.033140996
 20
155.7864789483
 10
-67.4305226327
 20
156.9089666695
 10
-60.6751524477
 20
157.925461249
 10
-56.4175099258
 20
158.5013472653
  0
LWPOLYLINE
  5
336
330
303
100
AcDbEntity
  8
0
  6
Continuous
 62
    60
370
    25
100
AcDbPolyline
 90
       36
 70
   128
 43
0.0
 10
45.4052465079
 20
159.7722137209
 10
48.0634770447
 20
159.493431824
 10
55.0569531121
 20
158.6751904913
 10
61.9257074725
 20
157.7469549521
 10
68.654180188
 20
156.7108279583
 10
75.2271291039
 20
155.5691566708
 10
81.6296643768
 20
154.3245273424
 10
87.847282205
 20
152.9797594587
 10
93.8658976843
 20
151.5378993516
 10
99.6718767149
 20
150.0022132979
 10
105.2520668869
 20
148.3761801204
 10
110.5938272747
 20
146.6634833074
 10
115.685057073
 20
144.8680026679
 10
120.5142230089
 20
142.9938055431
 10
125.0703854681
 20
141.0451375923
 10
129.3432232774
 20
139.0264131752
 10
133.3230570847
 20
136.9422053517
 10
137.0008712866
 20
134.7972355231
 10
140.3683344508
 20
132.5963627359
 10
143.4178181903
 20
130.3445726747
 10
146.1424144435
 20
128.0469663685
 10
148.5359511237
 20
125.7087486343
 10
150.5930061003
 20
123.3352162875
 10
152.3089194823
 20
120.9317461422
 10
153.679804174
 20
118.5037828313
 10
154.7025546805
 20
116.0568264726
 10
155.3748541431
 20
113.5964202094
 10
155.6951795872
 20
111.1281376532
 10
155.6628053728
 20
108.6575702577
 10
155.2778048376
 20
106.1903146529
 10
154.541050132
 20
103.7319599662
 10
153.4542102421
 20
101.2880751616
 10
152.0197472099
 20
98.8641964243
 10
150.2409105556
 20
96.4658146192
 10
148.1217299162
 20
94.0983628526
 10
145.6670059177
 20
91.767204164
  0
LWPOLYLINE
  5
337
330
303
100
AcDbEntity
  8
0
  6
Continuous
 62
    60
370
    25
100
AcDbPolyline
 90
       68
 70
   128
 43
0.0
 10
-154.7551237619
 20
110.1959444971
 10
-154.7094667512
 20
110.9132190232
 10
-154.3268241067
 20
113.36536421
 10
-153.594581569
 20
115.8086629914
 10
-152.5143979027
 20
118.2375805097
 10
-151.0887200714
 20
120.6466144855
 10
-149.3207776938
 20
123.0303076821
 10
-147.2145757281
 20
125.3832602677
 10
-144.7748853992
 20
127.7001420479
 10
-142.0072333904
 20
129.9757045402
 10
-138.9178893235
 20
132.2047928638
 10
-135.5138515567
 20
134.3823574167
 10
-131.8028313302
 20
136.5034653146
 10
-127.7932352984
 20
138.5633115661
 10
-123.4941464861
 20
140.5572299569
 10
-118.915303712
 20
142.4807036204
 10
-114.0670795279
 20
144.3293752702
 10
-108.9604567207
 20
146.0990570704
 10
-103.6070034337
 20
147.7857401226
 10
-98.0188469604
 20
149.3856035471
 10
-92.2086462726
 20
150.8950231387
 10
-86.1895633435
 20
152.3105795765
 10
-79.9752333319
 20
153.6290661699
 10
-73.5797336941
 20
154.8474961228
 10
-67.0175522937
 20
155.9631092994
 10
-60.3035545823
 20
156.9733784769
 10
-53.452949924
 20
157.8760150709
 10
-46.4812571419
 20
158.6689743191
 10
-39.4042693624
 20
159.3504599137
 10
-32.2380182391
 20
159.9189280707
 10
-24.9987376356
 20
160.3730910269
 10
-17.7028268509
 20
160.7119199571
 10
-10.3668134695
 20
160.9346473048
 10
-3.0073159214
 20
161.0407685209
 10
4.3589941646
 20
161.0300432068
 10
11.7154297268
 20
160.9024956587
 10
19.0453260726
 20
160.6584148128
 10
26.3320786292
 20
160.2983535908
 10
33.5591805584
 20
159.8231276472
 10
40.7102601499
 20
159.2338135215
 10
47.7691179083
 20
158.5317461997
 10
54.7197632505
 20
157.7185160903
 10
61.5464507293
 20
156.7959654209
 10
68.2337157016
 20
155.7661840655
 10
74.7664093617
 20
154.6315048102
 10
81.1297330571
 20
153.3944980683
 10
87.309271813
 20
152.057966058
 10
93.2910269867
 20
150.6249364543
 10
99.0614479787
 20
149.0986555299
 10
104.6074629295
 20
147.4825808023
 10
109.9165083314
 20
145.7803732003
 10
114.9765574891
 20
143.9958887717
 10
119.7761477637
 20
142.1331699477
 10
124.3044065395
 20
140.1964363856
 10
128.551075854
 20
138.1900754097
 10
132.5065356353
 20
136.118632073
 10
136.1618254948
 20
133.9867988609
 10
139.5086650252
 20
131.7994050613
 10
142.5394725587
 20
129.5614058247
 10
145.2473823412
 20
127.2778709391
 10
147.6262600863
 20
124.9539733456
 10
149.6707168706
 20
122.5949774197
 10
151.3761213421
 20
120.2062270458
 10
152.738610211
 20
117.7931335119
 10
153.7550970018
 20
115.3611632509
 10
154.4232790451
 20
112.9158254577
 10
154.7416426936
 20
110.4626596089
 10
154.7485296351
 20
110.3366092858
  0
LINE
  5
33B
330
303
100
AcDbEntity
  8
0
  6
Continuous
 62
     7
370
    25
100
AcDbLine
 10
160.815234748
 20
21.1935757896
 30
0.0
 11
159.999238416
 21
109.3494956757
 31
0.0
  0
LINE
  5
33C
330
303
100
AcDbEntity
  8
0
  6
Continuous
 62
     7
370
    25
100
AcDbLine
 10
-159.999238416
 20
109.3494956757
 30
0.0
 11
-160.815234748
 21
21.1935757896
 31
0.0
  0
LINE
  5
33D
330
303
100
AcDbEntity
  8
0
  6
Continuous
 62
     7
370
    25
100
AcDbLine
 10
70.3530148932
 20
63.8513912627
 30
0.0
 11
72.2475244126
 21
65.6149936742
 31
0.0
  0
LINE
  5
33E
330
303
100
AcDbEntity
  8
0
  6
Continuous
 62
     7
370
    25
100
AcDbLine
 10
-112.9409374218
 20
134.5198098066
 30
0.0
 11
52.1849386135
 21
113.7159049118
 31
0.0
  0
LINE
  5
33F
330
303
100
AcDbEntity
  8
0
  6
Continuous
 62
     7
370
    25
100
AcDbLine
 10
52.1849386135
 20
113.7159049118
 30
0.0
 11
52.4664129397
 21
61.2461933023
 31
0.0
  0
LINE
  5
340
330
303
100
AcDbEntity
  8
0
  6
Continuous
 62
     7
370
    25
100
AcDbLine
 10
52.1849386135
 20
113.7159049118
 30
0.0
 11
84.9768067919
 21
142.6356143209
 31
0.0
  0
LINE
  5
341
330
303
100
AcDbEntity
  8
0
  6
Continuous
 62
     7
370
    25
100
AcDbLine
 10
-261.1788675391
 20
153.1960335096
 30
0.0
 11
-136.517797045
 21
137.4902149127
 31
0.0
  0
LINE
  5
342
330
303
100
AcDbEntity
  8
0
  6
Continuous
 62
     7
370
    25
100
AcDbLine
 10
-216.9846937251
 20
192.1716312805
 30
0.0
 11
-261.1788675391
 21
153.1960335096
 31
0.0
  0
LINE
  5
343
330
303
100
AcDbEntity
  8
0
  6
Continuous
 62
     7
370
    25
100
AcDbLine
 10
96.3791124275
 20
152.6915026827
 30
0.0
 11
93.6132495289
 21
153.0399686535
 31
0.0
  0
LINE
  5
344
330
303
100
AcDbEntity
  8
0
  6
Continuous
 62
     7
370
    25
100
AcDbLine
 10
15.6525504579
 20
162.8620934951
 30
0.0
 11
-216.9846937251
 21
192.1716312805
 31
0.0
  0
LINE
  5
345
330
303
100
AcDbEntity
  8
0
  6
Continuous
 62
     7
370
    25
100
AcDbLine
 10
96.0737296503
 20
152.4221803883
 30
0.0
 11
96.3791124275
 21
152.6915026827
 31
0.0
  0
LINE
  5
346
330
303
100
AcDbEntity
  8
0
  6
Continuous
 62
     7
370
    25
100
AcDbLine
 10
-261.1788675391
 20
153.1960335096
 30
0.0
 11
-262.1350028766
 21
72.913393303
 31
0.0
  0
LINE
  5
347
330
303
100
AcDbEntity
  8
0
  6
Continuous
 62
     7
370
    25
100
AcDbLine
 10
-262.1350028766
 20
72.913393303
 30
0.0
 11
-160.4550786983
 21
60.1029269902
 31
0.0
  0
LINE
  5
348
330
303
100
AcDbEntity
  8
0
  6
Continuous
 62
     7
370
    25
100
AcDbLine
 10
96.3791124275
 20
152.6915026827
 30
0.0
 11
96.3821114822
 21
152.3447505098
 31
0.0
  0
LINE
  5
349
330
303
100
AcDbEntity
  8
0
  6
Continuous
 62
    60
370
    25
100
AcDbLine
 10
72.2475244126
 20
65.6149936742
 30
0.0
 11
75.4912992807
 21
64.7185815612
 31
0.0
  0
ARC
  5
34A
330
303
100
AcDbEntity
  8
0
  6
Continuous
 62
     7
370
    25
100
AcDbCircle
 10
-141.3594709936
 20
109.1920419296
 30
0.0
 40
18.62166803498951
100
AcDbArc
 50
157.0915343395
 51
200.4186444667
  0
ARC
  5
34B
330
303
100
AcDbEntity
  8
0
  6
Continuous
 62
     7
370
    25
100
AcDbCircle
 10
141.3867823797
 20
109.1913468364
 30
0.0
 40
18.596941440904
100
AcDbArc
 50
338.8868649763
 51
22.992865629
  0
ARC
  5
34C
330
303
100
AcDbEntity
  8
0
  6
Continuous
 62
     7
370
    25
100
AcDbCircle
 10
-0.0393481616
 20
-299.5178489008
 30
0.0
 40
462.6548853205437
100
AcDbArc
 50
83.3347266672
 51
96.1428765478
  0
ARC
  5
34D
330
303
100
AcDbEntity
  8
0
  6
Continuous
 62
     7
370
    25
100
AcDbCircle
 10
0.1071803875
 20
-290.605918968
 30
0.0
 40
452.6503918020247
100
AcDbArc
 50
84.2566279482
 51
97.1735337581
  0
ARC
  5
34E
330
303
100
AcDbEntity
  8
0
  6
Continuous
 62
     7
370
    25
100
AcDbCircle
 10
-134.2696629684
 20
109.9258262643
 30
0.0
 40
20.4872415854661
100
AcDbArc
 50
179.2445501713
 51
217.6372202048
  0
ARC
  5
34F
330
303
100
AcDbEntity
  8
0
  6
Continuous
 62
    60
370
    25
100
AcDbCircle
 10
130.0591256349
 20
114.4101438171
 30
0.0
 40
31.05405258464533
100
AcDbArc
 50
309.1526336244
 51
337.4325982362
  0
ARC
  5
350
330
303
100
AcDbEntity
  8
0
  6
Continuous
 62
    60
370
    25
100
AcDbCircle
 10
45.0269113884
 20
-66.1995508722
 30
0.0
 40
154.87694792564
100
AcDbArc
 50
64.6816607551
 51
77.3158197112
  0
ARC
  5
351
330
303
100
AcDbEntity
  8
0
  6
Continuous
 62
    60
370
    25
100
AcDbCircle
 10
-55.4577190502
 20
-41.2847447351
 30
0.0
 40
127.9004845731863
100
AcDbArc
 50
108.325424968
 51
115.8674997292
  0
VIEWPORT
  5
362
330
303
100
AcDbEntity
  8
0
100
AcDbViewport
 10
0.0
 20
0.0
 30
0.0
 40
205.6
 41
156.0
 68
     1
 69
     1
 12
-69.9628822538
 22
9.5919903727
 13
0.0
 23
0.0
 14
10.0
 24
10.0
 15
10.0
 25
10.0
 16
0.0
 26
0.0
 36
1.0
 17
0.0
 27
0.0
 37
0.0
 42
50.0
 43
0.0
 44
0.0
 45
357.2134125293
 50
0.0
 51
0.0
 72
   100
 90
   557152
  1

281
     0
 71
     1
 74
     0
110
0.0
120
0.0
130
0.0
111
1.0
121
0.0
131
0.0
112
0.0
122
1.0
132
0.0
 79
     0
146
0.0
  0
ENDBLK
  5
306
330
303
100
AcDbEntity
  8
0
100
AcDbBlockEnd
  0
ENDSEC
  0
SECTION
  2
ENTITIES
  0
CIRCLE
  5
75
330
1F
100
AcDbEntity
  8
0
  6
Continuous
 62
     7
370
    25
100
AcDbCircle
 10
0.0
 20
0.0
 30
0.0
 40
155.7245796237927
  0
CIRCLE
  5
76
330
1F
100
AcDbEntity
  8
0
  6
Continuous
 62
     7
370
    25
100
AcDbCircle
 10
0.0
 20
0.0
 30
0.0
 40
159.0000380769358
  0
CIRCLE
  5
77
330
1F
100
AcDbEntity
  8
0
  6
Continuous
 62
     7
370
    25
100
AcDbCircle
 10
0.0
 20
0.0
 30
0.0
 40
154.7708626730445
  0
CIRCLE
  5
78
330
1F
100
AcDbEntity
  8
0
  6
Continuous
 62
     7
370
    25
100
AcDbCircle
 10
0.0
 20
0.0
 30
0.0
 40
159.9999999999999
  0
SPLINE
  5
79
330
1F
100
AcDbEntity
  8
0
  6
Continuous
 62
     7
370
    25
100
AcDbSpline
210
0.0
220
0.0
230
1.0
 70
     8
 71
     3
 72
     8
 73
     4
 74
     0
 42
0.000000001
 43
0.00000001
 40
0.0
 40
0.0
 40
0.0
 40
0.0
 40
1.0
 40
1.0
 40
1.0
 40
1.0
 10
35.48172245308734
 20
129.6669526487503
 30
0.0
 10
35.32122886559108
 20
135.7226217037309
 30
0.0
 10
35.16064492138324
 20
141.746681366183
 30
0.0
 10
35.0
 20
147.7494094480741
 30
0.0
  0
SPLINE
  5
7B
330
1F
100
AcDbEntity
  8
0
  6
Continuous
 62
     7
370
    25
100
AcDbSpline
210
0.0
220
0.0
230
1.0
 70
     8
 71
     3
 72
     8
 73
     4
 74
     0
 42
0.000000001
 43
0.00000001
 40
0.0
 40
0.0
 40
0.0
 40
0.0
 40
1.0
 40
1.0
 40
1.0
 40
1.0
 10
-141.5269867984712
 20
54.99999999999999
 30
0.0
 10
-135.359839628843
 20
54.8392857950778
 30
0.0
 10
-129.1522804120399
 20
54.67869069701082
 30
0.0
 10
-122.8829876377075
 20
54.51827754691266
 30
0.0
  0
SPLINE
  5
8C
330
1F
100
AcDbEntity
  8
0
  6
Continuous
 62
     7
370
    25
100
AcDbSpline
210
0.0
220
0.0
230
1.0
 70
     8
 71
     3
 72
    14
 73
    10
 74
     0
 42
0.000000001
 43
0.00000001
 40
0.0
 40
0.0
 40
0.0
 40
0.0
 40
0.2499999999999999
 40
0.2499999999999999
 40
0.4999999999999999
 40
0.4999999999999999
 40
0.7499999999999999
 40
0.7499999999999999
 40
1.0
 40
1.0
 40
1.0
 40
1.0
 10
-102.1826916653276
 20
54.39625948322367
 30
0.0
 10
-90.70085832985771
 20
54.39449036828299
 30
0.0
 10
-79.21895521530666
 20
54.39278028415911
 30
0.0
 10
-56.25480078210708
 20
54.38965468517141
 30
0.0
 10
-44.77255884949474
 20
54.38823123002847
 30
0.0
 10
-21.80718366673533
 20
54.38613834517938
 30
0.0
 10
-10.32400557343159
 20
54.38550685131479
 30
0.0
 10
12.6439446284413
 20
54.38559234828384
 30
0.0
 10
24.12867099235341
 20
54.38630356541024
 30
0.0
 10
35.61259826733959
 20
54.38740173266042
 30
0.0
  0
SPLINE
  5
8D
330
1F
100
AcDbEntity
  8
0
  6
Continuous
 62
     7
370
    25
100
AcDbSpline
210
0.0
220
0.0
230
1.0
 70
     8
 71
     3
 72
    28
 73
    24
 74
     0
 42
0.000000001
 43
0.00000001
 40
0.0
 40
0.0
 40
0.0
 40
0.0
 40
0.1250000000000003
 40
0.1250000000000003
 40
0.1875000000000001
 40
0.1875000000000001
 40
0.2499999999999999
 40
0.2499999999999999
 40
0.3750000000000001
 40
0.3750000000000001
 40
0.4375000000000007
 40
0.4375000000000007
 40
0.5000000000000013
 40
0.5000000000000013
 40
0.625000000000001
 40
0.625000000000001
 40
0.6875000000000002
 40
0.6875000000000002
 40
0.7499999999999996
 40
0.7499999999999996
 40
0.8749999999999998
 40
0.8749999999999998
 40
1.0
 40
1.0
 40
1.0
 40
1.0
 10
-122.8829876377075
 20
54.51827754691266
 30
0.0
 10
-122.523633232023
 20
54.50908270240746
 30
0.0
 10
-122.0750081656007
 20
54.50027701933416
 30
0.0
 10
-121.2750366766328
 20
54.48762227902311
 30
0.0
 10
-120.9870904485407
 20
54.48349683859014
 30
0.0
 10
-120.3684520631012
 20
54.47543230189257
 30
0.0
 10
-120.0363205185741
 20
54.47147968980639
 30
0.0
 10
-118.9934424492196
 20
54.46010390005271
 30
0.0
 10
-118.2328904697055
 20
54.45310144294126
 30
0.0
 10
-117.0000897902959
 20
54.44341664301501
 30
0.0
 10
-116.5737473663906
 20
54.44032557031966
 30
0.0
 10
-115.6903642563059
 20
54.43441674914883
 30
0.0
 10
-115.232102806325
 20
54.43159370178759
 30
0.0
 10
-113.8332920256156
 20
54.42365897438914
 30
0.0
 10
-112.8627703163213
 20
54.41903318648761
 30
0.0
 10
-111.3535830781996
 20
54.41302818592178
 30
0.0
 10
-110.8415774811928
 20
54.41118287399141
 30
0.0
 10
-109.7998115382258
 20
54.40780265885613
 30
0.0
 10
-109.2681419115686
 20
54.40626344697133
 30
0.0
 10
-107.6655473875343
 20
54.40216132222396
 30
0.0
 10
-106.5849754809403
 20
54.40009828863158
 30
0.0
 10
-104.4009776340216
 20
54.39723306111824
 30
0.0
 10
-103.2975445885048
 20
54.39643125918536
 30
0.0
 10
-102.1826916653276
 20
54.39625948322367
 30
0.0
  0
SPLINE
  5
90
330
1F
100
AcDbEntity
  8
0
  6
Continuous
 62
     7
370
    25
100
AcDbSpline
210
0.0
220
0.0
230
1.0
 70
     8
 71
     3
 72
    28
 73
    24
 74
     0
 42
0.000000001
 43
0.00000001
 40
0.0
 40
0.0
 40
0.0
 40
0.0
 40
0.0625000000000009
 40
0.0625000000000009
 40
0.1250000000000018
 40
0.1250000000000018
 40
0.2500000000000037
 40
0.2500000000000037
 40
0.3125000000000037
 40
0.3125000000000037
 40
0.3750000000000037
 40
0.3750000000000037
 40
0.5000000000000022
 40
0.5000000000000022
 40
0.6250000000000008
 40
0.6250000000000008
 40
0.7500000000000006
 40
0.7500000000000006
 40
0.8750000000000002
 40
0.8750000000000002
 40
0.9375000000000002
 40
0.9375000000000002
 40
1.0
 40
1.0
 40
1.0
 40
1.0
 10
35.60374051677634
 20
110.1482146153612
 30
0.0
 10
35.60365186237477
 20
110.6820585356732
 30
0.0
 10
35.60339207246062
 20
111.2199235913412
 30
0.0
 10
35.60253218794595
 20
112.2876768002731
 30
0.0
 10
35.60193443508129
 20
112.8167837377909
 30
0.0
 10
35.59964740760451
 20
114.3900701984206
 30
0.0
 10
35.59746712615103
 20
115.4202938748791
 30
0.0
 10
35.59320093750568
 20
116.9373268020741
 30
0.0
 10
35.59161223230069
 20
117.4382679835679
 30
0.0
 10
35.58809061606533
 20
118.4303670129808
 30
0.0
 10
35.58615273375266
 20
118.9222369618533
 30
0.0
 10
35.5799166679589
 20
120.3573037559448
 30
0.0
 10
35.57517119945397
 20
121.2687819827223
 30
0.0
 10
35.56451068954291
 20
123.0017808832689
 30
0.0
 10
35.55859318117069
 20
123.8236794899014
 30
0.0
 10
35.54552158922206
 20
125.3700811799539
 30
0.0
 10
35.53854489862725
 20
126.0736617353997
 30
0.0
 10
35.52373377879736
 20
127.3453800222315
 30
0.0
 10
35.51589946960855
 20
127.9135367097429
 30
0.0
 10
35.50347434911203
 20
128.6593967178764
 30
0.0
 10
35.49921462415504
 20
128.8902775295448
 30
0.0
 10
35.4905772519223
 20
129.3094053951071
 30
0.0
 10
35.48618637167719
 20
129.4985221582229
 30
0.0
 10
35.48172245308734
 20
129.6669526487503
 30
0.0
  0
SPLINE
  5
91
330
1F
100
AcDbEntity
  8
0
  6
Continuous
 62
     7
370
    25
100
AcDbSpline
210
0.0
220
0.0
230
1.0
 70
     8
 71
     3
 72
    10
 73
     6
 74
     0
 42
0.000000001
 43
0.00000001
 40
0.0
 40
0.0
 40
0.0
 40
0.0
 40
0.5
 40
0.5
 40
1.0
 40
1.0
 40
1.0
 40
1.0
 10
35.61259826733958
 20
54.38740173266042
 30
0.0
 10
35.61124133796942
 20
63.68111948961177
 30
0.0
 10
35.60978719246738
 20
72.97463449181127
 30
0.0
 10
35.60681020738485
 20
91.56152122728408
 30
0.0
 10
35.60528384150169
 20
100.854885606072
 30
0.0
 10
35.60374051677634
 20
110.1482146153612
 30
0.0
  0
CIRCLE
  5
93
330
1F
100
AcDbEntity
  8
0
  6
Continuous
 62
     7
370
    25
100
AcDbCircle
 10
0.0
 20
0.0
 30
0.0
 40
48.16836135518233
  0
CIRCLE
  5
94
330
1F
100
AcDbEntity
  8
0
  6
Continuous
 62
     7
370
    25
100
AcDbCircle
 10
0.0
 20
0.0
 30
0.0
 40
45.22880627331196
  0
CIRCLE
  5
95
330
1F
100
AcDbEntity
  8
0
  6
Continuous
 62
     7
370
    25
100
AcDbCircle
 10
0.0
 20
0.0
 30
0.0
 40
45.05043222968462
  0
CIRCLE
  5
96
330
1F
100
AcDbEntity
  8
0
  6
Continuous
 62
     7
370
    25
100
AcDbCircle
 10
0.0
 20
0.0
 30
0.0
 40
37.99999999999998
  0
CIRCLE
  5
97
330
1F
100
AcDbEntity
  8
0
  6
Continuous
 62
     7
370
    25
100
AcDbCircle
 10
0.0
 20
0.0
 30
0.0
 40
40.0
  0
LINE
  5
AB
330
1F
100
AcDbEntity
  8
0
  6
Continuous
 62
     7
370
    25
100
AcDbLine
 10
35.0
 20
156.2055182435
 30
0.0
 11
35.7373822507
 21
156.7948514313
 31
0.0
  0
LINE
  5
AC
330
1F
100
AcDbEntity
  8
0
  6
Continuous
 62
     7
370
    25
100
AcDbLine
 10
-151.3847886694
 20
54.2626177493
 30
0.0
 11
-150.3335090049
 21
55.0
 31
0.0
  0
LINE
  5
AD
330
1F
100
AcDbEntity
  8
0
  6
Continuous
 62
     7
370
    25
100
AcDbLine
 10
-300.7417837622
 20
54.2582162378
 30
0.0
 11
-151.3863865068
 21
54.2582162378
 31
0.0
  0
LINE
  5
AE
330
1F
100
AcDbEntity
  8
0
  6
Continuous
 62
     7
370
    25
100
AcDbLine
 10
-300.0
 20
55.0
 30
0.0
 11
-300.7417837622
 21
54.2582162378
 31
0.0
  0
LINE
  5
AF
330
1F
100
AcDbEntity
  8
0
  6
Continuous
 62
     7
370
    25
100
AcDbLine
 10
-300.0
 20
55.0
 30
0.0
 11
-150.3335090049
 21
55.0
 31
0.0
  0
LINE
  5
B0
330
1F
100
AcDbEntity
  8
0
  6
Continuous
 62
     7
370
    25
100
AcDbLine
 10
35.7417837622
 20
180.0
 30
0.0
 11
-300.7417837622
 21
180.0
 31
0.0
  0
LINE
  5
B1
330
1F
100
AcDbEntity
  8
0
  6
Continuous
 62
     7
370
    25
100
AcDbLine
 10
-300.0
 20
180.0
 30
0.0
 11
-300.0
 21
55.0
 31
0.0
  0
LINE
  5
B2
330
1F
100
AcDbEntity
  8
0
  6
Continuous
 62
     7
370
    25
100
AcDbLine
 10
-300.7417837622
 20
180.0
 30
0.0
 11
-300.7417837622
 21
54.2582162378
 31
0.0
  0
LINE
  5
B3
330
1F
100
AcDbEntity
  8
0
  6
Continuous
 62
     7
370
    25
100
AcDbLine
 10
35.0
 20
156.2055182435
 30
0.0
 11
35.0
 21
180.0
 31
0.0
  0
LINE
  5
B4
330
1F
100
AcDbEntity
  8
0
  6
Continuous
 62
     7
370
    25
100
AcDbLine
 10
35.0
 20
55.0
 30
0.0
 11
35.0
 21
147.7494094481
 31
0.0
  0
LINE
  5
B5
330
1F
100
AcDbEntity
  8
0
  6
Continuous
 62
     7
370
    25
100
AcDbLine
 10
-141.5269867985
 20
55.0
 30
0.0
 11
35.0
 21
55.0
 31
0.0
  0
LINE
  5
B6
330
1F
100
AcDbEntity
  8
0
  6
Continuous
 62
     7
370
    25
100
AcDbLine
 10
35.0
 20
55.0
 30
0.0
 11
35.6125982673
 21
54.3874017327
 31
0.0
  0
LINE
  5
B7
330
1F
100
AcDbEntity
  8
0
  6
Continuous
 62
     7
370
    25
100
AcDbLine
 10
35.7417837622
 20
156.793867681
 30
0.0
 11
35.7417837622
 21
180.0
 31
0.0
  0
LINE
  5
B8
330
1F
100
AcDbEntity
  8
0
  6
Continuous
 62
     7
370
    25
100
AcDbLine
 10
17.8858983849
 20
-38.9792847416
 30
0.0
 11
16.435647127
 21
-36.4673758792
 31
0.0
  0
LINE
  5
B9
330
1F
100
AcDbEntity
  8
0
  6
Continuous
 62
     7
370
    25
100
AcDbLine
 10
24.0820508076
 20
-37.7113355492
 30
0.0
 11
20.6179491924
 21
-39.7113355492
 31
0.0
  0
LINE
  5
BA
330
1F
100
AcDbEntity
  8
0
  6
Continuous
 62
     7
370
    25
100
AcDbLine
 10
23.3638503573
 20
-32.4673758792
 30
0.0
 11
24.8141016151
 21
-34.9792847416
 31
0.0
  0
LINE
  5
BB
330
1F
100
AcDbEntity
  8
0
  6
Continuous
 62
     7
370
    25
100
AcDbLine
 10
-42.7
 20
4.0
 30
0.0
 11
-39.7994974843
 21
4.0
 31
0.0
  0
LINE
  5
BC
330
1F
100
AcDbEntity
  8
0
  6
Continuous
 62
     7
370
    25
100
AcDbLine
 10
-44.7
 20
-2.0
 30
0.0
 11
-44.7
 21
2.0
 31
0.0
  0
LINE
  5
BD
330
1F
100
AcDbEntity
  8
0
  6
Continuous
 62
     7
370
    25
100
AcDbLine
 10
-39.7994974843
 20
-4.0
 30
0.0
 11
-42.7
 21
-4.0
 31
0.0
  0
LINE
  5
BE
330
1F
100
AcDbEntity
  8
0
  6
Continuous
 62
     7
370
    25
100
AcDbLine
 10
16.435647127
 20
36.4673758792
 30
0.0
 11
17.8858983849
 21
38.9792847416
 31
0.0
  0
LINE
  5
BF
330
1F
100
AcDbEntity
  8
0
  6
Continuous
 62
     7
370
    25
100
AcDbLine
 10
20.6179491924
 20
39.7113355492
 30
0.0
 11
24.0820508076
 21
37.7113355492
 31
0.0
  0
LINE
  5
C0
330
1F
100
AcDbEntity
  8
0
  6
Continuous
 62
     7
370
    25
100
AcDbLine
 10
24.8141016151
 20
34.9792847416
 30
0.0
 11
23.3638503573
 21
32.4673758792
 31
0.0
  0
ARC
  5
C1
330
1F
100
AcDbEntity
  8
0
  6
Continuous
 62
     7
370
    25
100
AcDbCircle
 10
0.0
 20
0.0
 30
0.0
 40
160.8160192545642
100
AcDbArc
 50
160.280491476
 51
77.1595009448
  0
ARC
  5
C2
330
1F
100
AcDbEntity
  8
0
  6
Continuous
 62
     7
370
    25
100
AcDbCircle
 10
0.0
 20
0.0
 30
0.0
 40
151.8383613987412
100
AcDbArc
 50
76.6730016624
 51
158.7629545741
  0
ARC
  5
C3
330
1F
100
AcDbEntity
  8
0
  6
Continuous
 62
     7
370
    25
100
AcDbCircle
 10
0.0
 20
0.0
 30
0.0
 40
134.4338916994192
100
AcDbArc
 50
156.0750492556
 51
74.6963584002
  0
ARC
  5
C4
330
1F
100
AcDbEntity
  8
0
  6
Continuous
 62
     7
370
    25
100
AcDbCircle
 10
0.0
 20
0.0
 30
0.0
 40
160.8160002160963
100
AcDbArc
 50
160.28020434
 51
77.1602313271
  0
ARC
  5
C5
330
1F
100
AcDbEntity
  8
0
  6
Continuous
 62
     7
370
    25
100
AcDbCircle
 10
0.0
 20
0.0
 30
0.0
 40
160.0786179654384
100
AcDbArc
 50
77.3706830493
 51
159.9047904114
  0
ARC
  5
C6
330
1F
100
AcDbEntity
  8
0
  6
Continuous
 62
     7
370
    25
100
AcDbCircle
 10
0.0
 20
0.0
 30
0.0
 40
115.7594727084468
100
AcDbArc
 50
151.9716992267
 51
72.0873600597
  0
ARC
  5
C7
330
1F
100
AcDbEntity
  8
0
  6
Continuous
 62
     7
370
    25
100
AcDbCircle
 10
19.6179491924
 20
-37.9792847416
 30
0.0
 40
2.000000000000012
100
AcDbArc
 50
210.0
 51
300.0
  0
ARC
  5
C8
330
1F
100
AcDbEntity
  8
0
  6
Continuous
 62
     7
370
    25
100
AcDbCircle
 10
23.0820508076
 20
-35.9792847416
 30
0.0
 40
2.000000000000025
100
AcDbArc
 50
300.0
 51
30.0
  0
ARC
  5
C9
330
1F
100
AcDbEntity
  8
0
  6
Continuous
 62
     7
370
    25
100
AcDbCircle
 10
-42.7
 20
2.0
 30
0.0
 40
2.0
100
AcDbArc
 50
90.0
 51
180.0
  0
ARC
  5
CA
330
1F
100
AcDbEntity
  8
0
  6
Continuous
 62
     7
370
    25
100
AcDbCircle
 10
-42.7
 20
-2.0
 30
0.0
 40
2.000000000000008
100
AcDbArc
 50
180.0
 51
270.0
  0
ARC
  5
CB
330
1F
100
AcDbEntity
  8
0
  6
Continuous
 62
     7
370
    25
100
AcDbCircle
 10
19.6179491924
 20
37.9792847416
 30
0.0
 40
2.000000000000014
100
AcDbArc
 50
60.0
 51
150.0
  0
ARC
  5
CC
330
1F
100
AcDbEntity
  8
0
  6
Continuous
 62
     7
370
    25
100
AcDbCircle
 10
23.0820508076
 20
35.9792847416
 30
0.0
 40
2.00000000000002
100
AcDbArc
 50
330.0
 51
60.0
  0
ARC
  5
CD
330
1F
100
AcDbEntity
  8
0
  6
Continuous
 62
    60
370
    25
100
AcDbCircle
 10
0.0
 20
0.0
 30
0.0
 40
42.1108771478152
100
AcDbArc
 50
305.4505908721
 51
54.5494091279
  0
ARC
  5
CE
330
1F
100
AcDbEntity
  8
0
  6
Continuous
 62
    60
370
    25
100
AcDbCircle
 10
0.0
 20
0.0
 30
0.0
 40
42.11087714781433
100
AcDbArc
 50
185.4505908721
 51
294.5494091279
  0
ARC
  5
CF
330
1F
100
AcDbEntity
  8
0
  6
Continuous
 62
    60
370
    25
100
AcDbCircle
 10
0.0
 20
0.0
 30
0.0
 40
42.11087714781436
100
AcDbArc
 50
65.4505908721
 51
174.5494091279
  0
LINE
  5
E6
330
1B
100
AcDbEntity
 67
     1
  8
0
  6
Continuous
 62
     7
370
    25
100
AcDbLine
 10
160.8160002161
 20
22.3037542405
 30
0.0
 11
160.0
 21
115.8081175083
 31
0.0
  0
LINE
  5
E7
330
1B
100
AcDbEntity
 67
     1
  8
0
  6
Continuous
 62
     7
370
    25
100
AcDbLine
 10
-160.0
 20
115.8081175083
 30
0.0
 11
-160.8160002161
 21
22.3037542405
 31
0.0
  0
LINE
  5
E8
330
1B
100
AcDbEntity
 67
     1
  8
0
  6
Continuous
 62
     7
370
    25
100
AcDbLine
 10
-60.0
 20
6.7993909728
 30
0.0
 11
-60.0
 21
1.0
 31
0.0
  0
LINE
  5
E9
330
1B
100
AcDbEntity
 67
     1
  8
0
  6
Continuous
 62
     7
370
    25
100
AcDbLine
 10
60.0
 20
1.0
 30
0.0
 11
60.0
 21
6.7993909728
 31
0.0
  0
LINE
  5
EA
330
1B
100
AcDbEntity
 67
     1
  8
0
  6
Continuous
 62
     7
370
    25
100
AcDbLine
 10
160.3160192546
 20
21.7993909728
 30
0.0
 11
-300.7417837622
 21
21.7993909728
 31
0.0
  0
LINE
  5
EB
330
1B
100
AcDbEntity
 67
     1
  8
0
  6
Continuous
 62
     7
370
    25
100
AcDbLine
 10
159.0000380769
 20
116.7993909728
 30
0.0
 11
-159.0000380769
 21
116.7993909728
 31
0.0
  0
LINE
  5
EC
330
1B
100
AcDbEntity
 67
     1
  8
0
  6
Continuous
 62
     7
370
    25
100
AcDbLine
 10
59.0
 20
0.0
 30
0.0
 11
-58.9999999924
 21
0.0
 31
0.0
  0
LINE
  5
ED
330
1B
100
AcDbEntity
 67
     1
  8
0
  6
Continuous
 62
     7
370
    25
100
AcDbLine
 10
-300.0
 20
106.7993909728
 30
0.0
 11
-300.7417837622
 21
21.7993909728
 31
0.0
  0
LINE
  5
EE
330
1B
100
AcDbEntity
 67
     1
  8
0
  6
Continuous
 62
     7
370
    25
100
AcDbLine
 10
-300.0
 20
106.7993909728
 30
0.0
 11
-160.0786179654
 21
106.7993909728
 31
0.0
  0
LINE
  5
EF
330
1B
100
AcDbEntity
 67
     1
  8
0
  6
Continuous
 62
    60
370
    25
100
AcDbLine
 10
160.8160002161
 20
22.3037542405
 30
0.0
 11
-160.8160002161
 21
22.3037542405
 31
0.0
  0
LINE
  5
F0
330
1B
100
AcDbEntity
 67
     1
  8
0
  6
Continuous
 62
    60
370
    25
100
AcDbLine
 10
160.0
 20
115.8081175083
 30
0.0
 11
-160.0
 21
115.8081175083
 31
0.0
  0
LINE
  5
F1
330
1B
100
AcDbEntity
 67
     1
  8
0
  6
Continuous
 62
    60
370
    25
100
AcDbLine
 10
60.0
 20
6.7993909728
 30
0.0
 11
-60.0
 21
6.7993909728
 31
0.0
  0
LINE
  5
F2
330
1B
100
AcDbEntity
 67
     1
  8
0
  6
Continuous
 62
    60
370
    25
100
AcDbLine
 10
60.0
 20
1.0
 30
0.0
 11
-60.0
 21
1.0
 31
0.0
  0
ARC
  5
F3
330
1B
100
AcDbEntity
 67
     1
  8
0
  6
Continuous
 62
     7
370
    25
100
AcDbCircle
 10
-160.3160192546
 20
22.2993909728
 30
0.0
 40
0.500000000000031
100
AcDbArc
 50
179.5
 51
270.0
  0
ARC
  5
F4
330
1B
100
AcDbEntity
 67
     1
  8
0
  6
Continuous
 62
     7
370
    25
100
AcDbCircle
 10
160.3160192546
 20
22.2993909728
 30
0.0
 40
0.5000000000000029
100
AcDbArc
 50
270.0
 51
0.5
  0
ARC
  5
F5
330
1B
100
AcDbEntity
 67
     1
  8
0
  6
Continuous
 62
     7
370
    25
100
AcDbCircle
 10
-159.0000380769
 20
115.7993909728
 30
0.0
 40
1.000000000000034
100
AcDbArc
 50
90.0
 51
179.5
  0
ARC
  5
F6
330
1B
100
AcDbEntity
 67
     1
  8
0
  6
Continuous
 62
     7
370
    25
100
AcDbCircle
 10
159.0000380769
 20
115.7993909728
 30
0.0
 40
1.000000000000034
100
AcDbArc
 50
0.5
 51
90.0
  0
ARC
  5
F7
330
1B
100
AcDbEntity
 67
     1
  8
0
  6
Continuous
 62
     7
370
    25
100
AcDbCircle
 10
-75.0
 20
6.7993909728
 30
0.0
 40
14.99999999999996
100
AcDbArc
 50
0.0
 51
90.0
  0
ARC
  5
F8
330
1B
100
AcDbEntity
 67
     1
  8
0
  6
Continuous
 62
     7
370
    25
100
AcDbCircle
 10
75.0
 20
6.7993909728
 30
0.0
 40
14.99999999999998
100
AcDbArc
 50
90.0
 51
180.0
  0
ARC
  5
F9
330
1B
100
AcDbEntity
 67
     1
  8
0
  6
Continuous
 62
     7
370
    25
100
AcDbCircle
 10
-59.0
 20
1.0
 30
0.0
 40
1.000000000000009
100
AcDbArc
 50
180.0
 51
270.0
  0
ARC
  5
FA
330
1B
100
AcDbEntity
 67
     1
  8
0
  6
Continuous
 62
     7
370
    25
100
AcDbCircle
 10
59.0
 20
1.0
 30
0.0
 40
0.9999999999999717
100
AcDbArc
 50
270.0
 51
0.0
  0
VIEWPORT
  5
352
330
1B
100
AcDbEntity
 67
     1
  8
0
100
AcDbViewport
 10
0.0
 20
0.0
 30
0.0
 40
205.6
 41
156.0
 68
     1
 69
     1
 12
-69.9628822538
 22
9.5919903727
 13
0.0
 23
0.0
 14
10.0
 24
10.0
 15
10.0
 25
10.0
 16
0.0
 26
0.0
 36
1.0
 17
0.0
 27
0.0
 37
0.0
 42
50.0
 43
0.0
 44
0.0
 45
357.2134125293
 50
0.0
 51
0.0
 72
   100
 90
   557152
  1

281
     0
 71
     1
 74
     0
110
0.0
120
0.0
130
0.0
111
1.0
121
0.0
131
0.0
112
0.0
122
1.0
132
0.0
 79
     0
146
0.0
  0
ENDSEC
  0
SECTION
  2
OBJECTS
  0
DICTIONARY
  5
C
330
0
100
AcDbDictionary
281
     1
  3
ACAD_GROUP
350
D
  3
ACAD_LAYOUT
350
1A
  3
ACAD_MLINESTYLE
350
17
  3
ACAD_PLOTSETTINGS
350
19
  3
ACAD_PLOTSTYLENAME
350
E
  3
ACAD_SCALELIST
350
47
  0
DICTIONARY
  5
D
102
{ACAD_REACTORS
330
C
102
}
330
C
100
AcDbDictionary
281
     1
  0
DICTIONARY
  5
1A
102
{ACAD_REACTORS
330
C
102
}
330
C
100
AcDbDictionary
281
     1
  3
_Dimetrisch
350
304
  3
_Isometrisch
350
232
  3
_Links
350
18D
  3
_Normal auf
350
12D
  3
_Rechts
350
26
  3
_Rückseite
350
15C
  3
_Trimetrisch
350
29A
  3
_Unten
350
1BC
  3
_Vorderseite
350
1E
  3
Model
350
22
  0
DICTIONARY
  5
17
102
{ACAD_REACTORS
330
C
102
}
330
C
100
AcDbDictionary
281
     1
  3
Standard
350
18
  0
DICTIONARY
  5
19
102
{ACAD_REACTORS
330
C
102
}
330
C
100
AcDbDictionary
281
     1
  0
ACDBDICTIONARYWDFLT
  5
E
102
{ACAD_REACTORS
330
C
102
}
330
C
100
AcDbDictionary
281
     1
  3
Normal
350
F
100
AcDbDictionaryWithDefault
340
F
  0
DICTIONARY
  5
47
102
{ACAD_REACTORS
330
C
102
}
330
C
100
AcDbDictionary
281
     1
  3
A0
350
48
  3
A1
350
49
  3
A2
350
4A
  3
A3
350
4B
  3
A4
350
4C
  3
A5
350
4D
  3
A6
350
4E
  3
A7
350
4F
  3
A8
350
50
  3
A9
350
51
  3
B0
350
52
  3
B1
350
53
  3
B2
350
54
  3
B3
350
55
  3
B4
350
56
  3
B5
350
57
  3
B6
350
58
  3
B7
350
59
  3
B8
350
5A
  3
B9
350
5B
  3
C0
350
5C
  3
C1
350
5D
  3
C2
350
5E
  3
C3
350
5F
  3
C4
350
60
  3
C5
350
61
  3
C6
350
62
  3
C7
350
63
  3
C8
350
64
  3
C9
350
65
  3
D0
350
66
  3
D1
350
67
  3
D2
350
68
  0
LAYOUT
  5
304
102
{ACAD_REACTORS
330
1A
102
}
330
1A
100
AcDbPlotSettings
  1

  2
none_device
  4
ISO_A4_(210.00_x_297.00_MM)
  6

 40
7.5
 41
20.0
 42
7.5
 43
20.0
 44
210.0
 45
297.0
 46
0.0
 47
0.0
 48
0.0
 49
0.0
140
0.0
141
0.0
142
1.0
143
1.7959447588
 70
   688
 72
     1
 73
     1
 74
     1
  7

 75
     0
147
0.5568099994
148
300.7417837622
149
0.0
100
AcDbLayout
  1
_Dimetrisch
 70
     1
 71
     9
 10
0.0
 20
0.0
 11
0.0
 21
0.0
 12
0.0
 22
0.0
 32
0.0
 14
0.0
 24
0.0
 34
0.0
 15
0.0
 25
0.0
 35
0.0
146
0.0
 13
0.0
 23
0.0
 33
0.0
 16
1.0
 26
0.0
 36
0.0
 17
0.0
 27
1.0
 37
0.0
 76
     0
330
303
331
362
  0
LAYOUT
  5
232
102
{ACAD_REACTORS
330
1A
102
}
330
1A
100
AcDbPlotSettings
  1

  2
none_device
  4
ISO_A4_(210.00_x_297.00_MM)
  6

 40
7.5
 41
20.0
 42
7.5
 43
20.0
 44
210.0
 45
297.0
 46
0.0
 47
0.0
 48
0.0
 49
0.0
140
0.0
141
0.0
142
1.0
143
1.7959447588
 70
   688
 72
     1
 73
     1
 74
     1
  7

 75
     0
147
0.5568099994
148
300.7417837622
149
0.0
100
AcDbLayout
  1
_Isometrisch
 70
     1
 71
     7
 10
0.0
 20
0.0
 11
0.0
 21
0.0
 12
0.0
 22
0.0
 32
0.0
 14
0.0
 24
0.0
 34
0.0
 15
0.0
 25
0.0
 35
0.0
146
0.0
 13
0.0
 23
0.0
 33
0.0
 16
1.0
 26
0.0
 36
0.0
 17
0.0
 27
1.0
 37
0.0
 76
     0
330
231
331
35E
  0
LAYOUT
  5
18D
102
{ACAD_REACTORS
330
1A
102
}
330
1A
100
AcDbPlotSettings
  1

  2
none_device
  4
ISO_A4_(210.00_x_297.00_MM)
  6

 40
7.5
 41
20.0
 42
7.5
 43
20.0
 44
210.0
 45
297.0
 46
0.0
 47
0.0
 48
0.0
 49
0.0
140
0.0
141
0.0
142
1.0
143
1.7959447588
 70
   688
 72
     1
 73
     1
 74
     1
  7

 75
     0
147
0.5568099994
148
300.7417837622
149
0.0
100
AcDbLayout
  1
_Links
 70
     1
 71
     5
 10
0.0
 20
0.0
 11
0.0
 21
0.0
 12
0.0
 22
0.0
 32
0.0
 14
0.0
 24
0.0
 34
0.0
 15
0.0
 25
0.0
 35
0.0
146
0.0
 13
0.0
 23
0.0
 33
0.0
 16
1.0
 26
0.0
 36
0.0
 17
0.0
 27
1.0
 37
0.0
 76
     0
330
18C
331
35A
  0
LAYOUT
  5
12D
102
{ACAD_REACTORS
330
1A
102
}
330
1A
100
AcDbPlotSettings
  1

  2
none_device
  4
ISO_A4_(210.00_x_297.00_MM)
  6

 40
7.5
 41
20.0
 42
7.5
 43
20.0
 44
210.0
 45
297.0
 46
0.0
 47
0.0
 48
0.0
 49
0.0
140
0.0
141
0.0
142
1.0
143
1.7959447588
 70
   688
 72
     1
 73
     1
 74
     1
  7

 75
     0
147
0.5568099994
148
300.7417837622
149
0.0
100
AcDbLayout
  1
_Normal auf
 70
     1
 71
     3
 10
0.0
 20
0.0
 11
0.0
 21
0.0
 12
0.0
 22
0.0
 32
0.0
 14
0.0
 24
0.0
 34
0.0
 15
0.0
 25
0.0
 35
0.0
146
0.0
 13
0.0
 23
0.0
 33
0.0
 16
1.0
 26
0.0
 36
0.0
 17
0.0
 27
1.0
 37
0.0
 76
     0
330
12C
331
356
  0
LAYOUT
  5
26
102
{ACAD_REACTORS
330
1A
102
}
330
1A
100
AcDbPlotSettings
  1

  2
none_device
  4
ISO_A4_(210.00_x_297.00_MM)
  6

 40
7.5
 41
20.0
 42
7.5
 43
20.0
 44
210.0
 45
297.0
 46
0.0
 47
0.0
 48
0.0
 49
0.0
140
0.0
141
0.0
142
1.0
143
1.7959447588
 70
   688
 72
     1
 73
     1
 74
     1
  7

 75
     0
147
0.5568099994
148
300.7417837622
149
0.0
100
AcDbLayout
  1
_Rechts
 70
     1
 71
     2
 10
0.0
 20
0.0
 11
0.0
 21
0.0
 12
0.0
 22
0.0
 32
0.0
 14
0.0
 24
0.0
 34
0.0
 15
0.0
 25
0.0
 35
0.0
146
0.0
 13
0.0
 23
0.0
 33
0.0
 16
1.0
 26
0.0
 36
0.0
 17
0.0
 27
1.0
 37
0.0
 76
     0
330
23
331
354
  0
LAYOUT
  5
15C
102
{ACAD_REACTORS
330
1A
102
}
330
1A
100
AcDbPlotSettings
  1

  2
none_device
  4
ISO_A4_(210.00_x_297.00_MM)
  6

 40
7.5
 41
20.0
 42
7.5
 43
20.0
 44
210.0
 45
297.0
 46
0.0
 47
0.0
 48
0.0
 49
0.0
140
0.0
141
0.0
142
1.0
143
1.7959447588
 70
   688
 72
     1
 73
     1
 74
     1
  7

 75
     0
147
0.5568099994
148
300.7417837622
149
0.0
100
AcDbLayout
  1
_Rückseite
 70
     1
 71
     4
 10
0.0
 20
0.0
 11
0.0
 21
0.0
 12
0.0
 22
0.0
 32
0.0
 14
0.0
 24
0.0
 34
0.0
 15
0.0
 25
0.0
 35
0.0
146
0.0
 13
0.0
 23
0.0
 33
0.0
 16
1.0
 26
0.0
 36
0.0
 17
0.0
 27
1.0
 37
0.0
 76
     0
330
15B
331
358
  0
LAYOUT
  5
29A
102
{ACAD_REACTORS
330
1A
102
}
330
1A
100
AcDbPlotSettings
  1

  2
none_device
  4
ISO_A4_(210.00_x_297.00_MM)
  6

 40
7.5
 41
20.0
 42
7.5
 43
20.0
 44
210.0
 45
297.0
 46
0.0
 47
0.0
 48
0.0
 49
0.0
140
0.0
141
0.0
142
1.0
143
1.7959447588
 70
   688
 72
     1
 73
     1
 74
     1
  7

 75
     0
147
0.5568099994
148
300.7417837622
149
0.0
100
AcDbLayout
  1
_Trimetrisch
 70
     1
 71
     8
 10
0.0
 20
0.0
 11
0.0
 21
0.0
 12
0.0
 22
0.0
 32
0.0
 14
0.0
 24
0.0
 34
0.0
 15
0.0
 25
0.0
 35
0.0
146
0.0
 13
0.0
 23
0.0
 33
0.0
 16
1.0
 26
0.0
 36
0.0
 17
0.0
 27
1.0
 37
0.0
 76
     0
330
299
331
360
  0
LAYOUT
  5
1BC
102
{ACAD_REACTORS
330
1A
102
}
330
1A
100
AcDbPlotSettings
  1

  2
none_device
  4
ISO_A4_(210.00_x_297.00_MM)
  6

 40
7.5
 41
20.0
 42
7.5
 43
20.0
 44
210.0
 45
297.0
 46
0.0
 47
0.0
 48
0.0
 49
0.0
140
0.0
141
0.0
142
1.0
143
1.7959447588
 70
   688
 72
     1
 73
     1
 74
     1
  7

 75
     0
147
0.5568099994
148
300.7417837622
149
0.0
100
AcDbLayout
  1
_Unten
 70
     1
 71
     6
 10
0.0
 20
0.0
 11
0.0
 21
0.0
 12
0.0
 22
0.0
 32
0.0
 14
0.0
 24
0.0
 34
0.0
 15
0.0
 25
0.0
 35
0.0
146
0.0
 13
0.0
 23
0.0
 33
0.0
 16
1.0
 26
0.0
 36
0.0
 17
0.0
 27
1.0
 37
0.0
 76
     0
330
1BB
331
35C
  0
LAYOUT
  5
1E
102
{ACAD_REACTORS
330
1A
102
}
330
1A
100
AcDbPlotSettings
  1

  2
none_device
  4
ISO_A4_(210.00_x_297.00_MM)
  6

 40
7.5
 41
20.0
 42
7.5
 43
20.0
 44
210.0
 45
297.0
 46
0.0
 47
0.0
 48
0.0
 49
0.0
140
0.0
141
0.0
142
1.0
143
1.7959447588
 70
   688
 72
     1
 73
     1
 74
     1
  7

 75
     0
147
0.5568099994
148
300.7417837622
149
0.0
100
AcDbLayout
  1
_Vorderseite
 70
     1
 71
     1
 10
-336.6606789386
 20
-13.4695856912
 11
196.734914431
 21
363.6788136611
 12
0.0
 22
0.0
 32
0.0
 14
-300.7417837622
 24
0.0
 34
0.0
 15
160.8160192546
 25
116.7993909728
 35
0.0
146
0.0
 13
0.0
 23
0.0
 33
0.0
 16
1.0
 26
0.0
 36
0.0
 17
0.0
 27
1.0
 37
0.0
 76
     0
330
1B
331
352
  0
LAYOUT
  5
22
102
{ACAD_REACTORS
330
1A
102
}
330
1A
100
AcDbPlotSettings
  1

  2
none_device
  4
ANSI_A_(11.00_x_8.50_Inches)
  6

 40
6.35
 41
19.05
 42
6.35000508
 43
19.05000254
 44
279.4
 45
215.9
 46
175.2779052588
 47
83.1516350978
 48
0.0
 49
0.0
140
0.0
141
0.0
142
0.0235940113
143
1.0
 70
  1696
 72
     0
 73
     0
 74
     0
  7

 75
     0
147
0.0179189148
148
-1300.4909072572
149
0.0
100
AcDbLayout
  1
Model
 70
     1
 71
     0
 10
0.0
 20
0.0
 11
420.0
 21
297.0
 12
0.0
 22
0.0
 32
0.0
 14
-300.7417837622
 24
-160.8160192546
 34
0.0
 15
160.8160192546
 25
180.0
 35
0.0
146
0.0
 13
0.0
 23
0.0
 33
0.0
 16
1.0
 26
0.0
 36
0.0
 17
0.0
 27
1.0
 37
0.0
 76
     0
330
1F
331
29
  0
MLINESTYLE
  5
18
102
{ACAD_REACTORS
330
17
102
}
330
17
100
AcDbMlineStyle
  2
Standard
 70
     0
  3

 62
   256
 51
90.0
 52
90.0
 71
     2
 49
0.5
 62
   256
  6
BYLAYER
 49
-0.5
 62
   256
  6
BYLAYER
  0
ACDBPLACEHOLDER
  5
F
102
{ACAD_REACTORS
330
E
102
}
330
E
  0
SCALE
  5
48
102
{ACAD_REACTORS
330
47
102
}
330
47
100
AcDbScale
 70
     0
300
1:1
140
1.0
141
1.0
290
     1
  0
SCALE
  5
49
102
{ACAD_REACTORS
330
47
102
}
330
47
100
AcDbScale
 70
     0
300
1:2
140
1.0
141
2.0
290
     0
  0
SCALE
  5
4A
102
{ACAD_REACTORS
330
47
102
}
330
47
100
AcDbScale
 70
     0
300
1:4
140
1.0
141
4.0
290
     0
  0
SCALE
  5
4B
102
{ACAD_REACTORS
330
47
102
}
330
47
100
AcDbScale
 70
     0
300
1:5
140
1.0
141
5.0
290
     0
  0
SCALE
  5
4C
102
{ACAD_REACTORS
330
47
102
}
330
47
100
AcDbScale
 70
     0
300
1:8
140
1.0
141
8.0
290
     0
  0
SCALE
  5
4D
102
{ACAD_REACTORS
330
47
102
}
330
47
100
AcDbScale
 70
     0
300
1:10
140
1.0
141
10.0
290
     0
  0
SCALE
  5
4E
102
{ACAD_REACTORS
330
47
102
}
330
47
100
AcDbScale
 70
     0
300
1:16
140
1.0
141
16.0
290
     0
  0
SCALE
  5
4F
102
{ACAD_REACTORS
330
47
102
}
330
47
100
AcDbScale
 70
     0
300
1:20
140
1.0
141
20.0
290
     0
  0
SCALE
  5
50
102
{ACAD_REACTORS
330
47
102
}
330
47
100
AcDbScale
 70
     0
300
1:30
140
1.0
141
30.0
290
     0
  0
SCALE
  5
51
102
{ACAD_REACTORS
330
47
102
}
330
47
100
AcDbScale
 70
     0
300
1:40
140
1.0
141
40.0
290
     0
  0
SCALE
  5
52
102
{ACAD_REACTORS
330
47
102
}
330
47
100
AcDbScale
 70
     0
300
1:50
140
1.0
141
50.0
290
     0
  0
SCALE
  5
53
102
{ACAD_REACTORS
330
47
102
}
330
47
100
AcDbScale
 70
     0
300
1:100
140
1.0
141
100.0
290
     0
  0
SCALE
  5
54
102
{ACAD_REACTORS
330
47
102
}
330
47
100
AcDbScale
 70
     0
300
2:1
140
2.0
141
1.0
290
     0
  0
SCALE
  5
55
102
{ACAD_REACTORS
330
47
102
}
330
47
100
AcDbScale
 70
     0
300
4:1
140
4.0
141
1.0
290
     0
  0
SCALE
  5
56
102
{ACAD_REACTORS
330
47
102
}
330
47
100
AcDbScale
 70
     0
300
8:1
140
8.0
141
1.0
290
     0
  0
SCALE
  5
57
102
{ACAD_REACTORS
330
47
102
}
330
47
100
AcDbScale
 70
     0
300
10:1
140
10.0
141
1.0
290
     0
  0
SCALE
  5
58
102
{ACAD_REACTORS
330
47
102
}
330
47
100
AcDbScale
 70
     0
300
100:1
140
100.0
141
1.0
290
     0
  0
SCALE
  5
59
102
{ACAD_REACTORS
330
47
102
}
330
47
100
AcDbScale
 70
     0
300
1/128" = 1'-0"
140
0.0078125
141
12.0
290
     0
  0
SCALE
  5
5A
102
{ACAD_REACTORS
330
47
102
}
330
47
100
AcDbScale
 70
     0
300
1/64" = 1'-0"
140
0.015625
141
12.0
290
     0
  0
SCALE
  5
5B
102
{ACAD_REACTORS
330
47
102
}
330
47
100
AcDbScale
 70
     0
300
1/32" = 1'-0"
140
0.03125
141
12.0
290
     0
  0
SCALE
  5
5C
102
{ACAD_REACTORS
330
47
102
}
330
47
100
AcDbScale
 70
     0
300
1/16" = 1'-0"
140
0.0625
141
12.0
290
     0
  0
SCALE
  5
5D
102
{ACAD_REACTORS
330
47
102
}
330
47
100
AcDbScale
 70
     0
300
3/32" = 1'-0"
140
0.09375
141
12.0
290
     0
  0
SCALE
  5
5E
102
{ACAD_REACTORS
330
47
102
}
330
47
100
AcDbScale
 70
     0
300
1/8" = 1'-0"
140
0.125
141
12.0
290
     0
  0
SCALE
  5
5F
102
{ACAD_REACTORS
330
47
102
}
330
47
100
AcDbScale
 70
     0
300
3/16" = 1'-0"
140
0.1875
141
12.0
290
     0
  0
SCALE
  5
60
102
{ACAD_REACTORS
330
47
102
}
330
47
100
AcDbScale
 70
     0
300
1/4" = 1'-0"
140
0.25
141
12.0
290
     0
  0
SCALE
  5
61
102
{ACAD_REACTORS
330
47
102
}
330
47
100
AcDbScale
 70
     0
300
3/8" = 1'-0"
140
0.375
141
12.0
290
     0
  0
SCALE
  5
62
102
{ACAD_REACTORS
330
47
102
}
330
47
100
AcDbScale
 70
     0
300
1/2" = 1'-0"
140
0.5
141
12.0
290
     0
  0
SCALE
  5
63
102
{ACAD_REACTORS
330
47
102
}
330
47
100
AcDbScale
 70
     0
300
3/4" = 1'-0"
140
0.75
141
12.0
290
     0
  0
SCALE
  5
64
102
{ACAD_REACTORS
330
47
102
}
330
47
100
AcDbScale
 70
     0
300
1" = 1'-0"
140
1.0
141
12.0
290
     0
  0
SCALE
  5
65
102
{ACAD_REACTORS
330
47
102
}
330
47
100
AcDbScale
 70
     0
300
1-1/2" = 1'-0"
140
1.5
141
12.0
290
     0
  0
SCALE
  5
66
102
{ACAD_REACTORS
330
47
102
}
330
47
100
AcDbScale
 70
     0
300
3" = 1'-0"
140
3.0
141
12.0
290
     0
  0
SCALE
  5
67
102
{ACAD_REACTORS
330
47
102
}
330
47
100
AcDbScale
 70
     0
300
6" = 1'-0"
140
6.0
141
12.0
290
     0
  0
SCALE
  5
68
102
{ACAD_REACTORS
330
47
102
}
330
47
100
AcDbScale
 70
     0
300
1'-0" = 1'-0"
140
12.0
141
12.0
290
     0
  0
ENDSEC
  0
EOF
