  0
SECTION
  2
HEADER
  9
$ACADVER
  1
AC1015
  9
$ACADMAINTVER
 70
     6
  9
$DWGCODEPAGE
  3
ANSI_1252
  9
$INSBASE
 10
0.0
 20
0.0
 30
0.0
  9
$EXTMIN
 10
0.0
 20
0.0
 30
0.0
  9
$EXTMAX
 10
1200.0
 20
158.0
 30
0.0
  9
$LIMMIN
 10
0.0
 20
0.0
  9
$LIMMAX
 10
420.0
 20
297.0
  9
$ORTHOMODE
 70
     0
  9
$REGENMODE
 70
     1
  9
$FILLMODE
 70
     1
  9
$QTEXTMODE
 70
     0
  9
$MIRRTEXT
 70
     1
  9
$LTSCALE
 40
1.0
  9
$ATTMODE
 70
     1
  9
$TEXTSIZE
 40
3.5
  9
$TRACEWID
 40
1.0
  9
$TEXTSTYLE
  7
STANDARD
  9
$CLAYER
  8
0
  9
$CELTYPE
  6
ByLayer
  9
$CECOLOR
 62
   256
  9
$CELTSCALE
 40
1.0
  9
$DISPSILH
 70
     0
  9
$DIMSCALE
 40
1.0
  9
$DIMASZ
 40
6.0
  9
$DIMEXO
 40
1.0
  9
$DIMDLI
 40
3.75
  9
$DIMRND
 40
0.0
  9
$DIMDLE
 40
0.0
  9
$DIMEXE
 40
1.0
  9
$DIMTP
 40
0.0
  9
$DIMTM
 40
0.0
  9
$DIMTXT
 40
3.5
  9
$DIMCEN
 40
2.5
  9
$DIMTSZ
 40
0.0
  9
$DIMTOL
 70
     0
  9
$DIMLIM
 70
     0
  9
$DIMTIH
 70
     1
  9
$DIMTOH
 70
     1
  9
$DIMSE1
 70
     0
  9
$DIMSE2
 70
     0
  9
$DIMTAD
 70
     1
  9
$DIMZIN
 70
     0
  9
$DIMBLK
  1

  9
$DIMASO
 70
     1
  9
$DIMSHO
 70
     1
  9
$DIMPOST
  1

  9
$DIMAPOST
  1

  9
$DIMALT
 70
     0
  9
$DIMALTD
 70
     3
  9
$DIMALTF
 40
0.0393700787
  9
$DIMLFAC
 40
1.0
  9
$DIMTOFL
 70
     1
  9
$DIMTVP
 40
0.0
  9
$DIMTIX
 70
     0
  9
$DIMSOXD
 70
     0
  9
$DIMSAH
 70
     0
  9
$DIMBLK1
  1

  9
$DIMBLK2
  1

  9
$DIMSTYLE
  2
ISO-25
  9
$DIMCLRD
 70
     0
  9
$DIMCLRE
 70
     0
  9
$DIMCLRT
 70
     0
  9
$DIMTFAC
 40
1.0
  9
$DIMGAP
 40
1.524
  9
$DIMJUST
 70
     0
  9
$DIMSD1
 70
     0
  9
$DIMSD2
 70
     0
  9
$DIMTOLJ
 70
     0
  9
$DIMTZIN
 70
     0
  9
$DIMALTZ
 70
     0
  9
$DIMALTTZ
 70
     0
  9
$DIMUPT
 70
     0
  9
$DIMDEC
 70
     2
  9
$DIMTDEC
 70
     2
  9
$DIMALTU
 70
     2
  9
$DIMALTTD
 70
     3
  9
$DIMTXSTY
  7
STANDARD
  9
$DIMAUNIT
 70
     0
  9
$DIMADEC
 70
     2
  9
$DIMALTRND
 40
0.0
  9
$DIMAZIN
 70
     0
  9
$DIMDSEP
 70
    44
  9
$DIMATFIT
 70
     3
  9
$DIMFRAC
 70
     0
  9
$DIMLDRBLK
  1

  9
$DIMLUNIT
 70
     2
  9
$DIMLWD
 70
    -2
  9
$DIMLWE
 70
    -2
  9
$DIMTMOVE
 70
     0
  9
$LUNITS
 70
     2
  9
$LUPREC
 70
     2
  9
$SKETCHINC
 40
1.0
  9
$FILLETRAD
 40
10.0
  9
$AUNITS
 70
     0
  9
$AUPREC
 70
     2
  9
$MENU
  1
.
  9
$ELEVATION
 40
0.0
  9
$PELEVATION
 40
0.0
  9
$THICKNESS
 40
0.0
  9
$LIMCHECK
 70
     0
  9
$CHAMFERA
 40
0.0
  9
$CHAMFERB
 40
0.0
  9
$CHAMFERC
 40
0.0
  9
$CHAMFERD
 40
0.0
  9
$SKPOLY
 70
     0
  9
$TDCREATE
 40
2459062.466282928
  9
$TDUCREATE
 40
2459062.382949595
  9
$TDUPDATE
 40
2459062.466313727
  9
$TDUUPDATE
 40
2459062.382980394
  9
$TDINDWG
 40
0.0000000116
  9
$TDUSRTIMER
 40
0.0000000116
  9
$USRTIMER
 70
     1
  9
$ANGBASE
 50
0.0
  9
$ANGDIR
 70
     0
  9
$PDMODE
 70
     0
  9
$PDSIZE
 40
-1.0
  9
$PLINEWID
 40
0.0
  9
$SPLFRAME
 70
     0
  9
$SPLINETYPE
 70
     6
  9
$SPLINESEGS
 70
     8
  9
$HANDSEED
  5
36A
  9
$SURFTAB1
 70
     6
  9
$SURFTAB2
 70
     6
  9
$SURFTYPE
 70
     6
  9
$SURFU
 70
     6
  9
$SURFV
 70
     6
  9
$UCSBASE
  2

  9
$UCSNAME
  2

  9
$UCSORG
 10
0.0
 20
0.0
 30
0.0
  9
$UCSXDIR
 10
1.0
 20
0.0
 30
0.0
  9
$UCSYDIR
 10
0.0
 20
1.0
 30
0.0
  9
$UCSORTHOREF
  2

  9
$UCSORTHOVIEW
 70
     0
  9
$UCSORGTOP
 10
0.0
 20
0.0
 30
0.0
  9
$UCSORGBOTTOM
 10
0.0
 20
0.0
 30
0.0
  9
$UCSORGLEFT
 10
0.0
 20
0.0
 30
0.0
  9
$UCSORGRIGHT
 10
0.0
 20
0.0
 30
0.0
  9
$UCSORGFRONT
 10
0.0
 20
0.0
 30
0.0
  9
$UCSORGBACK
 10
0.0
 20
0.0
 30
0.0
  9
$PUCSBASE
  2

  9
$PUCSNAME
  2

  9
$PUCSORG
 10
0.0
 20
0.0
 30
0.0
  9
$PUCSXDIR
 10
1.0
 20
0.0
 30
0.0
  9
$PUCSYDIR
 10
0.0
 20
1.0
 30
0.0
  9
$PUCSORTHOREF
  2

  9
$PUCSORTHOVIEW
 70
     0
  9
$PUCSORGTOP
 10
0.0
 20
0.0
 30
0.0
  9
$PUCSORGBOTTOM
 10
0.0
 20
0.0
 30
0.0
  9
$PUCSORGLEFT
 10
0.0
 20
0.0
 30
0.0
  9
$PUCSORGRIGHT
 10
0.0
 20
0.0
 30
0.0
  9
$PUCSORGFRONT
 10
0.0
 20
0.0
 30
0.0
  9
$PUCSORGBACK
 10
0.0
 20
0.0
 30
0.0
  9
$USERI1
 70
     0
  9
$USERI2
 70
     0
  9
$USERI3
 70
     0
  9
$USERI4
 70
     0
  9
$USERI5
 70
     0
  9
$USERR1
 40
0.0
  9
$USERR2
 40
0.0
  9
$USERR3
 40
0.0
  9
$USERR4
 40
0.0
  9
$USERR5
 40
0.0
  9
$WORLDVIEW
 70
     1
  9
$SHADEDGE
 70
     3
  9
$SHADEDIF
 70
    70
  9
$TILEMODE
 70
     1
  9
$MAXACTVP
 70
    64
  9
$PINSBASE
 10
0.0
 20
0.0
 30
0.0
  9
$PLIMCHECK
 70
     0
  9
$PEXTMIN
 10
0.0
 20
0.0
 30
0.0
  9
$PEXTMAX
 10
1200.0
 20
750.0
 30
0.0
  9
$PLIMMIN
 10
-93.3852140078
 20
-35.0194552529
  9
$PLIMMAX
 10
1293.3852140078
 20
945.5252918288
  9
$UNITMODE
 70
     0
  9
$VISRETAIN
 70
     1
  9
$PLINEGEN
 70
     0
  9
$PSLTSCALE
 70
     1
  9
$TREEDEPTH
 70
  3020
  9
$CMLSTYLE
  2
Standard
  9
$CMLJUST
 70
     0
  9
$CMLSCALE
 40
20.0
  9
$PROXYGRAPHICS
 70
     1
  9
$MEASUREMENT
 70
     1
  9
$CELWEIGHT
370
    -1
  9
$ENDCAPS
280
     0
  9
$JOINSTYLE
280
     0
  9
$LWDISPLAY
290
     1
  9
$INSUNITS
 70
     4
  9
$HYPERLINKBASE
  1

  9
$STYLESHEET
  1

  9
$XEDIT
290
     1
  9
$CEPSNTYPE
380
     0
  9
$PSTYLEMODE
290
     1
  9
$FINGERPRINTGUID
  2
{d2eb4063-0fb8-460c-8248-1038c1bec874}
  9
$VERSIONGUID
  2
{FAEB1C32-E019-11D5-929B-00C0DF256EC4}
  9
$EXTNAMES
290
     1
  9
$PSVPSCALE
 40
0.0
  9
$OLESTARTUP
290
     0
  0
ENDSEC
  0
SECTION
  2
CLASSES
  0
CLASS
  1
ACDBDICTIONARYWDFLT
  2
AcDbDictionaryWithDefault
  3
ObjectDBX Classes
 90
        0
280
     0
281
     0
  0
CLASS
  1
VISUALSTYLE
  2
AcDbVisualStyle
  3
ObjectDBX Classes
 90
     4095
280
     0
281
     0
  0
CLASS
  1
MATERIAL
  2
AcDbMaterial
  3
ObjectDBX Classes
 90
     1153
280
     0
281
     0
  0
CLASS
  1
SCALE
  2
AcDbScale
  3
ObjectDBX Classes
 90
     1153
280
     0
281
     0
  0
CLASS
  1
TABLESTYLE
  2
AcDbTableStyle
  3
ObjectDBX Classes
 90
     4095
280
     0
281
     0
  0
CLASS
  1
MLEADERSTYLE
  2
AcDbMLeaderStyle
  3
ACDB_MLEADERSTYLE_CLASS
 90
     4095
280
     0
281
     0
  0
CLASS
  1
SUN
  2
AcDbSun
  3
SCENEOE
 90
     1153
280
     0
281
     0
  0
CLASS
  1
ACDBPLACEHOLDER
  2
AcDbPlaceHolder
  3
ObjectDBX Classes
 90
        0
280
     0
281
     0
  0
CLASS
  1
LAYOUT
  2
AcDbLayout
  3
ObjectDBX Classes
 90
        0
280
     0
281
     0
  0
ENDSEC
  0
SECTION
  2
TABLES
  0
TABLE
  2
VPORT
  5
8
330
0
100
AcDbSymbolTable
 70
     1
  0
VPORT
  5
29
330
8
100
AcDbSymbolTableRecord
100
AcDbViewportTableRecord
  2
*Active
 70
     0
 10
0.0
 20
0.0
 11
1.0
 21
1.0
 12
600.0
 22
79.0
 13
0.0
 23
0.0
 14
10.0
 24
10.0
 15
10.0
 25
10.0
 16
0.0
 26
0.0
 36
1.0
 17
0.0
 27
0.0
 37
0.0
 40
161.16
 41
7.5949367089
 42
50.0
 43
0.0
 44
0.0
 50
0.0
 51
0.0
 71
     0
 72
   100
 73
     1
 74
     3
 75
     0
 76
     0
 77
     0
 78
     0
281
     0
 65
     1
110
0.0
120
0.0
130
0.0
111
1.0
121
0.0
131
0.0
112
0.0
122
1.0
132
0.0
 79
     0
146
0.0
  0
ENDTAB
  0
TABLE
  2
LTYPE
  5
5
330
0
100
AcDbSymbolTable
 70
     6
  0
LTYPE
  5
14
330
5
100
AcDbSymbolTableRecord
100
AcDbLinetypeTableRecord
  2
ByBlock
 70
     0
  3

 72
    65
 73
     0
 40
0.0
  0
LTYPE
  5
15
330
5
100
AcDbSymbolTableRecord
100
AcDbLinetypeTableRecord
  2
ByLayer
 70
     0
  3

 72
    65
 73
     0
 40
0.0
  0
LTYPE
  5
16
330
5
100
AcDbSymbolTableRecord
100
AcDbLinetypeTableRecord
  2
Continuous
 70
     0
  3
Solid line
 72
    65
 73
     0
 40
0.0
  0
LTYPE
  5
6E
330
5
100
AcDbSymbolTableRecord
100
AcDbLinetypeTableRecord
  2
HIDDEN
 70
     0
  3
Hidden __ __ __ __ __ __ __ __ __ __ __ __ __ __
 72
    65
 73
     2
 40
1.905
 49
1.27
 74
     0
 49
-0.635
 74
     0
  0
LTYPE
  5
6F
330
5
100
AcDbSymbolTableRecord
100
AcDbLinetypeTableRecord
  2
PHANTOM
 70
     0
  3
Phantom ______  __  __  ______  __  __  ______
 72
    65
 73
     6
 40
12.7
 49
6.35
 74
     0
 49
-1.27
 74
     0
 49
1.27
 74
     0
 49
-1.27
 74
     0
 49
1.27
 74
     0
 49
-1.27
 74
     0
  0
LTYPE
  5
70
330
5
100
AcDbSymbolTableRecord
100
AcDbLinetypeTableRecord
  2
CENTER
 70
     0
  3
Center ____ _ ____ _ ____ _ ____ _ ____ _ ____
 72
    65
 73
     4
 40
10.16
 49
6.35
 74
     0
 49
-1.27
 74
     0
 49
1.27
 74
     0
 49
-1.27
 74
     0
  0
LTYPE
  5
71
330
5
100
AcDbSymbolTableRecord
100
AcDbLinetypeTableRecord
  2
CENTERX2
 70
     0
  3
Center (2x) ________  __  ________  __  _____
 72
    65
 73
     4
 40
20.32
 49
12.7
 74
     0
 49
-2.54
 74
     0
 49
2.54
 74
     0
 49
-2.54
 74
     0
  0
LTYPE
  5
72
330
5
100
AcDbSymbolTableRecord
100
AcDbLinetypeTableRecord
  2
DOT2
 70
     0
  3
Dot (.5x) ........................................
 72
    65
 73
     2
 40
0.635
 49
0.0
 74
     0
 49
-0.635
 74
     0
  0
ENDTAB
  0
TABLE
  2
LAYER
  5
2
330
0
100
AcDbSymbolTable
 70
     1
  0
LAYER
  5
10
330
2
100
AcDbSymbolTableRecord
100
AcDbLayerTableRecord
  2
0
 70
     0
 62
     7
  6
Continuous
370
    -3
390
F
  0
ENDTAB
  0
TABLE
  2
STYLE
  5
3
330
0
100
AcDbSymbolTable
 70
     1
  0
STYLE
  5
11
330
3
100
AcDbSymbolTableRecord
100
AcDbTextStyleTableRecord
  2
STANDARD
 70
     0
 40
0.0
 41
1.0
 50
0.0
 71
     0
 42
3.5
  3
GOTHIC.TTF
  4

1001
ACAD
1000
CENTURY GOTHIC
1071
       34
  0
ENDTAB
  0
TABLE
  2
VIEW
  5
6
330
0
100
AcDbSymbolTable
 70
     0
  0
ENDTAB
  0
TABLE
  2
UCS
  5
7
330
0
100
AcDbSymbolTable
 70
     0
  0
ENDTAB
  0
TABLE
  2
APPID
  5
9
330
0
100
AcDbSymbolTable
 70
     1
  0
APPID
  5
12
330
9
100
AcDbSymbolTableRecord
100
AcDbRegAppTableRecord
  2
ACAD
 70
     0
  0
ENDTAB
  0
TABLE
  2
DIMSTYLE
  5
A
330
0
100
AcDbSymbolTable
 70
     1
100
AcDbDimStyleTable
  0
DIMSTYLE
105
27
330
A
100
AcDbSymbolTableRecord
100
AcDbDimStyleTableRecord
  2
ISO-25
 70
     0
 41
2.5
 42
0.625
 43
3.75
 44
1.25
 73
     0
 74
     0
 77
     1
 78
     8
140
2.5
141
2.5
143
0.0393700787
147
0.625
171
     3
172
     1
178
     0
271
     2
272
     2
274
     3
278
    44
283
     0
284
     8
340
11
  0
ENDTAB
  0
TABLE
  2
BLOCK_RECORD
  5
1
330
0
100
AcDbSymbolTable
 70
     8
  0
BLOCK_RECORD
  5
1F
330
1
100
AcDbSymbolTableRecord
100
AcDbBlockTableRecord
  2
*Model_Space
340
22
  0
BLOCK_RECORD
  5
1B
330
1
100
AcDbSymbolTableRecord
100
AcDbBlockTableRecord
  2
*Paper_Space
340
1E
  0
BLOCK_RECORD
  5
23
330
1
100
AcDbSymbolTableRecord
100
AcDbBlockTableRecord
  2
*Paper_Space0
340
26
  0
BLOCK_RECORD
  5
FB
330
1
100
AcDbSymbolTableRecord
100
AcDbBlockTableRecord
  2
*Paper_Space1
340
FC
  0
BLOCK_RECORD
  5
14F
330
1
100
AcDbSymbolTableRecord
100
AcDbBlockTableRecord
  2
*Paper_Space2
340
150
  0
BLOCK_RECORD
  5
1A7
330
1
100
AcDbSymbolTableRecord
100
AcDbBlockTableRecord
  2
*Paper_Space3
340
1A8
  0
BLOCK_RECORD
  5
1BC
330
1
100
AcDbSymbolTableRecord
100
AcDbBlockTableRecord
  2
*Paper_Space4
340
1BD
  0
BLOCK_RECORD
  5
1E2
330
1
100
AcDbSymbolTableRecord
100
AcDbBlockTableRecord
  2
*Paper_Space5
340
1E3
  0
BLOCK_RECORD
  5
24C
330
1
100
AcDbSymbolTableRecord
100
AcDbBlockTableRecord
  2
*Paper_Space6
340
24D
  0
BLOCK_RECORD
  5
2BA
330
1
100
AcDbSymbolTableRecord
100
AcDbBlockTableRecord
  2
*Paper_Space7
340
2BB
  0
ENDTAB
  0
ENDSEC
  0
SECTION
  2
BLOCKS
  0
BLOCK
  5
20
330
1F
100
AcDbEntity
  8
0
100
AcDbBlockBegin
  2
*Model_Space
 70
     0
 10
0.0
 20
0.0
 30
0.0
  3
*Model_Space
  1

  0
ENDBLK
  5
21
330
1F
100
AcDbEntity
  8
0
100
AcDbBlockEnd
  0
BLOCK
  5
1C
330
1B
100
AcDbEntity
 67
     1
  8
0
100
AcDbBlockBegin
  2
*Paper_Space
 70
     0
 10
0.0
 20
0.0
 30
0.0
  3
*Paper_Space
  1

  0
ENDBLK
  5
1D
330
1B
100
AcDbEntity
 67
     1
  8
0
100
AcDbBlockEnd
  0
BLOCK
  5
24
330
23
100
AcDbEntity
  8
0
100
AcDbBlockBegin
  2
*Paper_Space0
 70
     0
 10
0.0
 20
0.0
 30
0.0
  3
*Paper_Space0
  1

  0
LINE
  5
F2
330
23
100
AcDbEntity
  8
0
  6
Continuous
 62
     7
370
    25
100
AcDbLine
 10
0.0
 20
0.0
 30
0.0
 11
150.0
 21
0.0
 31
0.0
  0
LINE
  5
F3
330
23
100
AcDbEntity
  8
0
  6
Continuous
 62
     7
370
    25
100
AcDbLine
 10
150.0
 20
750.0
 30
0.0
 11
150.0
 21
0.0
 31
0.0
  0
LINE
  5
F4
330
23
100
AcDbEntity
  8
0
  6
Continuous
 62
     7
370
    25
100
AcDbLine
 10
0.0
 20
750.0
 30
0.0
 11
150.0
 21
750.0
 31
0.0
  0
LINE
  5
F5
330
23
100
AcDbEntity
  8
0
  6
Continuous
 62
     7
370
    25
100
AcDbLine
 10
0.0
 20
750.0
 30
0.0
 11
0.0
 21
0.0
 31
0.0
  0
LINE
  5
F6
330
23
100
AcDbEntity
  8
0
  6
Continuous
 62
     7
370
    25
100
AcDbLine
 10
0.0
 20
749.9999
 30
0.0
 11
150.0
 21
749.9999
 31
0.0
  0
LINE
  5
F7
330
23
100
AcDbEntity
  8
0
  6
Continuous
 62
     7
370
    25
100
AcDbLine
 10
158.0
 20
741.9999
 30
0.0
 11
150.0
 21
741.9999
 31
0.0
  0
LINE
  5
F8
330
23
100
AcDbEntity
  8
0
  6
Continuous
 62
     7
370
    25
100
AcDbLine
 10
158.0
 20
742.0
 30
0.0
 11
158.0
 21
8.0
 31
0.0
  0
LINE
  5
F9
330
23
100
AcDbEntity
  8
0
  6
Continuous
 62
     7
370
    25
100
AcDbLine
 10
158.0
 20
8.0
 30
0.0
 11
150.0
 21
8.0
 31
0.0
  0
LINE
  5
FA
330
23
100
AcDbEntity
  8
0
  6
Continuous
 62
     7
370
    25
100
AcDbLine
 10
158.0
 20
742.0
 30
0.0
 11
150.0
 21
742.0
 31
0.0
  0
VIEWPORT
  5
35A
330
23
100
AcDbEntity
  8
0
100
AcDbViewport
 10
0.0
 20
0.0
 30
0.0
 40
205.6
 41
156.0
 68
     1
 69
     1
 12
600.0
 22
79.0
 13
0.0
 23
0.0
 14
10.0
 24
10.0
 15
10.0
 25
10.0
 16
0.0
 26
0.0
 36
1.0
 17
0.0
 27
0.0
 37
0.0
 42
50.0
 43
0.0
 44
0.0
 45
928.7159533074
 50
0.0
 51
0.0
 72
   100
 90
   557152
  1

281
     0
 71
     1
 74
     0
110
0.0
120
0.0
130
0.0
111
1.0
121
0.0
131
0.0
112
0.0
122
1.0
132
0.0
 79
     0
146
0.0
  0
ENDBLK
  5
25
330
23
100
AcDbEntity
  8
0
100
AcDbBlockEnd
  0
BLOCK
  5
FD
330
FB
100
AcDbEntity
  8
0
100
AcDbBlockBegin
  2
*Paper_Space1
 70
     0
 10
0.0
 20
0.0
 30
0.0
  3
*Paper_Space1
  1

  0
LINE
  5
12C
330
FB
100
AcDbEntity
  8
0
  6
Continuous
 62
     7
370
    25
100
AcDbLine
 10
8.0
 20
8.0
 30
0.0
 11
1192.0
 21
8.0
 31
0.0
  0
LINE
  5
12D
330
FB
100
AcDbEntity
  8
0
  6
Continuous
 62
     7
370
    25
100
AcDbLine
 10
1200.0
 20
0.0
 30
0.0
 11
1192.0
 21
8.0
 31
0.0
  0
LINE
  5
12E
330
FB
100
AcDbEntity
  8
0
  6
Continuous
 62
     7
370
    25
100
AcDbLine
 10
0.0
 20
0.0
 30
0.0
 11
1200.0
 21
0.0
 31
0.0
  0
LINE
  5
12F
330
FB
100
AcDbEntity
  8
0
  6
Continuous
 62
     7
370
    25
100
AcDbLine
 10
0.0
 20
0.0
 30
0.0
 11
8.0
 21
8.0
 31
0.0
  0
LINE
  5
130
330
FB
100
AcDbEntity
  8
0
  6
Continuous
 62
     7
370
    25
100
AcDbLine
 10
8.0
 20
742.0
 30
0.0
 11
8.0
 21
8.0
 31
0.0
  0
LINE
  5
131
330
FB
100
AcDbEntity
  8
0
  6
Continuous
 62
     7
370
    25
100
AcDbLine
 10
0.0
 20
750.0
 30
0.0
 11
0.0
 21
0.0
 31
0.0
  0
LINE
  5
132
330
FB
100
AcDbEntity
  8
0
  6
Continuous
 62
     7
370
    25
100
AcDbLine
 10
8.0
 20
742.0
 30
0.0
 11
0.0
 21
750.0
 31
0.0
  0
LINE
  5
133
330
FB
100
AcDbEntity
  8
0
  6
Continuous
 62
     7
370
    25
100
AcDbLine
 10
1200.0
 20
750.0
 30
0.0
 11
1192.0
 21
742.0
 31
0.0
  0
LINE
  5
134
330
FB
100
AcDbEntity
  8
0
  6
Continuous
 62
     7
370
    25
100
AcDbLine
 10
1200.0
 20
750.0
 30
0.0
 11
1200.0
 21
0.0
 31
0.0
  0
LINE
  5
135
330
FB
100
AcDbEntity
  8
0
  6
Continuous
 62
     7
370
    25
100
AcDbLine
 10
1192.0
 20
742.0
 30
0.0
 11
1192.0
 21
8.0
 31
0.0
  0
LINE
  5
136
330
FB
100
AcDbEntity
  8
0
  6
Continuous
 62
     7
370
    25
100
AcDbLine
 10
0.0
 20
749.9999
 30
0.0
 11
1200.0
 21
749.9999
 31
0.0
  0
LINE
  5
137
330
FB
100
AcDbEntity
  8
0
  6
Continuous
 62
     7
370
    25
100
AcDbLine
 10
8.0
 20
741.9999
 30
0.0
 11
1192.0
 21
741.9999
 31
0.0
  0
LINE
  5
138
330
FB
100
AcDbEntity
  8
0
  6
Continuous
 62
     7
370
    25
100
AcDbLine
 10
1192.0
 20
741.9999
 30
0.0
 11
1200.0
 21
749.9999
 31
0.0
  0
LINE
  5
139
330
FB
100
AcDbEntity
  8
0
  6
Continuous
 62
     7
370
    25
100
AcDbLine
 10
0.0
 20
749.9999
 30
0.0
 11
8.0
 21
741.9999
 31
0.0
  0
LINE
  5
13A
330
FB
100
AcDbEntity
  8
0
  6
Continuous
 62
     7
370
    25
100
AcDbLine
 10
24.0
 20
668.9999
 30
0.0
 11
24.0
 21
671.9999
 31
0.0
  0
LINE
  5
13B
330
FB
100
AcDbEntity
  8
0
  6
Continuous
 62
     7
370
    25
100
AcDbLine
 10
8.0
 20
138.0
 30
0.0
 11
401.66333333
 21
138.0
 31
0.0
  0
LINE
  5
13C
330
FB
100
AcDbEntity
  8
0
  6
Continuous
 62
     7
370
    25
100
AcDbLine
 10
798.34
 20
138.0
 30
0.0
 11
1192.0
 21
138.0
 31
0.0
  0
LINE
  5
13D
330
FB
100
AcDbEntity
  8
0
  6
Continuous
 62
     7
370
    25
100
AcDbLine
 10
1176.0
 20
668.9999
 30
0.0
 11
1176.0
 21
671.9999
 31
0.0
  0
LINE
  5
13E
330
FB
100
AcDbEntity
  8
0
  6
Continuous
 62
     7
370
    25
100
AcDbLine
 10
401.66333333
 20
655.9999
 30
0.0
 11
404.66333333
 21
655.9999
 31
0.0
  0
LINE
  5
13F
330
FB
100
AcDbEntity
  8
0
  6
Continuous
 62
     7
370
    25
100
AcDbLine
 10
798.34
 20
655.9999
 30
0.0
 11
795.34
 21
655.9999
 31
0.0
  0
LINE
  5
140
330
FB
100
AcDbEntity
  8
0
  6
Continuous
 62
     7
370
    25
100
AcDbLine
 10
401.66333333
 20
148.0
 30
0.0
 11
404.66333333
 21
148.0
 31
0.0
  0
LINE
  5
141
330
FB
100
AcDbEntity
  8
0
  6
Continuous
 62
     7
370
    25
100
AcDbLine
 10
795.34
 20
148.0
 30
0.0
 11
798.34
 21
148.0
 31
0.0
  0
LINE
  5
142
330
FB
100
AcDbEntity
  8
0
  6
Continuous
 62
     7
370
    25
100
AcDbLine
 10
795.34
 20
164.0
 30
0.0
 11
798.34
 21
164.0
 31
0.0
  0
LINE
  5
143
330
FB
100
AcDbEntity
  8
0
  6
Continuous
 62
     7
370
    25
100
AcDbLine
 10
404.66333333
 20
164.0
 30
0.0
 11
401.66333333
 21
164.0
 31
0.0
  0
LINE
  5
144
330
FB
100
AcDbEntity
  8
0
  6
Continuous
 62
     7
370
    25
100
AcDbLine
 10
11.0
 20
668.9999
 30
0.0
 11
11.0
 21
138.0
 31
0.0
  0
LINE
  5
145
330
FB
100
AcDbEntity
  8
0
  6
Continuous
 62
     7
370
    25
100
AcDbLine
 10
401.66333333
 20
668.9999
 30
0.0
 11
11.0
 21
668.9999
 31
0.0
  0
LINE
  5
146
330
FB
100
AcDbEntity
  8
0
  6
Continuous
 62
     7
370
    25
100
AcDbLine
 10
401.66333333
 20
138.0
 30
0.0
 11
401.66333333
 21
668.9999
 31
0.0
  0
LINE
  5
147
330
FB
100
AcDbEntity
  8
0
  6
Continuous
 62
     7
370
    25
100
AcDbLine
 10
1189.0
 20
668.9999
 30
0.0
 11
798.34
 21
668.9999
 31
0.0
  0
LINE
  5
148
330
FB
100
AcDbEntity
  8
0
  6
Continuous
 62
     7
370
    25
100
AcDbLine
 10
1189.0
 20
138.0
 30
0.0
 11
1189.0
 21
668.9999
 31
0.0
  0
LINE
  5
149
330
FB
100
AcDbEntity
  8
0
  6
Continuous
 62
     7
370
    25
100
AcDbLine
 10
798.34
 20
668.9999
 30
0.0
 11
798.34
 21
138.0
 31
0.0
  0
LINE
  5
14A
330
FB
100
AcDbEntity
  8
0
  6
Continuous
 62
     7
370
    25
100
AcDbLine
 10
795.34
 20
668.9999
 30
0.0
 11
404.66333333
 21
668.9999
 31
0.0
  0
LINE
  5
14B
330
FB
100
AcDbEntity
  8
0
  6
Continuous
 62
     7
370
    25
100
AcDbLine
 10
404.66333333
 20
138.0
 30
0.0
 11
795.34
 21
138.0
 31
0.0
  0
LINE
  5
14C
330
FB
100
AcDbEntity
  8
0
  6
Continuous
 62
     7
370
    25
100
AcDbLine
 10
795.34
 20
138.0
 30
0.0
 11
795.34
 21
668.9999
 31
0.0
  0
LINE
  5
14D
330
FB
100
AcDbEntity
  8
0
  6
Continuous
 62
     7
370
    25
100
AcDbLine
 10
404.66333333
 20
668.9999
 30
0.0
 11
404.66333333
 21
138.0
 31
0.0
  0
LINE
  5
14E
330
FB
100
AcDbEntity
  8
0
  6
Continuous
 62
     7
370
    25
100
AcDbLine
 10
1192.0
 20
671.9999
 30
0.0
 11
8.0
 21
671.9999
 31
0.0
  0
VIEWPORT
  5
35C
330
FB
100
AcDbEntity
  8
0
100
AcDbViewport
 10
0.0
 20
0.0
 30
0.0
 40
205.6
 41
156.0
 68
     1
 69
     1
 12
600.0
 22
79.0
 13
0.0
 23
0.0
 14
10.0
 24
10.0
 15
10.0
 25
10.0
 16
0.0
 26
0.0
 36
1.0
 17
0.0
 27
0.0
 37
0.0
 42
50.0
 43
0.0
 44
0.0
 45
928.7159533074
 50
0.0
 51
0.0
 72
   100
 90
   557152
  1

281
     0
 71
     1
 74
     0
110
0.0
120
0.0
130
0.0
111
1.0
121
0.0
131
0.0
112
0.0
122
1.0
132
0.0
 79
     0
146
0.0
  0
ENDBLK
  5
FE
330
FB
100
AcDbEntity
  8
0
100
AcDbBlockEnd
  0
BLOCK
  5
151
330
14F
100
AcDbEntity
  8
0
100
AcDbBlockBegin
  2
*Paper_Space2
 70
     0
 10
0.0
 20
0.0
 30
0.0
  3
*Paper_Space2
  1

  0
CIRCLE
  5
166
330
14F
100
AcDbEntity
  8
0
  6
Continuous
 62
     7
370
    25
100
AcDbCircle
 10
-66.0
 20
589.9999
 30
0.0
 40
6.0
  0
CIRCLE
  5
167
330
14F
100
AcDbEntity
  8
0
  6
Continuous
 62
     7
370
    25
100
AcDbCircle
 10
-66.0
 20
539.9999
 30
0.0
 40
5.999999999999801
  0
CIRCLE
  5
168
330
14F
100
AcDbEntity
  8
0
  6
Continuous
 62
     7
370
    25
100
AcDbCircle
 10
-1134.0
 20
589.9999
 30
0.0
 40
6.0
  0
CIRCLE
  5
169
330
14F
100
AcDbEntity
  8
0
  6
Continuous
 62
     7
370
    25
100
AcDbCircle
 10
-1134.0
 20
539.9999
 30
0.0
 40
5.999999999999773
  0
CIRCLE
  5
16A
330
14F
100
AcDbEntity
  8
0
  6
Continuous
 62
     7
370
    25
100
AcDbCircle
 10
-840.84
 20
589.9999
 30
0.0
 40
6.000000000000227
  0
CIRCLE
  5
16B
330
14F
100
AcDbEntity
  8
0
  6
Continuous
 62
     7
370
    25
100
AcDbCircle
 10
-840.84
 20
539.9999
 30
0.0
 40
6.000000000000227
  0
CIRCLE
  5
16C
330
14F
100
AcDbEntity
  8
0
  6
Continuous
 62
     7
370
    25
100
AcDbCircle
 10
-359.16
 20
539.9999
 30
0.0
 40
5.999999999999716
  0
CIRCLE
  5
16D
330
14F
100
AcDbEntity
  8
0
  6
Continuous
 62
     7
370
    25
100
AcDbCircle
 10
-359.16
 20
589.9999
 30
0.0
 40
5.999999999999943
  0
LINE
  5
188
330
14F
100
AcDbEntity
  8
0
  6
Continuous
 62
     7
370
    25
100
AcDbLine
 10
-8.0
 20
8.0
 30
0.0
 11
0.0
 21
0.0
 31
0.0
  0
LINE
  5
189
330
14F
100
AcDbEntity
  8
0
  6
Continuous
 62
     7
370
    25
100
AcDbLine
 10
-1200.0
 20
0.0
 30
0.0
 11
0.0
 21
0.0
 31
0.0
  0
LINE
  5
18A
330
14F
100
AcDbEntity
  8
0
  6
Continuous
 62
     7
370
    25
100
AcDbLine
 10
-1192.0
 20
8.0
 30
0.0
 11
-1200.0
 21
0.0
 31
0.0
  0
LINE
  5
18B
330
14F
100
AcDbEntity
  8
0
  6
Continuous
 62
     7
370
    25
100
AcDbLine
 10
-1192.0
 20
8.0
 30
0.0
 11
-8.0
 21
8.0
 31
0.0
  0
LINE
  5
18C
330
14F
100
AcDbEntity
  8
0
  6
Continuous
 62
     7
370
    25
100
AcDbLine
 10
0.0
 20
750.0
 30
0.0
 11
0.0
 21
0.0
 31
0.0
  0
LINE
  5
18D
330
14F
100
AcDbEntity
  8
0
  6
Continuous
 62
     7
370
    25
100
AcDbLine
 10
0.0
 20
750.0
 30
0.0
 11
-8.0
 21
742.0
 31
0.0
  0
LINE
  5
18E
330
14F
100
AcDbEntity
  8
0
  6
Continuous
 62
     7
370
    25
100
AcDbLine
 10
-1192.0
 20
742.0
 30
0.0
 11
-1200.0
 21
750.0
 31
0.0
  0
LINE
  5
18F
330
14F
100
AcDbEntity
  8
0
  6
Continuous
 62
     7
370
    25
100
AcDbLine
 10
-1192.0
 20
742.0
 30
0.0
 11
-1192.0
 21
8.0
 31
0.0
  0
LINE
  5
190
330
14F
100
AcDbEntity
  8
0
  6
Continuous
 62
     7
370
    25
100
AcDbLine
 10
-1200.0
 20
750.0
 30
0.0
 11
-1200.0
 21
0.0
 31
0.0
  0
LINE
  5
191
330
14F
100
AcDbEntity
  8
0
  6
Continuous
 62
     7
370
    25
100
AcDbLine
 10
-1192.0
 20
741.9999
 30
0.0
 11
-48.0
 21
741.9999
 31
0.0
  0
LINE
  5
192
330
14F
100
AcDbEntity
  8
0
  6
Continuous
 62
     7
370
    25
100
AcDbLine
 10
-1200.0
 20
749.9999
 30
0.0
 11
-1192.0
 21
741.9999
 31
0.0
  0
LINE
  5
193
330
14F
100
AcDbEntity
  8
0
  6
Continuous
 62
     7
370
    25
100
AcDbLine
 10
-1200.0
 20
749.9999
 30
0.0
 11
0.0
 21
749.9999
 31
0.0
  0
LINE
  5
194
330
14F
100
AcDbEntity
  8
0
  6
Continuous
 62
     7
370
    25
100
AcDbLine
 10
-8.0
 20
741.9999
 30
0.0
 11
0.0
 21
749.9999
 31
0.0
  0
LINE
  5
195
330
14F
100
AcDbEntity
  8
0
  6
Continuous
 62
     7
370
    25
100
AcDbLine
 10
-138.0
 20
692.4999
 30
0.0
 11
-118.0
 21
692.4999
 31
0.0
  0
LINE
  5
196
330
14F
100
AcDbEntity
  8
0
  6
Continuous
 62
     7
370
    25
100
AcDbLine
 10
-118.0
 20
727.4999
 30
0.0
 11
-138.0
 21
727.4999
 31
0.0
  0
LINE
  5
197
330
14F
100
AcDbEntity
  8
0
  6
Continuous
 62
     7
370
    25
100
AcDbLine
 10
-1062.0
 20
727.4999
 30
0.0
 11
-1082.0
 21
727.4999
 31
0.0
  0
LINE
  5
198
330
14F
100
AcDbEntity
  8
0
  6
Continuous
 62
     7
370
    25
100
AcDbLine
 10
-1082.0
 20
692.4999
 30
0.0
 11
-1062.0
 21
692.4999
 31
0.0
  0
LINE
  5
199
330
14F
100
AcDbEntity
  8
0
  6
Continuous
 62
     7
370
    25
100
AcDbLine
 10
-1152.0
 20
8.0
 30
0.0
 11
-1152.0
 21
741.9999
 31
0.0
  0
LINE
  5
19A
330
14F
100
AcDbEntity
  8
0
  6
Continuous
 62
     7
370
    25
100
AcDbLine
 10
-48.0
 20
742.0
 30
0.0
 11
-48.0
 21
8.0
 31
0.0
  0
LINE
  5
19B
330
14F
100
AcDbEntity
  8
0
  6
Continuous
 62
     7
370
    25
100
AcDbLine
 10
-8.0
 20
742.0
 30
0.0
 11
-48.0
 21
742.0
 31
0.0
  0
LINE
  5
19C
330
14F
100
AcDbEntity
  8
0
  6
Continuous
 62
     7
370
    25
100
AcDbLine
 10
-8.0
 20
8.0
 30
0.0
 11
-8.0
 21
742.0
 31
0.0
  0
LINE
  5
19D
330
14F
100
AcDbEntity
  8
0
  6
Continuous
 62
     7
370
    25
100
AcDbLine
 10
-816.84
 20
741.9999
 30
0.0
 11
-816.84
 21
8.0
 31
0.0
  0
LINE
  5
19E
330
14F
100
AcDbEntity
  8
0
  6
Continuous
 62
     7
370
    25
100
AcDbLine
 10
-776.84
 20
8.0
 30
0.0
 11
-776.84
 21
741.9999
 31
0.0
  0
LINE
  5
19F
330
14F
100
AcDbEntity
  8
0
  6
Continuous
 62
     7
370
    25
100
AcDbLine
 10
-383.16333333
 20
8.0
 30
0.0
 11
-383.16333333
 21
741.9999
 31
0.0
  0
LINE
  5
1A0
330
14F
100
AcDbEntity
  8
0
  6
Continuous
 62
     7
370
    25
100
AcDbLine
 10
-423.16333333
 20
741.9999
 30
0.0
 11
-423.16333333
 21
8.0
 31
0.0
  0
LINE
  5
1A1
330
14F
100
AcDbEntity
  8
0
  6
Continuous
 62
     7
370
    25
100
AcDbLine
 10
-1130.6833752096
 20
584.9999
 30
0.0
 11
-1137.3166247904
 21
584.9999
 31
0.0
  0
LINE
  5
1A2
330
14F
100
AcDbEntity
  8
0
  6
Continuous
 62
     7
370
    25
100
AcDbLine
 10
-69.3166247904
 20
584.9999
 30
0.0
 11
-62.6833752096
 21
584.9999
 31
0.0
  0
ARC
  5
1A3
330
14F
100
AcDbEntity
  8
0
  6
Continuous
 62
     7
370
    25
100
AcDbCircle
 10
-138.0
 20
709.9999
 30
0.0
 40
17.50000000000023
100
AcDbArc
 50
90.0
 51
270.0
  0
ARC
  5
1A4
330
14F
100
AcDbEntity
  8
0
  6
Continuous
 62
     7
370
    25
100
AcDbCircle
 10
-118.0
 20
709.9999
 30
0.0
 40
17.50000000000011
100
AcDbArc
 50
270.0
 51
90.0
  0
ARC
  5
1A5
330
14F
100
AcDbEntity
  8
0
  6
Continuous
 62
     7
370
    25
100
AcDbCircle
 10
-1062.0
 20
709.9999
 30
0.0
 40
17.50000000000011
100
AcDbArc
 50
270.0
 51
90.0
  0
ARC
  5
1A6
330
14F
100
AcDbEntity
  8
0
  6
Continuous
 62
     7
370
    25
100
AcDbCircle
 10
-1082.0
 20
709.9999
 30
0.0
 40
17.50000000000023
100
AcDbArc
 50
90.0
 51
270.0
  0
VIEWPORT
  5
35E
330
14F
100
AcDbEntity
  8
0
100
AcDbViewport
 10
0.0
 20
0.0
 30
0.0
 40
205.6
 41
156.0
 68
     1
 69
     1
 12
600.0
 22
79.0
 13
0.0
 23
0.0
 14
10.0
 24
10.0
 15
10.0
 25
10.0
 16
0.0
 26
0.0
 36
1.0
 17
0.0
 27
0.0
 37
0.0
 42
50.0
 43
0.0
 44
0.0
 45
928.7159533074
 50
0.0
 51
0.0
 72
   100
 90
   557152
  1

281
     0
 71
     1
 74
     0
110
0.0
120
0.0
130
0.0
111
1.0
121
0.0
131
0.0
112
0.0
122
1.0
132
0.0
 79
     0
146
0.0
  0
ENDBLK
  5
152
330
14F
100
AcDbEntity
  8
0
100
AcDbBlockEnd
  0
BLOCK
  5
1A9
330
1A7
100
AcDbEntity
  8
0
100
AcDbBlockBegin
  2
*Paper_Space3
 70
     0
 10
0.0
 20
0.0
 30
0.0
  3
*Paper_Space3
  1

  0
LINE
  5
1B4
330
1A7
100
AcDbEntity
  8
0
  6
Continuous
 62
     7
370
    25
100
AcDbLine
 10
-150.0
 20
0.0
 30
0.0
 11
0.0
 21
0.0
 31
0.0
  0
LINE
  5
1B5
330
1A7
100
AcDbEntity
  8
0
  6
Continuous
 62
     7
370
    25
100
AcDbLine
 10
0.0
 20
750.0
 30
0.0
 11
0.0
 21
0.0
 31
0.0
  0
LINE
  5
1B6
330
1A7
100
AcDbEntity
  8
0
  6
Continuous
 62
     7
370
    25
100
AcDbLine
 10
-150.0
 20
750.0
 30
0.0
 11
0.0
 21
750.0
 31
0.0
  0
LINE
  5
1B7
330
1A7
100
AcDbEntity
  8
0
  6
Continuous
 62
     7
370
    25
100
AcDbLine
 10
-150.0
 20
750.0
 30
0.0
 11
-150.0
 21
0.0
 31
0.0
  0
LINE
  5
1B8
330
1A7
100
AcDbEntity
  8
0
  6
Continuous
 62
     7
370
    25
100
AcDbLine
 10
-150.0
 20
749.9999
 30
0.0
 11
0.0
 21
749.9999
 31
0.0
  0
LINE
  5
1B9
330
1A7
100
AcDbEntity
  8
0
  6
Continuous
 62
     7
370
    25
100
AcDbLine
 10
-158.0
 20
742.0
 30
0.0
 11
-150.0
 21
742.0
 31
0.0
  0
LINE
  5
1BA
330
1A7
100
AcDbEntity
  8
0
  6
Continuous
 62
     7
370
    25
100
AcDbLine
 10
-158.0
 20
8.0
 30
0.0
 11
-158.0
 21
742.0
 31
0.0
  0
LINE
  5
1BB
330
1A7
100
AcDbEntity
  8
0
  6
Continuous
 62
     7
370
    25
100
AcDbLine
 10
-158.0
 20
8.0
 30
0.0
 11
-150.0
 21
8.0
 31
0.0
  0
VIEWPORT
  5
360
330
1A7
100
AcDbEntity
  8
0
100
AcDbViewport
 10
0.0
 20
0.0
 30
0.0
 40
205.6
 41
156.0
 68
     1
 69
     1
 12
600.0
 22
79.0
 13
0.0
 23
0.0
 14
10.0
 24
10.0
 15
10.0
 25
10.0
 16
0.0
 26
0.0
 36
1.0
 17
0.0
 27
0.0
 37
0.0
 42
50.0
 43
0.0
 44
0.0
 45
928.7159533074
 50
0.0
 51
0.0
 72
   100
 90
   557152
  1

281
     0
 71
     1
 74
     0
110
0.0
120
0.0
130
0.0
111
1.0
121
0.0
131
0.0
112
0.0
122
1.0
132
0.0
 79
     0
146
0.0
  0
ENDBLK
  5
1AA
330
1A7
100
AcDbEntity
  8
0
100
AcDbBlockEnd
  0
BLOCK
  5
1BE
330
1BC
100
AcDbEntity
  8
0
100
AcDbBlockBegin
  2
*Paper_Space4
 70
     0
 10
0.0
 20
0.0
 30
0.0
  3
*Paper_Space4
  1

  0
LINE
  5
1D2
330
1BC
100
AcDbEntity
  8
0
  6
Continuous
 62
     7
370
    25
100
AcDbLine
 10
0.0
 20
-150.0
 30
0.0
 11
0.0
 21
0.0
 31
0.0
  0
LINE
  5
1D3
330
1BC
100
AcDbEntity
  8
0
  6
Continuous
 62
     7
370
    25
100
AcDbLine
 10
1200.0
 20
0.0
 30
0.0
 11
1200.0
 21
-150.0
 31
0.0
  0
LINE
  5
1D4
330
1BC
100
AcDbEntity
  8
0
  6
Continuous
 62
     7
370
    25
100
AcDbLine
 10
0.0
 20
0.0
 30
0.0
 11
1200.0
 21
0.0
 31
0.0
  0
LINE
  5
1D5
330
1BC
100
AcDbEntity
  8
0
  6
Continuous
 62
     7
370
    25
100
AcDbLine
 10
1200.0
 20
-150.0
 30
0.0
 11
0.0
 21
-150.0
 31
0.0
  0
LINE
  5
1D6
330
1BC
100
AcDbEntity
  8
0
  6
Continuous
 62
     7
370
    25
100
AcDbLine
 10
1192.0
 20
-158.0
 30
0.0
 11
1152.0
 21
-158.0
 31
0.0
  0
LINE
  5
1D7
330
1BC
100
AcDbEntity
  8
0
  6
Continuous
 62
     7
370
    25
100
AcDbLine
 10
1192.0
 20
-158.0
 30
0.0
 11
1192.0
 21
-150.0
 31
0.0
  0
LINE
  5
1D8
330
1BC
100
AcDbEntity
  8
0
  6
Continuous
 62
     7
370
    25
100
AcDbLine
 10
1152.0
 20
-158.0
 30
0.0
 11
1152.0
 21
-150.0
 31
0.0
  0
LINE
  5
1D9
330
1BC
100
AcDbEntity
  8
0
  6
Continuous
 62
     7
370
    25
100
AcDbLine
 10
48.0
 20
-158.0
 30
0.0
 11
48.0
 21
-150.0
 31
0.0
  0
LINE
  5
1DA
330
1BC
100
AcDbEntity
  8
0
  6
Continuous
 62
     7
370
    25
100
AcDbLine
 10
48.0
 20
-158.0
 30
0.0
 11
8.0
 21
-158.0
 31
0.0
  0
LINE
  5
1DB
330
1BC
100
AcDbEntity
  8
0
  6
Continuous
 62
     7
370
    25
100
AcDbLine
 10
8.0
 20
-158.0
 30
0.0
 11
8.0
 21
-150.0
 31
0.0
  0
LINE
  5
1DC
330
1BC
100
AcDbEntity
  8
0
  6
Continuous
 62
     7
370
    25
100
AcDbLine
 10
776.84
 20
-158.0
 30
0.0
 11
776.84
 21
-150.0
 31
0.0
  0
LINE
  5
1DD
330
1BC
100
AcDbEntity
  8
0
  6
Continuous
 62
     7
370
    25
100
AcDbLine
 10
816.84
 20
-158.0
 30
0.0
 11
816.84
 21
-150.0
 31
0.0
  0
LINE
  5
1DE
330
1BC
100
AcDbEntity
  8
0
  6
Continuous
 62
     7
370
    25
100
AcDbLine
 10
816.84
 20
-158.0
 30
0.0
 11
776.84
 21
-158.0
 31
0.0
  0
LINE
  5
1DF
330
1BC
100
AcDbEntity
  8
0
  6
Continuous
 62
     7
370
    25
100
AcDbLine
 10
423.16333333
 20
-158.0
 30
0.0
 11
423.16333333
 21
-150.0
 31
0.0
  0
LINE
  5
1E0
330
1BC
100
AcDbEntity
  8
0
  6
Continuous
 62
     7
370
    25
100
AcDbLine
 10
423.16333333
 20
-158.0
 30
0.0
 11
383.16333333
 21
-158.0
 31
0.0
  0
LINE
  5
1E1
330
1BC
100
AcDbEntity
  8
0
  6
Continuous
 62
     7
370
    25
100
AcDbLine
 10
383.16333333
 20
-158.0
 30
0.0
 11
383.16333333
 21
-150.0
 31
0.0
  0
VIEWPORT
  5
362
330
1BC
100
AcDbEntity
  8
0
100
AcDbViewport
 10
0.0
 20
0.0
 30
0.0
 40
205.6
 41
156.0
 68
     1
 69
     1
 12
600.0
 22
79.0
 13
0.0
 23
0.0
 14
10.0
 24
10.0
 15
10.0
 25
10.0
 16
0.0
 26
0.0
 36
1.0
 17
0.0
 27
0.0
 37
0.0
 42
50.0
 43
0.0
 44
0.0
 45
928.7159533074
 50
0.0
 51
0.0
 72
   100
 90
   557152
  1

281
     0
 71
     1
 74
     0
110
0.0
120
0.0
130
0.0
111
1.0
121
0.0
131
0.0
112
0.0
122
1.0
132
0.0
 79
     0
146
0.0
  0
ENDBLK
  5
1BF
330
1BC
100
AcDbEntity
  8
0
100
AcDbBlockEnd
  0
BLOCK
  5
1E4
330
1E2
100
AcDbEntity
  8
0
100
AcDbBlockBegin
  2
*Paper_Space5
 70
     0
 10
0.0
 20
0.0
 30
0.0
  3
*Paper_Space5
  1

  0
LINE
  5
21B
330
1E2
100
AcDbEntity
  8
0
  6
Continuous
 62
     7
370
    25
100
AcDbLine
 10
848.5281374239
 20
-489.8448670936
 30
0.0
 11
954.5941546018
 21
-428.6142587069
 31
0.0
  0
LINE
  5
21C
330
1E2
100
AcDbEntity
  8
0
  6
Continuous
 62
     7
370
    25
100
AcDbLine
 10
848.5281374239
 20
-489.8448670936
 30
0.0
 11
842.8712831744
 21
-480.0469081512
 31
0.0
  0
LINE
  5
21D
330
1E2
100
AcDbEntity
  8
0
  6
Continuous
 62
     7
370
    25
100
AcDbLine
 10
0.0
 20
0.0
 30
0.0
 11
5.6568542495
 21
3.2666940478
 31
0.0
  0
LINE
  5
21E
330
1E2
100
AcDbEntity
  8
0
  6
Continuous
 62
     7
370
    25
100
AcDbLine
 10
5.6568542495
 20
3.2666940478
 30
0.0
 11
842.8712831744
 21
-480.0469081512
 31
0.0
  0
LINE
  5
21F
330
1E2
100
AcDbEntity
  8
0
  6
Continuous
 62
     7
370
    25
100
AcDbLine
 10
0.0
 20
0.0
 30
0.0
 11
848.5281374239
 21
-489.8448670936
 31
0.0
  0
LINE
  5
220
330
1E2
100
AcDbEntity
  8
0
  6
Continuous
 62
     7
370
    25
100
AcDbLine
 10
5.6568542495
 20
3.2666940478
 30
0.0
 11
88.3883476483
 21
51.0265685894
 31
0.0
  0
LINE
  5
221
330
1E2
100
AcDbEntity
  8
0
  6
Continuous
 62
     7
370
    25
100
AcDbLine
 10
88.3883476483
 20
51.0265685894
 30
0.0
 11
842.8712831744
 21
-384.527159068
 31
0.0
  0
LINE
  5
222
330
1E2
100
AcDbEntity
  8
0
  6
Continuous
 62
     7
370
    25
100
AcDbLine
 10
5.6568542495
 20
602.6076499719
 30
0.0
 11
0.0
 21
612.4056089143
 31
0.0
  0
LINE
  5
223
330
1E2
100
AcDbEntity
  8
0
  6
Continuous
 62
     7
370
    25
100
AcDbLine
 10
106.066017178
 20
673.636217301
 30
0.0
 11
0.0
 21
612.4056089143
 31
0.0
  0
LINE
  5
224
330
1E2
100
AcDbEntity
  8
0
  6
Continuous
 62
     7
370
    25
100
AcDbLine
 10
106.066017178
 20
673.636217301
 30
0.0
 11
106.0660878887
 21
673.6360948265
 31
0.0
  0
LINE
  5
225
330
1E2
100
AcDbEntity
  8
0
  6
Continuous
 62
     7
370
    25
100
AcDbLine
 10
5.6568542495
 20
602.6076499719
 30
0.0
 11
5.6568542495
 21
3.2666940478
 31
0.0
  0
LINE
  5
226
330
1E2
100
AcDbEntity
  8
0
  6
Continuous
 62
     7
370
    25
100
AcDbLine
 10
0.0
 20
612.4056089143
 30
0.0
 11
0.0
 21
0.0
 31
0.0
  0
LINE
  5
227
330
1E2
100
AcDbEntity
  8
0
  6
Continuous
 62
     7
370
    25
100
AcDbLine
 10
88.3883476483
 20
51.0265685894
 30
0.0
 11
88.3883476483
 21
61.6571250513
 31
0.0
  0
LINE
  5
228
330
1E2
100
AcDbEntity
  8
0
  6
Continuous
 62
     7
370
    25
100
AcDbLine
 10
848.5281374239
 20
122.5607418207
 30
0.0
 11
842.8712831744
 21
119.2940477729
 31
0.0
  0
LINE
  5
229
330
1E2
100
AcDbEntity
  8
0
  6
Continuous
 62
     7
370
    25
100
AcDbLine
 10
848.5281374239
 20
122.5607418207
 30
0.0
 11
848.5281374239
 21
-489.8448670936
 31
0.0
  0
LINE
  5
22A
330
1E2
100
AcDbEntity
  8
0
  6
Continuous
 62
     7
370
    25
100
AcDbLine
 10
842.8712831744
 20
119.2940477729
 30
0.0
 11
842.8712831744
 21
-480.0469081512
 31
0.0
  0
LINE
  5
22B
330
1E2
100
AcDbEntity
  8
0
  6
Continuous
 62
     7
370
    25
100
AcDbLine
 10
954.5941546018
 20
183.7913502074
 30
0.0
 11
954.5941546018
 21
-428.6142587069
 31
0.0
  0
LINE
  5
22C
330
1E2
100
AcDbEntity
  8
0
  6
Continuous
 62
     7
370
    25
100
AcDbLine
 10
848.5281374239
 20
122.5607418207
 30
0.0
 11
954.5941546018
 21
183.7913502074
 31
0.0
  0
LINE
  5
22D
330
1E2
100
AcDbEntity
  8
0
  6
Continuous
 62
     7
370
    25
100
AcDbLine
 10
842.8712831744
 20
119.2939661188
 30
0.0
 11
848.5281374239
 21
122.5606601666
 31
0.0
  0
LINE
  5
22E
330
1E2
100
AcDbEntity
  8
0
  6
Continuous
 62
     7
370
    25
100
AcDbLine
 10
848.5281374239
 20
122.5606601666
 30
0.0
 11
954.5941546018
 21
183.7912685533
 31
0.0
  0
LINE
  5
22F
330
1E2
100
AcDbEntity
  8
0
  6
Continuous
 62
     7
370
    25
100
AcDbLine
 10
954.5940838797
 20
183.7913093803
 30
0.0
 11
106.0660878887
 21
673.6360948265
 31
0.0
  0
LINE
  5
230
330
1E2
100
AcDbEntity
  8
0
  6
Continuous
 62
     7
370
    25
100
AcDbLine
 10
0.0
 20
612.4055272602
 30
0.0
 11
848.5281374239
 21
122.5606601666
 31
0.0
  0
LINE
  5
231
330
1E2
100
AcDbEntity
  8
0
  6
Continuous
 62
     7
370
    25
100
AcDbLine
 10
0.0
 20
612.4055272602
 30
0.0
 11
5.6568542495
 21
602.6075683179
 31
0.0
  0
LINE
  5
232
330
1E2
100
AcDbEntity
  8
0
  6
Continuous
 62
     7
370
    25
100
AcDbLine
 10
5.6568542495
 20
602.6075683179
 30
0.0
 11
842.8712831744
 21
119.2939661188
 31
0.0
  0
LINE
  5
233
330
1E2
100
AcDbEntity
  8
0
  6
Continuous
 62
     7
370
    25
100
AcDbLine
 10
284.0188667516
 20
382.3051197213
 30
0.0
 11
7.7781745931
 21
541.7754768825
 31
0.0
  0
LINE
  5
234
330
1E2
100
AcDbEntity
  8
0
  6
Continuous
 62
     7
370
    25
100
AcDbLine
 10
284.0188667516
 20
-51.2779697359
 30
0.0
 11
284.0188667516
 21
382.3051197213
 31
0.0
  0
LINE
  5
235
330
1E2
100
AcDbEntity
  8
0
  6
Continuous
 62
     7
370
    25
100
AcDbLine
 10
7.7781745931
 20
108.1923874252
 30
0.0
 11
284.0188667516
 21
-51.2779697359
 31
0.0
  0
LINE
  5
236
330
1E2
100
AcDbEntity
  8
0
  6
Continuous
 62
     7
370
    25
100
AcDbLine
 10
7.7781745931
 20
541.7754768825
 30
0.0
 11
7.7781745931
 21
108.1923874252
 31
0.0
  0
LINE
  5
237
330
1E2
100
AcDbEntity
  8
0
  6
Continuous
 62
     7
370
    25
100
AcDbLine
 10
284.0188667516
 20
-51.2779697359
 30
0.0
 11
286.1401870952
 21
-50.0533575682
 31
0.0
  0
LINE
  5
238
330
1E2
100
AcDbEntity
  8
0
  6
Continuous
 62
     7
370
    25
100
AcDbLine
 10
284.0188667516
 20
382.3051197213
 30
0.0
 11
286.8476386786
 21
383.938134995
 31
0.0
  0
LINE
  5
239
330
1E2
100
AcDbEntity
  8
0
  6
Continuous
 62
     7
370
    25
100
AcDbLine
 10
288.2615074388
 20
382.3051197213
 30
0.0
 11
288.2615074388
 21
383.1219259333
 31
0.0
  0
LINE
  5
23A
330
1E2
100
AcDbEntity
  8
0
  6
Continuous
 62
     7
370
    25
100
AcDbLine
 10
7.7781745931
 20
541.7754768825
 30
0.0
 11
10.60694652
 21
543.4084921562
 31
0.0
  0
LINE
  5
23B
330
1E2
100
AcDbEntity
  8
0
  6
Continuous
 62
     7
370
    25
100
AcDbLine
 10
840.7499628308
 20
60.9110990189
 30
0.0
 11
842.8712831744
 21
62.1357111866
 31
0.0
  0
LINE
  5
23C
330
1E2
100
AcDbEntity
  8
0
  6
Continuous
 62
     7
370
    25
100
AcDbLine
 10
840.7499628308
 20
60.9110990189
 30
0.0
 11
564.5116276925
 21
220.3800955012
 31
0.0
  0
LINE
  5
23D
330
1E2
100
AcDbEntity
  8
0
  6
Continuous
 62
     7
370
    25
100
AcDbLine
 10
564.5116276925
 20
220.3800955012
 30
0.0
 11
567.3403996195
 21
222.013110775
 31
0.0
  0
LINE
  5
23E
330
1E2
100
AcDbEntity
  8
0
  6
Continuous
 62
     7
370
    25
100
AcDbLine
 10
840.7499628308
 20
-372.6719904384
 30
0.0
 11
840.7499628308
 21
60.9110990189
 31
0.0
  0
LINE
  5
23F
330
1E2
100
AcDbEntity
  8
0
  6
Continuous
 62
     7
370
    25
100
AcDbLine
 10
564.5116276925
 20
-213.202993956
 30
0.0
 11
840.7499628308
 21
-372.6719904384
 31
0.0
  0
LINE
  5
240
330
1E2
100
AcDbEntity
  8
0
  6
Continuous
 62
     7
370
    25
100
AcDbLine
 10
564.5116276925
 20
220.3800955012
 30
0.0
 11
564.5116276925
 21
-213.202993956
 31
0.0
  0
LINE
  5
241
330
1E2
100
AcDbEntity
  8
0
  6
Continuous
 62
     7
370
    25
100
AcDbLine
 10
840.7499628308
 20
-372.6719904384
 30
0.0
 11
842.8712831744
 21
-371.4473782706
 31
0.0
  0
LINE
  5
242
330
1E2
100
AcDbEntity
  8
0
  6
Continuous
 62
     7
370
    25
100
AcDbLine
 10
562.3903073489
 20
221.6047076689
 30
0.0
 11
286.1401870952
 21
381.0805075536
 31
0.0
  0
LINE
  5
243
330
1E2
100
AcDbEntity
  8
0
  6
Continuous
 62
     7
370
    25
100
AcDbLine
 10
562.3903073489
 20
-211.9783817883
 30
0.0
 11
562.3903073489
 21
221.6047076689
 31
0.0
  0
LINE
  5
244
330
1E2
100
AcDbEntity
  8
0
  6
Continuous
 62
     7
370
    25
100
AcDbLine
 10
286.1401870952
 20
-52.5025819037
 30
0.0
 11
562.3903073489
 21
-211.9783817883
 31
0.0
  0
LINE
  5
245
330
1E2
100
AcDbEntity
  8
0
  6
Continuous
 62
     7
370
    25
100
AcDbLine
 10
286.1401870952
 20
381.0805075536
 30
0.0
 11
286.1401870952
 21
-52.5025819037
 31
0.0
  0
LINE
  5
246
330
1E2
100
AcDbEntity
  8
0
  6
Continuous
 62
     7
370
    25
100
AcDbLine
 10
562.3903073489
 20
-211.9783817883
 30
0.0
 11
564.5116276925
 21
-210.7537696206
 31
0.0
  0
LINE
  5
247
330
1E2
100
AcDbEntity
  8
0
  6
Continuous
 62
     7
370
    25
100
AcDbLine
 10
562.3903073489
 20
221.6047076689
 30
0.0
 11
565.2190792759
 21
223.2377229427
 31
0.0
  0
LINE
  5
248
330
1E2
100
AcDbEntity
  8
0
  6
Continuous
 62
     7
370
    25
100
AcDbLine
 10
566.632948036
 20
221.6047076689
 30
0.0
 11
566.632948036
 21
222.421513881
 31
0.0
  0
LINE
  5
249
330
1E2
100
AcDbEntity
  8
0
  6
Continuous
 62
     7
370
    25
100
AcDbLine
 10
286.1401870952
 20
381.0805075536
 30
0.0
 11
288.9689590222
 21
382.7135228273
 31
0.0
  0
LINE
  5
24A
330
1E2
100
AcDbEntity
  8
0
  6
Continuous
 62
     7
370
    25
100
AcDbLine
 10
842.8712831744
 20
62.9525173986
 30
0.0
 11
6.3639610307
 21
545.8579155418
 31
0.0
  0
LINE
  5
24B
330
1E2
100
AcDbEntity
  8
0
  6
Continuous
 62
     7
370
    25
100
AcDbLine
 10
6.3639610307
 20
602.1993642619
 30
0.0
 11
6.3639610307
 21
545.8579155418
 31
0.0
  0
VIEWPORT
  5
364
330
1E2
100
AcDbEntity
  8
0
100
AcDbViewport
 10
0.0
 20
0.0
 30
0.0
 40
205.6
 41
156.0
 68
     1
 69
     1
 12
600.0
 22
79.0
 13
0.0
 23
0.0
 14
10.0
 24
10.0
 15
10.0
 25
10.0
 16
0.0
 26
0.0
 36
1.0
 17
0.0
 27
0.0
 37
0.0
 42
50.0
 43
0.0
 44
0.0
 45
928.7159533074
 50
0.0
 51
0.0
 72
   100
 90
   557152
  1

281
     0
 71
     1
 74
     0
110
0.0
120
0.0
130
0.0
111
1.0
121
0.0
131
0.0
112
0.0
122
1.0
132
0.0
 79
     0
146
0.0
  0
ENDBLK
  5
1E5
330
1E2
100
AcDbEntity
  8
0
100
AcDbBlockEnd
  0
BLOCK
  5
24E
330
24C
100
AcDbEntity
  8
0
100
AcDbBlockBegin
  2
*Paper_Space6
 70
     0
 10
0.0
 20
0.0
 30
0.0
  3
*Paper_Space6
  1

  0
LINE
  5
287
330
24C
100
AcDbEntity
  8
0
  6
Continuous
 62
     7
370
    25
100
AcDbLine
 10
0.0
 20
0.0
 30
0.0
 11
7.0753449734
 21
4.9344112481
 31
0.0
  0
LINE
  5
288
330
24C
100
AcDbEntity
  8
0
  6
Continuous
 62
     7
370
    25
100
AcDbLine
 10
7.0753449734
 20
4.9344112481
 30
0.0
 11
1054.2264010395
 21
-279.6588080576
 31
0.0
  0
LINE
  5
289
330
24C
100
AcDbEntity
  8
0
  6
Continuous
 62
     7
370
    25
100
AcDbLine
 10
1061.3017460129
 20
-288.4390736207
 30
0.0
 11
1054.2264010395
 21
-279.6588080576
 31
0.0
  0
LINE
  5
28A
330
24C
100
AcDbEntity
  8
0
  6
Continuous
 62
     7
370
    25
100
AcDbLine
 10
0.0
 20
0.0
 30
0.0
 11
1061.3017460129
 21
-288.4390736207
 31
0.0
  0
LINE
  5
28B
330
24C
100
AcDbEntity
  8
0
  6
Continuous
 62
     7
370
    25
100
AcDbLine
 10
1061.3017460129
 20
-288.4390736207
 30
0.0
 11
1131.3060543524
 21
-220.1127226001
 31
0.0
  0
LINE
  5
28C
330
24C
100
AcDbEntity
  8
0
  6
Continuous
 62
     7
370
    25
100
AcDbLine
 10
7.0753449734
 20
4.9344112481
 30
0.0
 11
61.6787054782
 21
58.2289650442
 31
0.0
  0
LINE
  5
28D
330
24C
100
AcDbEntity
  8
0
  6
Continuous
 62
     7
370
    25
100
AcDbLine
 10
61.6787054782
 20
58.2289650442
 30
0.0
 11
1054.2264010395
 21
-211.5242308848
 31
0.0
  0
LINE
  5
28E
330
24C
100
AcDbEntity
  8
0
  6
Continuous
 62
     7
370
    25
100
AcDbLine
 10
7.0753449734
 20
634.0952099635
 30
0.0
 11
0.0
 21
642.8754755266
 31
0.0
  0
LINE
  5
28F
330
24C
100
AcDbEntity
  8
0
  6
Continuous
 62
     7
370
    25
100
AcDbLine
 10
70.0043083395
 20
711.2018265472
 30
0.0
 11
0.0
 21
642.8754755266
 31
0.0
  0
LINE
  5
290
330
24C
100
AcDbEntity
  8
0
  6
Continuous
 62
     7
370
    25
100
AcDbLine
 10
70.0043083395
 20
711.2018265472
 30
0.0
 11
70.0043967813
 21
711.2017167939
 31
0.0
  0
LINE
  5
291
330
24C
100
AcDbEntity
  8
0
  6
Continuous
 62
     7
370
    25
100
AcDbLine
 10
7.0753449734
 20
634.0952099635
 30
0.0
 11
7.0753449734
 21
4.9344112481
 31
0.0
  0
LINE
  5
292
330
24C
100
AcDbEntity
  8
0
  6
Continuous
 62
     7
370
    25
100
AcDbLine
 10
0.0
 20
642.8754755266
 30
0.0
 11
0.0
 21
0.0
 31
0.0
  0
LINE
  5
293
330
24C
100
AcDbEntity
  8
0
  6
Continuous
 62
     7
370
    25
100
AcDbLine
 10
61.6787054782
 20
58.2289650442
 30
0.0
 11
61.6787054782
 21
101.5261369627
 31
0.0
  0
LINE
  5
294
330
24C
100
AcDbEntity
  8
0
  6
Continuous
 62
     7
370
    25
100
AcDbLine
 10
1061.3017460129
 20
354.4364019059
 30
0.0
 11
1054.2264010395
 21
349.5019906577
 31
0.0
  0
LINE
  5
295
330
24C
100
AcDbEntity
  8
0
  6
Continuous
 62
     7
370
    25
100
AcDbLine
 10
1061.3017460129
 20
354.4364019059
 30
0.0
 11
1061.3017460129
 21
-288.4390736207
 31
0.0
  0
LINE
  5
296
330
24C
100
AcDbEntity
  8
0
  6
Continuous
 62
     7
370
    25
100
AcDbLine
 10
1054.2264010395
 20
349.5019906577
 30
0.0
 11
1054.2264010395
 21
-279.6588080576
 31
0.0
  0
LINE
  5
297
330
24C
100
AcDbEntity
  8
0
  6
Continuous
 62
     7
370
    25
100
AcDbLine
 10
1131.3060543524
 20
422.7627529265
 30
0.0
 11
1131.3060543524
 21
-220.1127226001
 31
0.0
  0
LINE
  5
298
330
24C
100
AcDbEntity
  8
0
  6
Continuous
 62
     7
370
    25
100
AcDbLine
 10
1061.3017460129
 20
354.4364019059
 30
0.0
 11
1131.3060543524
 21
422.7627529265
 31
0.0
  0
LINE
  5
299
330
24C
100
AcDbEntity
  8
0
  6
Continuous
 62
     7
370
    25
100
AcDbLine
 10
1131.3059659106
 20
422.7626912464
 30
0.0
 11
1131.3060543524
 21
422.7627529265
 31
0.0
  0
LINE
  5
29A
330
24C
100
AcDbEntity
  8
0
  6
Continuous
 62
     7
370
    25
100
AcDbLine
 10
1131.3059659106
 20
422.7626912464
 30
0.0
 11
70.0043967813
 21
711.2017167939
 31
0.0
  0
LINE
  5
29B
330
24C
100
AcDbEntity
  8
0
  6
Continuous
 62
     7
370
    25
100
AcDbLine
 10
0.0
 20
642.8753898099
 30
0.0
 11
1061.3017460129
 21
354.4363161892
 31
0.0
  0
LINE
  5
29C
330
24C
100
AcDbEntity
  8
0
  6
Continuous
 62
     7
370
    25
100
AcDbLine
 10
1061.3017460129
 20
354.4363161892
 30
0.0
 11
1131.3060543524
 21
422.7626672098
 31
0.0
  0
LINE
  5
29D
330
24C
100
AcDbEntity
  8
0
  6
Continuous
 62
     7
370
    25
100
AcDbLine
 10
0.0
 20
642.8753898099
 30
0.0
 11
7.0753449734
 21
634.0951242468
 31
0.0
  0
LINE
  5
29E
330
24C
100
AcDbEntity
  8
0
  6
Continuous
 62
     7
370
    25
100
AcDbLine
 10
7.0753449734
 20
634.0951242468
 30
0.0
 11
1054.2264010395
 21
349.501904941
 31
0.0
  0
LINE
  5
29F
330
24C
100
AcDbEntity
  8
0
  6
Continuous
 62
     7
370
    25
100
AcDbLine
 10
1054.2264010395
 20
349.501904941
 30
0.0
 11
1061.3017460129
 21
354.4363161892
 31
0.0
  0
LINE
  5
2A0
330
24C
100
AcDbEntity
  8
0
  6
Continuous
 62
     7
370
    25
100
AcDbLine
 10
11.7422988627
 20
573.4073819447
 30
0.0
 11
11.7422988627
 21
572.76624608
 31
0.0
  0
LINE
  5
2A1
330
24C
100
AcDbEntity
  8
0
  6
Continuous
 62
     7
370
    25
100
AcDbLine
 10
355.2383308104
 20
476.8986719754
 30
0.0
 11
9.7285993385
 21
570.8008136115
 31
0.0
  0
LINE
  5
2A2
330
24C
100
AcDbEntity
  8
0
  6
Continuous
 62
     7
370
    25
100
AcDbLine
 10
355.2383308104
 20
21.7429210193
 30
0.0
 11
355.2383308104
 21
476.8986719754
 31
0.0
  0
LINE
  5
2A3
330
24C
100
AcDbEntity
  8
0
  6
Continuous
 62
     7
370
    25
100
AcDbLine
 10
9.7285993385
 20
115.6450626554
 30
0.0
 11
355.2383308104
 21
21.7429210193
 31
0.0
  0
LINE
  5
2A4
330
24C
100
AcDbEntity
  8
0
  6
Continuous
 62
     7
370
    25
100
AcDbLine
 10
9.7285993385
 20
570.8008136115
 30
0.0
 11
9.7285993385
 21
115.6450626554
 31
0.0
  0
LINE
  5
2A5
330
24C
100
AcDbEntity
  8
0
  6
Continuous
 62
     7
370
    25
100
AcDbLine
 10
355.2383308104
 20
476.8986719754
 30
0.0
 11
357.7658395371
 21
479.365597977
 31
0.0
  0
LINE
  5
2A6
330
24C
100
AcDbEntity
  8
0
  6
Continuous
 62
     7
370
    25
100
AcDbLine
 10
9.7285993385
 20
570.8008136115
 30
0.0
 11
12.2561080651
 21
573.2677396131
 31
0.0
  0
LINE
  5
2A7
330
24C
100
AcDbEntity
  8
0
  6
Continuous
 62
     7
370
    25
100
AcDbLine
 10
355.2383308104
 20
21.7429210193
 30
0.0
 11
357.8915851754
 21
24.3325786188
 31
0.0
  0
LINE
  5
2A8
330
24C
100
AcDbEntity
  8
0
  6
Continuous
 62
     7
370
    25
100
AcDbLine
 10
358.038503144
 20
476.3209707326
 30
0.0
 11
358.038503144
 21
479.2914938511
 31
0.0
  0
LINE
  5
2A9
330
24C
100
AcDbEntity
  8
0
  6
Continuous
 62
     7
370
    25
100
AcDbLine
 10
1051.5731466745
 20
287.6497896738
 30
0.0
 11
1054.1006554011
 21
290.1167156754
 31
0.0
  0
LINE
  5
2AA
330
24C
100
AcDbEntity
  8
0
  6
Continuous
 62
     7
370
    25
100
AcDbLine
 10
1051.5731466745
 20
287.6497896738
 30
0.0
 11
706.06636326
 21
381.551130091
 31
0.0
  0
LINE
  5
2AB
330
24C
100
AcDbEntity
  8
0
  6
Continuous
 62
     7
370
    25
100
AcDbLine
 10
706.06636326
 20
381.551130091
 30
0.0
 11
708.5938719866
 21
384.0180560926
 31
0.0
  0
LINE
  5
2AC
330
24C
100
AcDbEntity
  8
0
  6
Continuous
 62
     7
370
    25
100
AcDbLine
 10
1051.5731466745
 20
-167.5059612823
 30
0.0
 11
1051.5731466745
 21
287.6497896738
 31
0.0
  0
LINE
  5
2AD
330
24C
100
AcDbEntity
  8
0
  6
Continuous
 62
     7
370
    25
100
AcDbLine
 10
706.06636326
 20
-73.6046208651
 30
0.0
 11
1051.5731466745
 21
-167.5059612823
 31
0.0
  0
LINE
  5
2AE
330
24C
100
AcDbEntity
  8
0
  6
Continuous
 62
     7
370
    25
100
AcDbLine
 10
706.06636326
 20
381.551130091
 30
0.0
 11
706.06636326
 21
-73.6046208651
 31
0.0
  0
LINE
  5
2AF
330
24C
100
AcDbEntity
  8
0
  6
Continuous
 62
     7
370
    25
100
AcDbLine
 10
1051.5731466745
 20
-167.5059612823
 30
0.0
 11
1054.2264010395
 21
-164.9163036827
 31
0.0
  0
LINE
  5
2B0
330
24C
100
AcDbEntity
  8
0
  6
Continuous
 62
     7
370
    25
100
AcDbLine
 10
703.4131088949
 20
382.2722277751
 30
0.0
 11
705.9406176216
 21
384.7391537767
 31
0.0
  0
LINE
  5
2B1
330
24C
100
AcDbEntity
  8
0
  6
Continuous
 62
     7
370
    25
100
AcDbLine
 10
703.4131088949
 20
382.2722277751
 30
0.0
 11
357.8915851754
 21
476.1775742914
 31
0.0
  0
LINE
  5
2B2
330
24C
100
AcDbEntity
  8
0
  6
Continuous
 62
     7
370
    25
100
AcDbLine
 10
357.8915851754
 20
476.1775742914
 30
0.0
 11
360.4190939021
 21
478.644500293
 31
0.0
  0
LINE
  5
2B3
330
24C
100
AcDbEntity
  8
0
  6
Continuous
 62
     7
370
    25
100
AcDbLine
 10
703.4131088949
 20
-72.883523181
 30
0.0
 11
703.4131088949
 21
382.2722277751
 31
0.0
  0
LINE
  5
2B4
330
24C
100
AcDbEntity
  8
0
  6
Continuous
 62
     7
370
    25
100
AcDbLine
 10
357.8915851754
 20
21.0218233353
 30
0.0
 11
703.4131088949
 21
-72.883523181
 31
0.0
  0
LINE
  5
2B5
330
24C
100
AcDbEntity
  8
0
  6
Continuous
 62
     7
370
    25
100
AcDbLine
 10
357.8915851754
 20
476.1775742914
 30
0.0
 11
357.8915851754
 21
21.0218233353
 31
0.0
  0
LINE
  5
2B6
330
24C
100
AcDbEntity
  8
0
  6
Continuous
 62
     7
370
    25
100
AcDbLine
 10
703.4131088949
 20
-72.883523181
 30
0.0
 11
706.06636326
 21
-70.2938655815
 31
0.0
  0
LINE
  5
2B7
330
24C
100
AcDbEntity
  8
0
  6
Continuous
 62
     7
370
    25
100
AcDbLine
 10
706.2132812285
 20
381.6945265323
 30
0.0
 11
706.2132812285
 21
384.6650496508
 31
0.0
  0
LINE
  5
2B8
330
24C
100
AcDbEntity
  8
0
  6
Continuous
 62
     7
370
    25
100
AcDbLine
 10
1054.2264010395
 20
290.0825407053
 30
0.0
 11
7.5420403623
 21
574.5489222044
 31
0.0
  0
LINE
  5
2B9
330
24C
100
AcDbEntity
  8
0
  6
Continuous
 62
     7
370
    25
100
AcDbLine
 10
7.5420403623
 20
633.9682864401
 30
0.0
 11
7.5420403623
 21
574.5489222044
 31
0.0
  0
VIEWPORT
  5
366
330
24C
100
AcDbEntity
  8
0
100
AcDbViewport
 10
0.0
 20
0.0
 30
0.0
 40
205.6
 41
156.0
 68
     1
 69
     1
 12
600.0
 22
79.0
 13
0.0
 23
0.0
 14
10.0
 24
10.0
 15
10.0
 25
10.0
 16
0.0
 26
0.0
 36
1.0
 17
0.0
 27
0.0
 37
0.0
 42
50.0
 43
0.0
 44
0.0
 45
928.7159533074
 50
0.0
 51
0.0
 72
   100
 90
   557152
  1

281
     0
 71
     1
 74
     0
110
0.0
120
0.0
130
0.0
111
1.0
121
0.0
131
0.0
112
0.0
122
1.0
132
0.0
 79
     0
146
0.0
  0
ENDBLK
  5
24F
330
24C
100
AcDbEntity
  8
0
100
AcDbBlockEnd
  0
BLOCK
  5
2BC
330
2BA
100
AcDbEntity
  8
0
100
AcDbBlockBegin
  2
*Paper_Space7
 70
     0
 10
0.0
 20
0.0
 30
0.0
  3
*Paper_Space7
  1

  0
LINE
  5
314
330
2BA
100
AcDbEntity
  8
0
  6
Continuous
 62
     7
370
    25
100
AcDbLine
 10
48.8490614637
 20
43.0808228053
 30
0.0
 11
0.0
 21
0.0
 31
0.0
  0
LINE
  5
315
330
2BA
100
AcDbEntity
  8
0
  6
Continuous
 62
     7
370
    25
100
AcDbLine
 10
7.4833147738
 20
6.5996632917
 30
0.0
 11
1115.0139012952
 21
-132.9360747972
 31
0.0
  0
LINE
  5
316
330
2BA
100
AcDbEntity
  8
0
  6
Continuous
 62
     7
370
    25
100
AcDbLine
 10
1122.497216069
 20
-141.4213561712
 30
0.0
 11
1115.0139012952
 21
-132.9360747972
 31
0.0
  0
LINE
  5
317
330
2BA
100
AcDbEntity
  8
0
  6
Continuous
 62
     7
370
    25
100
AcDbLine
 10
0.0
 20
0.0
 30
0.0
 11
1122.497216069
 21
-141.4213561712
 31
0.0
  0
LINE
  5
318
330
2BA
100
AcDbEntity
  8
0
  6
Continuous
 62
     7
370
    25
100
AcDbLine
 10
1122.497216069
 20
-141.4213561712
 30
0.0
 11
1175.5302246458
 21
-94.6506388461
 31
0.0
  0
LINE
  5
319
330
2BA
100
AcDbEntity
  8
0
  6
Continuous
 62
     7
370
    25
100
AcDbLine
 10
48.8490614637
 20
43.0808228053
 30
0.0
 11
1115.0139012952
 21
-91.2433210701
 31
0.0
  0
LINE
  5
31A
330
2BA
100
AcDbEntity
  8
0
  6
Continuous
 62
     7
370
    25
100
AcDbLine
 10
7.4833147738
 20
698.6214998336
 30
0.0
 11
0.0
 21
707.1067812076
 31
0.0
  0
LINE
  5
31B
330
2BA
100
AcDbEntity
  8
0
  6
Continuous
 62
     7
370
    25
100
AcDbLine
 10
53.0330085768
 20
753.8774985327
 30
0.0
 11
0.0
 21
707.1067812076
 31
0.0
  0
LINE
  5
31C
330
2BA
100
AcDbEntity
  8
0
  6
Continuous
 62
     7
370
    25
100
AcDbLine
 10
53.0330085768
 20
753.8774985327
 30
0.0
 11
53.0331021183
 21
753.8773924666
 31
0.0
  0
LINE
  5
31D
330
2BA
100
AcDbEntity
  8
0
  6
Continuous
 62
     7
370
    25
100
AcDbLine
 10
7.4833147738
 20
698.6214998336
 30
0.0
 11
7.4833147738
 21
6.5996632917
 31
0.0
  0
LINE
  5
31E
330
2BA
100
AcDbEntity
  8
0
  6
Continuous
 62
     7
370
    25
100
AcDbLine
 10
0.0
 20
707.1067812076
 30
0.0
 11
0.0
 21
0.0
 31
0.0
  0
LINE
  5
31F
330
2BA
100
AcDbEntity
  8
0
  6
Continuous
 62
     7
370
    25
100
AcDbLine
 10
48.8490614637
 20
43.0808228053
 30
0.0
 11
48.8490614637
 21
123.9532444876
 31
0.0
  0
LINE
  5
320
330
2BA
100
AcDbEntity
  8
0
  6
Continuous
 62
     7
370
    25
100
AcDbLine
 10
1115.0139012952
 20
559.0857617446
 30
0.0
 11
1175.5302246458
 21
612.4561423614
 31
0.0
  0
LINE
  5
321
330
2BA
100
AcDbEntity
  8
0
  6
Continuous
 62
     7
370
    25
100
AcDbLine
 10
1122.497216069
 20
565.6854250364
 30
0.0
 11
1122.497216069
 21
-141.4213561712
 31
0.0
  0
LINE
  5
322
330
2BA
100
AcDbEntity
  8
0
  6
Continuous
 62
     7
370
    25
100
AcDbLine
 10
1115.0139012952
 20
559.0857617446
 30
0.0
 11
1115.0139012952
 21
-132.9360747972
 31
0.0
  0
LINE
  5
323
330
2BA
100
AcDbEntity
  8
0
  6
Continuous
 62
     7
370
    25
100
AcDbLine
 10
1175.5302246458
 20
612.4561423614
 30
0.0
 11
1175.5302246458
 21
-94.6506388461
 31
0.0
  0
LINE
  5
324
330
2BA
100
AcDbEntity
  8
0
  6
Continuous
 62
     7
370
    25
100
AcDbLine
 10
1175.5301311044
 20
612.4560598656
 30
0.0
 11
53.0331021183
 21
753.8773924666
 31
0.0
  0
LINE
  5
325
330
2BA
100
AcDbEntity
  8
0
  6
Continuous
 62
     7
370
    25
100
AcDbLine
 10
0.0
 20
707.1066869267
 30
0.0
 11
1122.497216069
 21
565.6853307555
 31
0.0
  0
LINE
  5
326
330
2BA
100
AcDbEntity
  8
0
  6
Continuous
 62
     7
370
    25
100
AcDbLine
 10
1115.0139012952
 20
559.0856674637
 30
0.0
 11
1175.5302246458
 21
612.4560480805
 31
0.0
  0
LINE
  5
327
330
2BA
100
AcDbEntity
  8
0
  6
Continuous
 62
     7
370
    25
100
AcDbLine
 10
0.0
 20
707.1066869267
 30
0.0
 11
7.4833147738
 21
698.6214055527
 31
0.0
  0
LINE
  5
328
330
2BA
100
AcDbEntity
  8
0
  6
Continuous
 62
     7
370
    25
100
AcDbLine
 10
7.4833147738
 20
698.6214055527
 30
0.0
 11
1115.0139012952
 21
559.0856674637
 31
0.0
  0
LINE
  5
329
330
2BA
100
AcDbEntity
  8
0
  6
Continuous
 62
     7
370
    25
100
AcDbLine
 10
25.9854782265
 20
630.6500674773
 30
0.0
 11
25.9854782265
 21
629.6033819647
 31
0.0
  0
LINE
  5
32A
330
2BA
100
AcDbEntity
  8
0
  6
Continuous
 62
     7
370
    25
100
AcDbLine
 10
11.0188486789
 20
632.5356855595
 30
0.0
 11
11.0188486789
 21
630.0859662121
 31
0.0
  0
LINE
  5
32B
330
2BA
100
AcDbEntity
  8
0
  6
Continuous
 62
     7
370
    25
100
AcDbLine
 10
1114.3290139534
 20
-6.721128469
 30
0.0
 11
1115.0139012952
 21
-6.8074161633
 31
0.0
  0
LINE
  5
32C
330
2BA
100
AcDbEntity
  8
0
  6
Continuous
 62
     7
370
    25
100
AcDbLine
 10
1103.5828056527
 20
493.8388800403
 30
0.0
 11
1103.5828056527
 21
494.8855655529
 31
0.0
  0
LINE
  5
32D
330
2BA
100
AcDbEntity
  8
0
  6
Continuous
 62
     7
370
    25
100
AcDbLine
 10
378.5278875901
 20
574.3560890796
 30
0.0
 11
377.842964893
 21
574.4423812283
 31
0.0
  0
LINE
  5
32E
330
2BA
100
AcDbEntity
  8
0
  6
Continuous
 62
     7
370
    25
100
AcDbLine
 10
746.7786895638
 20
527.9608490018
 30
0.0
 11
746.0937668667
 21
528.0471411505
 31
0.0
  0
LINE
  5
32F
330
2BA
100
AcDbEntity
  8
0
  6
Continuous
 62
     7
370
    25
100
AcDbLine
 10
746.0937668667
 20
64.1851869592
 30
0.0
 11
746.7786895638
 21
64.0988948105
 31
0.0
  0
LINE
  5
330
330
2BA
100
AcDbEntity
  8
0
  6
Continuous
 62
     7
370
    25
100
AcDbLine
 10
378.5278875901
 20
110.4941348883
 30
0.0
 11
377.842964893
 21
110.5804270371
 31
0.0
  0
LINE
  5
331
330
2BA
100
AcDbEntity
  8
0
  6
Continuous
 62
     7
370
    25
100
AcDbLine
 10
377.842964893
 20
95.4954823713
 30
0.0
 11
378.5278875901
 21
95.4091902226
 31
0.0
  0
LINE
  5
332
330
2BA
100
AcDbEntity
  8
0
  6
Continuous
 62
     7
370
    25
100
AcDbLine
 10
746.0937668667
 20
49.1002422934
 30
0.0
 11
746.7786895638
 21
49.0139501447
 31
0.0
  0
LINE
  5
333
330
2BA
100
AcDbEntity
  8
0
  6
Continuous
 62
     7
370
    25
100
AcDbLine
 10
375.7216445499
 20
583.4026767864
 30
0.0
 11
10.289557814
 21
629.4427921247
 31
0.0
  0
LINE
  5
334
330
2BA
100
AcDbEntity
  8
0
  6
Continuous
 62
     7
370
    25
100
AcDbLine
 10
375.7216445499
 20
82.7711699724
 30
0.0
 11
375.7216445499
 21
583.4026767864
 31
0.0
  0
LINE
  5
335
330
2BA
100
AcDbEntity
  8
0
  6
Continuous
 62
     7
370
    25
100
AcDbLine
 10
10.289557814
 20
128.8112853106
 30
0.0
 11
375.7216445499
 21
82.7711699724
 31
0.0
  0
LINE
  5
336
330
2BA
100
AcDbEntity
  8
0
  6
Continuous
 62
     7
370
    25
100
AcDbLine
 10
10.289557814
 20
629.4427921247
 30
0.0
 11
10.289557814
 21
128.8112853106
 31
0.0
  0
LINE
  5
337
330
2BA
100
AcDbEntity
  8
0
  6
Continuous
 62
     7
370
    25
100
AcDbLine
 10
375.7216445499
 20
82.7711699724
 30
0.0
 11
377.842964893
 21
84.6419986654
 31
0.0
  0
LINE
  5
338
330
2BA
100
AcDbEntity
  8
0
  6
Continuous
 62
     7
370
    25
100
AcDbLine
 10
375.7216445499
 20
583.4026767864
 30
0.0
 11
377.842964893
 21
585.2735054794
 31
0.0
  0
LINE
  5
339
330
2BA
100
AcDbEntity
  8
0
  6
Continuous
 62
     7
370
    25
100
AcDbLine
 10
377.842964893
 20
84.6419986654
 30
0.0
 11
377.842964893
 21
585.2735054794
 31
0.0
  0
LINE
  5
33A
330
2BA
100
AcDbEntity
  8
0
  6
Continuous
 62
     7
370
    25
100
AcDbLine
 10
10.289557814
 20
629.4427921247
 30
0.0
 11
12.4109135124
 21
631.3136519982
 31
0.0
  0
LINE
  5
33B
330
2BA
100
AcDbEntity
  8
0
  6
Continuous
 62
     7
370
    25
100
AcDbLine
 10
377.842964893
 20
585.2735054794
 30
0.0
 11
12.410878157
 21
631.3136208177
 31
0.0
  0
LINE
  5
33C
330
2BA
100
AcDbEntity
  8
0
  6
Continuous
 62
     7
370
    25
100
AcDbLine
 10
1112.207658255
 20
490.6141608166
 30
0.0
 11
746.7786895638
 21
536.6538833181
 31
0.0
  0
LINE
  5
33D
330
2BA
100
AcDbEntity
  8
0
  6
Continuous
 62
     7
370
    25
100
AcDbLine
 10
1112.207658255
 20
-10.0173459975
 30
0.0
 11
1112.207658255
 21
490.6141608166
 31
0.0
  0
LINE
  5
33E
330
2BA
100
AcDbEntity
  8
0
  6
Continuous
 62
     7
370
    25
100
AcDbLine
 10
746.7786895638
 20
36.0223765041
 30
0.0
 11
1112.207658255
 21
-10.0173459975
 31
0.0
  0
LINE
  5
33F
330
2BA
100
AcDbEntity
  8
0
  6
Continuous
 62
     7
370
    25
100
AcDbLine
 10
746.7786895638
 20
536.6538833181
 30
0.0
 11
746.7786895638
 21
36.0223765041
 31
0.0
  0
LINE
  5
340
330
2BA
100
AcDbEntity
  8
0
  6
Continuous
 62
     7
370
    25
100
AcDbLine
 10
1112.207658255
 20
490.6141608166
 30
0.0
 11
1114.3290139534
 21
492.4850206901
 31
0.0
  0
LINE
  5
341
330
2BA
100
AcDbEntity
  8
0
  6
Continuous
 62
     7
370
    25
100
AcDbLine
 10
746.7786895638
 20
536.6538833181
 30
0.0
 11
748.9000099068
 21
538.5247120112
 31
0.0
  0
LINE
  5
342
330
2BA
100
AcDbEntity
  8
0
  6
Continuous
 62
     7
370
    25
100
AcDbLine
 10
1114.3289785981
 20
492.4849895096
 30
0.0
 11
748.9000099068
 21
538.5247120112
 31
0.0
  0
LINE
  5
343
330
2BA
100
AcDbEntity
  8
0
  6
Continuous
 62
     7
370
    25
100
AcDbLine
 10
1112.207658255
 20
-10.0173459975
 30
0.0
 11
1114.3290139534
 21
-8.146486124
 31
0.0
  0
LINE
  5
344
330
2BA
100
AcDbEntity
  8
0
  6
Continuous
 62
     7
370
    25
100
AcDbLine
 10
1114.3289785981
 20
-8.1465173045
 30
0.0
 11
1114.3289785981
 21
492.4849895096
 31
0.0
  0
LINE
  5
345
330
2BA
100
AcDbEntity
  8
0
  6
Continuous
 62
     7
370
    25
100
AcDbLine
 10
743.9724465236
 20
537.0074367086
 30
0.0
 11
378.5278875901
 21
583.049123396
 31
0.0
  0
LINE
  5
346
330
2BA
100
AcDbEntity
  8
0
  6
Continuous
 62
     7
370
    25
100
AcDbLine
 10
743.9724465236
 20
36.3759298945
 30
0.0
 11
743.9724465236
 21
537.0074367086
 31
0.0
  0
LINE
  5
347
330
2BA
100
AcDbEntity
  8
0
  6
Continuous
 62
     7
370
    25
100
AcDbLine
 10
378.5278875901
 20
82.4176165819
 30
0.0
 11
743.9724465236
 21
36.3759298945
 31
0.0
  0
LINE
  5
348
330
2BA
100
AcDbEntity
  8
0
  6
Continuous
 62
     7
370
    25
100
AcDbLine
 10
378.5278875901
 20
583.049123396
 30
0.0
 11
378.5278875901
 21
82.4176165819
 31
0.0
  0
LINE
  5
349
330
2BA
100
AcDbEntity
  8
0
  6
Continuous
 62
     7
370
    25
100
AcDbLine
 10
743.9724465236
 20
36.3759298945
 30
0.0
 11
746.0937668667
 21
38.2467585875
 31
0.0
  0
LINE
  5
34A
330
2BA
100
AcDbEntity
  8
0
  6
Continuous
 62
     7
370
    25
100
AcDbLine
 10
743.9724465236
 20
537.0074367086
 30
0.0
 11
746.0937668667
 21
538.8782654016
 31
0.0
  0
LINE
  5
34B
330
2BA
100
AcDbEntity
  8
0
  6
Continuous
 62
     7
370
    25
100
AcDbLine
 10
746.0937668667
 20
38.2467585875
 30
0.0
 11
746.0937668667
 21
538.8782654016
 31
0.0
  0
LINE
  5
34C
330
2BA
100
AcDbEntity
  8
0
  6
Continuous
 62
     7
370
    25
100
AcDbLine
 10
378.5278875901
 20
583.049123396
 30
0.0
 11
380.6492432885
 21
584.9199832695
 31
0.0
  0
LINE
  5
34D
330
2BA
100
AcDbEntity
  8
0
  6
Continuous
 62
     7
370
    25
100
AcDbLine
 10
746.0937668667
 20
538.8782654016
 30
0.0
 11
380.6492079332
 21
584.919952089
 31
0.0
  0
LINE
  5
34E
330
2BA
100
AcDbEntity
  8
0
  6
Continuous
 62
     7
370
    25
100
AcDbLine
 10
1115.0139012952
 20
493.4453828735
 30
0.0
 11
7.8368681643
 21
632.9365774221
 31
0.0
  0
LINE
  5
34F
330
2BA
100
AcDbEntity
  8
0
  6
Continuous
 62
     7
370
    25
100
AcDbLine
 10
7.8368681643
 20
698.5768620124
 30
0.0
 11
7.8368681643
 21
632.9365774221
 31
0.0
  0
LINE
  5
350
330
2BA
100
AcDbEntity
  8
0
  6
Continuous
 62
     7
370
    25
100
AcDbLine
 10
1114.3290139534
 20
492.4850206901
 30
0.0
 11
1114.3290139534
 21
-8.146486124
 31
0.0
  0
LINE
  5
351
330
2BA
100
AcDbEntity
  8
0
  6
Continuous
 62
     7
370
    25
100
AcDbLine
 10
1114.3289619311
 20
492.4849916094
 30
0.0
 11
1114.3290139534
 21
492.4850206901
 31
0.0
  0
LINE
  5
352
330
2BA
100
AcDbEntity
  8
0
  6
Continuous
 62
     7
370
    25
100
AcDbLine
 10
377.8430002483
 20
334.9577832529
 30
0.0
 11
377.842964893
 21
334.9578119251
 31
0.0
  0
LINE
  5
353
330
2BA
100
AcDbEntity
  8
0
  6
Continuous
 62
     7
370
    25
100
AcDbLine
 10
12.4109655351
 20
631.3136098091
 30
0.0
 11
12.4109135124
 21
631.3136519982
 31
0.0
  0
LINE
  5
354
330
2BA
100
AcDbEntity
  8
0
  6
Continuous
 62
     7
370
    25
100
AcDbLine
 10
377.8430002483
 20
334.9577832529
 30
0.0
 11
377.842964893
 21
334.9577520724
 31
0.0
  0
LINE
  5
355
330
2BA
100
AcDbEntity
  8
0
  6
Continuous
 62
     7
370
    25
100
AcDbLine
 10
746.093802222
 20
288.562543175
 30
0.0
 11
746.0937668667
 21
288.5625718465
 31
0.0
  0
LINE
  5
356
330
2BA
100
AcDbEntity
  8
0
  6
Continuous
 62
     7
370
    25
100
AcDbLine
 10
380.649295313
 20
584.9199410802
 30
0.0
 11
380.6492432885
 21
584.9199832695
 31
0.0
  0
LINE
  5
357
330
2BA
100
AcDbEntity
  8
0
  6
Continuous
 62
     7
370
    25
100
AcDbLine
 10
746.093802222
 20
288.562543175
 30
0.0
 11
746.0937668667
 21
288.5625119945
 31
0.0
  0
VIEWPORT
  5
368
330
2BA
100
AcDbEntity
  8
0
100
AcDbViewport
 10
0.0
 20
0.0
 30
0.0
 40
205.6
 41
156.0
 68
     1
 69
     1
 12
600.0
 22
79.0
 13
0.0
 23
0.0
 14
10.0
 24
10.0
 15
10.0
 25
10.0
 16
0.0
 26
0.0
 36
1.0
 17
0.0
 27
0.0
 37
0.0
 42
50.0
 43
0.0
 44
0.0
 45
928.7159533074
 50
0.0
 51
0.0
 72
   100
 90
   557152
  1

281
     0
 71
     1
 74
     0
110
0.0
120
0.0
130
0.0
111
1.0
121
0.0
131
0.0
112
0.0
122
1.0
132
0.0
 79
     0
146
0.0
  0
ENDBLK
  5
2BD
330
2BA
100
AcDbEntity
  8
0
100
AcDbBlockEnd
  0
ENDSEC
  0
SECTION
  2
ENTITIES
  0
LINE
  5
87
330
1F
100
AcDbEntity
  8
0
  6
Continuous
 62
     7
370
    25
100
AcDbLine
 10
0.0
 20
150.0
 30
0.0
 11
0.0
 21
0.0
 31
0.0
  0
LINE
  5
88
330
1F
100
AcDbEntity
  8
0
  6
Continuous
 62
     7
370
    25
100
AcDbLine
 10
1200.0
 20
0.0
 30
0.0
 11
1200.0
 21
150.0
 31
0.0
  0
LINE
  5
89
330
1F
100
AcDbEntity
  8
0
  6
Continuous
 62
     7
370
    25
100
AcDbLine
 10
1200.0
 20
150.0
 30
0.0
 11
0.0
 21
150.0
 31
0.0
  0
LINE
  5
8A
330
1F
100
AcDbEntity
  8
0
  6
Continuous
 62
     7
370
    25
100
AcDbLine
 10
0.0
 20
0.0
 30
0.0
 11
1200.0
 21
0.0
 31
0.0
  0
LINE
  5
8B
330
1F
100
AcDbEntity
  8
0
  6
Continuous
 62
     7
370
    25
100
AcDbLine
 10
1192.0
 20
158.0
 30
0.0
 11
1192.0
 21
150.0
 31
0.0
  0
LINE
  5
8C
330
1F
100
AcDbEntity
  8
0
  6
Continuous
 62
     7
370
    25
100
AcDbLine
 10
1152.0
 20
158.0
 30
0.0
 11
1152.0
 21
150.0
 31
0.0
  0
LINE
  5
8D
330
1F
100
AcDbEntity
  8
0
  6
Continuous
 62
     7
370
    25
100
AcDbLine
 10
1152.0
 20
158.0
 30
0.0
 11
1192.0
 21
158.0
 31
0.0
  0
LINE
  5
8E
330
1F
100
AcDbEntity
  8
0
  6
Continuous
 62
     7
370
    25
100
AcDbLine
 10
48.0
 20
158.0
 30
0.0
 11
48.0
 21
150.0
 31
0.0
  0
LINE
  5
8F
330
1F
100
AcDbEntity
  8
0
  6
Continuous
 62
     7
370
    25
100
AcDbLine
 10
8.0
 20
158.0
 30
0.0
 11
48.0
 21
158.0
 31
0.0
  0
LINE
  5
90
330
1F
100
AcDbEntity
  8
0
  6
Continuous
 62
     7
370
    25
100
AcDbLine
 10
8.0
 20
158.0
 30
0.0
 11
8.0
 21
150.0
 31
0.0
  0
LINE
  5
91
330
1F
100
AcDbEntity
  8
0
  6
Continuous
 62
     7
370
    25
100
AcDbLine
 10
776.84
 20
158.0
 30
0.0
 11
776.84
 21
150.0
 31
0.0
  0
LINE
  5
92
330
1F
100
AcDbEntity
  8
0
  6
Continuous
 62
     7
370
    25
100
AcDbLine
 10
816.84
 20
158.0
 30
0.0
 11
816.84
 21
150.0
 31
0.0
  0
LINE
  5
93
330
1F
100
AcDbEntity
  8
0
  6
Continuous
 62
     7
370
    25
100
AcDbLine
 10
776.84
 20
158.0
 30
0.0
 11
816.84
 21
158.0
 31
0.0
  0
LINE
  5
94
330
1F
100
AcDbEntity
  8
0
  6
Continuous
 62
     7
370
    25
100
AcDbLine
 10
383.16333333
 20
158.0
 30
0.0
 11
383.16333333
 21
150.0
 31
0.0
  0
LINE
  5
95
330
1F
100
AcDbEntity
  8
0
  6
Continuous
 62
     7
370
    25
100
AcDbLine
 10
383.16333333
 20
158.0
 30
0.0
 11
423.16333333
 21
158.0
 31
0.0
  0
LINE
  5
96
330
1F
100
AcDbEntity
  8
0
  6
Continuous
 62
     7
370
    25
100
AcDbLine
 10
423.16333333
 20
158.0
 30
0.0
 11
423.16333333
 21
150.0
 31
0.0
  0
LINE
  5
C4
330
1B
100
AcDbEntity
 67
     1
  8
0
  6
Continuous
 62
     7
370
    25
100
AcDbLine
 10
8.0
 20
8.0
 30
0.0
 11
1192.0
 21
8.0
 31
0.0
  0
LINE
  5
C5
330
1B
100
AcDbEntity
 67
     1
  8
0
  6
Continuous
 62
     7
370
    25
100
AcDbLine
 10
1200.0
 20
0.0
 30
0.0
 11
1192.0
 21
8.0
 31
0.0
  0
LINE
  5
C6
330
1B
100
AcDbEntity
 67
     1
  8
0
  6
Continuous
 62
     7
370
    25
100
AcDbLine
 10
0.0
 20
0.0
 30
0.0
 11
1200.0
 21
0.0
 31
0.0
  0
LINE
  5
C7
330
1B
100
AcDbEntity
 67
     1
  8
0
  6
Continuous
 62
     7
370
    25
100
AcDbLine
 10
0.0
 20
0.0
 30
0.0
 11
8.0
 21
8.0
 31
0.0
  0
LINE
  5
C8
330
1B
100
AcDbEntity
 67
     1
  8
0
  6
Continuous
 62
     7
370
    25
100
AcDbLine
 10
8.0
 20
742.0
 30
0.0
 11
8.0
 21
8.0
 31
0.0
  0
LINE
  5
C9
330
1B
100
AcDbEntity
 67
     1
  8
0
  6
Continuous
 62
     7
370
    25
100
AcDbLine
 10
0.0
 20
750.0
 30
0.0
 11
0.0
 21
0.0
 31
0.0
  0
LINE
  5
CA
330
1B
100
AcDbEntity
 67
     1
  8
0
  6
Continuous
 62
     7
370
    25
100
AcDbLine
 10
8.0
 20
742.0
 30
0.0
 11
0.0
 21
750.0
 31
0.0
  0
LINE
  5
CB
330
1B
100
AcDbEntity
 67
     1
  8
0
  6
Continuous
 62
     7
370
    25
100
AcDbLine
 10
1200.0
 20
750.0
 30
0.0
 11
1192.0
 21
742.0
 31
0.0
  0
LINE
  5
CC
330
1B
100
AcDbEntity
 67
     1
  8
0
  6
Continuous
 62
     7
370
    25
100
AcDbLine
 10
1200.0
 20
750.0
 30
0.0
 11
1200.0
 21
0.0
 31
0.0
  0
LINE
  5
CD
330
1B
100
AcDbEntity
 67
     1
  8
0
  6
Continuous
 62
     7
370
    25
100
AcDbLine
 10
1192.0
 20
742.0
 30
0.0
 11
1192.0
 21
8.0
 31
0.0
  0
LINE
  5
CE
330
1B
100
AcDbEntity
 67
     1
  8
0
  6
Continuous
 62
     7
370
    25
100
AcDbLine
 10
0.0
 20
749.9999
 30
0.0
 11
1200.0
 21
749.9999
 31
0.0
  0
LINE
  5
CF
330
1B
100
AcDbEntity
 67
     1
  8
0
  6
Continuous
 62
     7
370
    25
100
AcDbLine
 10
8.0
 20
741.9999
 30
0.0
 11
1192.0
 21
741.9999
 31
0.0
  0
LINE
  5
D0
330
1B
100
AcDbEntity
 67
     1
  8
0
  6
Continuous
 62
     7
370
    25
100
AcDbLine
 10
1192.0
 20
741.9999
 30
0.0
 11
1200.0
 21
749.9999
 31
0.0
  0
LINE
  5
D1
330
1B
100
AcDbEntity
 67
     1
  8
0
  6
Continuous
 62
     7
370
    25
100
AcDbLine
 10
0.0
 20
749.9999
 30
0.0
 11
8.0
 21
741.9999
 31
0.0
  0
LINE
  5
D2
330
1B
100
AcDbEntity
 67
     1
  8
0
  6
Continuous
 62
     7
370
    25
100
AcDbLine
 10
24.0
 20
668.9999
 30
0.0
 11
24.0
 21
671.9999
 31
0.0
  0
LINE
  5
D3
330
1B
100
AcDbEntity
 67
     1
  8
0
  6
Continuous
 62
     7
370
    25
100
AcDbLine
 10
8.0
 20
138.0
 30
0.0
 11
401.66333333
 21
138.0
 31
0.0
  0
LINE
  5
D4
330
1B
100
AcDbEntity
 67
     1
  8
0
  6
Continuous
 62
     7
370
    25
100
AcDbLine
 10
798.34
 20
138.0
 30
0.0
 11
1192.0
 21
138.0
 31
0.0
  0
LINE
  5
D5
330
1B
100
AcDbEntity
 67
     1
  8
0
  6
Continuous
 62
     7
370
    25
100
AcDbLine
 10
1176.0
 20
668.9999
 30
0.0
 11
1176.0
 21
671.9999
 31
0.0
  0
LINE
  5
D6
330
1B
100
AcDbEntity
 67
     1
  8
0
  6
Continuous
 62
     7
370
    25
100
AcDbLine
 10
401.66333333
 20
655.9999
 30
0.0
 11
404.66333333
 21
655.9999
 31
0.0
  0
LINE
  5
D7
330
1B
100
AcDbEntity
 67
     1
  8
0
  6
Continuous
 62
     7
370
    25
100
AcDbLine
 10
798.34
 20
655.9999
 30
0.0
 11
795.34
 21
655.9999
 31
0.0
  0
LINE
  5
D8
330
1B
100
AcDbEntity
 67
     1
  8
0
  6
Continuous
 62
     7
370
    25
100
AcDbLine
 10
401.66333333
 20
148.0
 30
0.0
 11
404.66333333
 21
148.0
 31
0.0
  0
LINE
  5
D9
330
1B
100
AcDbEntity
 67
     1
  8
0
  6
Continuous
 62
     7
370
    25
100
AcDbLine
 10
795.34
 20
148.0
 30
0.0
 11
798.34
 21
148.0
 31
0.0
  0
LINE
  5
DA
330
1B
100
AcDbEntity
 67
     1
  8
0
  6
Continuous
 62
     7
370
    25
100
AcDbLine
 10
795.34
 20
164.0
 30
0.0
 11
798.34
 21
164.0
 31
0.0
  0
LINE
  5
DB
330
1B
100
AcDbEntity
 67
     1
  8
0
  6
Continuous
 62
     7
370
    25
100
AcDbLine
 10
404.66333333
 20
164.0
 30
0.0
 11
401.66333333
 21
164.0
 31
0.0
  0
LINE
  5
DC
330
1B
100
AcDbEntity
 67
     1
  8
0
  6
Continuous
 62
     7
370
    25
100
AcDbLine
 10
11.0
 20
668.9999
 30
0.0
 11
11.0
 21
138.0
 31
0.0
  0
LINE
  5
DD
330
1B
100
AcDbEntity
 67
     1
  8
0
  6
Continuous
 62
     7
370
    25
100
AcDbLine
 10
401.66333333
 20
668.9999
 30
0.0
 11
11.0
 21
668.9999
 31
0.0
  0
LINE
  5
DE
330
1B
100
AcDbEntity
 67
     1
  8
0
  6
Continuous
 62
     7
370
    25
100
AcDbLine
 10
401.66333333
 20
138.0
 30
0.0
 11
401.66333333
 21
668.9999
 31
0.0
  0
LINE
  5
DF
330
1B
100
AcDbEntity
 67
     1
  8
0
  6
Continuous
 62
     7
370
    25
100
AcDbLine
 10
1189.0
 20
668.9999
 30
0.0
 11
798.34
 21
668.9999
 31
0.0
  0
LINE
  5
E0
330
1B
100
AcDbEntity
 67
     1
  8
0
  6
Continuous
 62
     7
370
    25
100
AcDbLine
 10
1189.0
 20
138.0
 30
0.0
 11
1189.0
 21
668.9999
 31
0.0
  0
LINE
  5
E1
330
1B
100
AcDbEntity
 67
     1
  8
0
  6
Continuous
 62
     7
370
    25
100
AcDbLine
 10
798.34
 20
668.9999
 30
0.0
 11
798.34
 21
138.0
 31
0.0
  0
LINE
  5
E2
330
1B
100
AcDbEntity
 67
     1
  8
0
  6
Continuous
 62
     7
370
    25
100
AcDbLine
 10
795.34
 20
668.9999
 30
0.0
 11
404.66333333
 21
668.9999
 31
0.0
  0
LINE
  5
E3
330
1B
100
AcDbEntity
 67
     1
  8
0
  6
Continuous
 62
     7
370
    25
100
AcDbLine
 10
404.66333333
 20
138.0
 30
0.0
 11
795.34
 21
138.0
 31
0.0
  0
LINE
  5
E4
330
1B
100
AcDbEntity
 67
     1
  8
0
  6
Continuous
 62
     7
370
    25
100
AcDbLine
 10
795.34
 20
138.0
 30
0.0
 11
795.34
 21
668.9999
 31
0.0
  0
LINE
  5
E5
330
1B
100
AcDbEntity
 67
     1
  8
0
  6
Continuous
 62
     7
370
    25
100
AcDbLine
 10
404.66333333
 20
668.9999
 30
0.0
 11
404.66333333
 21
138.0
 31
0.0
  0
LINE
  5
E6
330
1B
100
AcDbEntity
 67
     1
  8
0
  6
Continuous
 62
     7
370
    25
100
AcDbLine
 10
1192.0
 20
671.9999
 30
0.0
 11
8.0
 21
671.9999
 31
0.0
  0
VIEWPORT
  5
358
330
1B
100
AcDbEntity
 67
     1
  8
0
100
AcDbViewport
 10
0.0
 20
0.0
 30
0.0
 40
205.6
 41
156.0
 68
     1
 69
     1
 12
600.0
 22
79.0
 13
0.0
 23
0.0
 14
10.0
 24
10.0
 15
10.0
 25
10.0
 16
0.0
 26
0.0
 36
1.0
 17
0.0
 27
0.0
 37
0.0
 42
50.0
 43
0.0
 44
0.0
 45
928.7159533074
 50
0.0
 51
0.0
 72
   100
 90
   557152
  1

281
     0
 71
     1
 74
     0
110
0.0
120
0.0
130
0.0
111
1.0
121
0.0
131
0.0
112
0.0
122
1.0
132
0.0
 79
     0
146
0.0
  0
ENDSEC
  0
SECTION
  2
OBJECTS
  0
DICTIONARY
  5
C
330
0
100
AcDbDictionary
281
     1
  3
ACAD_GROUP
350
D
  3
ACAD_LAYOUT
350
1A
  3
ACAD_MLINESTYLE
350
17
  3
ACAD_PLOTSETTINGS
350
19
  3
ACAD_PLOTSTYLENAME
350
E
  3
ACAD_SCALELIST
350
47
  0
DICTIONARY
  5
D
102
{ACAD_REACTORS
330
C
102
}
330
C
100
AcDbDictionary
281
     1
  0
DICTIONARY
  5
1A
102
{ACAD_REACTORS
330
C
102
}
330
C
100
AcDbDictionary
281
     1
  3
_Dimetrisch
350
2BB
  3
_Isometrisch
350
1E3
  3
_Links
350
1A8
  3
_Normal auf
350
FC
  3
_Rechts
350
26
  3
_Rückseite
350
150
  3
_Trimetrisch
350
24D
  3
_Unten
350
1BD
  3
_Vorderseite
350
1E
  3
Model
350
22
  0
DICTIONARY
  5
17
102
{ACAD_REACTORS
330
C
102
}
330
C
100
AcDbDictionary
281
     1
  3
Standard
350
18
  0
DICTIONARY
  5
19
102
{ACAD_REACTORS
330
C
102
}
330
C
100
AcDbDictionary
281
     1
  0
ACDBDICTIONARYWDFLT
  5
E
102
{ACAD_REACTORS
330
C
102
}
330
C
100
AcDbDictionary
281
     1
  3
Normal
350
F
100
AcDbDictionaryWithDefault
340
F
  0
DICTIONARY
  5
47
102
{ACAD_REACTORS
330
C
102
}
330
C
100
AcDbDictionary
281
     1
  3
A0
350
48
  3
A1
350
49
  3
A2
350
4A
  3
A3
350
4B
  3
A4
350
4C
  3
A5
350
4D
  3
A6
350
4E
  3
A7
350
4F
  3
A8
350
50
  3
A9
350
51
  3
B0
350
52
  3
B1
350
53
  3
B2
350
54
  3
B3
350
55
  3
B4
350
56
  3
B5
350
57
  3
B6
350
58
  3
B7
350
59
  3
B8
350
5A
  3
B9
350
5B
  3
C0
350
5C
  3
C1
350
5D
  3
C2
350
5E
  3
C3
350
5F
  3
C4
350
60
  3
C5
350
61
  3
C6
350
62
  3
C7
350
63
  3
C8
350
64
  3
C9
350
65
  3
D0
350
66
  3
D1
350
67
  3
D2
350
68
  0
LAYOUT
  5
2BB
102
{ACAD_REACTORS
330
1A
102
}
330
1A
100
AcDbPlotSettings
  1

  2
none_device
  4
ISO_A4_(210.00_x_297.00_MM)
  6

 40
7.5
 41
20.0
 42
7.5
 43
20.0
 44
210.0
 45
297.0
 46
0.0
 47
0.0
 48
0.0
 49
0.0
140
0.0
141
0.0
142
1.0
143
4.6692607004
 70
   688
 72
     1
 73
     1
 74
     1
  7

 75
     0
147
0.2141666667
148
0.0
149
0.0
100
AcDbLayout
  1
_Dimetrisch
 70
     1
 71
     9
 10
0.0
 20
0.0
 11
0.0
 21
0.0
 12
0.0
 22
0.0
 32
0.0
 14
0.0
 24
0.0
 34
0.0
 15
0.0
 25
0.0
 35
0.0
146
0.0
 13
0.0
 23
0.0
 33
0.0
 16
1.0
 26
0.0
 36
0.0
 17
0.0
 27
1.0
 37
0.0
 76
     0
330
2BA
331
368
  0
LAYOUT
  5
1E3
102
{ACAD_REACTORS
330
1A
102
}
330
1A
100
AcDbPlotSettings
  1

  2
none_device
  4
ISO_A4_(210.00_x_297.00_MM)
  6

 40
7.5
 41
20.0
 42
7.5
 43
20.0
 44
210.0
 45
297.0
 46
0.0
 47
0.0
 48
0.0
 49
0.0
140
0.0
141
0.0
142
1.0
143
4.6692607004
 70
   688
 72
     1
 73
     1
 74
     1
  7

 75
     0
147
0.2141666667
148
0.0
149
0.0
100
AcDbLayout
  1
_Isometrisch
 70
     1
 71
     7
 10
0.0
 20
0.0
 11
0.0
 21
0.0
 12
0.0
 22
0.0
 32
0.0
 14
0.0
 24
0.0
 34
0.0
 15
0.0
 25
0.0
 35
0.0
146
0.0
 13
0.0
 23
0.0
 33
0.0
 16
1.0
 26
0.0
 36
0.0
 17
0.0
 27
1.0
 37
0.0
 76
     0
330
1E2
331
364
  0
LAYOUT
  5
1A8
102
{ACAD_REACTORS
330
1A
102
}
330
1A
100
AcDbPlotSettings
  1

  2
none_device
  4
ISO_A4_(210.00_x_297.00_MM)
  6

 40
7.5
 41
20.0
 42
7.5
 43
20.0
 44
210.0
 45
297.0
 46
0.0
 47
0.0
 48
0.0
 49
0.0
140
0.0
141
0.0
142
1.0
143
4.6692607004
 70
   688
 72
     1
 73
     1
 74
     1
  7

 75
     0
147
0.2141666667
148
0.0
149
0.0
100
AcDbLayout
  1
_Links
 70
     1
 71
     5
 10
0.0
 20
0.0
 11
0.0
 21
0.0
 12
0.0
 22
0.0
 32
0.0
 14
0.0
 24
0.0
 34
0.0
 15
0.0
 25
0.0
 35
0.0
146
0.0
 13
0.0
 23
0.0
 33
0.0
 16
1.0
 26
0.0
 36
0.0
 17
0.0
 27
1.0
 37
0.0
 76
     0
330
1A7
331
360
  0
LAYOUT
  5
FC
102
{ACAD_REACTORS
330
1A
102
}
330
1A
100
AcDbPlotSettings
  1

  2
none_device
  4
ISO_A4_(210.00_x_297.00_MM)
  6

 40
7.5
 41
20.0
 42
7.5
 43
20.0
 44
210.0
 45
297.0
 46
0.0
 47
0.0
 48
0.0
 49
0.0
140
0.0
141
0.0
142
1.0
143
4.6692607004
 70
   688
 72
     1
 73
     1
 74
     1
  7

 75
     0
147
0.2141666667
148
0.0
149
0.0
100
AcDbLayout
  1
_Normal auf
 70
     1
 71
     3
 10
0.0
 20
0.0
 11
0.0
 21
0.0
 12
0.0
 22
0.0
 32
0.0
 14
0.0
 24
0.0
 34
0.0
 15
0.0
 25
0.0
 35
0.0
146
0.0
 13
0.0
 23
0.0
 33
0.0
 16
1.0
 26
0.0
 36
0.0
 17
0.0
 27
1.0
 37
0.0
 76
     0
330
FB
331
35C
  0
LAYOUT
  5
26
102
{ACAD_REACTORS
330
1A
102
}
330
1A
100
AcDbPlotSettings
  1

  2
none_device
  4
ISO_A4_(210.00_x_297.00_MM)
  6

 40
7.5
 41
20.0
 42
7.5
 43
20.0
 44
210.0
 45
297.0
 46
0.0
 47
0.0
 48
0.0
 49
0.0
140
0.0
141
0.0
142
1.0
143
4.6692607004
 70
   688
 72
     1
 73
     1
 74
     1
  7

 75
     0
147
0.2141666667
148
0.0
149
0.0
100
AcDbLayout
  1
_Rechts
 70
     1
 71
     2
 10
0.0
 20
0.0
 11
0.0
 21
0.0
 12
0.0
 22
0.0
 32
0.0
 14
0.0
 24
0.0
 34
0.0
 15
0.0
 25
0.0
 35
0.0
146
0.0
 13
0.0
 23
0.0
 33
0.0
 16
1.0
 26
0.0
 36
0.0
 17
0.0
 27
1.0
 37
0.0
 76
     0
330
23
331
35A
  0
LAYOUT
  5
150
102
{ACAD_REACTORS
330
1A
102
}
330
1A
100
AcDbPlotSettings
  1

  2
none_device
  4
ISO_A4_(210.00_x_297.00_MM)
  6

 40
7.5
 41
20.0
 42
7.5
 43
20.0
 44
210.0
 45
297.0
 46
0.0
 47
0.0
 48
0.0
 49
0.0
140
0.0
141
0.0
142
1.0
143
4.6692607004
 70
   688
 72
     1
 73
     1
 74
     1
  7

 75
     0
147
0.2141666667
148
0.0
149
0.0
100
AcDbLayout
  1
_Rückseite
 70
     1
 71
     4
 10
0.0
 20
0.0
 11
0.0
 21
0.0
 12
0.0
 22
0.0
 32
0.0
 14
0.0
 24
0.0
 34
0.0
 15
0.0
 25
0.0
 35
0.0
146
0.0
 13
0.0
 23
0.0
 33
0.0
 16
1.0
 26
0.0
 36
0.0
 17
0.0
 27
1.0
 37
0.0
 76
     0
330
14F
331
35E
  0
LAYOUT
  5
24D
102
{ACAD_REACTORS
330
1A
102
}
330
1A
100
AcDbPlotSettings
  1

  2
none_device
  4
ISO_A4_(210.00_x_297.00_MM)
  6

 40
7.5
 41
20.0
 42
7.5
 43
20.0
 44
210.0
 45
297.0
 46
0.0
 47
0.0
 48
0.0
 49
0.0
140
0.0
141
0.0
142
1.0
143
4.6692607004
 70
   688
 72
     1
 73
     1
 74
     1
  7

 75
     0
147
0.2141666667
148
0.0
149
0.0
100
AcDbLayout
  1
_Trimetrisch
 70
     1
 71
     8
 10
0.0
 20
0.0
 11
0.0
 21
0.0
 12
0.0
 22
0.0
 32
0.0
 14
0.0
 24
0.0
 34
0.0
 15
0.0
 25
0.0
 35
0.0
146
0.0
 13
0.0
 23
0.0
 33
0.0
 16
1.0
 26
0.0
 36
0.0
 17
0.0
 27
1.0
 37
0.0
 76
     0
330
24C
331
366
  0
LAYOUT
  5
1BD
102
{ACAD_REACTORS
330
1A
102
}
330
1A
100
AcDbPlotSettings
  1

  2
none_device
  4
ISO_A4_(210.00_x_297.00_MM)
  6

 40
7.5
 41
20.0
 42
7.5
 43
20.0
 44
210.0
 45
297.0
 46
0.0
 47
0.0
 48
0.0
 49
0.0
140
0.0
141
0.0
142
1.0
143
4.6692607004
 70
   688
 72
     1
 73
     1
 74
     1
  7

 75
     0
147
0.2141666667
148
0.0
149
0.0
100
AcDbLayout
  1
_Unten
 70
     1
 71
     6
 10
0.0
 20
0.0
 11
0.0
 21
0.0
 12
0.0
 22
0.0
 32
0.0
 14
0.0
 24
0.0
 34
0.0
 15
0.0
 25
0.0
 35
0.0
146
0.0
 13
0.0
 23
0.0
 33
0.0
 16
1.0
 26
0.0
 36
0.0
 17
0.0
 27
1.0
 37
0.0
 76
     0
330
1BC
331
362
  0
LAYOUT
  5
1E
102
{ACAD_REACTORS
330
1A
102
}
330
1A
100
AcDbPlotSettings
  1

  2
none_device
  4
ISO_A4_(210.00_x_297.00_MM)
  6

 40
7.5
 41
20.0
 42
7.5
 43
20.0
 44
210.0
 45
297.0
 46
0.0
 47
0.0
 48
0.0
 49
0.0
140
0.0
141
0.0
142
1.0
143
4.6692607004
 70
   688
 72
     1
 73
     1
 74
     1
  7

 75
     0
147
0.2141666667
148
0.0
149
0.0
100
AcDbLayout
  1
_Vorderseite
 70
     1
 71
     1
 10
-93.3852140078
 20
-35.0194552529
 11
1293.3852140078
 21
945.5252918288
 12
0.0
 22
0.0
 32
0.0
 14
0.0
 24
0.0
 34
0.0
 15
1200.0
 25
750.0
 35
0.0
146
0.0
 13
0.0
 23
0.0
 33
0.0
 16
1.0
 26
0.0
 36
0.0
 17
0.0
 27
1.0
 37
0.0
 76
     0
330
1B
331
358
  0
LAYOUT
  5
22
102
{ACAD_REACTORS
330
1A
102
}
330
1A
100
AcDbPlotSettings
  1

  2
none_device
  4
ANSI_A_(11.00_x_8.50_Inches)
  6

 40
6.35
 41
19.05
 42
6.35000508
 43
19.05000254
 44
279.4
 45
215.9
 46
-4.95300254
 47
70.69010373
 48
0.0
 49
0.0
140
0.0
141
0.0
142
0.009075
143
1.0
 70
  1696
 72
     0
 73
     0
 74
     0
  7

 75
     0
147
0.0179189148
148
-1300.4909072572
149
0.0
100
AcDbLayout
  1
Model
 70
     1
 71
     0
 10
0.0
 20
0.0
 11
420.0
 21
297.0
 12
0.0
 22
0.0
 32
0.0
 14
0.0
 24
0.0
 34
0.0
 15
1200.0
 25
158.0
 35
0.0
146
0.0
 13
0.0
 23
0.0
 33
0.0
 16
1.0
 26
0.0
 36
0.0
 17
0.0
 27
1.0
 37
0.0
 76
     0
330
1F
331
29
  0
MLINESTYLE
  5
18
102
{ACAD_REACTORS
330
17
102
}
330
17
100
AcDbMlineStyle
  2
Standard
 70
     0
  3

 62
   256
 51
90.0
 52
90.0
 71
     2
 49
0.5
 62
   256
  6
BYLAYER
 49
-0.5
 62
   256
  6
BYLAYER
  0
ACDBPLACEHOLDER
  5
F
102
{ACAD_REACTORS
330
E
102
}
330
E
  0
SCALE
  5
48
102
{ACAD_REACTORS
330
47
102
}
330
47
100
AcDbScale
 70
     0
300
1:1
140
1.0
141
1.0
290
     1
  0
SCALE
  5
49
102
{ACAD_REACTORS
330
47
102
}
330
47
100
AcDbScale
 70
     0
300
1:2
140
1.0
141
2.0
290
     0
  0
SCALE
  5
4A
102
{ACAD_REACTORS
330
47
102
}
330
47
100
AcDbScale
 70
     0
300
1:4
140
1.0
141
4.0
290
     0
  0
SCALE
  5
4B
102
{ACAD_REACTORS
330
47
102
}
330
47
100
AcDbScale
 70
     0
300
1:5
140
1.0
141
5.0
290
     0
  0
SCALE
  5
4C
102
{ACAD_REACTORS
330
47
102
}
330
47
100
AcDbScale
 70
     0
300
1:8
140
1.0
141
8.0
290
     0
  0
SCALE
  5
4D
102
{ACAD_REACTORS
330
47
102
}
330
47
100
AcDbScale
 70
     0
300
1:10
140
1.0
141
10.0
290
     0
  0
SCALE
  5
4E
102
{ACAD_REACTORS
330
47
102
}
330
47
100
AcDbScale
 70
     0
300
1:16
140
1.0
141
16.0
290
     0
  0
SCALE
  5
4F
102
{ACAD_REACTORS
330
47
102
}
330
47
100
AcDbScale
 70
     0
300
1:20
140
1.0
141
20.0
290
     0
  0
SCALE
  5
50
102
{ACAD_REACTORS
330
47
102
}
330
47
100
AcDbScale
 70
     0
300
1:30
140
1.0
141
30.0
290
     0
  0
SCALE
  5
51
102
{ACAD_REACTORS
330
47
102
}
330
47
100
AcDbScale
 70
     0
300
1:40
140
1.0
141
40.0
290
     0
  0
SCALE
  5
52
102
{ACAD_REACTORS
330
47
102
}
330
47
100
AcDbScale
 70
     0
300
1:50
140
1.0
141
50.0
290
     0
  0
SCALE
  5
53
102
{ACAD_REACTORS
330
47
102
}
330
47
100
AcDbScale
 70
     0
300
1:100
140
1.0
141
100.0
290
     0
  0
SCALE
  5
54
102
{ACAD_REACTORS
330
47
102
}
330
47
100
AcDbScale
 70
     0
300
2:1
140
2.0
141
1.0
290
     0
  0
SCALE
  5
55
102
{ACAD_REACTORS
330
47
102
}
330
47
100
AcDbScale
 70
     0
300
4:1
140
4.0
141
1.0
290
     0
  0
SCALE
  5
56
102
{ACAD_REACTORS
330
47
102
}
330
47
100
AcDbScale
 70
     0
300
8:1
140
8.0
141
1.0
290
     0
  0
SCALE
  5
57
102
{ACAD_REACTORS
330
47
102
}
330
47
100
AcDbScale
 70
     0
300
10:1
140
10.0
141
1.0
290
     0
  0
SCALE
  5
58
102
{ACAD_REACTORS
330
47
102
}
330
47
100
AcDbScale
 70
     0
300
100:1
140
100.0
141
1.0
290
     0
  0
SCALE
  5
59
102
{ACAD_REACTORS
330
47
102
}
330
47
100
AcDbScale
 70
     0
300
1/128" = 1'-0"
140
0.0078125
141
12.0
290
     0
  0
SCALE
  5
5A
102
{ACAD_REACTORS
330
47
102
}
330
47
100
AcDbScale
 70
     0
300
1/64" = 1'-0"
140
0.015625
141
12.0
290
     0
  0
SCALE
  5
5B
102
{ACAD_REACTORS
330
47
102
}
330
47
100
AcDbScale
 70
     0
300
1/32" = 1'-0"
140
0.03125
141
12.0
290
     0
  0
SCALE
  5
5C
102
{ACAD_REACTORS
330
47
102
}
330
47
100
AcDbScale
 70
     0
300
1/16" = 1'-0"
140
0.0625
141
12.0
290
     0
  0
SCALE
  5
5D
102
{ACAD_REACTORS
330
47
102
}
330
47
100
AcDbScale
 70
     0
300
3/32" = 1'-0"
140
0.09375
141
12.0
290
     0
  0
SCALE
  5
5E
102
{ACAD_REACTORS
330
47
102
}
330
47
100
AcDbScale
 70
     0
300
1/8" = 1'-0"
140
0.125
141
12.0
290
     0
  0
SCALE
  5
5F
102
{ACAD_REACTORS
330
47
102
}
330
47
100
AcDbScale
 70
     0
300
3/16" = 1'-0"
140
0.1875
141
12.0
290
     0
  0
SCALE
  5
60
102
{ACAD_REACTORS
330
47
102
}
330
47
100
AcDbScale
 70
     0
300
1/4" = 1'-0"
140
0.25
141
12.0
290
     0
  0
SCALE
  5
61
102
{ACAD_REACTORS
330
47
102
}
330
47
100
AcDbScale
 70
     0
300
3/8" = 1'-0"
140
0.375
141
12.0
290
     0
  0
SCALE
  5
62
102
{ACAD_REACTORS
330
47
102
}
330
47
100
AcDbScale
 70
     0
300
1/2" = 1'-0"
140
0.5
141
12.0
290
     0
  0
SCALE
  5
63
102
{ACAD_REACTORS
330
47
102
}
330
47
100
AcDbScale
 70
     0
300
3/4" = 1'-0"
140
0.75
141
12.0
290
     0
  0
SCALE
  5
64
102
{ACAD_REACTORS
330
47
102
}
330
47
100
AcDbScale
 70
     0
300
1" = 1'-0"
140
1.0
141
12.0
290
     0
  0
SCALE
  5
65
102
{ACAD_REACTORS
330
47
102
}
330
47
100
AcDbScale
 70
     0
300
1-1/2" = 1'-0"
140
1.5
141
12.0
290
     0
  0
SCALE
  5
66
102
{ACAD_REACTORS
330
47
102
}
330
47
100
AcDbScale
 70
     0
300
3" = 1'-0"
140
3.0
141
12.0
290
     0
  0
SCALE
  5
67
102
{ACAD_REACTORS
330
47
102
}
330
47
100
AcDbScale
 70
     0
300
6" = 1'-0"
140
6.0
141
12.0
290
     0
  0
SCALE
  5
68
102
{ACAD_REACTORS
330
47
102
}
330
47
100
AcDbScale
 70
     0
300
1'-0" = 1'-0"
140
12.0
141
12.0
290
     0
  0
ENDSEC
  0
EOF
