  0
SECTION
  2
HEADER
  9
$ACADVER
  1
AC1014
  9
$ACADMAINTVER
 70
     9
  9
$DWGCODEPAGE
  3
ANSI_1252
  9
$INSBASE
 10
0.0
 20
0.0
 30
0.0
  9
$EXTMIN
 10
-2.0000000001
 20
-216.8160192546
 30
0.0
  9
$EXTMAX
 10
459.5578030168
 20
124.0
 30
0.0
  9
$LIMMIN
 10
0.0
 20
0.0
  9
$LIMMAX
 10
420.0
 20
297.0
  9
$ORTHOMODE
 70
     0
  9
$REGENMODE
 70
     1
  9
$FILLMODE
 70
     1
  9
$QTEXTMODE
 70
     0
  9
$MIRRTEXT
 70
     1
  9
$DRAGMODE
 70
     2
  9
$LTSCALE
 40
1.0
  9
$OSMODE
 70
    37
  9
$ATTMODE
 70
     1
  9
$TEXTSIZE
 40
3.5
  9
$TRACEWID
 40
1.0
  9
$TEXTSTYLE
  7
STANDARD
  9
$CLAYER
  8
0
  9
$CELTYPE
  6
BYLAYER
  9
$CECOLOR
 62
   256
  9
$CELTSCALE
 40
1.0
  9
$DELOBJ
 70
     1
  9
$DISPSILH
 70
     0
  9
$DIMSCALE
 40
1.0
  9
$DIMASZ
 40
6.0
  9
$DIMEXO
 40
0.0
  9
$DIMDLI
 40
3.75
  9
$DIMRND
 40
0.0
  9
$DIMDLE
 40
0.0
  9
$DIMEXE
 40
1.0
  9
$DIMTP
 40
0.0
  9
$DIMTM
 40
0.0
  9
$DIMTXT
 40
3.5
  9
$DIMCEN
 40
2.5
  9
$DIMTSZ
 40
0.0
  9
$DIMTOL
 70
     0
  9
$DIMLIM
 70
     0
  9
$DIMTIH
 70
     1
  9
$DIMTOH
 70
     1
  9
$DIMSE1
 70
     0
  9
$DIMSE2
 70
     0
  9
$DIMTAD
 70
     1
  9
$DIMZIN
 70
     0
  9
$DIMBLK
  1

  9
$DIMASO
 70
     1
  9
$DIMSHO
 70
     1
  9
$DIMPOST
  1

  9
$DIMAPOST
  1

  9
$DIMALT
 70
     0
  9
$DIMALTD
 70
     3
  9
$DIMALTF
 40
0.0393700787
  9
$DIMLFAC
 40
1.0
  9
$DIMTOFL
 70
     1
  9
$DIMTVP
 40
0.0
  9
$DIMTIX
 70
     0
  9
$DIMSOXD
 70
     0
  9
$DIMSAH
 70
     0
  9
$DIMBLK1
  1

  9
$DIMBLK2
  1

  9
$DIMSTYLE
  2
ISO-25
  9
$DIMCLRD
 70
     0
  9
$DIMCLRE
 70
     0
  9
$DIMCLRT
 70
     0
  9
$DIMTFAC
 40
1.0
  9
$DIMGAP
 40
1.524
  9
$DIMJUST
 70
     0
  9
$DIMSD1
 70
     0
  9
$DIMSD2
 70
     0
  9
$DIMTOLJ
 70
     0
  9
$DIMTZIN
 70
     0
  9
$DIMALTZ
 70
     0
  9
$DIMALTTZ
 70
     0
  9
$DIMFIT
 70
     3
  9
$DIMUPT
 70
     0
  9
$DIMUNIT
 70
     2
  9
$DIMDEC
 70
     2
  9
$DIMTDEC
 70
     2
  9
$DIMALTU
 70
     2
  9
$DIMALTTD
 70
     3
  9
$DIMTXSTY
  7
STANDARD
  9
$DIMAUNIT
 70
     0
  9
$LUNITS
 70
     2
  9
$LUPREC
 70
     2
  9
$SKETCHINC
 40
1.0
  9
$FILLETRAD
 40
0.0
  9
$AUNITS
 70
     0
  9
$AUPREC
 70
     2
  9
$MENU
  1
.
  9
$ELEVATION
 40
0.0
  9
$PELEVATION
 40
0.0
  9
$THICKNESS
 40
0.0
  9
$LIMCHECK
 70
     0
  9
$CHAMFERA
 40
0.0
  9
$CHAMFERB
 40
0.0
  9
$CHAMFERC
 40
0.0
  9
$CHAMFERD
 40
0.0
  9
$SKPOLY
 70
     0
  9
$TDCREATE
 40
2460389.48919088
  9
$TDUPDATE
 40
2460389.489212709
  9
$TDINDWG
 40
0.0000000116
  9
$TDUSRTIMER
 40
0.0000000116
  9
$USRTIMER
 70
     1
  9
$ANGBASE
 50
0.0
  9
$ANGDIR
 70
     0
  9
$PDMODE
 70
     0
  9
$PDSIZE
 40
-1.0
  9
$PLINEWID
 40
0.0
  9
$COORDS
 70
     1
  9
$SPLFRAME
 70
     0
  9
$SPLINETYPE
 70
     6
  9
$SPLINESEGS
 70
     8
  9
$ATTDIA
 70
     0
  9
$ATTREQ
 70
     1
  9
$HANDLING
 70
     1
  9
$HANDSEED
  5
3E5
  9
$SURFTAB1
 70
     6
  9
$SURFTAB2
 70
     6
  9
$SURFTYPE
 70
     6
  9
$SURFU
 70
     6
  9
$SURFV
 70
     6
  9
$UCSNAME
  2

  9
$UCSORG
 10
0.0
 20
0.0
 30
0.0
  9
$UCSXDIR
 10
1.0
 20
0.0
 30
0.0
  9
$UCSYDIR
 10
0.0
 20
1.0
 30
0.0
  9
$PUCSNAME
  2

  9
$PUCSORG
 10
0.0
 20
0.0
 30
0.0
  9
$PUCSXDIR
 10
1.0
 20
0.0
 30
0.0
  9
$PUCSYDIR
 10
0.0
 20
1.0
 30
0.0
  9
$USERI1
 70
     0
  9
$USERI2
 70
     0
  9
$USERI3
 70
     0
  9
$USERI4
 70
     0
  9
$USERI5
 70
     0
  9
$USERR1
 40
0.0
  9
$USERR2
 40
0.0
  9
$USERR3
 40
0.0
  9
$USERR4
 40
0.0
  9
$USERR5
 40
0.0
  9
$WORLDVIEW
 70
     1
  9
$SHADEDGE
 70
     3
  9
$SHADEDIF
 70
    70
  9
$TILEMODE
 70
     1
  9
$MAXACTVP
 70
    64
  9
$PINSBASE
 10
0.0
 20
0.0
 30
0.0
  9
$PLIMCHECK
 70
     0
  9
$PEXTMIN
 10
-2.0
 20
0.0
 30
0.0
  9
$PEXTMAX
 10
459.5578030168
 20
494.9999
 30
0.0
  9
$PLIMMIN
 10
-52.7692205128
 20
-19.0384576923
  9
$PLIMMAX
 10
701.1537041026
 20
514.0383576923
  9
$UNITMODE
 70
     0
  9
$VISRETAIN
 70
     1
  9
$PLINEGEN
 70
     0
  9
$PSLTSCALE
 70
     1
  9
$TREEDEPTH
 70
  3020
  9
$PICKSTYLE
 70
     1
  9
$CMLSTYLE
  2
STANDARD
  9
$CMLJUST
 70
     0
  9
$CMLSCALE
 40
20.0
  9
$PROXYGRAPHICS
 70
     1
  9
$MEASUREMENT
 70
     1
  0
ENDSEC
  0
SECTION
  2
CLASSES
  0
CLASS
  1
ACDBDICTIONARYWDFLT
  2
AcDbDictionaryWithDefault
  3
ObjectDBX Classes
 90
        0
280
     0
281
     0
  0
CLASS
  1
VISUALSTYLE
  2
AcDbVisualStyle
  3
ObjectDBX Classes
 90
     4095
280
     0
281
     0
  0
CLASS
  1
MATERIAL
  2
AcDbMaterial
  3
ObjectDBX Classes
 90
     1153
280
     0
281
     0
  0
CLASS
  1
SCALE
  2
AcDbScale
  3
ObjectDBX Classes
 90
     1153
280
     0
281
     0
  0
CLASS
  1
TABLESTYLE
  2
AcDbTableStyle
  3
ObjectDBX Classes
 90
     4095
280
     0
281
     0
  0
CLASS
  1
MLEADERSTYLE
  2
AcDbMLeaderStyle
  3
ACDB_MLEADERSTYLE_CLASS
 90
     4095
280
     0
281
     0
  0
CLASS
  1
SUN
  2
AcDbSun
  3
SCENEOE
 90
     1153
280
     0
281
     0
  0
CLASS
  1
XRECORD
  2
AcDbXrecord
  3
ObjectDBX Classes
 90
        0
280
     0
281
     0
  0
CLASS
  1
LWPOLYLINE
  2
AcDbPolyline
  3
ObjectDBX Classes
 90
        0
280
     0
281
     1
  0
CLASS
  1
HATCH
  2
AcDbHatch
  3
ObjectDBX Classes
 90
        0
280
     0
281
     1
  0
ENDSEC
  0
SECTION
  2
TABLES
  0
TABLE
  2
VPORT
  5
8
330
0
100
AcDbSymbolTable
 70
     1
  0
VPORT
  5
29
330
8
100
AcDbSymbolTableRecord
100
AcDbViewportTableRecord
  2
*ACTIVE
 70
     0
 10
0.0
 20
0.0
 11
1.0
 21
1.0
 12
228.7789015083
 22
-46.4080096273
 13
0.0
 23
0.0
 14
10.0
 24
10.0
 15
10.0
 25
10.0
 16
0.0
 26
0.0
 36
1.0
 17
0.0
 27
0.0
 37
0.0
 40
347.6323396397
 41
1.3542726191
 42
50.0
 43
0.0
 44
0.0
 50
0.0
 51
0.0
 71
     0
 72
   100
 73
     1
 74
     3
 75
     0
 76
     0
 77
     0
 78
     0
  0
ENDTAB
  0
TABLE
  2
LTYPE
  5
5
330
0
100
AcDbSymbolTable
 70
     6
  0
LTYPE
  5
14
330
5
100
AcDbSymbolTableRecord
100
AcDbLinetypeTableRecord
  2
BYBLOCK
 70
     0
  3

 72
    65
 73
     0
 40
0.0
  0
LTYPE
  5
15
330
5
100
AcDbSymbolTableRecord
100
AcDbLinetypeTableRecord
  2
BYLAYER
 70
     0
  3

 72
    65
 73
     0
 40
0.0
  0
LTYPE
  5
16
330
5
100
AcDbSymbolTableRecord
100
AcDbLinetypeTableRecord
  2
CONTINUOUS
 70
     0
  3
Solid line
 72
    65
 73
     0
 40
0.0
  0
LTYPE
  5
5E
330
5
100
AcDbSymbolTableRecord
100
AcDbLinetypeTableRecord
  2
HIDDEN
 70
     0
  3
Hidden __ __ __ __ __ __ __ __ __ __ __ __ __ __
 72
    65
 73
     2
 40
1.905
 49
1.27
 74
     0
 49
-0.635
 74
     0
  0
LTYPE
  5
5F
330
5
100
AcDbSymbolTableRecord
100
AcDbLinetypeTableRecord
  2
PHANTOM
 70
     0
  3
Phantom ______  __  __  ______  __  __  ______
 72
    65
 73
     6
 40
12.7
 49
6.35
 74
     0
 49
-1.27
 74
     0
 49
1.27
 74
     0
 49
-1.27
 74
     0
 49
1.27
 74
     0
 49
-1.27
 74
     0
  0
LTYPE
  5
60
330
5
100
AcDbSymbolTableRecord
100
AcDbLinetypeTableRecord
  2
CENTER
 70
     0
  3
Center ____ _ ____ _ ____ _ ____ _ ____ _ ____
 72
    65
 73
     4
 40
10.16
 49
6.35
 74
     0
 49
-1.27
 74
     0
 49
1.27
 74
     0
 49
-1.27
 74
     0
  0
LTYPE
  5
61
330
5
100
AcDbSymbolTableRecord
100
AcDbLinetypeTableRecord
  2
CENTERX2
 70
     0
  3
Center (2x) ________  __  ________  __  _____
 72
    65
 73
     4
 40
20.32
 49
12.7
 74
     0
 49
-2.54
 74
     0
 49
2.54
 74
     0
 49
-2.54
 74
     0
  0
LTYPE
  5
62
330
5
100
AcDbSymbolTableRecord
100
AcDbLinetypeTableRecord
  2
DOT2
 70
     0
  3
Dot (.5x) ........................................
 72
    65
 73
     2
 40
0.635
 49
0.0
 74
     0
 49
-0.635
 74
     0
  0
ENDTAB
  0
TABLE
  2
LAYER
  5
2
330
0
100
AcDbSymbolTable
 70
     1
  0
LAYER
  5
10
330
2
100
AcDbSymbolTableRecord
100
AcDbLayerTableRecord
  2
0
 70
     0
 62
     7
  6
CONTINUOUS
  0
ENDTAB
  0
TABLE
  2
STYLE
  5
3
330
0
100
AcDbSymbolTable
 70
     1
  0
STYLE
  5
11
330
3
100
AcDbSymbolTableRecord
100
AcDbTextStyleTableRecord
  2
STANDARD
 70
     0
 40
0.0
 41
1.0
 50
0.0
 71
     0
 42
3.5
  3
txt
  4

  0
ENDTAB
  0
TABLE
  2
VIEW
  5
6
330
0
100
AcDbSymbolTable
 70
     0
  0
ENDTAB
  0
TABLE
  2
UCS
  5
7
330
0
100
AcDbSymbolTable
 70
     0
  0
ENDTAB
  0
TABLE
  2
APPID
  5
9
330
0
100
AcDbSymbolTable
 70
     1
  0
APPID
  5
12
330
9
100
AcDbSymbolTableRecord
100
AcDbRegAppTableRecord
  2
ACAD
 70
     0
  0
ENDTAB
  0
TABLE
  2
DIMSTYLE
  5
A
330
0
100
AcDbSymbolTable
 70
     1
  0
DIMSTYLE
105
27
330
A
100
AcDbSymbolTableRecord
100
AcDbDimStyleTableRecord
  2
ISO-25
 70
     0
  3

  4

  5

  6

  7

 40
1.0
 41
2.5
 42
0.625
 43
3.75
 44
1.25
 45
0.0
 46
0.0
 47
0.0
 48
0.0
140
2.5
141
2.5
142
0.0
143
0.0393700787
144
1.0
145
0.0
146
1.0
147
0.625
 71
     0
 72
     0
 73
     0
 74
     0
 75
     0
 76
     0
 77
     1
 78
     8
170
     0
171
     3
172
     1
173
     0
174
     0
175
     0
176
     0
177
     0
178
     0
270
     2
271
     2
272
     2
273
     2
274
     3
340
11
275
     0
280
     0
281
     0
282
     0
283
     0
284
     8
285
     0
286
     0
287
     3
288
     0
  0
ENDTAB
  0
TABLE
  2
BLOCK_RECORD
  5
1
330
0
100
AcDbSymbolTable
 70
     8
  0
BLOCK_RECORD
  5
1F
330
1
100
AcDbSymbolTableRecord
100
AcDbBlockTableRecord
  2
*MODEL_SPACE
  0
BLOCK_RECORD
  5
1B
330
1
100
AcDbSymbolTableRecord
100
AcDbBlockTableRecord
  2
*PAPER_SPACE
  0
BLOCK_RECORD
  5
23
330
1
100
AcDbSymbolTableRecord
100
AcDbBlockTableRecord
  2
*PAPER_SPACE0
  0
BLOCK_RECORD
  5
133
330
1
100
AcDbSymbolTableRecord
100
AcDbBlockTableRecord
  2
*PAPER_SPACE1
  0
BLOCK_RECORD
  5
191
330
1
100
AcDbSymbolTableRecord
100
AcDbBlockTableRecord
  2
*PAPER_SPACE2
  0
BLOCK_RECORD
  5
1E5
330
1
100
AcDbSymbolTableRecord
100
AcDbBlockTableRecord
  2
*PAPER_SPACE3
  0
BLOCK_RECORD
  5
220
330
1
100
AcDbSymbolTableRecord
100
AcDbBlockTableRecord
  2
*PAPER_SPACE4
  0
BLOCK_RECORD
  5
260
330
1
100
AcDbSymbolTableRecord
100
AcDbBlockTableRecord
  2
*PAPER_SPACE5
  0
BLOCK_RECORD
  5
2DA
330
1
100
AcDbSymbolTableRecord
100
AcDbBlockTableRecord
  2
*PAPER_SPACE6
  0
BLOCK_RECORD
  5
353
330
1
100
AcDbSymbolTableRecord
100
AcDbBlockTableRecord
  2
*PAPER_SPACE7
  0
ENDTAB
  0
ENDSEC
  0
SECTION
  2
BLOCKS
  0
BLOCK
  5
20
330
1F
100
AcDbEntity
  8
0
100
AcDbBlockBegin
  2
*MODEL_SPACE
 70
     0
 10
0.0
 20
0.0
 30
0.0
  3
*MODEL_SPACE
  1

  0
ENDBLK
  5
21
330
1F
100
AcDbEntity
  8
0
100
AcDbBlockEnd
  0
BLOCK
  5
1C
330
1B
100
AcDbEntity
 67
     1
  8
0
100
AcDbBlockBegin
  2
*PAPER_SPACE
 70
     0
 10
0.0
 20
0.0
 30
0.0
  3
*PAPER_SPACE
  1

  0
ENDBLK
  5
1D
330
1B
100
AcDbEntity
 67
     1
  8
0
100
AcDbBlockEnd
  0
BLOCK
  5
24
330
23
100
AcDbEntity
  8
0
100
AcDbBlockBegin
  2
*PAPER_SPACE0
 70
     0
 10
0.0
 20
0.0
 30
0.0
  3
*PAPER_SPACE0
  1

  0
SPLINE
  5
107
330
23
100
AcDbEntity
  8
0
  6
CONTINUOUS
 62
     7
100
AcDbSpline
210
0.0
220
0.0
230
1.0
 70
     8
 71
     3
 72
    10
 73
     6
 74
     0
 42
0.00000001
 43
0.00000001
 40
0.0
 40
0.0
 40
0.0
 40
0.0
 40
0.5
 40
0.5
 40
1.0
 40
1.0
 40
1.0
 40
1.0
 10
100.7948514313328
 20
400.5042632677492
 30
0.0
 10
100.795789218925
 20
400.3695548268308
 30
0.0
 10
100.7385530643899
 20
400.2379570380946
 30
0.0
 10
100.547608375226
 20
400.0530438475692
 30
0.0
 10
100.4141915839032
 20
399.9998999999999
 30
0.0
 10
100.2809998788234
 20
399.9999
 30
0.0
  0
SPLINE
  5
109
330
23
100
AcDbEntity
  8
0
  6
CONTINUOUS
 62
     7
100
AcDbSpline
210
0.0
220
0.0
230
1.0
 70
     8
 71
     3
 72
    12
 73
     8
 74
     0
 42
0.00000001
 43
0.00000001
 40
0.0
 40
0.0
 40
0.0
 40
0.0
 40
0.2500000000000183
 40
0.2500000000000183
 40
0.5000000000000365
 40
0.5000000000000365
 40
1.0
 40
1.0
 40
1.0
 40
1.0
 10
100.4243363947891
 20
484.9999
 30
0.0
 10
100.3961202480694
 20
484.9999
 30
0.0
 10
100.3685135024163
 20
484.9749406070985
 30
0.0
 10
100.3166568206813
 20
484.8773995133746
 30
0.0
 10
100.2929373956087
 20
484.8052693794781
 30
0.0
 10
100.2335434524396
 20
484.5326726518717
 30
0.0
 10
100.2105877305838
 20
484.274420704521
 30
0.0
 10
100.2124449845302
 20
484.0086265354984
 30
0.0
  0
LINE
  5
11B
330
23
100
AcDbEntity
  8
0
  6
CONTINUOUS
 62
     7
100
AcDbLine
 10
104.0786179654
 20
484.9999
 30
0.0
 11
104.0
 21
494.0086265355
 31
0.0
  0
LINE
  5
11C
330
23
100
AcDbEntity
  8
0
  6
CONTINUOUS
 62
     7
100
AcDbLine
 10
-216.0
 20
494.0086265355
 30
0.0
 11
-216.8160002161
 21
400.5042632677
 31
0.0
  0
LINE
  5
11D
330
23
100
AcDbEntity
  8
0
  6
CONTINUOUS
 62
     7
100
AcDbLine
 10
-116.0
 20
384.9999
 30
0.0
 11
-116.0
 21
379.2005090272
 31
0.0
  0
LINE
  5
11E
330
23
100
AcDbEntity
  8
0
  6
CONTINUOUS
 62
     7
100
AcDbLine
 10
4.0
 20
379.2005090272
 30
0.0
 11
4.0
 21
384.9999
 31
0.0
  0
LINE
  5
11F
330
23
100
AcDbEntity
  8
0
  6
CONTINUOUS
 62
     7
100
AcDbLine
 10
0.0
 20
0.0
 30
0.0
 11
124.0
 21
0.0
 31
0.0
  0
LINE
  5
120
330
23
100
AcDbEntity
  8
0
  6
CONTINUOUS
 62
     7
100
AcDbLine
 10
124.0
 20
484.9999
 30
0.0
 11
124.0
 21
0.0
 31
0.0
  0
LINE
  5
121
330
23
100
AcDbEntity
  8
0
  6
CONTINUOUS
 62
     7
100
AcDbLine
 10
0.0
 20
378.2005090272
 30
0.0
 11
0.0
 21
0.0
 31
0.0
  0
LINE
  5
122
330
23
100
AcDbEntity
  8
0
  6
CONTINUOUS
 62
     7
100
AcDbLine
 10
124.0
 20
399.9999
 30
0.0
 11
-216.3160192546
 21
399.9999
 31
0.0
  0
LINE
  5
123
330
23
100
AcDbEntity
  8
0
  6
CONTINUOUS
 62
     7
100
AcDbLine
 10
100.2124449845
 20
484.0086265355
 30
0.0
 11
100.7948514313
 21
400.5042632677
 31
0.0
  0
LINE
  5
124
330
23
100
AcDbEntity
  8
0
  6
CONTINUOUS
 62
     7
100
AcDbLine
 10
103.0000380769
 20
494.9999
 30
0.0
 11
-215.0000380769
 21
494.9999
 31
0.0
  0
LINE
  5
125
330
23
100
AcDbEntity
  8
0
  6
CONTINUOUS
 62
     7
100
AcDbLine
 10
3.0
 20
378.2005090272
 30
0.0
 11
-115.0
 21
378.2005090272
 31
0.0
  0
LINE
  5
126
330
23
100
AcDbEntity
  8
0
  6
CONTINUOUS
 62
     7
100
AcDbLine
 10
100.2124449845
 20
484.0086265355
 30
0.0
 11
124.0
 21
484.0086265355
 31
0.0
  0
LINE
  5
127
330
23
100
AcDbEntity
  8
0
  6
CONTINUOUS
 62
     7
100
AcDbLine
 10
124.0
 20
484.9999
 30
0.0
 11
100.4243363948
 21
484.9999
 31
0.0
  0
LINE
  5
128
330
23
100
AcDbEntity
  8
0
  6
CONTINUOUS
 62
     7
100
AcDbLine
 10
100.7948514313
 20
400.5042632677
 30
0.0
 11
-216.8160002161
 21
400.5042632677
 31
0.0
  0
LINE
  5
129
330
23
100
AcDbEntity
  8
0
  6
CONTINUOUS
 62
     7
100
AcDbLine
 10
104.0
 20
494.0086265355
 30
0.0
 11
-216.0
 21
494.0086265355
 31
0.0
  0
LINE
  5
12A
330
23
100
AcDbEntity
  8
0
  6
CONTINUOUS
 62
     7
100
AcDbLine
 10
4.0
 20
384.9999
 30
0.0
 11
-116.0
 21
384.9999
 31
0.0
  0
LINE
  5
12B
330
23
100
AcDbEntity
  8
0
  6
CONTINUOUS
 62
     7
100
AcDbLine
 10
4.0
 20
379.2005090272
 30
0.0
 11
-116.0
 21
379.2005090272
 31
0.0
  0
ARC
  5
12C
330
23
100
AcDbEntity
  8
0
  6
CONTINUOUS
 62
     7
100
AcDbCircle
 10
-216.3160192546
 20
400.4999
 30
0.0
 40
0.5000000000000568
100
AcDbArc
 50
179.5
 51
270.0
  0
ARC
  5
12D
330
23
100
AcDbEntity
  8
0
  6
CONTINUOUS
 62
     7
100
AcDbCircle
 10
-215.0000380769
 20
493.9999
 30
0.0
 40
1.000000000000006
100
AcDbArc
 50
90.0
 51
179.5
  0
ARC
  5
12E
330
23
100
AcDbEntity
  8
0
  6
CONTINUOUS
 62
     7
100
AcDbCircle
 10
103.0000380769
 20
493.9999
 30
0.0
 40
1.000000000000006
100
AcDbArc
 50
0.5
 51
90.0
  0
ARC
  5
12F
330
23
100
AcDbEntity
  8
0
  6
CONTINUOUS
 62
     7
100
AcDbCircle
 10
-131.0
 20
384.9999
 30
0.0
 40
15.0
100
AcDbArc
 50
0.0
 51
90.0
  0
ARC
  5
130
330
23
100
AcDbEntity
  8
0
  6
CONTINUOUS
 62
     7
100
AcDbCircle
 10
19.0
 20
384.9999
 30
0.0
 40
15.00000000000006
100
AcDbArc
 50
90.0
 51
180.0
  0
ARC
  5
131
330
23
100
AcDbEntity
  8
0
  6
CONTINUOUS
 62
     7
100
AcDbCircle
 10
-115.0
 20
379.2005090272
 30
0.0
 40
1.000000000000028
100
AcDbArc
 50
180.0
 51
270.0
  0
ARC
  5
132
330
23
100
AcDbEntity
  8
0
  6
CONTINUOUS
 62
     7
100
AcDbCircle
 10
3.0
 20
379.2005090272
 30
0.0
 40
1.000000000000057
100
AcDbArc
 50
270.0
 51
0.0
  0
VIEWPORT
  5
3D4
330
23
100
AcDbEntity
  8
0
100
AcDbViewport
 10
0.0
 20
0.0
 30
0.0
 40
205.6
 41
156.0
 68
     1
 69
     1
1001
ACAD
1000
MVIEW
1002
{
1070
    16
1010
0.0
1020
0.0
1030
0.0
1010
0.0
1020
0.0
1030
1.0
1040
0.0
1040
357.2134125294
1040
228.7789015083
1040
-46.4080096273
1040
50.0
1040
0.0
1040
0.0
1070
     0
1070
   100
1070
     0
1070
     3
1070
     0
1070
     0
1070
     0
1070
     0
1040
0.0
1040
0.0
1040
0.0
1040
10.0
1040
10.0
1040
10.0
1040
10.0
1070
     0
1002
{
1002
}
1002
}
  0
ENDBLK
  5
25
330
23
100
AcDbEntity
  8
0
100
AcDbBlockEnd
  0
BLOCK
  5
135
330
133
100
AcDbEntity
  8
0
100
AcDbBlockBegin
  2
*PAPER_SPACE1
 70
     0
 10
0.0
 20
0.0
 30
0.0
  3
*PAPER_SPACE1
  1

  0
LINE
  5
166
330
133
100
AcDbEntity
  8
0
  6
CONTINUOUS
 62
     7
100
AcDbLine
 10
459.5577839783
 20
400.5042632677
 30
0.0
 11
458.7417837622
 21
494.0086265355
 31
0.0
  0
LINE
  5
167
330
133
100
AcDbEntity
  8
0
  6
CONTINUOUS
 62
     7
100
AcDbLine
 10
138.7417837622
 20
494.0086265355
 30
0.0
 11
137.9257835461
 21
400.5042632677
 31
0.0
  0
LINE
  5
168
330
133
100
AcDbEntity
  8
0
  6
CONTINUOUS
 62
     7
100
AcDbLine
 10
238.7417837622
 20
384.9999
 30
0.0
 11
238.7417837622
 21
379.2005090272
 31
0.0
  0
LINE
  5
169
330
133
100
AcDbEntity
  8
0
  6
CONTINUOUS
 62
     7
100
AcDbLine
 10
358.7417837622
 20
379.2005090272
 30
0.0
 11
358.7417837622
 21
384.9999
 31
0.0
  0
LINE
  5
16A
330
133
100
AcDbEntity
  8
0
  6
CONTINUOUS
 62
     7
100
AcDbLine
 10
190.0
 20
0.0
 30
0.0
 11
182.0
 21
8.0
 31
0.0
  0
LINE
  5
16B
330
133
100
AcDbEntity
  8
0
  6
CONTINUOUS
 62
     7
100
AcDbLine
 10
0.0
 20
0.0
 30
0.0
 11
190.0
 21
0.0
 31
0.0
  0
LINE
  5
16C
330
133
100
AcDbEntity
  8
0
  6
CONTINUOUS
 62
     7
100
AcDbLine
 10
8.0
 20
8.0
 30
0.0
 11
182.0
 21
8.0
 31
0.0
  0
LINE
  5
16D
330
133
100
AcDbEntity
  8
0
  6
CONTINUOUS
 62
     7
100
AcDbLine
 10
0.0
 20
0.0
 30
0.0
 11
8.0
 21
8.0
 31
0.0
  0
LINE
  5
16E
330
133
100
AcDbEntity
  8
0
  6
CONTINUOUS
 62
     7
100
AcDbLine
 10
8.0
 20
392.0
 30
0.0
 11
8.0
 21
8.0
 31
0.0
  0
LINE
  5
16F
330
133
100
AcDbEntity
  8
0
  6
CONTINUOUS
 62
     7
100
AcDbLine
 10
0.0
 20
399.9999
 30
0.0
 11
0.0
 21
0.0
 31
0.0
  0
LINE
  5
170
330
133
100
AcDbEntity
  8
0
  6
CONTINUOUS
 62
     7
100
AcDbLine
 10
8.0
 20
392.0
 30
0.0
 11
0.0001
 21
399.9999
 31
0.0
  0
LINE
  5
171
330
133
100
AcDbEntity
  8
0
  6
CONTINUOUS
 62
     7
100
AcDbLine
 10
189.9999
 20
399.9999
 30
0.0
 11
182.0
 21
392.0
 31
0.0
  0
LINE
  5
172
330
133
100
AcDbEntity
  8
0
  6
CONTINUOUS
 62
     7
100
AcDbLine
 10
190.0
 20
399.9999
 30
0.0
 11
190.0
 21
0.0
 31
0.0
  0
LINE
  5
173
330
133
100
AcDbEntity
  8
0
  6
CONTINUOUS
 62
     7
100
AcDbLine
 10
182.0
 20
392.0
 30
0.0
 11
182.0
 21
8.0
 31
0.0
  0
LINE
  5
174
330
133
100
AcDbEntity
  8
0
  6
CONTINUOUS
 62
     7
100
AcDbLine
 10
8.001
 20
391.9999
 30
0.0
 11
181.999
 21
391.9999
 31
0.0
  0
LINE
  5
175
330
133
100
AcDbEntity
  8
0
  6
CONTINUOUS
 62
     7
100
AcDbLine
 10
181.999
 20
391.9999
 30
0.0
 11
189.999
 21
399.9999
 31
0.0
  0
LINE
  5
176
330
133
100
AcDbEntity
  8
0
  6
CONTINUOUS
 62
     7
100
AcDbLine
 10
0.001
 20
399.9999
 30
0.0
 11
8.001
 21
391.9999
 31
0.0
  0
LINE
  5
177
330
133
100
AcDbEntity
  8
0
  6
CONTINUOUS
 62
     7
100
AcDbLine
 10
5.0001
 20
394.9999
 30
0.0
 11
5.001
 21
394.9999
 31
0.0
  0
LINE
  5
178
330
133
100
AcDbEntity
  8
0
  6
CONTINUOUS
 62
     7
100
AcDbLine
 10
184.999
 20
394.9999
 30
0.0
 11
184.9999
 21
394.9999
 31
0.0
  0
LINE
  5
179
330
133
100
AcDbEntity
  8
0
  6
CONTINUOUS
 62
     7
100
AcDbLine
 10
182.0
 20
204.0
 30
0.0
 11
8.0
 21
204.0
 31
0.0
  0
LINE
  5
17A
330
133
100
AcDbEntity
  8
0
  6
CONTINUOUS
 62
     7
100
AcDbLine
 10
182.0
 20
196.0
 30
0.0
 11
8.0
 21
196.0
 31
0.0
  0
LINE
  5
17B
330
133
100
AcDbEntity
  8
0
  6
CONTINUOUS
 62
     7
100
AcDbLine
 10
459.0578030168
 20
399.9999
 30
0.0
 11
-2.0
 21
399.9999
 31
0.0
  0
LINE
  5
17C
330
133
100
AcDbEntity
  8
0
  6
CONTINUOUS
 62
     7
100
AcDbLine
 10
457.7418218392
 20
494.9999
 30
0.0
 11
139.7417456853
 21
494.9999
 31
0.0
  0
LINE
  5
17D
330
133
100
AcDbEntity
  8
0
  6
CONTINUOUS
 62
     7
100
AcDbLine
 10
357.7417837622
 20
378.2005090272
 30
0.0
 11
239.7417837698
 21
378.2005090272
 31
0.0
  0
LINE
  5
17E
330
133
100
AcDbEntity
  8
0
  6
CONTINUOUS
 62
     7
100
AcDbLine
 10
-1.0000380769
 20
399.9999
 30
0.0
 11
-0.2669050272
 21
484.0086265355
 31
0.0
  0
LINE
  5
17F
330
133
100
AcDbEntity
  8
0
  6
CONTINUOUS
 62
     7
100
AcDbLine
 10
-1.2668669503
 20
484.0086265355
 30
0.0
 11
-2.0
 21
399.9999
 31
0.0
  0
LINE
  5
180
330
133
100
AcDbEntity
  8
0
  6
CONTINUOUS
 62
     7
100
AcDbLine
 10
-0.2669050272
 20
484.9999
 30
0.0
 11
-0.2669050272
 21
484.0086265355
 31
0.0
  0
LINE
  5
181
330
133
100
AcDbEntity
  8
0
  6
CONTINUOUS
 62
     7
100
AcDbLine
 10
138.6631657968
 20
484.9999
 30
0.0
 11
-0.2669050272
 21
484.9999
 31
0.0
  0
LINE
  5
182
330
133
100
AcDbEntity
  8
0
  6
CONTINUOUS
 62
     7
100
AcDbLine
 10
459.5577839783
 20
400.5042632677
 30
0.0
 11
137.9257835461
 21
400.5042632677
 31
0.0
  0
LINE
  5
183
330
133
100
AcDbEntity
  8
0
  6
CONTINUOUS
 62
     7
100
AcDbLine
 10
458.7417837622
 20
494.0086265355
 30
0.0
 11
138.7417837622
 21
494.0086265355
 31
0.0
  0
LINE
  5
184
330
133
100
AcDbEntity
  8
0
  6
CONTINUOUS
 62
     7
100
AcDbLine
 10
358.7417837622
 20
384.9999
 30
0.0
 11
238.7417837622
 21
384.9999
 31
0.0
  0
LINE
  5
185
330
133
100
AcDbEntity
  8
0
  6
CONTINUOUS
 62
     7
100
AcDbLine
 10
358.7417837622
 20
379.2005090272
 30
0.0
 11
238.7417837622
 21
379.2005090272
 31
0.0
  0
LINE
  5
186
330
133
100
AcDbEntity
  8
0
  6
CONTINUOUS
 62
     7
100
AcDbLine
 10
-0.2669050272
 20
484.0086265355
 30
0.0
 11
138.6545150843
 21
484.0086265355
 31
0.0
  0
ARC
  5
187
330
133
100
AcDbEntity
  8
0
  6
CONTINUOUS
 62
     7
100
AcDbCircle
 10
138.4257645077
 20
400.4999
 30
0.0
 40
0.5000000000000595
100
AcDbArc
 50
179.5
 51
270.0
  0
ARC
  5
188
330
133
100
AcDbEntity
  8
0
  6
CONTINUOUS
 62
     7
100
AcDbCircle
 10
459.0578030168
 20
400.4999
 30
0.0
 40
0.5000000000000879
100
AcDbArc
 50
270.0
 51
0.5
  0
ARC
  5
189
330
133
100
AcDbEntity
  8
0
  6
CONTINUOUS
 62
     7
100
AcDbCircle
 10
139.7417456853
 20
493.9999
 30
0.0
 40
1.000000000000006
100
AcDbArc
 50
90.0
 51
179.5
  0
ARC
  5
18A
330
133
100
AcDbEntity
  8
0
  6
CONTINUOUS
 62
     7
100
AcDbCircle
 10
457.7418218392
 20
493.9999
 30
0.0
 40
1.000000000000006
100
AcDbArc
 50
0.5
 51
90.0
  0
ARC
  5
18B
330
133
100
AcDbEntity
  8
0
  6
CONTINUOUS
 62
     7
100
AcDbCircle
 10
223.7417837622
 20
384.9999
 30
0.0
 40
15.0
100
AcDbArc
 50
0.0
 51
90.0
  0
ARC
  5
18C
330
133
100
AcDbEntity
  8
0
  6
CONTINUOUS
 62
     7
100
AcDbCircle
 10
373.7417837622
 20
384.9999
 30
0.0
 40
15.0
100
AcDbArc
 50
90.0
 51
180.0
  0
ARC
  5
18D
330
133
100
AcDbEntity
  8
0
  6
CONTINUOUS
 62
     7
100
AcDbCircle
 10
239.7417837622
 20
379.2005090272
 30
0.0
 40
1.000000000000057
100
AcDbArc
 50
180.0
 51
270.0
  0
ARC
  5
18E
330
133
100
AcDbEntity
  8
0
  6
CONTINUOUS
 62
     7
100
AcDbCircle
 10
357.7417837622
 20
379.2005090272
 30
0.0
 40
1.0
100
AcDbArc
 50
270.0
 51
0.0
  0
ARC
  5
18F
330
133
100
AcDbEntity
  8
0
  6
CONTINUOUS
 62
     7
100
AcDbCircle
 10
-0.7668859887
 20
455.3589385281
 30
0.0
 40
28.65405039222816
100
AcDbArc
 50
89.0002023313
 51
90.9997976687
  0
ARC
  5
190
330
133
100
AcDbEntity
  8
0
  6
CONTINUOUS
 62
     7
100
AcDbCircle
 10
-0.2669050272
 20
483.9999
 30
0.0
 40
1.0
100
AcDbArc
 50
90.0
 51
179.5
  0
VIEWPORT
  5
3D6
330
133
100
AcDbEntity
  8
0
100
AcDbViewport
 10
0.0
 20
0.0
 30
0.0
 40
205.6
 41
156.0
 68
     1
 69
     1
1001
ACAD
1000
MVIEW
1002
{
1070
    16
1010
0.0
1020
0.0
1030
0.0
1010
0.0
1020
0.0
1030
1.0
1040
0.0
1040
357.2134125294
1040
228.7789015083
1040
-46.4080096273
1040
50.0
1040
0.0
1040
0.0
1070
     0
1070
   100
1070
     0
1070
     3
1070
     0
1070
     0
1070
     0
1070
     0
1040
0.0
1040
0.0
1040
0.0
1040
10.0
1040
10.0
1040
10.0
1040
10.0
1070
     0
1002
{
1002
}
1002
}
  0
ENDBLK
  5
136
330
133
100
AcDbEntity
  8
0
100
AcDbBlockEnd
  0
BLOCK
  5
193
330
191
100
AcDbEntity
  8
0
100
AcDbBlockBegin
  2
*PAPER_SPACE2
 70
     0
 10
0.0
 20
0.0
 30
0.0
  3
*PAPER_SPACE2
  1

  0
LINE
  5
1BF
330
191
100
AcDbEntity
  8
0
  6
CONTINUOUS
 62
     7
100
AcDbLine
 10
-138.6631657968
 20
484.9999
 30
0.0
 11
-138.7417837622
 21
494.0086265355
 31
0.0
  0
LINE
  5
1C0
330
191
100
AcDbEntity
  8
0
  6
CONTINUOUS
 62
     7
100
AcDbLine
 10
-458.7417837622
 20
494.0086265355
 30
0.0
 11
-459.5577839783
 21
400.5042632677
 31
0.0
  0
LINE
  5
1C1
330
191
100
AcDbEntity
  8
0
  6
CONTINUOUS
 62
     7
100
AcDbLine
 10
-358.7417837622
 20
384.9999
 30
0.0
 11
-358.7417837622
 21
379.2005090272
 31
0.0
  0
LINE
  5
1C2
330
191
100
AcDbEntity
  8
0
  6
CONTINUOUS
 62
     7
100
AcDbLine
 10
-238.7417837622
 20
379.2005090272
 30
0.0
 11
-238.7417837622
 21
384.9999
 31
0.0
  0
LINE
  5
1C3
330
191
100
AcDbEntity
  8
0
  6
CONTINUOUS
 62
     7
100
AcDbLine
 10
-182.0
 20
8.0
 30
0.0
 11
-190.0
 21
0.0
 31
0.0
  0
LINE
  5
1C4
330
191
100
AcDbEntity
  8
0
  6
CONTINUOUS
 62
     7
100
AcDbLine
 10
-182.0
 20
8.0
 30
0.0
 11
-8.0
 21
8.0
 31
0.0
  0
LINE
  5
1C5
330
191
100
AcDbEntity
  8
0
  6
CONTINUOUS
 62
     7
100
AcDbLine
 10
-8.0
 20
8.0
 30
0.0
 11
0.0
 21
0.0
 31
0.0
  0
LINE
  5
1C6
330
191
100
AcDbEntity
  8
0
  6
CONTINUOUS
 62
     7
100
AcDbLine
 10
-190.0
 20
0.0
 30
0.0
 11
0.0
 21
0.0
 31
0.0
  0
LINE
  5
1C7
330
191
100
AcDbEntity
  8
0
  6
CONTINUOUS
 62
     7
100
AcDbLine
 10
0.0
 20
400.0
 30
0.0
 11
-8.0
 21
392.0
 31
0.0
  0
LINE
  5
1C8
330
191
100
AcDbEntity
  8
0
  6
CONTINUOUS
 62
     7
100
AcDbLine
 10
-8.0
 20
392.0
 30
0.0
 11
-8.0
 21
8.0
 31
0.0
  0
LINE
  5
1C9
330
191
100
AcDbEntity
  8
0
  6
CONTINUOUS
 62
     7
100
AcDbLine
 10
0.0
 20
400.0
 30
0.0
 11
0.0
 21
0.0
 31
0.0
  0
LINE
  5
1CA
330
191
100
AcDbEntity
  8
0
  6
CONTINUOUS
 62
     7
100
AcDbLine
 10
-182.0
 20
392.0
 30
0.0
 11
-182.0
 21
8.0
 31
0.0
  0
LINE
  5
1CB
330
191
100
AcDbEntity
  8
0
  6
CONTINUOUS
 62
     7
100
AcDbLine
 10
-190.0
 20
400.0
 30
0.0
 11
-190.0
 21
0.0
 31
0.0
  0
LINE
  5
1CC
330
191
100
AcDbEntity
  8
0
  6
CONTINUOUS
 62
     7
100
AcDbLine
 10
-182.0
 20
392.0
 30
0.0
 11
-190.0
 21
400.0
 31
0.0
  0
LINE
  5
1CD
330
191
100
AcDbEntity
  8
0
  6
CONTINUOUS
 62
     7
100
AcDbLine
 10
-181.999
 20
391.9999
 30
0.0
 11
-8.001
 21
391.9999
 31
0.0
  0
LINE
  5
1CE
330
191
100
AcDbEntity
  8
0
  6
CONTINUOUS
 62
     7
100
AcDbLine
 10
-459.0578030168
 20
399.9999
 30
0.0
 11
2.0
 21
399.9999
 31
0.0
  0
LINE
  5
1CF
330
191
100
AcDbEntity
  8
0
  6
CONTINUOUS
 62
     7
100
AcDbLine
 10
-8.001
 20
391.9999
 30
0.0
 11
-0.001
 21
399.9999
 31
0.0
  0
LINE
  5
1D0
330
191
100
AcDbEntity
  8
0
  6
CONTINUOUS
 62
     7
100
AcDbLine
 10
-189.999
 20
399.9999
 30
0.0
 11
-181.999
 21
391.9999
 31
0.0
  0
LINE
  5
1D1
330
191
100
AcDbEntity
  8
0
  6
CONTINUOUS
 62
     7
100
AcDbLine
 10
-184.9999
 20
394.9999
 30
0.0
 11
-184.999
 21
394.9999
 31
0.0
  0
LINE
  5
1D2
330
191
100
AcDbEntity
  8
0
  6
CONTINUOUS
 62
     7
100
AcDbLine
 10
-5.001
 20
394.9999
 30
0.0
 11
-5.0001
 21
394.9999
 31
0.0
  0
LINE
  5
1D3
330
191
100
AcDbEntity
  8
0
  6
CONTINUOUS
 62
     7
100
AcDbLine
 10
1.2668669503
 20
484.0086265355
 30
0.0
 11
2.0
 21
399.9999
 31
0.0
  0
LINE
  5
1D4
330
191
100
AcDbEntity
  8
0
  6
CONTINUOUS
 62
     7
100
AcDbLine
 10
-332.7504725516
 20
484.9999
 30
0.0
 11
0.2669050272
 21
484.9999
 31
0.0
  0
LINE
  5
1D5
330
191
100
AcDbEntity
  8
0
  6
CONTINUOUS
 62
     7
100
AcDbLine
 10
-333.7504344747
 20
484.0086265355
 30
0.0
 11
-334.4835675244
 21
399.9999
 31
0.0
  0
LINE
  5
1D6
330
191
100
AcDbEntity
  8
0
  6
CONTINUOUS
 62
     7
100
AcDbLine
 10
-139.7417456853
 20
494.9999
 30
0.0
 11
-457.7418218392
 21
494.9999
 31
0.0
  0
LINE
  5
1D7
330
191
100
AcDbEntity
  8
0
  6
CONTINUOUS
 62
     7
100
AcDbLine
 10
-239.7417837698
 20
378.2005090272
 30
0.0
 11
-357.7417837622
 21
378.2005090272
 31
0.0
  0
LINE
  5
1D8
330
191
100
AcDbEntity
  8
0
  6
CONTINUOUS
 62
     7
100
AcDbLine
 10
-138.7417837622
 20
494.0086265355
 30
0.0
 11
-458.7417837622
 21
494.0086265355
 31
0.0
  0
LINE
  5
1D9
330
191
100
AcDbEntity
  8
0
  6
CONTINUOUS
 62
     7
100
AcDbLine
 10
-334.4791660129
 20
400.5042632677
 30
0.0
 11
-459.5577839783
 21
400.5042632677
 31
0.0
  0
LINE
  5
1DA
330
191
100
AcDbEntity
  8
0
  6
CONTINUOUS
 62
     7
100
AcDbLine
 10
-238.7417837622
 20
384.9999
 30
0.0
 11
-358.7417837622
 21
384.9999
 31
0.0
  0
LINE
  5
1DB
330
191
100
AcDbEntity
  8
0
  6
CONTINUOUS
 62
     7
100
AcDbLine
 10
-238.7417837622
 20
379.2005090272
 30
0.0
 11
-358.7417837622
 21
379.2005090272
 31
0.0
  0
ARC
  5
1DC
330
191
100
AcDbEntity
  8
0
  6
CONTINUOUS
 62
     7
100
AcDbCircle
 10
-457.7418218392
 20
493.9999
 30
0.0
 40
1.000000000000063
100
AcDbArc
 50
90.0
 51
179.5
  0
ARC
  5
1DD
330
191
100
AcDbEntity
  8
0
  6
CONTINUOUS
 62
     7
100
AcDbCircle
 10
-139.7417456853
 20
493.9999
 30
0.0
 40
1.000000000000006
100
AcDbArc
 50
0.5
 51
90.0
  0
ARC
  5
1DE
330
191
100
AcDbEntity
  8
0
  6
CONTINUOUS
 62
     7
100
AcDbCircle
 10
-459.0578030168
 20
400.4999
 30
0.0
 40
0.5000000000000879
100
AcDbArc
 50
179.5
 51
270.0
  0
ARC
  5
1DF
330
191
100
AcDbEntity
  8
0
  6
CONTINUOUS
 62
     7
100
AcDbCircle
 10
-373.7417837622
 20
384.9999
 30
0.0
 40
15.0
100
AcDbArc
 50
0.0
 51
90.0
  0
ARC
  5
1E0
330
191
100
AcDbEntity
  8
0
  6
CONTINUOUS
 62
     7
100
AcDbCircle
 10
-223.7417837622
 20
384.9999
 30
0.0
 40
15.00000000000003
100
AcDbArc
 50
90.0
 51
180.0
  0
ARC
  5
1E1
330
191
100
AcDbEntity
  8
0
  6
CONTINUOUS
 62
     7
100
AcDbCircle
 10
-357.7417837622
 20
379.2005090272
 30
0.0
 40
1.0
100
AcDbArc
 50
180.0
 51
270.0
  0
ARC
  5
1E2
330
191
100
AcDbEntity
  8
0
  6
CONTINUOUS
 62
     7
100
AcDbCircle
 10
-239.7417837622
 20
379.2005090272
 30
0.0
 40
1.000000000000057
100
AcDbArc
 50
270.0
 51
360.0
  0
ARC
  5
1E3
330
191
100
AcDbEntity
  8
0
  6
CONTINUOUS
 62
     7
100
AcDbCircle
 10
-332.7504725516
 20
483.9999
 30
0.0
 40
1.000000000000119
100
AcDbArc
 50
90.0
 51
179.5
  0
ARC
  5
1E4
330
191
100
AcDbEntity
  8
0
  6
CONTINUOUS
 62
     7
100
AcDbCircle
 10
0.2669050272
 20
483.9999
 30
0.0
 40
1.0
100
AcDbArc
 50
0.5
 51
90.0
  0
VIEWPORT
  5
3D8
330
191
100
AcDbEntity
  8
0
100
AcDbViewport
 10
0.0
 20
0.0
 30
0.0
 40
205.6
 41
156.0
 68
     1
 69
     1
1001
ACAD
1000
MVIEW
1002
{
1070
    16
1010
0.0
1020
0.0
1030
0.0
1010
0.0
1020
0.0
1030
1.0
1040
0.0
1040
357.2134125294
1040
228.7789015083
1040
-46.4080096273
1040
50.0
1040
0.0
1040
0.0
1070
     0
1070
   100
1070
     0
1070
     3
1070
     0
1070
     0
1070
     0
1070
     0
1040
0.0
1040
0.0
1040
0.0
1040
10.0
1040
10.0
1040
10.0
1040
10.0
1070
     0
1002
{
1002
}
1002
}
  0
ENDBLK
  5
194
330
191
100
AcDbEntity
  8
0
100
AcDbBlockEnd
  0
BLOCK
  5
1E7
330
1E5
100
AcDbEntity
  8
0
100
AcDbBlockBegin
  2
*PAPER_SPACE3
 70
     0
 10
0.0
 20
0.0
 30
0.0
  3
*PAPER_SPACE3
  1

  0
LINE
  5
207
330
1E5
100
AcDbEntity
  8
0
  6
CONTINUOUS
 62
     7
100
AcDbLine
 10
216.8160002161
 20
400.5042632677
 30
0.0
 11
216.0
 21
494.0086265355
 31
0.0
  0
LINE
  5
208
330
1E5
100
AcDbEntity
  8
0
  6
CONTINUOUS
 62
     7
100
AcDbLine
 10
-104.0
 20
494.0086265355
 30
0.0
 11
-104.0786179654
 21
484.9999
 31
0.0
  0
LINE
  5
209
330
1E5
100
AcDbEntity
  8
0
  6
CONTINUOUS
 62
     7
100
AcDbLine
 10
116.0
 20
379.2005090272
 30
0.0
 11
116.0
 21
384.9999
 31
0.0
  0
LINE
  5
20A
330
1E5
100
AcDbEntity
  8
0
  6
CONTINUOUS
 62
     7
100
AcDbLine
 10
-124.0
 20
0.0
 30
0.0
 11
0.0
 21
0.0
 31
0.0
  0
LINE
  5
20B
330
1E5
100
AcDbEntity
  8
0
  6
CONTINUOUS
 62
     7
100
AcDbLine
 10
0.0
 20
399.9999
 30
0.0
 11
0.0
 21
0.0
 31
0.0
  0
LINE
  5
20C
330
1E5
100
AcDbEntity
  8
0
  6
CONTINUOUS
 62
     7
100
AcDbLine
 10
-124.0
 20
484.9999
 30
0.0
 11
-124.0
 21
0.0
 31
0.0
  0
LINE
  5
20D
330
1E5
100
AcDbEntity
  8
0
  6
CONTINUOUS
 62
     7
100
AcDbLine
 10
-124.0
 20
484.0086265355
 30
0.0
 11
0.0086887894
 21
484.0086265355
 31
0.0
  0
LINE
  5
20E
330
1E5
100
AcDbEntity
  8
0
  6
CONTINUOUS
 62
     7
100
AcDbLine
 10
0.0086887894
 20
484.0086265355
 30
0.0
 11
0.7418218392
 21
399.9999
 31
0.0
  0
LINE
  5
20F
330
1E5
100
AcDbEntity
  8
0
  6
CONTINUOUS
 62
     7
100
AcDbLine
 10
216.3160192546
 20
399.9999
 30
0.0
 11
-124.0
 21
399.9999
 31
0.0
  0
LINE
  5
210
330
1E5
100
AcDbEntity
  8
0
  6
CONTINUOUS
 62
     7
100
AcDbLine
 10
1.7417837622
 20
399.9999
 30
0.0
 11
1.0086507125
 21
484.0086265355
 31
0.0
  0
LINE
  5
211
330
1E5
100
AcDbEntity
  8
0
  6
CONTINUOUS
 62
     7
100
AcDbLine
 10
0.0086887894
 20
484.9999
 30
0.0
 11
0.0086887894
 21
484.0086265355
 31
0.0
  0
LINE
  5
212
330
1E5
100
AcDbEntity
  8
0
  6
CONTINUOUS
 62
     7
100
AcDbLine
 10
0.0086887894
 20
484.9999
 30
0.0
 11
-124.0
 21
484.9999
 31
0.0
  0
LINE
  5
213
330
1E5
100
AcDbEntity
  8
0
  6
CONTINUOUS
 62
     7
100
AcDbLine
 10
215.0000380769
 20
494.9999
 30
0.0
 11
-103.0000380769
 21
494.9999
 31
0.0
  0
LINE
  5
214
330
1E5
100
AcDbEntity
  8
0
  6
CONTINUOUS
 62
     7
100
AcDbLine
 10
115.0
 20
378.2005090272
 30
0.0
 11
0.0
 21
378.2005090272
 31
0.0
  0
LINE
  5
215
330
1E5
100
AcDbEntity
  8
0
  6
CONTINUOUS
 62
     7
100
AcDbLine
 10
216.8160002161
 20
400.5042632677
 30
0.0
 11
1.7373822507
 21
400.5042632677
 31
0.0
  0
LINE
  5
216
330
1E5
100
AcDbEntity
  8
0
  6
CONTINUOUS
 62
     7
100
AcDbLine
 10
216.0
 20
494.0086265355
 30
0.0
 11
-104.0
 21
494.0086265355
 31
0.0
  0
LINE
  5
217
330
1E5
100
AcDbEntity
  8
0
  6
CONTINUOUS
 62
     7
100
AcDbLine
 10
116.0
 20
384.9999
 30
0.0
 11
0.0
 21
384.9999
 31
0.0
  0
LINE
  5
218
330
1E5
100
AcDbEntity
  8
0
  6
CONTINUOUS
 62
     7
100
AcDbLine
 10
116.0
 20
379.2005090272
 30
0.0
 11
0.0
 21
379.2005090272
 31
0.0
  0
ARC
  5
219
330
1E5
100
AcDbEntity
  8
0
  6
CONTINUOUS
 62
     7
100
AcDbCircle
 10
216.3160192546
 20
400.4999
 30
0.0
 40
0.5000000000000031
100
AcDbArc
 50
270.0
 51
0.5
  0
ARC
  5
21A
330
1E5
100
AcDbEntity
  8
0
  6
CONTINUOUS
 62
     7
100
AcDbCircle
 10
-103.0000380769
 20
493.9999
 30
0.0
 40
1.000000000000057
100
AcDbArc
 50
90.0
 51
179.5
  0
ARC
  5
21B
330
1E5
100
AcDbEntity
  8
0
  6
CONTINUOUS
 62
     7
100
AcDbCircle
 10
215.0000380769
 20
493.9999
 30
0.0
 40
1.000000000000006
100
AcDbArc
 50
0.5
 51
90.0
  0
ARC
  5
21C
330
1E5
100
AcDbEntity
  8
0
  6
CONTINUOUS
 62
     7
100
AcDbCircle
 10
131.0
 20
384.9999
 30
0.0
 40
15.00000000000006
100
AcDbArc
 50
90.0
 51
180.0
  0
ARC
  5
21D
330
1E5
100
AcDbEntity
  8
0
  6
CONTINUOUS
 62
     7
100
AcDbCircle
 10
115.0
 20
379.2005090272
 30
0.0
 40
1.000000000000028
100
AcDbArc
 50
270.0
 51
0.0
  0
ARC
  5
21E
330
1E5
100
AcDbEntity
  8
0
  6
CONTINUOUS
 62
     7
100
AcDbCircle
 10
0.5086697509
 20
455.3589385282
 30
0.0
 40
28.6540503921594
100
AcDbArc
 50
89.0002023313
 51
90.9997976687
  0
ARC
  5
21F
330
1E5
100
AcDbEntity
  8
0
  6
CONTINUOUS
 62
     7
100
AcDbCircle
 10
0.0086887894
 20
483.9999
 30
0.0
 40
1.0
100
AcDbArc
 50
0.5
 51
90.0
  0
VIEWPORT
  5
3DA
330
1E5
100
AcDbEntity
  8
0
100
AcDbViewport
 10
0.0
 20
0.0
 30
0.0
 40
205.6
 41
156.0
 68
     1
 69
     1
1001
ACAD
1000
MVIEW
1002
{
1070
    16
1010
0.0
1020
0.0
1030
0.0
1010
0.0
1020
0.0
1030
1.0
1040
0.0
1040
357.2134125294
1040
228.7789015083
1040
-46.4080096273
1040
50.0
1040
0.0
1040
0.0
1070
     0
1070
   100
1070
     0
1070
     3
1070
     0
1070
     0
1070
     0
1070
     0
1040
0.0
1040
0.0
1040
0.0
1040
10.0
1040
10.0
1040
10.0
1040
10.0
1070
     0
1002
{
1002
}
1002
}
  0
ENDBLK
  5
1E8
330
1E5
100
AcDbEntity
  8
0
100
AcDbBlockEnd
  0
BLOCK
  5
222
330
220
100
AcDbEntity
  8
0
100
AcDbBlockBegin
  2
*PAPER_SPACE4
 70
     0
 10
0.0
 20
0.0
 30
0.0
  3
*PAPER_SPACE4
  1

  0
CIRCLE
  5
22A
330
220
100
AcDbEntity
  8
0
  6
CONTINUOUS
 62
     7
100
AcDbCircle
 10
298.7417837622
 20
56.0
 30
0.0
 40
58.99999999999977
  0
CIRCLE
  5
22B
330
220
100
AcDbEntity
  8
0
  6
CONTINUOUS
 62
     7
100
AcDbCircle
 10
298.7417837622
 20
56.0
 30
0.0
 40
23.00000000000023
  0
CIRCLE
  5
22C
330
220
100
AcDbEntity
  8
0
  6
CONTINUOUS
 62
     7
100
AcDbCircle
 10
298.7417837622
 20
56.0
 30
0.0
 40
59.99999999999994
  0
CIRCLE
  5
22D
330
220
100
AcDbEntity
  8
0
  6
CONTINUOUS
 62
     7
100
AcDbCircle
 10
298.7417837622
 20
56.0
 30
0.0
 40
74.99999999999949
  0
LINE
  5
248
330
220
100
AcDbEntity
  8
0
  6
CONTINUOUS
 62
     7
100
AcDbLine
 10
190.0
 20
0.0
 30
0.0
 11
190.0
 21
-124.0
 31
0.0
  0
LINE
  5
249
330
220
100
AcDbEntity
  8
0
  6
CONTINUOUS
 62
     7
100
AcDbLine
 10
334.4835675244
 20
-124.0
 30
0.0
 11
-2.0
 21
-124.0
 31
0.0
  0
LINE
  5
24A
330
220
100
AcDbEntity
  8
0
  6
CONTINUOUS
 62
     7
100
AcDbLine
 10
0.0
 20
0.0
 30
0.0
 11
190.0
 21
0.0
 31
0.0
  0
LINE
  5
24B
330
220
100
AcDbEntity
  8
0
  6
CONTINUOUS
 62
     7
100
AcDbLine
 10
0.0
 20
-124.0
 30
0.0
 11
0.0
 21
0.0
 31
0.0
  0
LINE
  5
24C
330
220
100
AcDbEntity
  8
0
  6
CONTINUOUS
 62
     7
100
AcDbLine
 10
-2.0
 20
-124.0
 30
0.0
 11
-2.0
 21
0.7418218392
 31
0.0
  0
LINE
  5
24D
330
220
100
AcDbEntity
  8
0
  6
CONTINUOUS
 62
     7
100
AcDbLine
 10
334.4835675244
 20
-100.2809998788
 30
0.0
 11
334.4835675244
 21
-124.0
 31
0.0
  0
LINE
  5
24E
330
220
100
AcDbEntity
  8
0
  6
CONTINUOUS
 62
     7
100
AcDbLine
 10
-1.0000380769
 20
1.7417837622
 30
0.0
 11
147.886647952
 21
1.7417837622
 31
0.0
  0
LINE
  5
24F
330
220
100
AcDbEntity
  8
0
  6
CONTINUOUS
 62
     7
100
AcDbLine
 10
231.3453872697
 20
-97.8264228349
 30
0.0
 11
236.7932138462
 21
-85.3922317195
 31
0.0
  0
LINE
  5
250
330
220
100
AcDbEntity
  8
0
  6
CONTINUOUS
 62
     7
100
AcDbLine
 10
230.393071889
 20
-115.9483137418
 30
0.0
 11
230.393071889
 21
-102.3730449378
 31
0.0
  0
LINE
  5
251
330
220
100
AcDbEntity
  8
0
  6
CONTINUOUS
 62
     7
100
AcDbLine
 10
190.0
 20
-115.9483137418
 30
0.0
 11
230.393071889
 21
-115.9483137418
 31
0.0
  0
LINE
  5
252
330
220
100
AcDbEntity
  8
0
  6
CONTINUOUS
 62
     7
100
AcDbLine
 10
230.393071889
 20
-113.9489990919
 30
0.0
 11
190.0
 21
-113.9489990919
 31
0.0
  0
LINE
  5
253
330
220
100
AcDbEntity
  8
0
  6
CONTINUOUS
 62
     7
100
AcDbLine
 10
190.0
 20
-112.3696181876
 30
0.0
 11
230.393071889
 21
-112.3696181876
 31
0.0
  0
LINE
  5
254
330
220
100
AcDbEntity
  8
0
  6
CONTINUOUS
 62
     7
100
AcDbLine
 10
230.393071889
 20
-102.3730449378
 30
0.0
 11
190.0
 21
-102.3730449378
 31
0.0
  0
ARC
  5
255
330
220
100
AcDbEntity
  8
0
  6
CONTINUOUS
 62
     7
100
AcDbCircle
 10
298.7417837622
 20
56.0
 30
0.0
 40
160.3160192545639
100
AcDbArc
 50
282.8821133762
 51
199.7821865645
  0
ARC
  5
256
330
220
100
AcDbEntity
  8
0
  6
CONTINUOUS
 62
     7
100
AcDbCircle
 10
298.7417837622
 20
56.0
 30
0.0
 40
160.8160002160962
100
AcDbArc
 50
282.8397686729
 51
199.71979566
  0
ARC
  5
257
330
220
100
AcDbEntity
  8
0
  6
CONTINUOUS
 62
     7
100
AcDbCircle
 10
-1.0000511148
 20
0.741834877
 30
0.0
 40
0.9999488852723454
100
AcDbArc
 50
89.9992529465
 51
180.0007470535
  0
ARC
  5
258
330
220
100
AcDbEntity
  8
0
  6
CONTINUOUS
 62
     7
100
AcDbCircle
 10
230.393071889
 20
-100.0
 30
0.0
 40
15.94831374184341
100
AcDbArc
 50
270.0
 51
66.340198949
  0
ARC
  5
259
330
220
100
AcDbEntity
  8
0
  6
CONTINUOUS
 62
     7
100
AcDbCircle
 10
230.393071889
 20
-100.0
 30
0.0
 40
13.94899909189228
100
AcDbArc
 50
270.0
 51
66.340198949
  0
ARC
  5
25A
330
220
100
AcDbEntity
  8
0
  6
CONTINUOUS
 62
     7
100
AcDbCircle
 10
230.393071889
 20
-100.0
 30
0.0
 40
12.36961818755732
100
AcDbArc
 50
270.0
 51
66.340198949
  0
ARC
  5
25B
330
220
100
AcDbEntity
  8
0
  6
CONTINUOUS
 62
     7
100
AcDbCircle
 10
230.393071889
 20
-100.0
 30
0.0
 40
2.373044937801742
100
AcDbArc
 50
270.0
 51
66.340198949
  0
ARC
  5
25C
330
220
100
AcDbEntity
  8
0
  6
CONTINUOUS
 62
     7
100
AcDbCircle
 10
298.7417837622
 20
56.0
 30
0.0
 40
154.3677055127231
100
AcDbArc
 50
225.2156811778
 51
246.340198949
  0
ARC
  5
25D
330
220
100
AcDbEntity
  8
0
  6
CONTINUOUS
 62
     7
100
AcDbCircle
 10
298.7417837622
 20
56.0
 30
0.0
 40
156.3670201626741
100
AcDbArc
 50
225.9382693449
 51
246.340198949
  0
ARC
  5
25E
330
220
100
AcDbEntity
  8
0
  6
CONTINUOUS
 62
     7
100
AcDbCircle
 10
298.7417837622
 20
56.0
 30
0.0
 40
157.9464010670114
100
AcDbArc
 50
226.4901694369
 51
246.340198949
  0
ARC
  5
25F
330
220
100
AcDbEntity
  8
0
  6
CONTINUOUS
 62
     7
100
AcDbCircle
 10
298.7417837622
 20
56.0
 30
0.0
 40
167.9429743167713
100
AcDbArc
 50
229.6467540646
 51
246.340198949
  0
VIEWPORT
  5
3DC
330
220
100
AcDbEntity
  8
0
100
AcDbViewport
 10
0.0
 20
0.0
 30
0.0
 40
205.6
 41
156.0
 68
     1
 69
     1
1001
ACAD
1000
MVIEW
1002
{
1070
    16
1010
0.0
1020
0.0
1030
0.0
1010
0.0
1020
0.0
1030
1.0
1040
0.0
1040
357.2134125294
1040
228.7789015083
1040
-46.4080096273
1040
50.0
1040
0.0
1040
0.0
1070
     0
1070
   100
1070
     0
1070
     3
1070
     0
1070
     0
1070
     0
1070
     0
1040
0.0
1040
0.0
1040
0.0
1040
10.0
1040
10.0
1040
10.0
1040
10.0
1070
     0
1002
{
1002
}
1002
}
  0
ENDBLK
  5
223
330
220
100
AcDbEntity
  8
0
100
AcDbBlockEnd
  0
BLOCK
  5
262
330
260
100
AcDbEntity
  8
0
100
AcDbBlockBegin
  2
*PAPER_SPACE5
 70
     0
 10
0.0
 20
0.0
 30
0.0
  3
*PAPER_SPACE5
  1

  0
SPLINE
  5
266
330
260
100
AcDbEntity
  8
0
  6
CONTINUOUS
 62
     7
100
AcDbSpline
210
0.0
220
0.0
230
1.0
 70
     8
 71
     3
 72
    66
 73
    62
 74
     0
 42
0.00000001
 43
0.00000001
 40
0.0
 40
0.0
 40
0.0
 40
0.0
 40
0.010382346963737
 40
0.0275107064579702
 40
0.044651709977885
 40
0.0618041565689246
 40
0.0789664802889814
 40
0.0961369610298221
 40
0.1133138886244943
 40
0.130495675065256
 40
0.1476809197032241
 40
0.1648684372881394
 40
0.1820572598344802
 40
0.1992466221318118
 40
0.2164357816996148
 40
0.2336243484322588
 40
0.2508120537684155
 40
0.2679987242220613
 40
0.2851842613256177
 40
0.3023686248634285
 40
0.3195518191939057
 40
0.3367338823080924
 40
0.3539148772212452
 40
0.3710948853001994
 40
0.3882740011647715
 40
0.4054523288487605
 40
0.422629978955718
 40
0.4398070665906545
 40
0.4569837098892318
 40
0.4741600289996398
 40
0.4913361453994105
 40
0.508512181450386
 40
0.5256882597446457
 40
0.5428644629538002
 40
0.5600409146928464
 40
0.5772177386478896
 40
0.5943950582734323
 40
0.6115729963344569
 40
0.6287516742031805
 40
0.6459312108109531
 40
0.6631117211338994
 40
0.6802933140626022
 40
0.6974760894709607
 40
0.7146601342572614
 40
0.7318455170820577
 40
0.7490322814753876
 40
0.7662204369352384
 40
0.7834099476002344
 40
0.8006007180696441
 40
0.8177925759915111
 40
0.8349852511885335
 40
0.8521783448341369
 40
0.8693711061184078
 40
0.8865627525330521
 40
0.9037522905914156
 40
0.9209384995341334
 40
0.9381199315243791
 40
0.9552949384433973
 40
0.9724617367391861
 40
0.9896185207427921
 40
1.0
 40
1.0
 40
1.0
 40
1.0
 10
325.5082423965639
 20
283.9709076965391
 30
0.0
 10
325.1182774351153
 20
284.7746959565306
 30
0.0
 10
324.0849646763738
 20
286.9045402925195
 30
0.0
 10
322.0693980070378
 20
290.2985714929933
 30
0.0
 10
319.5011949971034
 20
294.1504934825167
 30
0.0
 10
316.6267445466818
 20
297.9297584730757
 30
0.0
 10
313.4684947749818
 20
301.6316419892932
 30
0.0
 10
310.0282661992042
 20
305.2478433528171
 30
0.0
 10
306.3141967241697
 20
308.771265455446
 30
0.0
 10
302.3334708722977
 20
312.1947703179057
 30
0.0
 10
298.0942246644306
 20
315.5115384963377
 30
0.0
 10
293.6049930915701
 20
318.7149892037533
 30
0.0
 10
288.8748208004742
 20
321.798811905125
 30
0.0
 10
283.9132144981195
 20
324.756955372309
 30
0.0
 10
278.7301141290685
 20
327.58364618698
 30
0.0
 10
273.3358686894729
 20
330.2733912093221
 30
0.0
 10
267.7411992524718
 20
332.8209880043532
 30
0.0
 10
261.9571999717533
 20
335.2215178552512
 30
0.0
 10
255.9953193867331
 20
337.4703512943486
 30
0.0
 10
249.8673407242355
 20
339.5631542988025
 30
0.0
 10
243.5853614297183
 20
341.4958947903046
 30
0.0
 10
237.1617718212652
 20
343.2648492391751
 30
0.0
 10
230.6092328551235
 20
344.8666091945144
 30
0.0
 10
223.9406530285592
 20
346.2980875852639
 30
0.0
 10
217.1691644764315
 20
347.5565246632464
 30
0.0
 10
210.3080983343798
 20
348.639493483632
 30
0.0
 10
203.3709594509129
 20
349.5449048397618
 30
0.0
 10
196.3714005348927
 20
350.2710115874511
 30
0.0
 10
189.3231958260511
 20
350.8164123087748
 30
0.0
 10
182.240214375721
 20
351.1800542774686
 30
0.0
 10
175.1363930233043
 20
351.3612356977307
 30
0.0
 10
168.0257092039908
 20
351.3596071961785
 30
0.0
 10
160.9221591235784
 20
351.1751727042492
 30
0.0
 10
153.8397246382674
 20
350.8082899226504
 30
0.0
 10
146.7923456208502
 20
350.2596694940501
 30
0.0
 10
139.793887118793
 20
349.5303726121299
 30
0.0
 10
132.8581178319838
 20
348.6218088026178
 30
0.0
 10
125.9986832520676
 20
347.5357327995393
 30
0.0
 10
119.2290791501886
 20
346.2742406771988
 30
0.0
 10
112.5626255022547
 20
344.8397652601802
 30
0.0
 10
106.0124409414352
 20
343.2350708425784
 30
0.0
 10
99.59141783053954
 20
341.4632472590477
 30
0.0
 10
93.31219804892339
 20
339.5277033648496
 30
0.0
 10
87.18714958900959
 20
337.4321600006949
 30
0.0
 10
81.22834405568243
 20
335.1806425415417
 30
0.0
 10
75.44753515238384
 20
332.7774731578664
 30
0.0
 10
69.85613822981412
 20
330.2272629514893
 30
0.0
 10
64.46521091688307
 20
327.5349041730747
 30
0.0
 10
59.28543491342082
 20
324.7055627532552
 30
0.0
 10
54.32709855818344
 20
321.7446714887496
 30
0.0
 10
49.60008175829719
 20
318.6579243920566
 30
0.0
 10
45.11385489461708
 20
315.4512851869701
 30
0.0
 10
40.87745548574347
 20
312.1309755689113
 30
0.0
 10
36.89943192765315
 20
308.7034806372081
 30
0.0
 10
33.1879502421549
 20
305.1755104450722
 30
0.0
 10
29.75026245151875
 20
301.5541009977628
 30
0.0
 10
26.59462915650464
 20
297.8462719479196
 30
0.0
 10
23.72301669719506
 20
294.0602947308255
 30
0.0
 10
21.15818206280956
 20
290.200935150661
 30
0.0
 10
19.14680467160371
 20
286.8014566424903
 30
0.0
 10
18.11697816437734
 20
284.6686983176191
 30
0.0
 10
17.72875024956519
 20
283.864682969934
 30
0.0
  0
SPLINE
  5
267
330
260
100
AcDbEntity
  8
0
  6
CONTINUOUS
 62
     7
100
AcDbSpline
210
0.0
220
0.0
230
1.0
 70
     8
 71
     3
 72
    12
 73
     8
 74
     0
 42
0.00000001
 43
0.00000001
 40
0.0
 40
0.0
 40
0.0
 40
0.0
 40
0.1508403284078684
 40
0.3839197940017284
 40
0.6169757608341396
 40
0.8500204185237762
 40
0.9999999999999999
 40
0.9999999999999999
 40
0.9999999999999999
 40
0.9999999999999999
 10
300.1914185127547
 20
209.1726526760297
 30
0.0
 10
299.3550907410453
 20
208.4531354255305
 30
0.0
 10
297.2264638067127
 20
206.6218153965431
 30
0.0
 10
293.5118201711674
 20
203.7944559480178
 30
0.0
 10
289.0894383444406
 20
200.687794799667
 30
0.0
 10
284.9829458733797
 20
198.0506047912543
 30
0.0
 10
282.3063675201061
 20
196.4783364474156
 30
0.0
 10
281.25830825867
 20
195.8626883393722
 30
0.0
  0
SPLINE
  5
268
330
260
100
AcDbEntity
  8
0
  6
CONTINUOUS
 62
     7
100
AcDbSpline
210
0.0
220
0.0
230
1.0
 70
     8
 71
     3
 72
    48
 73
    44
 74
     0
 42
0.00000001
 43
0.00000001
 40
0.0
 40
0.0
 40
0.0
 40
0.0
 40
0.0131793876043194
 40
0.0382416048318138
 40
0.0633066642861894
 40
0.088373113594134
 40
0.1134411972906446
 40
0.1385110481387706
 40
0.1635827124902407
 40
0.1886561710293921
 40
0.2137313552244343
 40
0.2388081601744606
 40
0.2638864544997084
 40
0.2889660878488639
 40
0.3140468965129576
 40
0.3391287075531751
 40
0.364211341776076
 40
0.3892946158265384
 40
0.4143783436169916
 40
0.4394623372704703
 40
0.4645464077236717
 40
0.4896303272884214
 40
0.5147138801868408
 40
0.5397968759516826
 40
0.5648791244149509
 40
0.5899604363790789
 40
0.615040624668617
 40
0.6401195057132736
 40
0.6651969018518483
 40
0.6902726445912842
 40
0.7153465791111256
 40
0.7404185703710012
 40
0.7654885112575606
 40
0.7905563332933534
 40
0.8156220205169458
 40
0.8406856272163818
 40
0.865747300231607
 40
0.8908073064934325
 40
0.9158660662707648
 40
0.9409241921553952
 40
0.9659822994903239
 40
0.9910413468275641
 40
1.0
 40
1.0
 40
1.0
 40
1.0
 10
281.25830825867
 20
195.8626883393722
 30
0.0
 10
280.3881809130663
 20
195.3675090000202
 30
0.0
 10
277.8634000125465
 20
193.9306855917632
 30
0.0
 10
273.5157807914433
 20
191.6510271976548
 30
0.0
 10
268.1552726588717
 20
189.073029496693
 30
0.0
 10
262.5941747384902
 20
186.6379903963396
 30
0.0
 10
256.8478319095619
 20
184.3489036436338
 30
0.0
 10
250.9268993406971
 20
182.2111294627984
 30
0.0
 10
244.8437333562677
 20
180.2289834329779
 30
0.0
 10
238.6106793271881
 20
178.4066529692987
 30
0.0
 10
232.2404951900423
 20
176.7479389688153
 30
0.0
 10
225.7462022265151
 20
175.256313853873
 30
0.0
 10
219.141088988093
 20
173.934896234267
 30
0.0
 10
212.4386739076639
 20
172.7864491849928
 30
0.0
 10
205.6526787503597
 20
171.8133733606505
 30
0.0
 10
198.7969989594578
 20
171.0177025771376
 30
0.0
 10
191.8856746614225
 20
170.40109975473
 30
0.0
 10
184.9328613487096
 20
169.9648537418371
 30
0.0
 10
177.9528005323935
 20
169.7098768475252
 30
0.0
 10
170.9597903187705
 20
169.6367031052143
 30
0.0
 10
163.9681594697394
 20
169.7454871899355
 30
0.0
 10
156.9922367537957
 20
170.0360036376669
 30
0.0
 10
150.0463190005432
 20
170.5076470423573
 30
0.0
 10
143.144638138578
 20
171.1594335958597
 30
0.0
 10
136.3013330787471
 20
171.9900031713124
 30
0.0
 10
129.5304228876576
 20
172.9976216796722
 30
0.0
 10
122.8457777401788
 20
174.1801842204714
 30
0.0
 10
116.2610900290313
 20
175.5352189367064
 30
0.0
 10
109.7898456595787
 20
177.0598915915802
 30
0.0
 10
103.4452955149533
 20
178.7510108802564
 30
0.0
 10
97.24042721616799
 20
180.6050345512807
 30
0.0
 10
91.18793676605469
 20
182.6180762433919
 30
0.0
 10
85.30020165758526
 20
184.7859136546282
 30
0.0
 10
79.58924960255916
 20
187.1039961116246
 30
0.0
 10
74.06674477622607
 20
189.5674592509381
 30
0.0
 10
68.74391003733125
 20
192.1711186970792
 30
0.0
 10
63.63168970485822
 20
194.9095484983069
 30
0.0
 10
58.74001684522548
 20
197.7768507006061
 30
0.0
 10
54.080425336377
 20
200.7675861455891
 30
0.0
 10
49.65619812795033
 20
203.8733721417791
 30
0.0
 10
45.49906602210638
 20
207.0956366418967
 30
0.0
 10
42.38180024833441
 20
209.690757505804
 30
0.0
 10
40.74541078828628
 20
211.241417971801
 30
0.0
 10
40.31446321076168
 20
211.6497885875376
 30
0.0
  0
SPLINE
  5
269
330
260
100
AcDbEntity
  8
0
  6
CONTINUOUS
 62
     7
100
AcDbSpline
210
0.0
220
0.0
230
1.0
 70
     8
 71
     3
 72
    20
 73
    16
 74
     0
 42
0.00000001
 43
0.00000001
 40
0.0
 40
0.0
 40
0.0
 40
0.0
 40
0.0681585587000714
 40
0.1599746189952382
 40
0.2506099657044027
 40
0.3394965640332006
 40
0.4267690344398831
 40
0.5128568711992255
 40
0.598194553609973
 40
0.6831191868581047
 40
0.7678619313528503
 40
0.8031849588217244
 40
0.8474918191534293
 40
0.9321878610246079
 40
1.0
 40
1.0
 40
1.0
 40
1.0
 10
216.8421943762152
 20
191.0240460079479
 30
0.0
 10
216.8316281386404
 20
190.5219506487375
 30
0.0
 10
216.8068281742266
 20
189.3434850925275
 30
0.0
 10
216.4000753254763
 20
187.4941730977737
 30
0.0
 10
215.6809937685112
 20
185.488958896502
 30
0.0
 10
214.6486787146166
 20
183.5230025832586
 30
0.0
 10
213.3287758485945
 20
181.6110296712361
 30
0.0
 10
211.7286968246619
 20
179.7630196821844
 30
0.0
 10
209.8585396405561
 20
177.9881263130789
 30
0.0
 10
207.7279615916951
 20
176.2965715999649
 30
0.0
 10
205.8095875389251
 20
175.0098161442255
 30
0.0
 10
204.1640059085486
 20
174.0264505081827
 30
0.0
 10
202.4468490290629
 20
173.0789860511823
 30
0.0
 10
200.2763321012984
 20
172.0016314765676
 30
0.0
 10
198.4446909023216
 20
171.2697239616904
 30
0.0
 10
197.6302591331628
 20
170.9442842781242
 30
0.0
  0
SPLINE
  5
26A
330
260
100
AcDbEntity
  8
0
  6
CONTINUOUS
 62
     7
100
AcDbSpline
210
0.0
220
0.0
230
1.0
 70
     8
 71
     3
 72
    20
 73
    16
 74
     0
 42
0.00000001
 43
0.00000001
 40
0.0
 40
0.0
 40
0.0
 40
0.0
 40
0.0455382524250855
 40
0.1306932854247589
 40
0.2157072979780946
 40
0.3006009571696089
 40
0.385424496595785
 40
0.4702476200687793
 40
0.5551962307488514
 40
0.6404872595241612
 40
0.7264361129557723
 40
0.8134537549648687
 40
0.9019813127828624
 40
0.9922957133446484
 40
0.9999999999999999
 40
0.9999999999999999
 40
0.9999999999999999
 40
0.9999999999999999
 10
145.6615916895254
 20
170.952453567529
 30
0.0
 10
145.1102619827531
 20
171.1642909618506
 30
0.0
 10
143.5279638730731
 20
171.7722573102572
 30
0.0
 10
141.1228209960771
 20
172.9245574537913
 30
0.0
 10
138.4587377055296
 20
174.3831541148234
 30
0.0
 10
136.0391425509459
 20
175.9548752688945
 30
0.0
 10
133.8678049394191
 20
177.6166584270934
 30
0.0
 10
131.9600812826835
 20
179.3559122287553
 30
0.0
 10
130.3244854487132
 20
181.1573062913819
 30
0.0
 10
128.9662448079137
 20
183.0077893591451
 30
0.0
 10
127.8910313388262
 20
184.8970586661782
 30
0.0
 10
127.0901265021239
 20
186.8190888603812
 30
0.0
 10
126.6068499842395
 20
188.7724102907333
 30
0.0
 10
126.391723109615
 20
190.1400287530776
 30
0.0
 10
126.42771804534
 20
190.8585869943835
 30
0.0
 10
126.4305472538393
 20
190.9150658029327
 30
0.0
  0
LWPOLYLINE
  5
28A
330
260
100
AcDbEntity
  8
0
  6
CONTINUOUS
 62
     7
100
AcDbPolyline
 90
       70
 70
   128
 43
0.0
 10
332.4573006925
 20
182.7938299825
 10
332.4601280992
 20
182.0628407189
 10
332.2703125632
 20
177.7089652331
 10
331.7269887482
 20
173.3650199998
 10
330.8313524103
 20
169.0405652465
 10
329.5853746811
 20
164.7451183053
 10
327.9917977291
 20
160.4881326678
 10
326.0541287251
 20
156.2789771791
 10
323.7766321234
 20
152.126915419
 10
321.1643202767
 20
148.0410853144
 10
318.2229424046
 20
144.0304790286
 10
314.9589719406
 20
140.1039231708
 10
311.3795922855
 20
136.270059371
 10
307.4926809979
 20
132.5373252606
 10
303.3067924572
 20
128.9139359032
 10
298.8311390368
 20
125.4078657149
 10
294.0755708297
 20
122.0268309133
 10
289.0505539697
 20
118.7782725366
 10
283.7671475982
 20
115.6693400662
 10
278.236979524
 20
112.7068756927
 10
272.4722206337
 20
109.8973992573
 10
266.4855581049
 20
107.2470939026
 10
260.2901674847
 20
104.761792465
 10
253.8996836923
 20
102.4469646375
 10
247.3281710112
 20
100.3077049318
 10
240.5900921365
 20
98.3487214665
 10
233.7002763448
 20
96.574325605
 10
226.6738868578
 20
94.9884224676
 10
219.5263874712
 20
93.5945023364
 10
212.2735085209
 20
92.395632974
 10
204.9312122643
 20
91.3944528722
 10
197.5156577497
 20
90.593165445
 10
190.0431652535
 20
89.993534179
 10
182.5301803621
 20
89.5968787529
 10
174.9932377783
 20
89.4040721324
 10
167.4489249313
 20
89.4155386497
 10
159.913845471
 20
89.631253069
 10
152.4045827262
 20
90.0507406425
 10
144.9376632079
 20
90.6730781547
 10
137.5295202375
 20
91.4968959551
 10
130.1964577798
 20
92.5203809715
 10
122.9546145614
 20
93.7412807011
 10
115.8199285518
 20
95.1569081673
 10
108.8081018874
 20
96.7641478334
 10
101.9345663134
 20
98.5594624597
 10
95.2144492219
 20
100.5389008875
 10
88.6625403589
 20
102.6981067358
 10
82.2932592751
 20
105.0323279882
 10
76.1206235907
 20
107.5364274516
 10
70.1582181455
 20
110.2048940619
 10
64.4191651011
 20
113.0318550133
 10
58.9160950614
 20
116.0110886828
 10
53.661119275
 20
119.1360383232
 10
48.6658029805
 20
122.399826493
 10
43.9411399534
 20
125.7952701926
 10
39.4975283112
 20
129.3148966729
 10
35.3447476286
 20
132.9509598809
 10
31.4919374148
 20
136.695457508
 10
27.9475769989
 20
140.5401486013
 10
24.7194668686
 20
144.4765717002
 10
21.8147115027
 20
148.496063459
 10
19.2397037353
 20
152.589777713
 10
17.0001106866
 20
156.7487049475
 10
15.1008612904
 20
160.9636921258
 10
13.5461354465
 20
165.2254628338
 10
12.3393548215
 20
169.5246376951
 10
11.4831753185
 20
173.8517550139
 10
10.9794812316
 20
178.197291598
 10
10.8293810991
 20
182.5516837179
 10
10.8314220586
 20
182.7938299825
  0
LWPOLYLINE
  5
28B
330
260
100
AcDbEntity
  8
0
  6
CONTINUOUS
 62
     7
100
AcDbPolyline
 90
      134
 70
   128
 43
0.0
 10
284.0743665087
 20
194.4761248633
 10
278.6394865951
 20
191.4834627029
 10
272.9658587195
 20
188.6423055723
 10
267.0661429644
 20
185.958993204
 10
260.9535039024
 20
183.4395131172
 10
254.6415812216
 20
181.0894872571
 10
248.1444592894
 20
178.9141594504
 10
241.4766357256
 20
176.9183837039
 10
234.6529890516
 20
175.1066133738
 10
227.6887454915
 20
173.4828912281
 10
220.5994449958
 20
172.0508404258
 10
213.400906566
 20
170.8136564322
 10
206.1091929561
 20
169.7740998887
 10
198.7405748304
 20
168.9344904523
 10
191.3114944572
 20
168.2967016199
 10
183.8385290199
 20
167.8621565479
 10
176.3383536263
 20
167.6318248763
 10
168.8277041006
 20
167.606220565
 10
161.3233396386
 20
167.7854007472
 10
153.8420054119
 20
168.1689656021
 10
146.4003952024
 20
168.7560592463
 10
139.0151141525
 20
169.5453716443
 10
131.7026417119
 20
170.5351415317
 10
124.479294866
 20
171.7231603447
 10
117.3611917261
 20
173.1067771488
 10
110.3642155636
 20
174.6829045539
 10
103.5039793684
 20
176.4480256034
 10
96.7957910099
 20
178.3982016222
 10
90.2546190793
 20
180.5290810049
 10
83.8950594891
 20
182.8359089264
 10
77.7313029034
 20
185.3135379517
 10
71.7771030732
 20
187.9564395214
 10
66.0457461467
 20
190.7587162889
 10
60.5500210223
 20
193.7141152788
 10
55.3021908116
 20
196.8160418404
 10
50.3139654759
 20
200.0575743626
 10
45.5964756964
 20
203.4314797189
 10
41.1602480374
 20
206.9302294071
 10
37.0151814576
 20
210.5460163486
 10
33.1705252213
 20
214.2707723088
 10
29.6348582598
 20
218.0961859008
 10
26.4160700288
 20
222.013721131
 10
23.5213429033
 20
226.0146364464
 10
20.9571361515
 20
230.0900042405
 10
18.7291715214
 20
234.2307307743
 10
16.8424204731
 20
238.4275764677
 10
15.3010930861
 20
242.6711765169
 10
14.1086286644
 20
246.9520617908
 10
13.2676880625
 20
251.2606799605
 10
12.7801477476
 20
255.5874168141
 10
12.6470956129
 20
259.9226177098
 10
12.8688285496
 20
264.2566091192
 10
13.4448517849
 20
268.5797202128
 10
14.3738799858
 20
272.8823044394
 10
15.653840127
 20
277.154761051
 10
17.2818761169
 20
281.3875565265
 10
19.2543551707
 20
285.5712458439
 10
21.5668759164
 20
289.6964935565
 10
24.2142782158
 20
293.7540946235
 10
27.1906546792
 20
297.7349949504
 10
30.4893638471
 20
301.630311592
 10
34.1030450092
 20
305.4313525735
 10
38.0236346299
 20
309.1296362864
 10
42.2423843408
 20
312.7169104134
 10
46.7498804615
 20
316.1851703435
 10
51.5360650058
 20
319.5266770323
 10
56.5902581243
 20
322.7339742721
 10
61.901181936
 20
325.7999053284
 10
67.4569856931
 20
328.7176289102
 10
73.245272225
 20
331.4806344354
 10
79.253125601
 20
334.0827565582
 10
85.4671399512
 20
336.5181889266
 10
91.8734493796
 20
338.7814971388
 10
98.457758905
 20
340.8676308691
 10
105.2053763581
 20
342.7719351374
 10
112.1012451659
 20
344.4901606963
 10
119.1299779487
 20
346.0184735127
 10
126.2758908552
 20
347.3534633231
 10
133.5230385596
 20
348.4921512432
 10
140.8552498415
 20
349.431996415
 10
148.2561636705
 20
350.1709016765
 10
155.7092657139
 20
350.707218241
 10
163.1979251867
 20
351.0397493767
 10
170.7054319613
 20
351.1677530764
 10
178.2150338547
 20
351.090943714
 10
185.7099740084
 20
350.809492681
 10
193.1735282804
 20
350.324028005
 10
200.5890425626
 20
349.6356329472
 10
207.9399699431
 20
348.7458435864
 10
215.2099076285
 20
347.6566453905
 10
222.382633545
 20
346.3704687865
 10
229.4421425365
 20
344.8901837375
 10
236.372682078
 20
343.2190933381
 10
243.1587874257
 20
341.3609264445
 10
249.7853161252
 20
339.3198293536
 10
256.2374817997
 20
337.1003565512
 10
262.5008871447
 20
334.7074605489
 10
268.5615560537
 20
332.1464808334
 10
274.4059648046
 20
329.4231319518
 10
280.021072236
 20
326.5434907603
 10
285.3943488478
 20
323.5139828646
 10
290.5138047587
 20
320.3413682813
 10
295.3680164608
 20
317.032726354
 10
299.9461523095
 20
313.5954399568
 10
304.2379966938
 20
310.0371790196
 10
308.2339728305
 20
306.3658834138
 10
311.9251641345
 20
302.5897452357
 10
315.3033341144
 20
298.717190526
 10
318.3609447523
 20
294.7568604685
 10
321.0911733231
 20
290.7175921081
 10
323.4879276193
 20
286.6083986321
 10
325.5458595449
 20
282.4384492578
 10
327.2603770492
 20
278.2170487729
 10
328.627654373
 20
273.9536167725
 10
329.6446405861
 20
269.6576666404
 10
330.3090663946
 20
265.3387843213
 10
330.6194492047
 20
261.0066069304
 10
330.5750964309
 20
256.6708012494
 10
330.1761070416
 20
252.3410421562
 10
329.4233713383
 20
248.0269910364
 10
328.3185689685
 20
243.7382742249
 10
326.8641651784
 20
239.4844615259
 10
325.0634053116
 20
235.2750448588
 10
322.9203075673
 20
231.1194170783
 10
320.4396540348
 20
227.0268510149
 10
317.6269800219
 20
223.0064787836
 10
314.4885617044
 20
219.0672714072
 10
311.0314021205
 20
215.2180187974
 10
307.2632155453
 20
211.467310142
 10
303.1924102763
 20
207.8235147388
 10
298.8280698719
 20
204.2947633199
 10
294.1799328822
 20
200.8889299096
 10
289.2583711182
 20
197.6136142541
 10
284.0743665087
 20
194.4761248633
  0
LWPOLYLINE
  5
28C
330
260
100
AcDbEntity
  8
0
  6
CONTINUOUS
 62
     7
100
AcDbPolyline
 90
      133
 70
   128
 43
0.0
 10
281.758267625
 20
195.8131802889
 10
276.3941152998
 20
192.8605216836
 10
270.7926710909
 20
190.0585524174
 10
264.966624071
 20
187.4136198521
 10
258.9291721105
 20
184.9317156106
 10
252.6939919799
 20
182.6184620041
 10
246.2752083677
 20
180.4790992962
 10
239.6873618832
 20
178.5184738315
 10
232.9453761177
 20
176.7410270573
 10
226.0645238372
 20
175.1507854622
 10
219.0603923854
 20
173.7513514549
 10
211.9488483728
 20
172.5458952035
 10
204.7460017338
 20
171.5371474541
 10
197.4681692328
 20
170.7273933449
 10
190.1318375012
 20
170.1184672293
 10
182.75362569
 20
169.7117485209
 10
175.350247822
 20
169.5081585684
 10
167.9384749292
 20
169.5081585684
 10
160.5350970612
 20
169.7117485209
 10
153.1568852499
 20
170.1184672293
 10
145.8205535183
 20
170.7273933449
 10
138.5427210173
 20
171.5371474541
 10
131.3398743784
 20
172.5458952035
 10
124.2283303657
 20
173.7513514549
 10
117.2241989139
 20
175.1507854622
 10
110.3433466335
 20
176.7410270573
 10
103.6013608679
 20
178.5184738315
 10
97.0135143835
 20
180.4790992962
 10
90.5947307713
 20
182.6184620041
 10
84.3595506407
 20
184.9317156106
 10
78.3220986802
 20
187.4136198521
 10
72.4960516603
 20
190.0585524175
 10
66.8946074514
 20
192.8605216836
 10
61.5304551262
 20
195.8131802889
 10
56.415746215
 20
198.909839512
 10
51.5620671786
 20
202.1434844237
 10
46.9804131611
 20
205.5067897783
 10
42.6811630825
 20
208.9921366074
 10
38.674056127
 20
212.5916294795
 10
34.9681696806
 20
216.2971143853
 10
31.5718987681
 20
220.1001972099
 10
28.4929370355
 20
223.9922627474
 10
25.7382593214
 20
227.9644942176
 10
23.3141058568
 20
232.0078932385
 10
21.225968129
 20
236.113300211
 10
19.4785764415
 20
240.2714150677
 10
18.0758891986
 20
244.4728183412
 10
17.0210839381
 20
248.7079925016
 10
16.316550133
 20
252.9673435174
 10
15.9638837791
 20
257.2412225885
 10
15.9638837791
 20
261.5199480043
 10
16.316550133
 20
265.7938270754
 10
17.0210839381
 20
270.0531780912
 10
18.0758891986
 20
274.2883522516
 10
19.4785764415
 20
278.4897555251
 10
21.225968129
 20
282.6478703818
 10
23.3141058568
 20
286.7532773543
 10
25.7382593214
 20
290.7966763752
 10
28.4929370355
 20
294.7689078454
 10
31.5718987681
 20
298.6609733829
 10
34.9681696806
 20
302.4640562075
 10
38.674056127
 20
306.1695411133
 10
42.6811630825
 20
309.7690339854
 10
46.9804131611
 20
313.2543808145
 10
51.5620671786
 20
316.6176861691
 10
56.415746215
 20
319.8513310808
 10
61.5304551262
 20
322.9479903039
 10
66.8946074514
 20
325.9006489092
 10
72.4960516603
 20
328.7026181754
 10
78.3220986802
 20
331.3475507407
 10
84.3595506407
 20
333.8294549822
 10
90.5947307713
 20
336.1427085887
 10
97.0135143835
 20
338.2820712966
 10
103.6013608679
 20
340.2426967613
 10
110.3433466335
 20
342.0201435355
 10
117.2241989139
 20
343.6103851306
 10
124.2283303657
 20
345.0098191379
 10
131.3398743784
 20
346.2152753893
 10
138.5427210173
 20
347.2240231387
 10
145.8205535183
 20
348.0337772479
 10
153.1568852499
 20
348.6427033635
 10
160.5350970612
 20
349.0494220719
 10
167.9384749292
 20
349.2530120244
 10
175.350247822
 20
349.2530120244
 10
182.75362569
 20
349.0494220719
 10
190.1318375012
 20
348.6427033635
 10
197.4681692328
 20
348.0337772479
 10
204.7460017338
 20
347.2240231387
 10
211.9488483728
 20
346.2152753893
 10
219.0603923854
 20
345.0098191379
 10
226.0645238372
 20
343.6103851306
 10
232.9453761177
 20
342.0201435355
 10
239.6873618832
 20
340.2426967613
 10
246.2752083677
 20
338.2820712966
 10
252.6939919799
 20
336.1427085887
 10
258.9291721105
 20
333.8294549822
 10
264.966624071
 20
331.3475507407
 10
270.7926710909
 20
328.7026181753
 10
276.3941152998
 20
325.9006489092
 10
281.758267625
 20
322.9479903039
 10
286.8729765362
 20
319.8513310808
 10
291.7266555725
 20
316.6176861691
 10
296.30830959
 20
313.2543808145
 10
300.6075596687
 20
309.7690339854
 10
304.6146666242
 20
306.1695411133
 10
308.3205530706
 20
302.4640562075
 10
311.7168239831
 20
298.6609733829
 10
314.7957857157
 20
294.7689078454
 10
317.5504634298
 20
290.7966763752
 10
319.9746168944
 20
286.7532773543
 10
322.0627546222
 20
282.6478703818
 10
323.8101463096
 20
278.4897555251
 10
325.2128335525
 20
274.2883522516
 10
326.2676388131
 20
270.0531780912
 10
326.9721726181
 20
265.7938270754
 10
327.324838972
 20
261.5199480043
 10
327.324838972
 20
257.2412225885
 10
326.9721726181
 20
252.9673435174
 10
326.2676388131
 20
248.7079925016
 10
325.2128335525
 20
244.4728183412
 10
323.8101463096
 20
240.2714150677
 10
322.0627546222
 20
236.113300211
 10
319.9746168944
 20
232.0078932385
 10
317.5504634298
 20
227.9644942176
 10
314.7957857157
 20
223.9922627474
 10
311.7168239831
 20
220.1001972099
 10
308.3205530706
 20
216.2971143853
 10
304.6146666242
 20
212.5916294795
 10
300.6075596687
 20
208.9921366074
 10
296.30830959
 20
205.5067897783
 10
291.7266555725
 20
202.1434844237
 10
286.8729765362
 20
198.909839512
 10
281.758267625
 20
195.8131802889
  0
LWPOLYLINE
  5
28D
330
260
100
AcDbEntity
  8
0
  6
CONTINUOUS
 62
     7
100
AcDbPolyline
 90
       15
 70
   128
 43
0.0
 10
40.4112360333
 20
211.4442370721
 10
39.4884171891
 20
212.3071807056
 10
35.8052270102
 20
215.9899718031
 10
32.4297561612
 20
219.7697630923
 10
29.3696511692
 20
223.6379921303
 10
26.6318441561
 20
227.585896134
 10
24.2225371355
 20
231.6045318312
 10
22.1471879626
 20
235.6847957194
 10
20.410497971
 20
239.8174446886
 10
19.0164013218
 20
243.9931169598
 10
17.9680560926
 20
248.2023532921
 10
17.2678371223
 20
252.4356184114
 10
16.9173306322
 20
256.6833226107
 10
16.9173306322
 20
260.9358434737
 10
16.9681982025
 20
261.9346498978
  0
LWPOLYLINE
  5
28E
330
260
100
AcDbEntity
  8
0
  6
CONTINUOUS
 62
     7
100
AcDbPolyline
 90
       15
 70
   128
 43
0.0
 10
326.3666282814
 20
261.0483920268
 10
326.371392119
 20
260.9358434737
 10
326.371392119
 20
256.6833226107
 10
326.0208856289
 20
252.4356184114
 10
325.3206666586
 20
248.2023532921
 10
324.2723214293
 20
243.9931169598
 10
322.8782247802
 20
239.8174446886
 10
321.1415347885
 20
235.6847957194
 10
319.0661856157
 20
231.6045318312
 10
316.6568785951
 20
227.585896134
 10
313.919071582
 20
223.6379921303
 10
310.8589665899
 20
219.7697630923
 10
307.4834957409
 20
215.9899718031
 10
303.8003055621
 20
212.3071807056
 10
300.1227768961
 20
208.9909021391
  0
LWPOLYLINE
  5
28F
330
260
100
AcDbEntity
  8
0
  6
CONTINUOUS
 62
     7
100
AcDbPolyline
 90
       33
 70
   128
 43
0.0
 10
285.3535314713
 20
116.5694370938
 10
283.3222590248
 20
115.4103966242
 10
277.8045935055
 20
112.4596010901
 10
272.0532549464
 20
109.6614534278
 10
266.0809028219
 20
107.0221127391
 10
259.9006830875
 20
104.5473885699
 10
253.5261992433
 20
102.2427281233
 10
246.971482391
 20
100.1132042688
 10
240.2509603497
 20
98.1635043766
 10
233.3794258981
 20
96.39792
 10
226.3720042134
 20
94.8203374294
 10
219.2441195793
 20
93.4342291373
 10
212.0114614347
 20
92.2426461359
 10
204.6899498391
 20
91.2482112605
 10
197.2957004305
 20
90.453113397
 10
189.8449889526
 20
89.8591026633
 10
182.35421543
 20
89.4674865574
 10
174.8398680689
 20
89.2791270795
 10
167.3184869652
 20
89.2944388342
 10
159.8066276965
 20
89.5133881183
 10
152.3208248819
 20
89.9354929948
 10
144.8775557866
 20
90.5598243537
 10
137.4932040534
 20
91.3850079572
 10
130.1840236399
 20
92.4092274644
 10
122.9661030414
 20
93.6302284297
 10
115.8553298783
 20
95.0453232646
 10
108.8673559247
 20
96.6513971538
 10
102.0175626571
 20
98.4449149114
 10
95.3210273976
 20
100.421928762
 10
88.7924901267
 20
102.5780870306
 10
82.4463210387
 20
104.9086437208
 10
76.2964889105
 20
107.4084689621
 10
71.7233089345
 20
109.4360926435
  0
LWPOLYLINE
  5
291
330
260
100
AcDbEntity
  8
0
  6
CONTINUOUS
 62
     7
100
AcDbPolyline
 90
       39
 70
   128
 43
0.0
 10
138.87807953
 20
174.1438652095
 10
138.0574366663
 20
175.8405525988
 10
137.4412545933
 20
177.8252223192
 10
137.1760426802
 20
179.8356963639
 10
137.2645223599
 20
181.8513445486
 10
137.7057857113
 20
183.8514835952
 10
138.4953047753
 20
185.8155893707
 10
139.6249780178
 20
187.7235074918
 10
141.0832134627
 20
189.5556601367
 10
142.855047641
 20
191.2932469402
 10
144.9222991364
 20
192.9184379101
 10
147.2637551511
 20
194.414556388
 10
149.8553891779
 20
195.7662501737
 10
152.6706075447
 20
196.9596490598
 10
155.6805223013
 20
197.9825071588
 10
158.8542476494
 20
198.8243285625
 10
162.1592168721
 20
199.4764750441
 10
165.5615165129
 20
199.9322546981
 10
169.0262343733
 20
200.1869906087
 10
172.5178177597
 20
200.2380688406
 10
176.0004383016
 20
200.084965262
 10
179.4383595995
 20
199.7292509229
 10
182.7963039287
 20
199.1745759337
 10
186.0398142363
 20
198.4266320104
 10
189.1356077174
 20
197.4930940698
 10
192.0519173416
 20
196.3835414745
 10
194.7588178257
 20
195.1093597355
 10
197.2285327078
 20
193.6836236817
 10
199.4357193711
 20
192.1209632943
 10
201.3577290937
 20
190.4374135837
 10
202.9748394549
 20
188.6502500479
 10
204.270456714
 20
186.7778114033
 10
205.2312860849
 20
184.8393114042
 10
205.8474681578
 20
182.8546416837
 10
206.112680071
 20
180.844167639
 10
206.0242003912
 20
178.8285194544
 10
205.5829370398
 20
176.8283804077
 10
204.7934179759
 20
174.8642746323
 10
204.3876499401
 20
174.1034884467
  0
LWPOLYLINE
  5
292
330
260
100
AcDbEntity
  8
0
  6
CONTINUOUS
 62
     7
100
AcDbPolyline
 90
       29
 70
   128
 43
0.0
 10
148.8631070833
 20
170.6478648954
 10
148.7464361897
 20
171.2251934956
 10
148.6557104872
 20
172.8917877125
 10
148.9275295419
 20
174.5518046435
 10
149.557606605
 20
176.1790648298
 10
150.5360049848
 20
177.7479054063
 10
151.8472947545
 20
179.2335848198
 10
153.4707960909
 20
180.6126730186
 10
155.3809054083
 20
181.8634209579
 10
157.5474991416
 20
182.9661035956
 10
159.9364088133
 20
183.9033309676
 10
162.509959891
 20
184.6603224386
 10
165.2275659367
 20
185.2251398008
 10
168.0463686797
 20
185.588875547
 10
170.9219139168
 20
185.7457933472
 10
173.8088525819
 20
185.693418514
 10
176.6616559277
 20
185.4325770297
 10
179.4353335412
 20
184.9673825204
 10
182.0861428696
 20
184.3051713814
 10
184.5722790662
 20
183.4563870779
 10
186.854534278
 20
182.4344154455
 10
188.8969159771
 20
181.2553735872
 10
190.6672145839
 20
179.9378556976
 10
192.1375114319
 20
178.5026398207
 10
193.2846190615
 20
176.9723601684
 10
194.0904469002
 20
175.3711501648
 10
194.5422865615
 20
173.7242618483
 10
194.633012264
 20
172.0576676314
 10
194.4247753227
 20
170.644375971
  0
LWPOLYLINE
  5
295
330
260
100
AcDbEntity
  8
0
  6
CONTINUOUS
 62
     7
100
AcDbPolyline
 90
       19
 70
   128
 43
0.0
 10
151.5524411132
 20
170.471509165
 10
151.8472947545
 20
170.7679729116
 10
153.4707960909
 20
172.1470611104
 10
155.3809054083
 20
173.3978090497
 10
157.5474991416
 20
174.5004916874
 10
159.9364088133
 20
175.4377190594
 10
162.509959891
 20
176.1947105304
 10
165.2275659367
 20
176.7595278926
 10
168.0463686797
 20
177.1232636388
 10
170.9219139168
 20
177.2801814391
 10
173.8088525819
 20
177.2278066058
 10
176.6616559277
 20
176.9669651215
 10
179.4353335412
 20
176.5017706122
 10
182.0861428696
 20
175.8395594732
 10
184.5722790662
 20
174.9907751697
 10
186.854534278
 20
173.9688035373
 10
188.8969159771
 20
172.789761679
 10
190.6672145839
 20
171.4722437894
 10
191.7592950907
 20
170.4476064612
  0
LWPOLYLINE
  5
29D
330
260
100
AcDbEntity
  8
0
  6
CONTINUOUS
 62
     7
100
AcDbPolyline
 90
       46
 70
   128
 43
0.0
 10
284.7814463654
 20
193.2585211111
 10
279.3541052893
 20
190.2689551756
 10
273.68999482
 20
187.429532332
 10
267.8015659015
 20
184.7464942479
 10
261.7017625786
 20
182.2257388233
 10
255.4039935429
 20
179.8728072256
 10
248.9221026574
 20
177.6928717093
 10
242.2703385251
 20
175.6907242456
 10
235.4633231672
 20
173.8707659893
 10
228.5160198807
 20
172.2369976035
 10
221.443700346
 20
170.7930104657
 10
214.2619110564
 20
169.5419787731
 10
206.9864391434
 20
168.4866525648
 10
199.6332776732
 20
167.6293516769
 10
192.2185904906
 20
166.9719606427
 10
184.7586766872
 20
166.5159245505
 10
177.2699347725
 20
166.2622458665
 10
169.7688266267
 20
166.2114822316
 10
162.2718413132
 20
166.3637452352
 10
154.795458833
 20
166.7187001702
 10
147.3561138972
 20
167.2755667686
 10
139.9701598006
 20
168.0331209168
 10
132.6538324733
 20
168.9896973464
 10
125.4232147906
 20
170.1431932947
 10
118.2942012194
 20
171.4910731273
 10
111.2824628787
 20
173.0303739119
 10
104.4034130912
 20
174.7577119312
 10
97.6721735012
 20
176.6692901213
 10
91.1035408343
 20
178.7609064186
 10
84.7119543705
 20
181.0279629965
 10
78.5114642042
 20
183.4654763726
 10
72.5157003583
 20
186.0680883635
 10
66.7378428231
 20
188.8300778632
 10
61.1905925835
 20
191.7453734194
 10
55.8861436992
 20
194.8075665797
 10
50.8361565002
 20
198.0099259789
 10
46.0517319544
 20
201.3454121361
 10
41.5433872652
 20
204.8066929289
 10
37.3210327528
 20
208.3861597109
 10
33.3939500687
 20
212.0759440371
 10
29.7707717929
 20
215.867934961
 10
26.4594624576
 20
219.7537968634
 10
23.4673010394
 20
223.7249877765
 10
20.8008649586
 20
227.7727781609
 10
18.4660156201
 20
231.8882700949
 10
16.7039519434
 20
235.5268342943
  0
LWPOLYLINE
  5
29E
330
260
100
AcDbEntity
  8
0
  6
CONTINUOUS
 62
     7
100
AcDbPolyline
 90
       13
 70
   128
 43
0.0
 10
326.5791749651
 20
235.5142992844
 10
325.8641540716
 20
233.968582307
 10
323.6970688099
 20
229.8226235993
 10
321.1957386975
 20
225.739860436
 10
318.3656622008
 20
221.7292676166
 10
315.2130604422
 20
217.7996612944
 10
311.7448635245
 20
213.9596795972
 10
307.9686952973
 20
210.2177636379
 10
303.8928565978
 20
206.58213896
 10
299.5263070042
 20
203.0607974556
 10
294.87864514
 20
199.6614797975
 10
289.9600875748
 20
196.3916584236
 10
284.7814463654
 20
193.2585211111
  0
LWPOLYLINE
  5
29F
330
260
100
AcDbEntity
  8
0
  6
CONTINUOUS
 62
     7
100
AcDbPolyline
 90
       66
 70
   128
 43
0.0
 10
16.9681982025
 20
261.9346498978
 10
17.2678371223
 20
265.183547673
 10
17.9680560926
 20
269.4168127923
 10
19.0164013218
 20
273.6260491246
 10
20.410497971
 20
277.8017213957
 10
22.1471879626
 20
281.934370365
 10
24.2225371355
 20
286.0146342532
 10
26.6318441561
 20
290.0332699504
 10
29.3696511692
 20
293.9811739541
 10
32.4297561612
 20
297.849402992
 10
35.8052270103
 20
301.6291942812
 10
39.4884171891
 20
305.3119853788
 10
43.4709830874
 20
308.8894335782
 10
47.7439029124
 20
312.3534348089
 10
52.2974971264
 20
315.6961419937
 10
57.1214503739
 20
318.9099828259
 10
62.2048348494
 20
321.9876769222
 10
67.5361350519
 20
324.9222523157
 10
73.1032738717
 20
327.7070612492
 10
78.8936399489
 20
330.3357952348
 10
84.894116242
 20
332.8024993445
 10
91.091109742
 20
335.1015857001
 10
97.4705822657
 20
337.2278461316
 10
104.0180822559
 20
339.1764639753
 10
110.7187775192
 20
340.9430249849
 10
117.5574888257
 20
342.5235273316
 10
124.5187242947
 20
343.9143906692
 10
131.5867144889
 20
345.112464245
 10
138.7454481371
 20
346.1150340369
 10
145.9787084053
 20
346.9198289019
 10
153.2701096324
 20
347.5250257208
 10
160.6031344494
 20
347.9292535281
 10
167.9611711967
 20
348.1315966178
 10
175.3275515544
 20
348.1315966178
 10
182.6855883017
 20
347.9292535281
 10
190.0186131188
 20
347.5250257208
 10
197.3100143459
 20
346.9198289019
 10
204.543274614
 20
346.1150340369
 10
211.7020082623
 20
345.112464245
 10
218.7699984565
 20
343.9143906692
 10
225.7312339255
 20
342.5235273316
 10
232.5699452319
 20
340.9430249849
 10
239.2706404952
 20
339.1764639753
 10
245.8181404854
 20
337.2278461316
 10
252.1976130091
 20
335.1015857001
 10
258.3946065092
 20
332.8024993445
 10
264.3950828022
 20
330.3357952348
 10
270.1854488794
 20
327.7070612492
 10
275.7525876993
 20
324.9222523157
 10
281.0838879018
 20
321.9876769222
 10
286.1672723772
 20
318.9099828259
 10
290.9912256248
 20
315.6961419937
 10
295.5448198388
 20
312.3534348089
 10
299.8177396638
 20
308.8894335782
 10
303.8003055621
 20
305.3119853788
 10
307.4834957409
 20
301.6291942812
 10
310.8589665899
 20
297.849402992
 10
313.919071582
 20
293.9811739541
 10
316.6568785951
 20
290.0332699504
 10
319.0661856157
 20
286.0146342532
 10
321.1415347885
 20
281.934370365
 10
322.8782247802
 20
277.8017213957
 10
324.2723214293
 20
273.6260491246
 10
325.3206666586
 20
269.4168127923
 10
326.0208856289
 20
265.183547673
 10
326.3666282814
 20
261.0483920268
  0
LWPOLYLINE
  5
2A0
330
260
100
AcDbEntity
  8
0
  6
CONTINUOUS
 62
     7
100
AcDbPolyline
 90
       59
 70
   128
 43
0.0
 10
37.8782123456
 20
213.8676797593
 10
38.6576519938
 20
217.4988645255
 10
39.8356139415
 20
221.4040535294
 10
41.3574498614
 20
225.2694260611
 10
43.2191894576
 20
229.084897805
 10
45.4159756639
 20
232.840514631
 10
47.942077316
 20
236.5264785635
 10
50.790904103
 20
240.1331733436
 10
53.9550237612
 20
243.6511895164
 10
57.4261814636
 20
247.0713489793
 10
61.1953213562
 20
250.3847289268
 10
65.2526101833
 20
253.582685129
 10
69.5874629416
 20
256.6568744833
 10
74.1885704953
 20
259.5992767806
 10
79.0439290799
 20
262.4022156293
 10
84.1408716195
 20
265.058378482
 10
89.4661007728
 20
267.560835713
 10
95.0057236251
 20
269.9030586973
 10
100.7452879327
 20
272.0789368424
 10
106.6698198278
 20
274.0827935307
 10
112.7638628832
 20
275.909400929
 10
119.0115184362
 20
277.553993627
 10
125.3964870669
 20
279.0122810702
 10
131.9021111211
 20
280.2804587532
 10
138.5114181686
 20
281.3552181452
 10
145.2071652818
 20
282.2337553216
 10
151.9718840211
 20
282.9137782793
 10
158.7879260076
 20
283.393512916
 10
165.6375089661
 20
283.6717076588
 10
172.5027631166
 20
283.7476367294
 10
179.365777795
 20
283.6211020375
 10
186.2086481796
 20
283.2924336977
 10
193.0135220029
 20
282.7624891682
 10
199.762646126
 20
282.0326510137
 10
206.4384128546
 20
281.1048232987
 10
213.0234058757
 20
279.9814266196
 10
219.5004456943
 20
278.6653917903
 10
225.852634453
 20
277.1601521952
 10
232.0634000167
 20
275.4696348327
 10
238.1165392071
 20
273.5982500694
 10
243.9962600753
 20
271.5508801347
 10
249.6872231008
 20
269.3328663828
 10
255.1745812108
 20
266.9499953584
 10
260.4440185147
 20
264.4084836999
 10
265.481787652
 20
261.7149619211
 10
270.2747456585
 20
258.8764571128
 10
274.8103882538
 20
255.9003746098
 10
279.0768824643
 20
252.7944786717
 10
283.0630974938
 20
249.5668722263
 10
286.7586337624
 20
246.2259757303
 10
290.1538500378
 20
242.7805052012
 10
293.2398885886
 20
239.2394494782
 10
296.0086982925
 20
235.6120467714
 10
298.4530556411
 20
231.9077605603
 10
300.5665835852
 20
228.1362549046
 10
302.3437681717
 20
224.3073692321
 10
303.7799729289
 20
220.4310926681
 10
304.8714509626
 20
216.5175379757
 10
305.4105104055
 20
213.8676797593
  0
LWPOLYLINE
  5
2A1
330
260
100
AcDbEntity
  8
0
  6
CONTINUOUS
 62
     7
100
AcDbPolyline
 90
       56
 70
   128
 43
0.0
 10
56.1738334503
 20
199.4440993718
 10
56.7738543075
 20
202.9913534217
 10
57.7370625472
 20
206.6318546684
 10
59.0462035097
 20
210.2361964193
 10
60.6973013769
 20
213.7934324071
 10
62.6853418189
 20
217.2927594228
 10
65.0042872222
 20
220.7235501254
 10
67.6470950257
 20
224.0753853163
 10
70.6057391092
 20
227.3380855822
 10
73.8712341676
 20
230.5017422096
 10
77.4336629999
 20
233.5567472773
 10
81.2822066268
 20
236.4938228352
 10
85.4051771478
 20
239.3040490816
 10
89.7900532369
 20
241.9788914516
 10
94.4235181695
 20
244.5102265368
 10
99.2915002649
 20
246.8903667558
 10
104.3792156215
 20
249.1120837011
 10
109.6712130151
 20
251.1686300911
 10
115.1514208233
 20
253.0537602623
 10
120.8031958353
 20
254.7617491361
 10
126.609373796
 20
256.2874096065
 10
132.5523215339
 20
257.6261082928
 10
138.6139905119
 20
258.773779611
 10
144.7759716406
 20
259.7269381212
 10
151.0195511859
 20
260.4826891123
 10
157.3257676019
 20
261.0387373933
 10
163.6754691166
 20
261.3933942638
 10
170.0493718951
 20
261.5455826426
 10
176.4281186043
 20
261.4948403387
 10
182.7923372
 20
261.2413214547
 10
189.1226997595
 20
260.7857959191
 10
195.3999811798
 20
260.129647148
 10
201.6051175636
 20
259.2748678437
 10
207.7192641154
 20
258.2240539428
 10
213.7238523734
 20
256.9803967326
 10
219.6006466001
 20
255.5476731591
 10
225.3317991649
 20
253.9302343569
 10
230.8999047455
 20
252.1329924343
 10
236.2880531885
 20
250.161405556
 10
241.4798808641
 20
248.0214613666
 10
246.4596203622
 20
245.7196588062
 10
251.2121483778
 20
243.2629883735
 10
255.7230316393
 20
240.658910896
 10
259.9785707426
 20
237.9153348713
 10
263.9658417553
 20
235.0405924496
 10
267.6727354664
 20
232.0434141293
 10
271.0879941615
 20
228.9329022422
 10
274.2012458123
 20
225.7185033109
 10
277.0030355757
 20
222.4099793592
 10
279.4848545083
 20
219.0173782656
 10
281.6391654076
 20
215.5510032482
 10
283.4594257023
 20
212.0213815739
 10
284.9401073215
 20
208.4392325878
 10
286.076713484
 20
204.8154351585
 10
286.8657923542
 20
201.1609946399
 10
287.1230792347
 20
199.3768270222
  0
LWPOLYLINE
  5
2A2
330
260
100
AcDbEntity
  8
0
  6
CONTINUOUS
 62
     7
100
AcDbPolyline
 90
        3
 70
   128
 43
0.0
 10
205.7045363285
 20
173.9590666912
 10
202.6504754343
 20
172.3415692873
 10
200.0467649043
 20
171.1629841593
  0
LWPOLYLINE
  5
2A3
330
260
100
AcDbEntity
  8
0
  6
CONTINUOUS
 62
     7
100
AcDbPolyline
 90
       59
 70
   128
 43
0.0
 10
143.4098392157
 20
171.0925483399
 10
141.4385529795
 20
171.9613692882
 10
138.3249133287
 20
173.5405578195
 10
135.4579592138
 20
175.2684192662
 10
132.85891656
 20
177.1321611469
 10
130.5470277698
 20
179.1179849687
 10
128.5394092589
 20
181.2111883867
 10
126.8509247324
 20
183.3962740553
 10
125.4940751389
 20
185.6570643646
 10
124.4789061182
 20
187.9768212141
 10
123.8129336264
 20
190.3383699358
 10
123.501088291
 20
192.7242264492
 10
123.5456789056
 20
195.1167267073
 10
123.946375337
 20
197.4981574753
 10
124.700210969
 20
199.8508874731
 10
125.8016046662
 20
202.1574979108
 10
127.2424020952
 20
204.4009114517
 10
129.0119360958
 20
206.564518647
 10
131.0971056574
 20
208.6323009059
 10
133.4824729141
 20
210.5889490921
 10
136.1503774413
 20
212.4199768668
 10
139.0810670073
 20
214.1118279412
 10
142.2528438119
 20
215.6519764418
 10
145.6422251294
 20
217.0290196479
 10
149.2241171662
 20
218.2327624134
 10
152.9720008471
 20
219.2542926481
 10
156.8581281524
 20
220.0860472994
 10
160.8537275553
 20
220.721868347
 10
164.9292170356
 20
221.1570483943
 10
169.0544230952
 20
221.3883655204
 10
173.1988041518
 20
221.4141071343
 10
177.3316766578
 20
221.2340826541
 10
181.4224422713
 20
220.849624918
 10
185.4408143949
 20
220.2635803167
 10
189.3570424073
 20
219.4802877192
 10
193.1421319265
 20
218.50554635
 10
196.7680594739
 20
217.3465728531
 10
200.2079799507
 20
216.0119478628
 10
203.436425389
 20
214.5115524756
 10
206.4294935084
 20
212.8564950939
 10
209.1650246797
 20
211.0590291836
 10
211.6227659873
 20
209.1324625535
 10
213.7845211744
 20
207.0910588287
 10
215.6342853618
 20
204.9499318483
 10
217.1583635428
 20
202.7249337672
 10
218.3454719756
 20
200.4325376929
 10
219.1868217249
 20
198.0897157238
 10
219.6761837314
 20
195.7138132941
 10
219.80993493
 20
193.3224207541
 10
219.5870850737
 20
190.9332431375
 10
219.0092840648
 20
188.5639690796
 10
218.0808097398
 20
186.2321398564
 10
216.8085361978
 20
183.9550195157
 10
215.201882907
 20
181.7494670599
 10
213.2727449663
 20
179.6318116276
 10
211.0354050379
 20
177.6177315988
 10
208.5064276039
 20
175.7221385174
 10
205.7045363285
 20
173.9590666912
 10
205.7045363285
 20
173.9590666912
  0
LWPOLYLINE
  5
2A4
330
260
100
AcDbEntity
  8
0
  6
CONTINUOUS
 62
     7
100
AcDbPolyline
 90
       38
 70
   128
 43
0.0
 10
126.4184940457
 20
190.9175579917
 10
126.4404580552
 20
192.0815306358
 10
126.7499792578
 20
194.3844775315
 10
127.4108598707
 20
196.6626205829
 10
128.4179276068
 20
198.8981302317
 10
129.7633007957
 20
201.073510584
 10
131.436450068
 20
203.1717363389
 10
133.4242807623
 20
205.1763860352
 10
135.7112354081
 20
207.0717705708
 10
138.2794154845
 20
208.8430559919
 10
141.1087215003
 20
210.4763795886
 10
144.1770102999
 20
211.9589583891
 10
147.4602683634
 20
213.2791892042
 10
150.9327997446
 20
214.4267394377
 10
154.5674271774
 20
215.3926279532
 10
158.335704774
 20
216.1692953633
 10
162.2081406531
 20
216.7506631926
 10
166.1544277534
 20
217.1321814495
 10
170.1436810279
 20
217.3108642365
 10
174.1446791607
 20
217.2853131183
 10
178.1261089169
 20
217.0557280673
 10
182.0568102103
 20
216.6239058976
 10
185.9060199738
 20
215.9932262033
 10
189.6436129221
 20
215.1686249081
 10
193.2403373228
 20
214.1565556351
 10
196.6680439307
 20
212.9649391986
 10
199.8999062944
 20
211.6031016129
 10
202.9106307087
 20
210.0817011035
 10
205.6766541731
 20
208.4126446922
 10
208.1763288038
 20
206.6089950084
 10
210.3900912574
 20
204.6848680565
 10
212.3006158413
 20
202.6553227385
 10
213.8929501102
 20
200.5362429984
 10
215.1546318895
 20
198.3442135083
 10
216.0757868086
 20
196.096389871
 10
216.6492055814
 20
193.8103643542
 10
216.8704004284
 20
191.5040282071
 10
216.8722039418
 20
191.0447609869
  0
LWPOLYLINE
  5
2A5
330
260
100
AcDbEntity
  8
0
  6
CONTINUOUS
 62
     7
100
AcDbPolyline
 90
       34
 70
   128
 43
0.0
 10
127.0859741935
 20
186.7042176625
 10
127.5853086164
 20
188.2968720434
 10
128.5884046637
 20
190.5235652557
 10
129.9284719497
 20
192.6903663104
 10
131.5950226309
 20
194.7803170512
 10
133.5750136887
 20
196.7770607799
 10
135.8529490085
 20
198.6649702696
 10
138.4110006578
 20
200.4292700688
 10
141.2291484142
 20
202.0561521394
 10
144.2853364505
 20
203.5328839234
 10
147.5556459516
 20
204.8479079925
 10
151.0144823116
 20
205.9909325002
 10
154.6347754462
 20
206.95301173
 10
158.3881916532
 20
207.7266161076
 10
162.2453553617
 20
208.3056911297
 10
166.1760790359
 20
208.6857047492
 10
170.1495994335
 20
208.8636828443
 10
174.13481837
 20
208.8382324951
 10
178.1005461039
 20
208.609552885
 10
182.0157454386
 20
208.1794337421
 10
185.849774631
 20
207.5512413318
 10
189.5726272042
 20
206.7298921115
 10
193.1551667893
 20
205.7218142524
 10
196.5693551567
 20
204.5348973307
 10
199.7884716531
 20
203.1784305804
 10
202.7873223274
 20
201.6630301932
 10
205.5424371071
 20
200.0005562316
 10
208.0322534834
 20
198.2040198085
 10
210.2372852675
 20
196.2874812572
 10
212.1402750959
 20
194.2659400904
 10
213.7263294931
 20
192.1552176087
 10
214.9830354329
 20
189.9718330774
 10
215.9005574875
 20
187.7328744406
 10
216.2095556504
 20
186.677754577
  0
LWPOLYLINE
  5
2A6
330
260
100
AcDbEntity
  8
0
  6
CONTINUOUS
 62
     7
100
AcDbPolyline
 90
       34
 70
   128
 43
0.0
 10
129.6187701614
 20
182.0109651984
 10
129.9373093951
 20
183.8231542025
 10
130.6520310574
 20
186.030369429
 10
131.7164848285
 20
188.1900991362
 10
133.1215891641
 20
190.2839172719
 10
134.8553562095
 20
192.2939601179
 10
136.9029940755
 20
194.2030786974
 10
139.2470330379
 20
195.9949850838
 10
141.8674745826
 20
197.6543913637
 10
144.7419620265
 20
199.1671400677
 10
147.8459712561
 20
200.5203249574
 10
151.1530199591
 20
201.7024011362
 10
154.634893562
 20
202.7032835471
 10
158.2618859469
 20
203.5144330143
 10
162.0030528937
 20
204.1289290964
 10
165.826476085
 20
204.5415291296
 10
169.6995354223
 20
204.7487129559
 10
173.5891873289
 20
204.7487129559
 10
177.4622466661
 20
204.5415291296
 10
181.2856698575
 20
204.1289290964
 10
185.0268368042
 20
203.5144330143
 10
188.6538291892
 20
202.7032835471
 10
192.1357027921
 20
201.7024011362
 10
195.4427514951
 20
200.5203249574
 10
198.5467607247
 20
199.1671400677
 10
201.4212481685
 20
197.6543913637
 10
204.0416897133
 20
195.9949850838
 10
206.3857286756
 20
194.2030786974
 10
208.4333665417
 20
192.2939601179
 10
210.1671335871
 20
190.2839172719
 10
211.5722379227
 20
188.1900991362
 10
212.6366916938
 20
186.030369429
 10
213.3514133561
 20
183.8231542025
 10
213.6687282084
 20
182.0220145525
  0
LINE
  5
2AD
330
260
100
AcDbEntity
  8
0
  6
CONTINUOUS
 62
     7
100
AcDbLine
 10
332.4573006925
 20
182.7938299825
 30
0.0
 11
331.6413160078
 21
259.1410522799
 31
0.0
  0
LINE
  5
2AE
330
260
100
AcDbEntity
  8
0
  6
CONTINUOUS
 62
     7
100
AcDbLine
 10
11.6474067434
 20
259.1410522799
 30
0.0
 11
10.8314220586
 21
182.7938299825
 31
0.0
  0
LINE
  5
2AF
330
260
100
AcDbEntity
  8
0
  6
CONTINUOUS
 62
     7
100
AcDbLine
 10
-1.1947600512
 20
395.3261890476
 30
0.0
 11
-2.2316113523
 21
326.7266845353
 31
0.0
  0
LINE
  5
2B0
330
260
100
AcDbEntity
  8
0
  6
CONTINUOUS
 62
     7
100
AcDbLine
 10
86.9925511462
 20
446.7979748087
 30
0.0
 11
-0.6948336229
 21
396.1771250766
 31
0.0
  0
LINE
  5
2B1
330
260
100
AcDbEntity
  8
0
  6
CONTINUOUS
 62
     7
100
AcDbLine
 10
134.3502884254
 20
-77.5587706232
 30
0.0
 11
128.693434176
 21
-67.7608116808
 31
0.0
  0
LINE
  5
2B2
330
260
100
AcDbEntity
  8
0
  6
CONTINUOUS
 62
     7
100
AcDbLine
 10
0.0
 20
0.0
 30
0.0
 11
134.3502884254
 21
-77.5587706232
 31
0.0
  0
LINE
  5
2B3
330
260
100
AcDbEntity
  8
0
  6
CONTINUOUS
 62
     7
100
AcDbLine
 10
0.0
 20
0.0
 30
0.0
 11
5.6568542495
 21
3.2666940478
 31
0.0
  0
LINE
  5
2B4
330
260
100
AcDbEntity
  8
0
  6
CONTINUOUS
 62
     7
100
AcDbLine
 10
5.6568542495
 20
3.2666940478
 30
0.0
 11
128.693434176
 21
-67.7608116808
 31
0.0
  0
LINE
  5
2B5
330
260
100
AcDbEntity
  8
0
  6
CONTINUOUS
 62
     7
100
AcDbLine
 10
134.3502884254
 20
-77.5587706232
 30
0.0
 11
222.0315292926
 21
-26.9414676901
 31
0.0
  0
LINE
  5
2B6
330
260
100
AcDbEntity
  8
0
  6
CONTINUOUS
 62
     7
100
AcDbLine
 10
84.1457069612
 20
48.577344254
 30
0.0
 11
5.6568542495
 21
3.2666940478
 31
0.0
  0
LINE
  5
2B7
330
260
100
AcDbEntity
  8
0
  6
CONTINUOUS
 62
     7
100
AcDbLine
 10
84.1457069612
 20
48.577344254
 30
0.0
 11
128.693434176
 21
22.8604887315
 31
0.0
  0
LINE
  5
2B8
330
260
100
AcDbEntity
  8
0
  6
CONTINUOUS
 62
     7
100
AcDbLine
 10
5.6571724734
 20
316.8185495187
 30
0.0
 11
5.6568542495
 21
316.8183658119
 31
0.0
  0
LINE
  5
2B9
330
260
100
AcDbEntity
  8
0
  6
CONTINUOUS
 62
     7
100
AcDbLine
 10
5.6568542495
 20
316.8183658119
 30
0.0
 11
1.2314976625
 21
324.4833082397
 31
0.0
  0
LINE
  5
2BA
330
260
100
AcDbEntity
  8
0
  6
CONTINUOUS
 62
     7
100
AcDbLine
 10
5.6568542495
 20
316.8183658119
 30
0.0
 11
5.6568542495
 21
3.2666940478
 31
0.0
  0
LINE
  5
2BB
330
260
100
AcDbEntity
  8
0
  6
CONTINUOUS
 62
     7
100
AcDbLine
 10
0.0
 20
325.1942367077
 30
0.0
 11
0.0
 21
0.0
 31
0.0
  0
LINE
  5
2BC
330
260
100
AcDbEntity
  8
0
  6
CONTINUOUS
 62
     7
100
AcDbLine
 10
84.1457069612
 20
104.2607260315
 30
0.0
 11
84.1457069612
 21
48.577344254
 31
0.0
  0
LINE
  5
2BD
330
260
100
AcDbEntity
  8
0
  6
CONTINUOUS
 62
     7
100
AcDbLine
 10
134.3502884254
 20
91.7997451877
 30
0.0
 11
134.3502884254
 21
-77.5587706232
 31
0.0
  0
LINE
  5
2BE
330
260
100
AcDbEntity
  8
0
  6
CONTINUOUS
 62
     7
100
AcDbLine
 10
128.693434176
 20
92.6440535913
 30
0.0
 11
128.693434176
 21
-67.7608116808
 31
0.0
  0
LINE
  5
2BF
330
260
100
AcDbEntity
  8
0
  6
CONTINUOUS
 62
     7
100
AcDbLine
 10
222.0315292926
 20
93.9507230314
 30
0.0
 11
222.0315292926
 21
-26.9414676901
 31
0.0
  0
LINE
  5
2C0
330
260
100
AcDbEntity
  8
0
  6
CONTINUOUS
 62
     7
100
AcDbLine
 10
1.2321340586
 20
324.482940856
 30
0.0
 11
5.6575613563
 21
316.8178759538
 31
0.0
  0
LINE
  5
2C1
330
260
100
AcDbEntity
  8
0
  6
CONTINUOUS
 62
     7
100
AcDbLine
 10
5.6575613563
 20
316.8178759538
 30
0.0
 11
30.620565275
 21
302.4070405348
 31
0.0
  0
LINE
  5
2C2
330
260
100
AcDbEntity
  8
0
  6
CONTINUOUS
 62
     7
100
AcDbLine
 10
128.693434176
 20
87.3816771774
 30
0.0
 11
115.157169551
 21
95.1959964129
 31
0.0
  0
LINE
  5
2C3
330
260
100
AcDbEntity
  8
0
  6
CONTINUOUS
 62
     7
100
AcDbLine
 10
21.1836313371
 20
149.445765285
 30
0.0
 11
7.0710678119
 21
157.5927747941
 31
0.0
  0
LINE
  5
2C4
330
260
100
AcDbEntity
  8
0
  6
CONTINUOUS
 62
     7
100
AcDbLine
 10
7.0710678119
 20
164.1251012892
 30
0.0
 11
7.0710678119
 21
157.5927747941
 31
0.0
  0
LINE
  5
2C5
330
260
100
AcDbEntity
  8
0
  6
CONTINUOUS
 62
     7
100
AcDbLine
 10
15.9371510124
 20
159.0068204032
 30
0.0
 11
7.0710678119
 21
164.1251012892
 31
0.0
  0
LINE
  5
2C6
330
260
100
AcDbEntity
  8
0
  6
CONTINUOUS
 62
     7
100
AcDbLine
 10
12.8705135373
 20
167.4730500434
 30
0.0
 11
7.0710678119
 21
164.1251012892
 31
0.0
  0
LINE
  5
2C7
330
260
100
AcDbEntity
  8
0
  6
CONTINUOUS
 62
     7
100
AcDbLine
 10
216.8722039418
 20
191.0447609869
 30
0.0
 11
216.8697235673
 21
190.8929931138
 31
0.0
  0
LINE
  5
2C8
330
260
100
AcDbEntity
  8
0
  6
CONTINUOUS
 62
     7
100
AcDbLine
 10
-0.1948742566
 20
396.1276170261
 30
0.0
 11
87.4925105125
 21
446.7484667582
 31
0.0
  0
LINE
  5
2C9
330
260
100
AcDbEntity
  8
0
  6
CONTINUOUS
 62
     7
100
AcDbLine
 10
322.9713564514
 20
310.8094225415
 30
0.0
 11
87.4925105125
 21
446.7484667582
 31
0.0
  0
LINE
  5
2CA
330
260
100
AcDbEntity
  8
0
  6
CONTINUOUS
 62
     7
100
AcDbLine
 10
323.6784363081
 20
309.5918187893
 30
0.0
 11
323.8471593199
 21
287.1685252206
 31
0.0
  0
LINE
  5
2CB
330
260
100
AcDbEntity
  8
0
  6
CONTINUOUS
 62
     7
100
AcDbLine
 10
-1.9387608153
 20
326.313459503
 30
0.0
 11
-0.9019541133
 21
394.9100132738
 31
0.0
  0
LINE
  5
2CC
330
260
100
AcDbEntity
  8
0
  6
CONTINUOUS
 62
     7
100
AcDbLine
 10
-1.9387608153
 20
326.313459503
 30
0.0
 11
33.7892538281
 21
305.6881156722
 31
0.0
  0
LINE
  5
2CD
330
260
100
AcDbEntity
  8
0
  6
CONTINUOUS
 62
     7
100
AcDbLine
 10
322.9713564514
 20
310.8094225415
 30
0.0
 11
311.1623536647
 21
303.9922303408
 31
0.0
  0
LINE
  5
2CE
330
260
100
AcDbEntity
  8
0
  6
CONTINUOUS
 62
     7
100
AcDbLine
 10
96.3092713853
 20
340.4169595817
 30
0.0
 11
-0.1948742566
 21
396.1276170261
 31
0.0
  0
LINE
  5
2CF
330
260
100
AcDbEntity
  8
0
  6
CONTINUOUS
 62
     7
100
AcDbLine
 10
312.1606704439
 20
302.9427540852
 30
0.0
 11
323.6784363081
 21
309.5918187893
 31
0.0
  0
LINE
  5
2D0
330
260
100
AcDbEntity
  8
0
  6
CONTINUOUS
 62
     7
100
AcDbLine
 10
-0.9019541133
 20
394.9100132738
 30
0.0
 11
94.4733276134
 21
339.8510350963
 31
0.0
  0
ARC
  5
2D1
330
260
100
AcDbEntity
  8
0
  6
CONTINUOUS
 62
     7
100
AcDbCircle
 10
-0.1948742566
 20
395.3110762142
 30
0.0
 40
0.9999999999997985
100
AcDbArc
 50
119.9973117336
 51
179.1340654612
  0
ARC
  5
2D2
330
260
100
AcDbEntity
  8
0
  6
CONTINUOUS
 62
     7
100
AcDbCircle
 10
67.3163514897
 20
258.5968094094
 30
0.0
 40
55.62228635759354
100
AcDbArc
 50
153.2898087848
 51
204.5042890632
  0
ARC
  5
2D3
330
260
100
AcDbEntity
  8
0
  6
CONTINUOUS
 62
     7
100
AcDbCircle
 10
276.1028574322
 20
258.6010204155
 30
0.0
 40
55.50545310383897
100
AcDbArc
 50
335.4217196371
 51
26.8873430491
  0
ARC
  5
2D4
330
260
100
AcDbEntity
  8
0
  6
CONTINUOUS
 62
     7
100
AcDbCircle
 10
322.1416315413
 20
309.5134819054
 30
0.0
 40
1.538800038577933
100
AcDbArc
 50
2.918061902
 51
57.3706303071
  0
ARC
  5
2D5
330
260
100
AcDbEntity
  8
0
  6
CONTINUOUS
 62
     7
100
AcDbCircle
 10
0.6348506535
 20
394.83167639
 30
0.0
 40
1.538800038577586
100
AcDbArc
 50
122.6293696929
 51
177.081938098
  0
ARC
  5
2D6
330
260
100
AcDbEntity
  8
0
  6
CONTINUOUS
 62
     7
100
AcDbCircle
 10
-1.7419518989
 20
326.7633203888
 30
0.0
 40
0.4910280705899209
100
AcDbArc
 50
184.2788433163
 51
246.3711804177
  0
ARC
  5
2D7
330
260
100
AcDbEntity
  8
0
  6
CONTINUOUS
 62
     7
100
AcDbCircle
 10
87.2022336108
 20
446.3662774354
 30
0.0
 40
0.4799264089912867
100
AcDbArc
 50
52.7829387072
 51
115.9066028637
  0
ARC
  5
2D8
330
260
100
AcDbEntity
  8
0
  6
CONTINUOUS
 62
     7
100
AcDbCircle
 10
-0.7122689646
 20
395.354560375
 30
0.0
 40
0.4833245087937437
100
AcDbArc
 50
183.3652179389
 51
246.8923953789
  0
ARC
  5
2D9
330
260
100
AcDbEntity
  8
0
  6
CONTINUOUS
 62
     7
100
AcDbCircle
 10
-0.4851511582
 20
395.7454277033
 30
0.0
 40
0.4799264089947206
100
AcDbArc
 50
52.7829387074
 51
115.9066028635
  0
VIEWPORT
  5
3DE
330
260
100
AcDbEntity
  8
0
100
AcDbViewport
 10
0.0
 20
0.0
 30
0.0
 40
205.6
 41
156.0
 68
     1
 69
     1
1001
ACAD
1000
MVIEW
1002
{
1070
    16
1010
0.0
1020
0.0
1030
0.0
1010
0.0
1020
0.0
1030
1.0
1040
0.0
1040
357.2134125294
1040
228.7789015083
1040
-46.4080096273
1040
50.0
1040
0.0
1040
0.0
1070
     0
1070
   100
1070
     0
1070
     3
1070
     0
1070
     0
1070
     0
1070
     0
1040
0.0
1040
0.0
1040
0.0
1040
10.0
1040
10.0
1040
10.0
1040
10.0
1070
     0
1002
{
1002
}
1002
}
  0
ENDBLK
  5
263
330
260
100
AcDbEntity
  8
0
100
AcDbBlockEnd
  0
BLOCK
  5
2DC
330
2DA
100
AcDbEntity
  8
0
100
AcDbBlockBegin
  2
*PAPER_SPACE6
 70
     0
 10
0.0
 20
0.0
 30
0.0
  3
*PAPER_SPACE6
  1

  0
SPLINE
  5
2E0
330
2DA
100
AcDbEntity
  8
0
  6
CONTINUOUS
 62
     7
100
AcDbSpline
210
0.0
220
0.0
230
1.0
 70
     8
 71
     3
 72
    68
 73
    64
 74
     0
 42
0.00000001
 43
0.00000001
 40
0.0
 40
0.0
 40
0.0
 40
0.0
 40
0.0067052785020671
 40
0.0232409407472991
 40
0.0397966351728932
 40
0.0563706738229884
 40
0.0729604679423252
 40
0.0895630317768117
 40
0.106175375063803
 40
0.1227947609194726
 40
0.1394188421316901
 40
0.1560457058189829
 40
0.1726738588514714
 40
0.1893019963095912
 40
0.2059292868316362
 40
0.2225552481018198
 40
0.2391795781327422
 40
0.255802111072889
 40
0.2724227816061944
 40
0.2890415970861077
 40
0.3056586162152893
 40
0.3222739330430145
 40
0.338887665162428
 40
0.3554999451576363
 40
0.3721109145270643
 40
0.3887207194710602
 40
0.4053295080692205
 40
0.4219374284849126
 40
0.4385446279229401
 40
0.4551512521347568
 40
0.4717574453176302
 40
0.4883633502928524
 40
0.5049691088765573
 40
0.5215748623765468
 40
0.5381807172598858
 40
0.5547868032299382
 40
0.5713932632139649
 40
0.5880002417376019
 40
0.6046078853749763
 40
0.6212163430464129
 40
0.6378257660849797
 40
0.6544363079706192
 40
0.6710481235966067
 40
0.6876613678870304
 40
0.7042761935229249
 40
0.720892747454628
 40
0.7375111657755139
 40
0.7541315664039128
 40
0.7707540388648797
 40
0.7873786302855582
 40
0.8040053265317976
 40
0.8206340272528737
 40
0.837264513532566
 40
0.8538964069880319
 40
0.8705291197112685
 40
0.8871614953292948
 40
0.9037921704316335
 40
0.9204194219033447
 40
0.9370410758996991
 40
0.9536545134726857
 40
0.9702567517015631
 40
0.9868446346887086
 40
0.9999999999999999
 40
0.9999999999999999
 40
0.9999999999999999
 40
0.9999999999999999
 10
393.8455602118065
 20
345.0228154266719
 30
0.0
 10
393.6357573815285
 20
345.5104477682652
 30
0.0
 10
392.9085668337228
 20
347.2006138596428
 30
0.0
 10
391.3421513741317
 20
350.0500517309997
 30
0.0
 10
389.1564751718674
 20
353.5643140070885
 30
0.0
 10
386.6519970699057
 20
357.0218831085725
 30
0.0
 10
383.8577021139815
 20
360.4188223654767
 30
0.0
 10
380.7727350223825
 20
363.7472421467502
 30
0.0
 10
377.4051275840262
 20
367.0005227006496
 30
0.0
 10
373.7613362813377
 20
370.1719737660609
 30
0.0
 10
369.8489788249747
 20
373.2552291364159
 30
0.0
 10
365.6760386095918
 20
376.2441557163061
 30
0.0
 10
361.2510446759031
 20
379.1328694399877
 30
0.0
 10
356.5829793483538
 20
381.9157352820985
 30
0.0
 10
351.6812612893618
 20
384.5873704724178
 30
0.0
 10
346.5557030252201
 20
387.1426480772836
 30
0.0
 10
341.2165101807636
 20
389.5766849626015
 30
0.0
 10
335.6742774972031
 20
391.8848371929182
 30
0.0
 10
329.9399737214296
 20
394.0627038027315
 30
0.0
 10
324.0249252967815
 20
396.1061319446806
 30
0.0
 10
317.940798752698
 20
398.01122297476
 30
0.0
 10
311.6995817013082
 20
399.7743390726395
 30
0.0
 10
305.3135624892857
 20
401.392110071941
 30
0.0
 10
298.7953085974159
 20
402.8614402437401
 30
0.0
 10
292.1576439096208
 20
404.1795148378447
 30
0.0
 10
285.4136249814238
 20
405.3438062360326
 30
0.0
 10
278.576516437234
 20
406.3520796104299
 30
0.0
 10
271.6597656199982
 20
407.2023980098518
 30
0.0
 10
264.6769766089631
 20
407.8931268189631
 30
0.0
 10
257.6418837131248
 20
408.4229375512836
 30
0.0
 10
250.5683245404532
 20
408.7908109487135
 30
0.0
 10
243.4702127362049
 20
408.996039368614
 30
0.0
 10
236.3615104792523
 20
409.038228445469
 30
0.0
 10
229.2562057958917
 20
408.9172981029836
 30
0.0
 10
222.1682815469542
 20
408.6334832410157
 30
0.0
 10
215.1116858097269
 20
408.1873332880775
 30
0.0
 10
208.1002992345404
 20
407.5797103006583
 30
0.0
 10
201.1479108110381
 20
406.8117867547732
 30
0.0
 10
194.2681923292231
 20
405.8850428269338
 30
0.0
 10
187.474671428838
 20
404.8012628665939
 30
0.0
 10
180.7807050570688
 20
403.5625311371437
 30
0.0
 10
174.1994534294591
 20
402.1712268383563
 30
0.0
 10
167.7438545960649
 20
400.6300184304989
 30
0.0
 10
161.4265997240397
 20
398.9418572909503
 30
0.0
 10
155.2601092185424
 20
397.1099707494675
 30
0.0
 10
149.2565098154657
 20
395.1378545700372
 30
0.0
 10
143.4276127915045
 20
393.0292649777949
 30
0.0
 10
137.7848934451147
 20
390.7882103720307
 30
0.0
 10
132.3394720107924
 20
388.4189429228787
 30
0.0
 10
127.1020961403525
 20
385.9259503278789
 30
0.0
 10
122.0831251287039
 20
383.3139480906988
 30
0.0
 10
117.2925157142117
 20
380.5878728406078
 30
0.0
 10
112.7398101986223
 20
377.7528771959983
 30
0.0
 10
108.4341235287383
 20
374.8143273473365
 30
0.0
 10
104.38416454701
 20
371.7778208589934
 30
0.0
 10
100.5981805927897
 20
368.6491901338932
 30
0.0
 10
97.08403578634365
 20
365.434496554517
 30
0.0
 10
93.8488019589918
 20
362.1400761591436
 30
0.0
 10
90.90012589840588
 20
358.7723696372751
 30
0.0
 10
88.24103908554518
 20
355.3386561691923
 30
0.0
 10
85.88912885206477
 20
351.8443771555815
 30
0.0
 10
83.94786325696322
 20
348.5461554939778
 30
0.0
 10
82.9358647284045
 20
346.3939176640447
 30
0.0
 10
82.48826027699765
 20
345.4419881839335
 30
0.0
  0
SPLINE
  5
2E1
330
2DA
100
AcDbEntity
  8
0
  6
CONTINUOUS
 62
     7
100
AcDbSpline
210
0.0
220
0.0
230
1.0
 70
     8
 71
     3
 72
    56
 73
    52
 74
     0
 42
0.00000001
 43
0.00000001
 40
0.0
 40
0.0
 40
0.0
 40
0.0
 40
0.0108393989536322
 40
0.0314611809130178
 40
0.05208097209394
 40
0.0726980151776721
 40
0.0933140725164492
 40
0.1139301546271718
 40
0.1345471805303272
 40
0.1551658447263875
 40
0.1757865873918786
 40
0.1964096569789227
 40
0.2170351604571314
 40
0.2376631025299194
 40
0.2582934155883209
 40
0.2789259821739037
 40
0.2995606515424786
 40
0.3201972516713068
 40
0.3408355977985172
 40
0.3614754983539337
 40
0.382116758946449
 40
0.40275918491561
 40
0.4234025828308347
 40
0.4440467612257458
 40
0.4646915307821303
 40
0.4853367041235394
 40
0.5059820953388593
 40
0.526627519327656
 40
0.5472727332858076
 40
0.5679175473138184
 40
0.588561773570231
 40
0.6092052217471826
 40
0.6298476985588167
 40
0.6504890074876823
 40
0.6711289489073181
 40
0.6917673207391944
 40
0.7124039198561964
 40
0.7330385445171871
 40
0.7536709982126524
 40
0.774301095425189
 40
0.7949286699660965
 40
0.8155535867439634
 40
0.8361757580529569
 40
0.856795165727565
 40
0.8774118907695657
 40
0.8980261522519067
 40
0.9186383573289951
 40
0.9392491638322388
 40
0.9598595061394244
 40
0.9804703186788597
 40
1.0
 40
1.0
 40
1.0
 40
1.0
 10
375.1048675326867
 20
289.4094737829656
 30
0.0
 10
374.5298357778524
 20
288.857820164362
 30
0.0
 10
372.8608153693442
 20
287.2566544197991
 30
0.0
 10
369.8861438476261
 20
284.6631165916734
 30
0.0
 10
366.0979358037936
 20
281.6615023041737
 30
0.0
 10
362.0446716218338
 20
278.7499802993598
 30
0.0
 10
357.739418752557
 20
275.9335301941558
 30
0.0
 10
353.1894746321419
 20
273.2183526941058
 30
0.0
 10
348.4043272797142
 20
270.6100585111137
 30
0.0
 10
343.3935204615315
 20
268.1141507687846
 30
0.0
 10
338.167209570618
 20
265.7358796186095
 30
0.0
 10
332.7359931157976
 20
263.4802646354852
 30
0.0
 10
327.1109253689461
 20
261.3520685698614
 30
0.0
 10
321.3034774298226
 20
259.3557862493618
 30
0.0
 10
315.3255116820938
 20
257.4956322066897
 30
0.0
 10
309.1892525092225
 20
255.7755309277652
 30
0.0
 10
302.9072579844099
 20
254.1991082556928
 30
0.0
 10
296.4923913038926
 20
252.7696840124032
 30
0.0
 10
289.9577922799956
 20
251.4902655719287
 30
0.0
 10
283.3168487774126
 20
250.363542274465
 30
0.0
 10
276.5831680902153
 20
249.3918805817707
 30
0.0
 10
269.7705482333443
 20
248.577319911528
 30
0.0
 10
262.8929491395701
 20
247.9215691077261
 30
0.0
 10
255.9644637603058
 20
247.4260035197663
 30
0.0
 10
248.999289078379
 20
247.0916626730531
 30
0.0
 10
242.0116970481989
 20
246.919248520479
 30
0.0
 10
235.0160054865987
 20
246.9091242680475
 30
0.0
 10
228.0265554551641
 20
247.0613136282621
 30
0.0
 10
221.057676001484
 20
247.37550022169
 30
0.0
 10
214.1236544654306
 20
247.8510280769473
 30
0.0
 10
207.2387009943752
 20
248.4869035337963
 30
0.0
 10
200.4169257107651
 20
249.2817967987185
 30
0.0
 10
193.6723103485517
 20
250.2340441071089
 30
0.0
 10
187.0186796060643
 20
251.3416504500214
 30
0.0
 10
180.4696726672016
 20
252.6022928440275
 30
0.0
 10
174.0387149000612
 20
254.0133241458017
 30
0.0
 10
167.7389897359534
 20
255.5717774206734
 30
0.0
 10
161.5834107069217
 20
257.2743708819414
 30
0.0
 10
155.5845936557817
 20
259.117513446499
 30
0.0
 10
149.7548289368407
 20
261.0973109311463
 30
0.0
 10
144.1060540935543
 20
263.2095731185231
 30
0.0
 10
138.649824952656
 20
265.4498213362359
 30
0.0
 10
133.3972925484759
 20
267.8132986220103
 30
0.0
 10
128.3591579641186
 20
270.2949758110952
 30
0.0
 10
123.5457091125785
 20
272.889579903925
 30
0.0
 10
118.9665514627962
 20
275.5915483762396
 30
0.0
 10
114.6314811593024
 20
278.3952715131834
 30
0.0
 10
110.547100511883
 20
281.2942725291467
 30
0.0
 10
106.7293600986553
 20
284.2843433827274
 30
0.0
 10
103.2192928812508
 20
287.2981609555173
 30
0.0
 10
101.1282855016487
 20
289.3513380212639
 30
0.0
 10
100.1109410737096
 20
290.3502767470598
 30
0.0
  0
SPLINE
  5
2E2
330
2DA
100
AcDbEntity
  8
0
  6
CONTINUOUS
 62
     7
100
AcDbSpline
210
0.0
220
0.0
230
1.0
 70
     8
 71
     3
 72
    11
 73
     7
 74
     0
 42
0.00000001
 43
0.00000001
 40
0.0
 40
0.0
 40
0.0
 40
0.0
 40
0.291849297912312
 40
0.643553998601016
 40
0.9854307551709832
 40
1.0
 40
1.0
 40
1.0
 40
1.0
 10
283.2832158584343
 20
255.2277878456226
 30
0.0
 10
283.2653284186516
 20
254.7440332060322
 30
0.0
 10
283.2258850022058
 20
253.6773106376477
 30
0.0
 10
282.7543394316865
 20
252.0258871624419
 30
0.0
 10
282.3129895655305
 20
250.8246082040146
 30
0.0
 10
281.9332114493162
 20
250.2146536375769
 30
0.0
 10
281.9176885360724
 20
250.1897225754297
 30
0.0
  0
SPLINE
  5
2E3
330
2DA
100
AcDbEntity
  8
0
  6
CONTINUOUS
 62
     7
100
AcDbSpline
210
0.0
220
0.0
230
1.0
 70
     8
 71
     3
 72
    11
 73
     7
 74
     0
 42
0.00000001
 43
0.00000001
 40
0.0
 40
0.0
 40
0.0
 40
0.0
 40
0.0346011461021029
 40
0.359852691373079
 40
0.6934112701025064
 40
1.0
 40
1.0
 40
1.0
 40
1.0
 10
194.2497757457066
 20
250.1805507444507
 30
0.0
 10
194.2139003269967
 20
250.2390855123429
 30
0.0
 10
193.840795172075
 20
250.8478484042635
 30
0.0
 10
193.4065933361693
 20
252.010445066679
 30
0.0
 10
192.946606660409
 20
253.6108612112937
 30
0.0
 10
192.8922645673922
 20
254.6602080123801
 30
0.0
 10
192.8662382558644
 20
255.1627765596994
 30
0.0
  0
LWPOLYLINE
  5
304
330
2DA
100
AcDbEntity
  8
0
  6
CONTINUOUS
 62
     7
100
AcDbPolyline
 90
       69
 70
   128
 43
0.0
 10
398.8914948107
 20
246.4176286511
 10
398.8200032096
 20
243.4759948293
 10
398.414801352
 20
239.595981469
 10
397.6567269331
 20
235.7300254652
 10
396.5474483356
 20
231.8866350785
 10
395.0894068786
 20
228.0742689066
 10
393.2858114439
 20
224.301317269
 10
391.1406314147
 20
220.5760837404
 10
388.6585879389
 20
216.9067668773
 10
385.8451435393
 20
213.3014421735
 10
382.7064900915
 20
209.7680442879
 10
379.2495351964
 20
206.3143495817
 10
375.4818869781
 20
202.9479590038
 10
371.4118373398
 20
199.676281363
 10
367.0483437148
 20
196.5065170221
 10
362.4010093529
 20
193.4456420514
 10
357.4800621852
 20
190.5003928759
 10
352.2963323146
 20
187.6772514491
 10
346.8612281803
 20
184.9824309878
 10
341.1867114504
 20
182.421862298
 10
335.2852706963
 20
180.0011807221
 10
329.1698939074
 20
177.7257137366
 10
322.8540399071
 20
175.6004692272
 10
316.3516087327
 20
173.6301244676
 10
309.6769110432
 20
171.8190158255
 10
302.8446366251
 20
170.1711292191
 10
295.869822062
 20
168.6900913448
 10
288.7678176425
 20
167.3791616954
 10
281.5542535767
 20
166.2412253869
 10
274.2450055968
 20
165.2787868085
 10
266.8561600182
 20
164.4939641111
 10
259.4039783357
 20
163.8884845458
 10
251.9048614353
 20
163.4636806619
 10
244.3753134989
 20
163.220487375
 10
236.8319056815
 20
163.1594399089
 10
229.2912396412
 20
163.280672618
 10
221.7699110017
 20
163.5839186913
 10
214.284472829
 20
164.0685107397
 10
206.8513992005
 20
164.7333822649
 10
199.487048949
 20
165.5770700066
 10
192.2076296596
 20
166.5977171627
 10
185.029162
 20
167.7930774758
 10
177.9674444618
 20
169.1605201771
 10
171.0380185911
 20
170.6970357757
 10
164.2561347842
 20
172.3992426824
 10
157.6367187244
 20
174.2633946518
 10
151.1943385331
 20
176.2853890271
 10
144.9431727085
 20
178.4607757693
 10
138.8969789207
 20
180.7847672507
 10
133.0690637342
 20
183.2522487923
 10
127.4722533222
 20
185.8577899192
 10
122.1188652386
 20
188.595656313
 10
117.0206813093
 20
191.4598224316
 10
112.1889217029
 20
194.4439847704
 10
107.6342202366
 20
197.5415757348
 10
103.3666009736
 20
200.7457780951
 10
99.3954561617
 20
204.0495399889
 10
95.7295255628
 20
207.445590442
 10
92.3768772182
 20
210.9264553696
 10
89.3448896926
 20
214.4844740261
 10
86.6402358347
 20
218.1118158645
 10
84.2688680919
 20
221.8004977703
 10
82.2360054101
 20
225.5424016306
 10
80.5461217474
 20
229.3292922009
 10
79.2029362281
 20
233.152835229
 10
78.2094049572
 20
237.0046157976
 10
77.567714515
 20
240.8761568436
 10
77.2792771447
 20
244.7589378147
 10
77.2639161522
 20
246.4176286511
  0
LWPOLYLINE
  5
305
330
2DA
100
AcDbEntity
  8
0
  6
CONTINUOUS
 62
     7
100
AcDbPolyline
 90
      134
 70
   128
 43
0.0
 10
378.7002205041
 20
288.7637012092
 10
375.0390598099
 20
285.3860673053
 10
371.0722847791
 20
282.1012499415
 10
366.808746838
 20
278.9165788297
 10
362.2579596069
 20
275.8391602164
 10
357.4300776715
 20
272.8758610259
 10
352.3358739243
 20
270.0332935374
 10
346.9867155257
 20
267.3178006306
 10
341.3945385398
 20
264.7354416318
 10
335.5718213001
 20
262.2919787937
 10
329.5315565655
 20
259.9928644375
 10
323.2872225287
 20
257.8432287863
 10
316.8527527405
 20
255.8478685177
 10
310.2425050189
 20
254.0112360607
 10
303.4712294116
 20
252.3374296605
 10
296.554035282
 20
250.8301842338
 10
289.506357595
 20
249.4928630343
 10
282.3439224754
 20
248.3284501486
 10
275.0827121165
 20
247.3395438373
 10
267.7389291181
 20
246.5283507368
 10
260.3289603315
 20
245.8966809363
 10
252.8693402946
 20
245.4459439381
 10
245.3767143365
 20
245.1771455127
 10
237.8678014356
 20
245.0908854544
 10
230.3593569128
 20
245.1873562432
 10
222.8681350436
 20
245.466342615
 10
215.4108516734
 20
245.9272220421
 10
208.0041469172
 20
246.5689661224
 10
200.6645480297
 20
247.3901428738
 10
193.4084325258
 20
248.3889199299
 10
186.2519916367
 20
249.5630686286
 10
179.2111941801
 20
250.9099689849
 10
172.3017509284
 20
252.4266155376
 10
165.5390795512
 20
254.1096240551
 10
158.9382702127
 20
255.9552390873
 10
152.5140518997
 20
257.9593423455
 10
146.2807595551
 20
260.1174618915
 10
140.2523020916
 20
262.4247821168
 10
134.442131355
 20
264.8761544878
 10
128.8632121081
 20
267.4661090342
 10
123.5279931014
 20
270.1888665546
 10
118.4483792945
 20
273.0383515124
 10
113.6357052921
 20
276.0082055924
 10
109.1007100518
 20
279.0918018888
 10
104.8535129213
 20
282.2822596926
 10
100.9035910581
 20
285.5724598449
 10
97.2597582823
 20
288.9550606226
 10
93.9301454098
 20
292.4225141207
 10
90.9221821088
 20
295.9670830945
 10
88.2425803217
 20
299.5808582247
 10
85.8973192877
 20
303.2557757659
 10
83.8916322013
 20
306.9836355402
 10
82.2299945346
 20
310.7561192345
 10
80.9161140511
 20
314.5648089628
 10
79.9529225319
 20
318.4012060489
 10
79.3425692338
 20
322.2567499908
 10
79.0864160938
 20
326.1228375624
 10
79.1850346896
 20
329.9908420106
 10
79.6382049646
 20
333.852132305
 10
80.4449157187
 20
337.698092397
 10
81.6033668648
 20
341.5201404459
 10
83.1109734454
 20
345.309747968
 10
84.9643714007
 20
349.058458867
 10
87.1594250751
 20
352.757908303
 10
89.6912364456
 20
356.399841358
 10
92.554156051
 20
359.976131455
 10
95.7417955983
 20
363.4787984925
 10
99.247042217
 20
366.9000266507
 10
103.0620743315
 20
370.2321818319
 10
107.1783791133
 20
373.4678286948
 10
111.5867714768
 20
376.5997472461
 10
116.277414575
 20
379.6209489508
 10
121.2398417488
 20
382.5246923266
 10
126.4629798829
 20
385.3044979866
 10
131.9351741137
 20
387.9541630974
 10
137.6442138362
 20
390.4677752201
 10
143.5773599503
 20
392.839725503
 10
149.721373287
 20
395.0647211978
 10
156.0625441503
 20
397.1377974688
 10
162.5867229082
 20
399.0543284725
 10
169.279351567
 20
400.8100376786
 10
176.1254962551
 20
402.4010074134
 10
183.1098805467
 20
403.8236876014
 10
190.2169195495
 20
405.0749036866
 10
197.4307546803
 20
406.1518637169
 10
204.7352890522
 20
407.0521645733
 10
212.1142233928
 20
407.7737973324
 10
219.5510924143
 20
408.3151517495
 10
227.0293015538
 20
408.6750198511
 10
234.5321640027
 20
408.8525986309
 10
242.042937941
 20
408.847491841
 10
249.5448638952
 20
408.6597108768
 10
257.0212021351
 20
408.2896747511
 10
264.4552700266
 20
407.738209159
 10
271.8304792573
 20
407.006544636
 10
279.1303728517
 20
406.0963138117
 10
286.3386618926
 20
405.009547767
 10
293.4392618686
 20
403.7486715019
 10
300.4163285648
 20
402.3164985245
 10
307.2542934169
 20
400.7162245725
 10
313.9378982518
 20
398.951420483
 10
320.4522293335
 20
397.0260242239
 10
326.7827506422
 20
394.9443321072
 10
332.9153363095
 20
392.7109892019
 10
338.8363021387
 20
390.3309789695
 10
344.5324361398
 20
387.8096121432
 10
349.9910280106
 20
385.1525148786
 10
355.1998974982
 20
382.3656161985
 10
360.1474215779
 20
379.4551347636
 10
364.822560389
 20
376.4275649961
 10
369.2148818687
 20
373.2896625879
 10
373.3145850302
 20
370.0484294264
 10
377.1125218327
 20
366.7110979702
 10
380.6002175942
 20
363.2851151105
 10
383.7698899015
 20
359.778125555
 10
386.6144659765
 20
356.1979547686
 10
389.1275984575
 20
352.5525915121
 10
391.3036795634
 20
348.8501700166
 10
393.1378536062
 20
345.098951832
 10
394.6260278265
 20
341.307307393
 10
395.7648815256
 20
337.4836973409
 10
396.5518734758
 20
333.6366536448
 10
396.9852475901
 20
329.7747605636
 10
397.0640368415
 20
325.9066354908
 10
396.7880654203
 20
322.0409097258
 10
396.1579491268
 20
318.1862092146
 10
395.1750939967
 20
314.3511353013
 10
393.8416931641
 20
310.5442455352
 10
392.1607219678
 20
306.7740345761
 10
390.1359313117
 20
303.0489152389
 10
387.7718392955
 20
299.3771997214
 10
385.0737211329
 20
295.7670810567
 10
382.0475973807
 20
292.2266148311
 10
378.7002205041
 20
288.7637012092
  0
LWPOLYLINE
  5
306
330
2DA
100
AcDbEntity
  8
0
  6
CONTINUOUS
 62
     7
100
AcDbPolyline
 90
      133
 70
   128
 43
0.0
 10
375.8033456913
 20
289.5510097108
 10
372.1892886409
 20
286.2182330282
 10
368.2714257197
 20
282.9777991343
 10
364.0586321475
 20
279.837048654
 10
359.5604512566
 20
276.8030963973
 10
354.7870728736
 20
273.8828152419
 10
349.7493102357
 20
271.0828205639
 10
344.4585754957
 20
268.4094552519
 10
338.9268538694
 20
265.868775338
 10
333.1666764855
 20
263.4665362795
 10
327.1910919984
 20
261.2081799205
 10
321.0136370289
 20
259.0988221644
 10
314.6483054995
 20
257.1432413851
 10
308.1095169334
 20
255.345867602
 10
301.4120837897
 20
253.7107724449
 10
294.5711779086
 20
252.24165993
 10
287.6022961423
 20
250.9418580699
 10
280.5212252493
 20
249.8143113337
 10
273.3440061328
 20
248.8615739776
 10
266.0868975024
 20
248.0858042579
 10
258.7663390434
 20
247.4887595428
 10
251.3989141753
 20
247.0717923304
 10
244.0013124849
 20
246.8358471857
 10
236.5902919194
 20
246.7814586002
 10
229.182640824
 20
246.9087497816
 10
221.795139911
 20
247.2174323745
 10
214.4445242461
 20
247.7068071134
 10
207.1474453379
 20
248.3757654073
 10
199.9204334171
 20
249.2227918503
 10
192.7798599903
 20
250.2459676552
 10
185.7419007528
 20
251.4429749997
 10
178.822498946
 20
252.8111022772
 10
172.0373292405
 20
254.3472502393
 10
165.401762228
 20
256.0479390169
 10
158.930829602
 20
257.9093160027
 10
152.6391901062
 20
259.9271645794
 10
146.5410963277
 20
262.0969136709
 10
140.6503624102
 20
264.4136480975
 10
134.9803327606
 20
266.8721197107
 10
129.54385182
 20
269.4667592816
 10
124.353234966
 20
272.1916891169
 10
119.4202406154
 20
275.0407363743
 10
114.756043587
 20
278.0074470452
 10
110.3712097873
 20
281.0851005759
 10
106.275672275
 20
284.2667250912
 10
102.4787087599
 20
287.5451131883
 10
98.9889205857
 20
290.9128382637
 10
95.814213245
 20
294.3622713368
 10
92.9617784709
 20
297.8855983325
 10
90.4380779457
 20
301.4748377817
 10
88.2488286629
 20
305.1218589027
 10
86.398989976
 20
308.8184000197
 10
84.8927523648
 20
312.5560872781
 10
83.733527942
 20
316.326453614
 10
82.9239427235
 20
320.1209579352
 10
82.4658306805
 20
323.9310044687
 10
82.3602295839
 20
327.7479622339
 10
82.6073786543
 20
331.5631845937
 10
83.2067180195
 20
335.3680288423
 10
84.156889983
 20
339.1538757838
 10
85.4557420998
 20
342.9121492571
 10
87.1003320521
 20
346.6343355641
 10
89.0869343147
 20
350.3120027557
 10
91.4110485945
 20
353.9368197326
 10
94.067410025
 20
357.5005751187
 10
97.0500010934
 20
360.9951958618
 10
100.3520652716
 20
364.4127655219
 10
103.966122322
 20
367.7455422044
 10
107.8839852432
 20
370.9859760984
 10
112.0967788154
 20
374.1267265787
 10
116.5949597063
 20
377.1606788354
 10
121.3683380893
 20
380.0809599907
 10
126.4061007272
 20
382.8809546687
 10
131.6968354672
 20
385.5543199807
 10
137.2285570935
 20
388.0949998946
 10
142.9887344774
 20
390.4972389531
 10
148.9643189645
 20
392.7555953122
 10
155.141773934
 20
394.8649530682
 10
161.5071054634
 20
396.8205338475
 10
168.0458940295
 20
398.6179076306
 10
174.7433271733
 20
400.2530027878
 10
181.5842330543
 20
401.7221153026
 10
188.5531148207
 20
403.0219171627
 10
195.6341857136
 20
404.1494638989
 10
202.8114048302
 20
405.1022012551
 10
210.0685134605
 20
405.8779709747
 10
217.3890719195
 20
406.4750156898
 10
224.7564967876
 20
406.8919829022
 10
232.154098478
 20
407.1279280469
 10
239.5651190435
 20
407.1823166324
 10
246.9727701389
 20
407.055025451
 10
254.3602710519
 20
406.7463428581
 10
261.7108867168
 20
406.2569681192
 10
269.007965625
 20
405.5880098254
 10
276.2349775458
 20
404.7409833823
 10
283.3755509726
 20
403.7178075774
 10
290.4135102101
 20
402.5208002329
 10
297.3329120169
 20
401.1526729554
 10
304.1180817225
 20
399.6165249933
 10
310.753648735
 20
397.9158362158
 10
317.2245813609
 20
396.0544592299
 10
323.5162208567
 20
394.0366106532
 10
329.6143146352
 20
391.8668615618
 10
335.5050485528
 20
389.5501271351
 10
341.1750782023
 20
387.0916555219
 10
346.6115591429
 20
384.4970159511
 10
351.8021759969
 20
381.7720861157
 10
356.7351703475
 20
378.9230388583
 10
361.3993673759
 20
375.9563281874
 10
365.7842011757
 20
372.8786746567
 10
369.8797386879
 20
369.6970501414
 10
373.676702203
 20
366.4186620443
 10
377.1664903772
 20
363.050936969
 10
380.3411977179
 20
359.6015038958
 10
383.193632492
 20
356.0781769002
 10
385.7173330172
 20
352.488937451
 10
387.9065823001
 20
348.8419163299
 10
389.7564209869
 20
345.145375213
 10
391.2626585981
 20
341.4076879546
 10
392.421883021
 20
337.6373216186
 10
393.2314682394
 20
333.8428172975
 10
393.6895802824
 20
330.0327707639
 10
393.795181379
 20
326.2158129987
 10
393.5480323086
 20
322.4005906389
 10
392.9486929434
 20
318.5957463903
 10
391.9985209799
 20
314.8098994488
 10
390.6996688631
 20
311.0516259755
 10
389.0550789108
 20
307.3294396685
 10
387.0684766482
 20
303.651772477
 10
384.7443623685
 20
300.0269555
 10
382.0880009379
 20
296.4632001139
 10
379.1054098695
 20
292.9685793708
 10
375.8033456913
 20
289.5510097108
  0
LWPOLYLINE
  5
308
330
2DA
100
AcDbEntity
  8
0
  6
CONTINUOUS
 62
     7
100
AcDbPolyline
 90
       13
 70
   128
 43
0.0
 10
100.2400956369
 20
290.1287217056
 10
99.8407535599
 20
290.5343268101
 10
96.6854893425
 20
293.9626342344
 10
93.8505239711
 20
297.4643830264
 10
91.3422795543
 20
301.031640599
 10
89.1664380722
 20
304.6563259662
 10
87.3279285058
 20
308.3302280501
 10
85.8309156705
 20
312.0450242806
 10
84.6787907818
 20
315.7922994495
 10
83.8741637732
 20
319.5635647733
 10
83.4188573837
 20
323.3502771231
 10
83.3139030287
 20
327.1438583774
 10
83.3611233345
 20
328.4934494632
  0
LWPOLYLINE
  5
309
330
2DA
100
AcDbEntity
  8
0
  6
CONTINUOUS
 62
     7
100
AcDbPolyline
 90
       12
 70
   128
 43
0.0
 10
392.797582252
 20
328.4283934837
 10
392.8415079342
 20
325.6210926107
 10
392.5958724994
 20
321.8292361335
 10
392.0002037179
 20
318.0476942079
 10
391.0558509713
 20
314.2850332427
 10
389.7649535221
 20
310.5497768751
 10
388.1304356684
 20
306.8503866622
 10
386.1560001187
 20
303.1952429127
 10
383.8461196047
 20
299.5926257028
 10
381.2060267486
 20
296.0506961192
 10
378.2417022099
 20
292.5774777716
 10
374.9598611371
 20
289.1808386167
  0
LWPOLYLINE
  5
30A
330
2DA
100
AcDbEntity
  8
0
  6
CONTINUOUS
 62
     7
100
AcDbPolyline
 90
       42
 70
   128
 43
0.0
 10
367.1518959884
 20
196.5788095397
 10
366.5661389711
 20
196.1718989444
 10
361.9278866364
 20
193.122347565
 10
357.0170232895
 20
190.1881987328
 10
351.8443584055
 20
187.3759109066
 10
346.4212777198
 20
184.6916743125
 10
340.759718167
 20
182.1413973186
 10
334.8721416061
 20
179.7306934297
 10
328.7715073899
 20
177.4648689315
 10
322.4712438401
 20
175.3489112102
 10
315.9852186896
 20
173.3874777753
 10
309.3277085575
 20
171.5848860072
 10
302.5133675247
 20
169.9451036543
 10
295.5571948784
 20
168.4717400997
 10
288.4745020958
 20
167.1680384158
 10
281.2808791426
 20
166.0368682266
 10
273.9921601566
 20
165.0807193908
 10
266.6243885946
 20
164.3016965213
 10
259.1937819193
 20
163.701514353
 10
251.7166959017
 20
163.2814939679
 10
244.2095886201
 20
163.042559888
 10
236.6889842337
 20
162.9852380393
 10
229.1714366107
 20
163.109654595
 10
221.673492891
 20
163.4155356975
 10
214.2116570636
 20
163.9022080611
 10
206.8023536391
 20
164.568600454
 10
199.4618914971
 20
165.4132460563
 10
192.2064279885
 20
166.4342856888
 10
185.0519333704
 20
167.629471905
 10
178.0141556539
 20
168.9961739383
 10
171.1085859403
 20
170.5313834925
 10
164.3504243232
 20
172.2317213637
 10
157.7545464311
 20
174.093444878
 10
151.335470684
 20
176.1124561299
 10
145.1073263365
 20
178.2843110024
 10
139.0838223772
 20
180.6042289491
 10
133.2782173536
 20
183.0671035164
 10
127.7032901883
 20
185.6675135841
 10
122.3713120505
 20
188.3997352977
 10
117.2940193457
 20
191.2577546673
 10
112.4825878825
 20
194.2352808055
 10
110.5301950638
 20
195.5290001872
  0
LWPOLYLINE
  5
30B
330
2DA
100
AcDbEntity
  8
0
  6
CONTINUOUS
 62
     7
100
AcDbPolyline
 90
       28
 70
   128
 43
0.0
 10
204.8740438411
 20
248.7944459978
 10
204.968562496
 20
248.9651057566
 10
206.1120324491
 20
250.6648453064
 10
207.583513464
 20
252.2962829254
 10
209.3679061542
 20
253.842677856
 10
211.446900236
 20
255.2881619935
 10
213.799162417
 20
256.6179027146
 10
216.4005553039
 20
257.8182550802
 10
219.2243850855
 20
258.8769018505
 10
222.2416754469
 20
259.7829798772
 10
225.4214649061
 20
260.5271915736
 10
228.7311245202
 20
261.1019003206
 10
232.136692703
 20
261.5012088287
 10
235.6032237163
 20
261.7210196524
 10
239.095146261
 20
261.759077235
 10
242.5766284865
 20
261.6149910544
 10
246.011945674
 20
261.2902396296
 10
249.3658468204
 20
260.7881553498
 10
252.6039163613
 20
260.1138902792
 10
255.6929273215
 20
259.2743632897
 10
258.6011822684
 20
258.2781890644
 10
261.2988385708
 20
257.1355896988
 10
263.7582146244
 20
255.8582898086
 10
265.954073903
 20
254.4593962191
 10
267.8638839188
 20
252.9532634716
 10
269.4680474367
 20
251.3553465262
 10
270.7501035682
 20
249.6820421731
 10
271.2843556157
 20
248.7889426245
  0
LWPOLYLINE
  5
314
330
2DA
100
AcDbEntity
  8
0
  6
CONTINUOUS
 62
     7
100
AcDbPolyline
 90
        7
 70
   128
 43
0.0
 10
-2.2305982613
 20
342.7729379723
 10
-2.2252729696
 20
342.7160929192
 10
-2.1860080178
 20
342.6171787274
 10
-2.1100290423
 20
342.5241106537
 10
-2.0002555903
 20
342.4404649065
 10
-1.8609057865
 20
342.3694556342
 10
-1.6973342479
 20
342.3138114196
  0
LWPOLYLINE
  5
316
330
2DA
100
AcDbEntity
  8
0
  6
CONTINUOUS
 62
     7
100
AcDbPolyline
 90
       53
 70
   128
 43
0.0
 10
379.5846049498
 20
287.6736572671
 10
375.9290625097
 20
284.2998093434
 10
371.970492869
 20
281.0179180941
 10
367.7175978232
 20
277.8351978285
 10
363.1797261584
 20
274.7586448564
 10
358.3668531014
 20
271.7950221089
 10
353.2895583918
 20
268.9508442721
 10
347.9590030253
 20
266.232363466
 10
342.3869047193
 20
263.6455555016
 10
336.5855121554
 20
261.1961067441
 10
330.5675780534
 20
258.8894016134
 10
324.3463311385
 20
256.7305107481
 10
317.9354470617
 20
254.7241798589
 10
311.3490183374
 20
252.8748192964
 10
304.6015233656
 20
251.1864943566
 10
297.7077946044
 20
249.6629163441
 10
290.6829859659
 20
248.307434414
 10
283.5425395041
 20
247.1230282097
 10
276.3021514699
 20
246.1123013132
 10
268.9777378077
 20
245.2774755215
 10
261.5853991682
 20
244.620385963
 10
254.1413855161
 20
244.142477063
 10
246.6620604091
 20
243.844799369
 10
239.1638650268
 20
243.7280072413
 10
231.6632820302
 20
243.7923574142
 10
224.1767993284
 20
244.0377084322
 10
216.7208738352
 20
244.4635209604
 10
209.3118952931
 20
245.0688589704
 10
201.9661502447
 20
245.8523917981
 10
194.699786232
 20
246.812397068
 10
187.5287763
 20
247.9467644804
 10
180.468883885
 20
249.2530004495
 10
173.5356281625
 20
250.7282335851
 10
166.7442499335
 20
252.3692210046
 10
160.1096781212
 20
254.1723554615
 10
153.6464969543
 20
256.133673275
 10
147.3689139078
 20
258.2488630428
 10
141.2907284715
 20
260.5132751187
 10
135.4253018162
 20
262.9219318337
 10
129.7855274227
 20
265.4695384374
 10
124.3838027391
 20
268.1504947377
 10
119.2320019285
 20
270.9589074108
 10
114.3414497672
 20
273.8886029561
 10
109.7228967503
 20
276.9331412669
 10
105.3864954597
 20
280.0858297874
 10
101.3417782464
 20
283.3397382239
 10
97.5976362769
 20
286.6877137794
 10
94.1622999876
 20
290.1223968772
 10
91.0433209934
 20
293.6362373383
 10
88.2475554869
 20
297.2215109788
 10
85.7811491676
 20
300.8703365892
 10
83.6495237317
 20
304.5746932588
 10
81.8983511255
 20
308.2313167551
  0
LWPOLYLINE
  5
318
330
2DA
100
AcDbEntity
  8
0
  6
CONTINUOUS
 62
     7
100
AcDbPolyline
 90
       67
 70
   128
 43
0.0
 10
83.3611233345
 20
328.4934494632
 10
83.5595384636
 20
330.9357148546
 10
84.155207245
 20
334.7172567803
 10
85.0995599916
 20
338.4799177455
 10
86.3904574408
 20
342.2151741131
 10
88.0249752945
 20
345.914564326
 10
89.9994108442
 20
349.5697080755
 10
92.3092913582
 20
353.1723252854
 10
94.9493842143
 20
356.714254869
 10
97.913708753
 20
360.1874732166
 10
101.1955498258
 20
363.5841123715
 10
104.7874730071
 20
366.8964778536
 10
108.6813414356
 20
370.1170660896
 10
112.868334247
 20
373.2385814114
 10
117.3389665557
 20
376.2539525828
 10
122.0831109419
 20
379.1563488182
 10
127.0900203925
 20
381.9391952567
 10
132.3483526472
 20
384.596187856
 10
137.8461958922
 20
387.1213076733
 10
143.5710957443
 20
389.5088345
 10
149.510083464
 20
391.75335982
 10
155.649705334
 20
393.8497990615
 10
161.9760531359
 20
395.7934031153
 10
168.4747956572
 20
397.5797690932
 10
175.131211156
 20
399.2048503016
 10
181.9302207102
 20
400.6649654089
 10
188.8564223763
 20
401.9568067847
 10
195.8941260798
 20
403.0774479929
 10
203.0273891584
 20
404.0243504207
 10
210.2400524768
 20
404.7953690296
 10
217.5157770328
 20
405.3887572143
 10
224.8380809702
 20
405.8031707598
 10
232.1903769154
 20
406.0376708861
 10
239.5560095534
 20
406.0917263751
 10
246.9182933571
 20
405.9652147736
 10
254.2605503859
 20
405.6584226711
 10
261.5661480661
 20
405.1720450505
 10
268.8185368691
 20
404.5071837133
 10
276.0012878017
 20
403.6653447846
 10
283.0981296228
 20
402.6484353
 10
290.0929857032
 20
401.4587588868
 10
296.970010444
 20
400.0990105446
 10
303.7136251723
 20
398.5722705408
 10
310.3085534317
 20
396.8819974325
 10
316.7398555886
 20
395.032020232
 10
322.9929626751
 20
393.0265297326
 10
329.0537093925
 20
390.8700690154
 10
334.9083662
 20
388.5675231574
 10
340.5436704169
 20
386.1241081657
 10
345.9468562668
 20
383.545359161
 10
351.1056837957
 20
380.8371178393
 10
356.0084666001
 20
378.0055192382
 10
360.6440983
 20
375.0569778394
 10
365.0020776987
 20
371.9981730373
 10
369.0725325711
 20
368.8360340087
 10
372.8462420278
 20
365.5777240156
 10
376.314657403
 20
362.2306241781
 10
379.4699216204
 20
358.8023167538
 10
382.3048869918
 20
355.3005679617
 10
384.8131314087
 20
351.7333103892
 10
386.9889728907
 20
348.1086250219
 10
388.8274824571
 20
344.4347229381
 10
390.3244952924
 20
340.7199267076
 10
391.4766201811
 20
336.9726515387
 10
392.2812471897
 20
333.2013862149
 10
392.7365535792
 20
329.4146738651
 10
392.797582252
 20
328.4283934837
  0
LWPOLYLINE
  5
319
330
2DA
100
AcDbEntity
  8
0
  6
CONTINUOUS
 62
     7
100
AcDbPolyline
 90
       56
 70
   128
 43
0.0
 10
106.2372329156
 20
284.629085798
 10
106.4476588517
 20
285.1618980237
 10
108.0139826904
 20
288.6051748025
 10
109.9196279314
 20
292.0027686041
 10
112.1596229638
 20
295.3458154942
 10
114.7281238964
 20
298.6255938452
 10
117.6184298035
 20
301.8335470897
 10
120.8230002069
 20
304.9613060441
 10
124.3334747485
 20
308.0007107424
 10
128.1406950008
 20
310.9438317248
 10
132.2347283611
 20
313.7829907246
 10
136.6048939638
 20
316.5107807002
 10
141.2397905456
 20
319.120085159
 10
146.1273261907
 20
321.6040967236
 10
151.2547498767
 20
323.9563348915
 10
156.6086847405
 20
326.1706629418
 10
162.1751629774
 20
328.2413039455
 10
167.9396622812
 20
330.1628558366
 10
173.8871437316
 20
331.9303055057
 10
180.0020910283
 20
333.5390418783
 10
186.2685509722
 20
334.984867945
 10
192.6701750847
 20
336.2640117106
 10
199.1902622594
 20
337.3731360351
 10
205.8118023334
 20
338.3093473397
 10
212.5175204646
 20
339.0702031562
 10
219.2899222002
 20
339.6537184984
 10
226.1113391171
 20
340.0583710416
 10
232.9639749176
 20
340.2831050934
 10
239.8299518572
 20
340.3273343484
 10
246.6913573862
 20
340.1909434174
 10
253.5302908808
 20
339.8742881289
 10
260.3289103444
 20
339.3781946003
 10
267.0694789552
 20
338.703957083
 10
273.7344113392
 20
337.8533345857
 10
280.3063194488
 20
336.8285462854
 10
286.7680579263
 20
335.6322657377
 10
293.1027688335
 20
334.267613902
 10
299.2939256332
 20
332.7381509992
 10
305.325376304
 20
331.0478672233
 10
311.18138548
 20
329.2011723316
 10
316.8466755016
 20
327.2028841404
 10
322.3064662742
 20
325.0582159553
 10
327.5465138271
 20
322.7727629708
 10
332.5531474743
 20
320.3524876727
 10
337.3133054804
 20
317.803704283
 10
341.8145691368
 20
315.1330622865
 10
346.0451951603
 20
312.3475290832
 10
349.9941463309
 20
309.4543718112
 10
353.6511202857
 20
306.4611383875
 10
357.0065763973
 20
303.3756378164
 10
360.0517606638
 20
300.2059198165
 10
362.7787285471
 20
296.9602538202
 10
365.1803656994
 20
293.6471073995
 10
367.2504065236
 20
290.2751241751
 10
368.9834505195
 20
286.8531012663
 10
369.9181780473
 20
284.629085798
  0
LWPOLYLINE
  5
31A
330
2DA
100
AcDbEntity
  8
0
  6
CONTINUOUS
 62
     7
100
AcDbPolyline
 90
       51
 70
   128
 43
0.0
 10
125.0843989783
 20
272.0655517648
 10
126.3617735751
 20
274.7300603362
 10
128.2021307759
 20
277.8759785405
 10
130.3761764859
 20
280.964904564
 10
132.8773081996
 20
283.98745744
 10
135.6979300623
 20
286.9344577746
 10
138.829475938
 20
289.7969556248
 10
142.262435425
 20
292.5662576787
 10
145.9863827379
 20
295.2339536569
 10
149.9900083713
 20
297.7919418544
 10
154.2611534457
 20
300.2324537452
 10
158.7868466339
 20
302.5480775748
 10
163.5533435543
 20
304.7317808697
 10
168.5461685126
 20
306.776931795
 10
173.7501584633
 20
308.6773192943
 10
179.1495090601
 20
310.4271719533
 10
184.7278226527
 20
312.0211755271
 10
190.468158086
 20
313.4544890791
 10
196.35308215
 20
314.7227596831
 10
202.3647225237
 20
315.8221356432
 10
208.4848220529
 20
316.7492781905
 10
214.6947941964
 20
317.5013716237
 10
220.975779473
 20
318.0761318597
 10
227.3087027367
 20
318.4718133706
 10
233.6743311079
 20
318.6872144846
 10
240.0533323823
 20
318.7216810357
 10
246.4263337428
 20
318.5751083499
 10
252.7739805936
 20
318.2479415639
 10
259.0769953399
 20
317.7411742722
 10
265.3162359331
 20
317.0563455107
 10
271.4727540046
 20
316.1955350816
 10
277.5278524112
 20
315.161357238
 10
283.4631420183
 20
313.956952744
 10
289.2605975462
 20
312.5859793364
 10
294.9026123132
 20
311.0526006165
 10
300.3720517057
 20
309.361473405
 10
305.6523052162
 20
307.5177335997
 10
310.7273368882
 20
305.5269805778
 10
315.5817340174
 20
303.3952601907
 10
320.2007539592
 20
301.1290464032
 10
324.5703689019
 20
298.7352216322
 10
328.6773084685
 20
296.2210558447
 10
332.5091000186
 20
293.5941844796
 10
336.0541065271
 20
290.8625852589
 10
339.3015619257
 20
288.0345539597
 10
342.2416037993
 20
285.1186792202
 10
344.8653033371
 20
282.1238164559
 10
347.16469245
 20
279.0590609668
 10
349.1327879688
 20
275.9337203144
 10
350.7636128522
 20
272.7572860558
 10
351.0780794279
 20
272.049190384
  0
LWPOLYLINE
  5
31B
330
2DA
100
AcDbEntity
  8
0
  6
CONTINUOUS
 62
     7
100
AcDbPolyline
 90
       45
 70
   128
 43
0.0
 10
192.1473297563
 20
250.4769739427
 10
191.3601109246
 20
251.9082783828
 10
190.5244478977
 20
253.9990760645
 10
190.0408525525
 20
256.1191330801
 10
189.9129052597
 20
258.2527532694
 10
190.1415532965
 20
260.3841400547
 10
190.7251038326
 20
262.4975133943
 10
191.6592364641
 20
264.5772266111
 10
192.9370351998
 20
266.6078822362
 10
194.549039665
 20
268.5744460058
 10
196.4833151425
 20
270.4623581698
 10
198.7255409335
 20
272.2576412871
 10
201.2591163827
 20
273.9470037095
 10
204.0652837839
 20
275.5179379888
 10
207.1232672554
 20
276.9588134772
 10
210.4104265576
 20
278.2589624366
 10
213.902424713
 20
279.4087590191
 10
217.573408189
 20
280.399690533
 10
221.3961983083
 20
281.2244204681
 10
225.3424924704
 20
281.8768428125
 10
229.383073694
 20
282.3521272594
 10
233.4880269293
 20
282.6467549692
 10
237.6269605389
 20
282.7585446212
 10
241.7692313063
 20
282.6866685641
 10
245.8841713081
 20
282.4316589429
 10
249.9413149681
 20
281.9954037598
 10
253.9106246142
 20
281.3811328954
 10
257.7627128665
 20
280.5933941964
 10
261.4690602112
 20
279.6380198044
 10
265.0022261495
 20
278.5220829772
 10
268.3360523568
 20
277.2538457207
 10
271.4458563504
 20
275.8426976197
 10
274.3086142293
 20
274.2990863211
 10
276.903131136
 20
272.6344401828
 10
279.210198175
 20
270.8610836626
 10
281.212734629
 20
268.9921460715
 10
282.8959144189
 20
267.0414643697
 10
284.2472758702
 20
265.023480722
 10
285.2568139758
 20
262.9531355732
 10
285.9170544686
 20
260.8457570346
 10
286.223109159
 20
258.7169473994
 10
286.1727121251
 20
256.5824676295
 10
285.766236489
 20
254.4581206663
 10
285.0066916541
 20
252.3596344314
 10
284.0063291943
 20
250.4741185575
  0
LWPOLYLINE
  5
31C
330
2DA
100
AcDbEntity
  8
0
  6
CONTINUOUS
 62
     7
100
AcDbPolyline
 90
       38
 70
   128
 43
0.0
 10
192.8518335751
 20
255.159636172
 10
192.8489304315
 20
255.3976102111
 10
193.02122172
 20
257.4564913119
 10
193.5461410838
 20
259.4994730971
 10
194.4195803171
 20
261.510566464
 10
195.6347035738
 20
263.4740318805
 10
197.1820008667
 20
265.3745025674
 10
199.0493624966
 20
267.1971047648
 10
201.222173827
 20
268.9275741395
 10
203.6834296632
 20
270.5523674222
 10
206.4138673411
 20
272.0587684026
 10
209.3921174839
 20
273.4349874505
 10
212.5948712461
 20
274.670253786
 10
215.9970627372
 20
275.7548997751
 10
219.5720651957
 20
276.6804365924
 10
223.2918993804
 20
277.4396206573
 10
227.1274525451
 20
278.0265103252
 10
231.048706286
 20
278.4365123888
 10
235.0249714758
 20
278.6664180259
 10
239.0251284483
 20
278.7144279133
 10
243.0178705515
 20
278.5801663085
 10
246.9719491649
 20
278.2646839906
 10
250.8564182622
 20
277.7704500364
 10
254.640876606
 20
277.1013324968
 10
258.2957056786
 20
276.2625681238
 10
261.792301487
 20
275.2607213857
 10
265.1032984283
 20
274.1036330918
 10
268.2027834621
 20
272.8003590266
 10
271.0664989156
 20
271.3610990769
 10
273.6720323326
 20
269.7971174031
 10
275.9989918815
 20
268.1206542824
 10
278.0291659487
 20
266.3448303117
 10
279.7466656695
 20
264.4835437214
 10
281.13804928
 20
262.5513616025
 10
282.1924273169
 20
260.5634059001
 10
282.9015478425
 20
258.5352350628
 10
283.2598610272
 20
256.4827222772
 10
283.3050840511
 20
255.2398942005
  0
LWPOLYLINE
  5
31D
330
2DA
100
AcDbEntity
  8
0
  6
CONTINUOUS
 62
     7
100
AcDbPolyline
 90
       33
 70
   128
 43
0.0
 10
193.8095666432
 20
250.9707701694
 10
194.5917598851
 20
252.7271372986
 10
195.8020909204
 20
254.6828591708
 10
197.3432859591
 20
256.5758347529
 10
199.2032830603
 20
258.3912489445
 10
201.3675252248
 20
260.1148936681
 10
203.8190743233
 20
261.7332790668
 10
206.5387436602
 20
263.2337390804
 10
209.5052481355
 20
264.604530575
 10
212.6953708295
 20
265.8349252486
 10
216.0841447068
 20
266.9152935946
 10
219.6450480171
 20
267.8371802659
 10
223.350211864
 20
268.5933702494
 10
227.1706383167
 20
269.177945333
 10
231.0764273583
 20
269.5863304243
 10
235.0370108939
 20
269.8153293562
 10
239.0213919874
 20
269.8631499014
 10
242.9983874545
 20
269.7294177996
 10
246.9368719135
 20
269.4151796855
 10
250.8060213834
 20
268.9228948986
 10
254.5755545237
 20
268.2564162348
 10
258.2159696266
 20
267.4209597933
 10
261.6987755081
 20
266.4230641534
 10
264.99671449
 20
265.2705392016
 10
268.0839757283
 20
263.9724050082
 10
270.936397218
 20
262.5388212334
 10
273.5316548933
 20
260.981007614
 10
275.8494373442
 20
259.3111561537
 10
277.8716047805
 20
257.5423357041
 10
279.5823310002
 20
255.6883896837
 10
280.9682272512
 20
253.7638277337
 10
282.0184470162
 20
251.7837121607
 10
282.3548746003
 20
250.9460661147
  0
LWPOLYLINE
  5
31E
330
2DA
100
AcDbEntity
  8
0
  6
CONTINUOUS
 62
     7
100
AcDbPolyline
 90
       30
 70
   128
 43
0.0
 10
197.3932391265
 20
249.7365640453
 10
197.8570055779
 20
250.5644544296
 10
199.1796116844
 20
252.448403237
 10
200.8340826122
 20
254.2614629361
 10
202.8063029986
 20
255.9881651409
 10
205.0794465545
 20
257.6137782371
 10
207.6341196208
 20
259.1244330667
 10
210.4485266276
 20
260.5072412556
 10
213.4986560466
 20
261.7504051717
 10
216.758485249
 20
262.843318579
 10
220.2002025215
 20
263.7766571254
 10
223.7944443458
 20
264.5424578957
 10
227.510545918
 20
265.1341873477
 10
231.3168027697
 20
265.5467970543
 10
235.1807412595
 20
265.776766775
 10
239.0693956266
 20
265.8221344893
 10
242.9495892431
 20
265.6825131357
 10
246.7882176651
 20
265.3590939145
 10
250.5525310683
 20
264.8546361244
 10
254.2104136582
 20
264.1734436214
 10
257.7306576701
 20
263.3213280998
 10
261.0832296234
 20
262.3055595087
 10
264.2395265563
 20
261.1348040276
 10
267.1726200561
 20
259.8190501295
 10
269.8574860034
 20
258.3695233628
 10
272.2712180684
 20
256.7985905786
 10
274.3932231404
 20
255.1196544217
 10
276.2053970202
 20
253.3470389833
 10
277.6922788792
 20
251.4958675933
 10
278.7644585095
 20
249.7321531156
  0
LWPOLYLINE
  5
323
330
2DA
100
AcDbEntity
  8
0
  6
CONTINUOUS
 62
     7
100
AcDbPolyline
 90
        7
 70
   128
 43
0.0
 10
-0.7067882794
 20
414.4810733054
 10
-0.8703417236
 20
414.5380358014
 10
-1.0096780822
 20
414.6100246413
 10
-1.1194432546
 20
414.6942736018
 10
-1.1954194344
 20
414.7875453553
 10
-1.2346871819
 20
414.8862558673
 10
-1.2400164767
 20
414.9428092712
  0
LINE
  5
325
330
2DA
100
AcDbEntity
  8
0
  6
CONTINUOUS
 62
     7
100
AcDbLine
 10
398.8914948107
 20
246.4176286511
 30
0.0
 11
398.0755058129
 21
326.5643075701
 31
0.0
  0
LINE
  5
326
330
2DA
100
AcDbEntity
  8
0
  6
CONTINUOUS
 62
     7
100
AcDbLine
 10
78.07990515
 20
326.5643075701
 30
0.0
 11
77.2639161522
 21
246.4176286511
 31
0.0
  0
LINE
  5
327
330
2DA
100
AcDbEntity
  8
0
  6
CONTINUOUS
 62
     7
100
AcDbLine
 10
-1.2400164767
 20
414.9428092712
 30
0.0
 11
-2.2305982613
 21
342.7729379723
 31
0.0
  0
LINE
  5
328
330
2DA
100
AcDbEntity
  8
0
  6
CONTINUOUS
 62
     7
100
AcDbLine
 10
56.9356944259
 20
472.1317909054
 30
0.0
 11
-0.9385888194
 21
415.6447162398
 31
0.0
  0
LINE
  5
329
330
2DA
100
AcDbEntity
  8
0
  6
CONTINUOUS
 62
     7
100
AcDbLine
 10
168.0394431187
 20
-45.6695199899
 30
0.0
 11
160.9640981453
 21
-36.8892544269
 31
0.0
  0
LINE
  5
32A
330
2DA
100
AcDbEntity
  8
0
  6
CONTINUOUS
 62
     7
100
AcDbLine
 10
0.0
 20
0.0
 30
0.0
 11
168.0394431187
 21
-45.6695199899
 31
0.0
  0
LINE
  5
32B
330
2DA
100
AcDbEntity
  8
0
  6
CONTINUOUS
 62
     7
100
AcDbLine
 10
0.0
 20
0.0
 30
0.0
 11
7.0753449734
 21
4.9344112481
 31
0.0
  0
LINE
  5
32C
330
2DA
100
AcDbEntity
  8
0
  6
CONTINUOUS
 62
     7
100
AcDbLine
 10
7.0753449734
 20
4.9344112481
 30
0.0
 11
160.9640981453
 21
-36.8892544269
 31
0.0
  0
LINE
  5
32D
330
2DA
100
AcDbEntity
  8
0
  6
CONTINUOUS
 62
     7
100
AcDbLine
 10
168.0394431187
 20
-45.6695199899
 30
0.0
 11
225.909671346
 21
10.8135968538
 31
0.0
  0
LINE
  5
32E
330
2DA
100
AcDbEntity
  8
0
  6
CONTINUOUS
 62
     7
100
AcDbLine
 10
58.8785331447
 20
55.4959110034
 30
0.0
 11
7.0753449734
 21
4.9344112481
 31
0.0
  0
LINE
  5
32F
330
2DA
100
AcDbEntity
  8
0
  6
CONTINUOUS
 62
     7
100
AcDbLine
 10
58.8785331447
 20
55.4959110034
 30
0.0
 11
160.9640981453
 21
27.7512418653
 31
0.0
  0
LINE
  5
330
330
2DA
100
AcDbEntity
  8
0
  6
CONTINUOUS
 62
     7
100
AcDbLine
 10
7.0753449734
 20
334.0866547178
 30
0.0
 11
1.0466577114
 21
341.5680532017
 31
0.0
  0
LINE
  5
331
330
2DA
100
AcDbEntity
  8
0
  6
CONTINUOUS
 62
     7
100
AcDbLine
 10
7.0753449734
 20
334.0866547178
 30
0.0
 11
7.0753449734
 21
4.9344112481
 31
0.0
  0
LINE
  5
332
330
2DA
100
AcDbEntity
  8
0
  6
CONTINUOUS
 62
     7
100
AcDbLine
 10
0.0
 20
341.8525123405
 30
0.0
 11
0.0
 21
0.0
 31
0.0
  0
LINE
  5
333
330
2DA
100
AcDbEntity
  8
0
  6
CONTINUOUS
 62
     7
100
AcDbLine
 10
7.0756929444
 20
334.0869943481
 30
0.0
 11
7.0753449734
 21
334.0866547178
 31
0.0
  0
LINE
  5
334
330
2DA
100
AcDbEntity
  8
0
  6
CONTINUOUS
 62
     7
100
AcDbLine
 10
58.8785331447
 20
320.0075724641
 30
0.0
 11
58.8785331447
 21
223.500701941
 31
0.0
  0
LINE
  5
335
330
2DA
100
AcDbEntity
  8
0
  6
CONTINUOUS
 62
     7
100
AcDbLine
 10
58.8785331447
 20
153.1675608701
 30
0.0
 11
58.8785331447
 21
55.4959110034
 31
0.0
  0
LINE
  5
336
330
2DA
100
AcDbEntity
  8
0
  6
CONTINUOUS
 62
     7
100
AcDbLine
 10
168.0394431187
 20
171.2785251835
 30
0.0
 11
168.0394431187
 21
-45.6695199899
 31
0.0
  0
LINE
  5
337
330
2DA
100
AcDbEntity
  8
0
  6
CONTINUOUS
 62
     7
100
AcDbLine
 10
160.9640981453
 20
173.1616320814
 30
0.0
 11
160.9640981453
 21
-36.8892544269
 31
0.0
  0
LINE
  5
338
330
2DA
100
AcDbEntity
  8
0
  6
CONTINUOUS
 62
     7
100
AcDbLine
 10
225.909671346
 20
163.2203172638
 30
0.0
 11
225.909671346
 21
10.8135968538
 31
0.0
  0
LINE
  5
339
330
2DA
100
AcDbEntity
  8
0
  6
CONTINUOUS
 62
     7
100
AcDbLine
 10
1.0474536877
 20
341.5678368724
 30
0.0
 11
7.0762293915
 21
334.0863286351
 31
0.0
  0
LINE
  5
33A
330
2DA
100
AcDbEntity
  8
0
  6
CONTINUOUS
 62
     7
100
AcDbLine
 10
7.0762293915
 20
334.0863286351
 30
0.0
 11
77.9603497754
 21
314.8215435778
 31
0.0
  0
LINE
  5
33B
330
2DA
100
AcDbEntity
  8
0
  6
CONTINUOUS
 62
     7
100
AcDbLine
 10
160.9640981453
 20
125.422891732
 30
0.0
 11
8.0087357513
 21
166.9928817938
 31
0.0
  0
LINE
  5
33C
330
2DA
100
AcDbEntity
  8
0
  6
CONTINUOUS
 62
     7
100
AcDbLine
 10
8.0087357513
 20
173.8502201994
 30
0.0
 11
8.0087357513
 21
166.9928817938
 31
0.0
  0
LINE
  5
33D
330
2DA
100
AcDbEntity
  8
0
  6
CONTINUOUS
 62
     7
100
AcDbLine
 10
160.9640981453
 20
132.2802301376
 30
0.0
 11
8.0087357513
 21
173.8502201994
 31
0.0
  0
LINE
  5
33E
330
2DA
100
AcDbEntity
  8
0
  6
CONTINUOUS
 62
     7
100
AcDbLine
 10
58.8785331447
 20
223.500701941
 30
0.0
 11
8.0087357513
 21
173.8502201994
 31
0.0
  0
LINE
  5
33F
330
2DA
100
AcDbEntity
  8
0
  6
CONTINUOUS
 62
     7
100
AcDbLine
 10
88.610805328
 20
215.4201074471
 30
0.0
 11
58.8785331447
 21
223.500701941
 31
0.0
  0
LINE
  5
340
330
2DA
100
AcDbEntity
  8
0
  6
CONTINUOUS
 62
     7
100
AcDbLine
 10
374.9598611371
 20
289.1808386167
 30
0.0
 11
373.8405145363
 21
288.1082512884
 31
0.0
  0
LINE
  5
341
330
2DA
100
AcDbEntity
  8
0
  6
CONTINUOUS
 62
     7
100
AcDbLine
 10
-0.2401106608
 20
415.7862521676
 30
0.0
 11
57.6341725845
 21
472.2733268332
 31
0.0
  0
LINE
  5
342
330
2DA
100
AcDbEntity
  8
0
  6
CONTINUOUS
 62
     7
100
AcDbLine
 10
352.1607761487
 20
392.2273069262
 30
0.0
 11
57.6341725845
 21
472.2733268332
 31
0.0
  0
LINE
  5
343
330
2DA
100
AcDbEntity
  8
0
  6
CONTINUOUS
 62
     7
100
AcDbLine
 10
-1.6973342479
 20
342.3138114196
 30
0.0
 11
-0.7067882794
 21
414.4810733054
 31
0.0
  0
LINE
  5
344
330
2DA
100
AcDbEntity
  8
0
  6
CONTINUOUS
 62
     7
100
AcDbLine
 10
-1.6973342479
 20
342.3138114196
 30
0.0
 11
78.0196745114
 21
320.6484365677
 31
0.0
  0
LINE
  5
345
330
2DA
100
AcDbEntity
  8
0
  6
CONTINUOUS
 62
     7
100
AcDbLine
 10
353.0451605945
 20
391.1372629841
 30
0.0
 11
353.1113521864
 21
383.7681724821
 31
0.0
  0
LINE
  5
346
330
2DA
100
AcDbEntity
  8
0
  6
CONTINUOUS
 62
     7
100
AcDbLine
 10
352.1607761487
 20
392.2273069262
 30
0.0
 11
346.7917721701
 21
386.9869944486
 31
0.0
  0
LINE
  5
347
330
2DA
100
AcDbEntity
  8
0
  6
CONTINUOUS
 62
     7
100
AcDbLine
 10
121.2127332578
 20
382.7779716102
 30
0.0
 11
-0.2401106608
 21
415.7862521676
 31
0.0
  0
LINE
  5
348
330
2DA
100
AcDbEntity
  8
0
  6
CONTINUOUS
 62
     7
100
AcDbLine
 10
-0.7067882794
 20
414.4810733054
 30
0.0
 11
119.5096420561
 21
381.8088234667
 31
0.0
  0
LINE
  5
349
330
2DA
100
AcDbEntity
  8
0
  6
CONTINUOUS
 62
     7
100
AcDbLine
 10
348.1163805973
 20
386.3266226081
 30
0.0
 11
353.0451605945
 21
391.1372629841
 31
0.0
  0
ARC
  5
34A
330
2DA
100
AcDbEntity
  8
0
  6
CONTINUOUS
 62
     7
100
AcDbCircle
 10
-0.2401106608
 20
414.9290848669
 30
0.0
 40
0.9999999999999112
100
AcDbArc
 50
134.305033619
 51
179.2136248726
  0
ARC
  5
34B
330
2DA
100
AcDbEntity
  8
0
  6
CONTINUOUS
 62
     7
100
AcDbCircle
 10
122.4200744989
 20
326.1469534948
 30
0.0
 40
44.30553131312185
100
AcDbArc
 50
154.5985157235
 51
203.8513841199
  0
ARC
  5
34C
330
2DA
100
AcDbEntity
  8
0
  6
CONTINUOUS
 62
     7
100
AcDbCircle
 10
353.7900764493
 20
326.1424745273
 30
0.0
 40
44.25278006590278
100
AcDbArc
 50
336.2562905644
 51
24.8524442895
  0
ARC
  5
34D
330
2DA
100
AcDbEntity
  8
0
  6
CONTINUOUS
 62
     7
100
AcDbCircle
 10
238.0790363764
 20
203.8736661652
 30
0.0
 40
43.72671483641689
100
AcDbArc
 50
81.2097465634
 51
99.0777608154
  0
ARC
  5
34E
330
2DA
100
AcDbEntity
  8
0
  6
CONTINUOUS
 62
     7
100
AcDbCircle
 10
1.3373579141
 20
414.4861934109
 30
0.0
 40
2.044152605746751
100
AcDbArc
 50
140.5066178709
 51
180.1435121531
  0
ARC
  5
34F
330
2DA
100
AcDbEntity
  8
0
  6
CONTINUOUS
 62
     7
100
AcDbCircle
 10
351.8316712335
 20
391.056509089
 30
0.0
 40
1.216173351411118
100
AcDbArc
 50
3.807240193
 51
74.2996151607
  0
ARC
  5
350
330
2DA
100
AcDbEntity
  8
0
  6
CONTINUOUS
 62
     7
100
AcDbCircle
 10
57.4059678807
 20
471.6052556328
 30
0.0
 40
0.7059720360406948
100
AcDbArc
 50
71.1404794797
 51
131.7695425913
  0
ARC
  5
351
330
2DA
100
AcDbEntity
  8
0
  6
CONTINUOUS
 62
     7
100
AcDbCircle
 10
334.9679963727
 20
335.0269813126
 30
0.0
 40
65.0613484266094
100
AcDbArc
 50
313.2955735031
 51
335.7685453585
  0
ARC
  5
352
330
2DA
100
AcDbEntity
  8
0
  6
CONTINUOUS
 62
     7
100
AcDbCircle
 10
-0.4683153646
 20
415.1181809672
 30
0.0
 40
0.705972036041085
100
AcDbArc
 50
71.1404794797
 51
131.7695425913
  0
VIEWPORT
  5
3E0
330
2DA
100
AcDbEntity
  8
0
100
AcDbViewport
 10
0.0
 20
0.0
 30
0.0
 40
205.6
 41
156.0
 68
     1
 69
     1
1001
ACAD
1000
MVIEW
1002
{
1070
    16
1010
0.0
1020
0.0
1030
0.0
1010
0.0
1020
0.0
1030
1.0
1040
0.0
1040
357.2134125294
1040
228.7789015083
1040
-46.4080096273
1040
50.0
1040
0.0
1040
0.0
1070
     0
1070
   100
1070
     0
1070
     3
1070
     0
1070
     0
1070
     0
1070
     0
1040
0.0
1040
0.0
1040
0.0
1040
10.0
1040
10.0
1040
10.0
1040
10.0
1070
     0
1002
{
1002
}
1002
}
  0
ENDBLK
  5
2DD
330
2DA
100
AcDbEntity
  8
0
100
AcDbBlockEnd
  0
BLOCK
  5
355
330
353
100
AcDbEntity
  8
0
100
AcDbBlockBegin
  2
*PAPER_SPACE7
 70
     0
 10
0.0
 20
0.0
 30
0.0
  3
*PAPER_SPACE7
  1

  0
SPLINE
  5
359
330
353
100
AcDbEntity
  8
0
  6
CONTINUOUS
 62
     7
100
AcDbSpline
210
0.0
220
0.0
230
1.0
 70
     8
 71
     3
 72
    31
 73
    27
 74
     0
 42
0.00000001
 43
0.00000001
 40
0.0
 40
0.0
 40
0.0
 40
0.0
 40
0.0360769505917563
 40
0.0795305654719199
 40
0.1229894616203728
 40
0.1664544560243251
 40
0.209926465531338
 40
0.2534065215493434
 40
0.2968957848253825
 40
0.340395558828526
 40
0.3839072990281342
 40
0.4274326132946336
 40
0.4709732452338489
 40
0.5145310266779666
 40
0.5581077765483966
 40
0.601705109105504
 40
0.6453240930037448
 40
0.6889646717519966
 40
0.7326247174329458
 40
0.7762985546620272
 40
0.8199713962779833
 40
0.8636176682497851
 40
0.9072014147579684
 40
0.9506733559327041
 40
0.9939755498136557
 40
1.0
 40
1.0
 40
1.0
 40
1.0
 10
196.1953734126338
 20
462.6784532380491
 30
0.0
 10
194.3957447707476
 20
462.4136456492454
 30
0.0
 10
190.4285169097159
 20
461.8298851890797
 30
0.0
 10
184.4541783028379
 20
460.8117646163871
 30
0.0
 10
178.2562802966486
 20
459.6493944934293
 30
0.0
 10
172.2220547817154
 20
458.3930204842109
 30
0.0
 10
166.3587585150118
 20
457.0484884227319
 30
0.0
 10
160.6790695022968
 20
455.6173823127862
 30
0.0
 10
155.1937442997443
 20
454.1026102664911
 30
0.0
 10
149.9135583382683
 20
452.5068932143361
 30
0.0
 10
144.8487604513926
 20
450.8331538176885
 30
0.0
 10
140.0091965884272
 20
449.0843939306953
 30
0.0
 10
135.4042581051158
 20
447.2637069029951
 30
0.0
 10
131.0428827170362
 20
445.3742516161913
 30
0.0
 10
126.933548449411
 20
443.4192353490767
 30
0.0
 10
123.0842820300363
 20
441.4018942553993
 30
0.0
 10
119.5026703850351
 20
439.3254786232673
 30
0.0
 10
116.1959177441253
 20
437.1932446041353
 30
0.0
 10
113.1708098194964
 20
435.0084740478691
 30
0.0
 10
110.4341827223404
 20
432.7745532265967
 30
0.0
 10
107.9917767794289
 20
430.4952223944985
 30
0.0
 10
105.852767492124
 20
428.1743761957336
 30
0.0
 10
104.0126305857993
 20
425.8176693140309
 30
0.0
 10
102.5162280681867
 20
423.4276005652377
 30
0.0
 10
101.5913599505577
 20
421.7090921347824
 30
0.0
 10
101.2610926334053
 20
420.7819061072396
 30
0.0
 10
101.2207558329198
 20
420.6686653599309
 30
0.0
  0
SPLINE
  5
35A
330
353
100
AcDbEntity
  8
0
  6
CONTINUOUS
 62
     7
100
AcDbSpline
210
0.0
220
0.0
230
1.0
 70
     8
 71
     3
 72
    10
 73
     6
 74
     0
 42
0.00000001
 43
0.00000001
 40
0.0
 40
0.0
 40
0.0
 40
0.0
 40
0.4316583862267923
 40
0.9175501192482076
 40
0.9999999999999999
 40
0.9999999999999999
 40
0.9999999999999999
 40
0.9999999999999999
 10
209.8538625055945
 20
464.4138571994391
 30
0.0
 10
207.862498826033
 20
464.1876924462694
 30
0.0
 10
203.6295775161522
 20
463.7069477118638
 30
0.0
 10
199.0831012081294
 20
463.1164157129881
 30
0.0
 10
196.5612245560266
 20
462.7339394485118
 30
0.0
 10
196.1953734126338
 20
462.6784532380491
 30
0.0
  0
SPLINE
  5
35B
330
353
100
AcDbEntity
  8
0
  6
CONTINUOUS
 62
     7
100
AcDbSpline
210
0.0
220
0.0
230
1.0
 70
     8
 71
     3
 72
    10
 73
     6
 74
     0
 42
0.00000001
 43
0.00000001
 40
0.0
 40
0.0
 40
0.0
 40
0.0
 40
0.3827670300777206
 40
0.8744580072125829
 40
1.0
 40
1.0
 40
1.0
 40
1.0
 10
326.7952120255488
 20
462.1233651662371
 30
0.0
 10
325.1183887600352
 20
462.3791745432376
 30
0.0
 10
321.2875689245049
 20
462.9635889270803
 30
0.0
 10
316.8161703937108
 20
463.5656136842339
 30
0.0
 10
314.0030752122572
 20
463.8865444256717
 30
0.0
 10
313.4309062060798
 20
463.9518200781239
 30
0.0
  0
SPLINE
  5
35C
330
353
100
AcDbEntity
  8
0
  6
CONTINUOUS
 62
     7
100
AcDbSpline
210
0.0
220
0.0
230
1.0
 70
     8
 71
     3
 72
    31
 73
    27
 74
     0
 42
0.00000001
 43
0.00000001
 40
0.0
 40
0.0
 40
0.0
 40
0.0
 40
0.0089320785669848
 40
0.0528624011368588
 40
0.0970397361775036
 40
0.1414383581758422
 40
0.1860062891186033
 40
0.2306866430195342
 40
0.2754307922574171
 40
0.3202030170078675
 40
0.3649775470835518
 40
0.4097396629233823
 40
0.4544835710858401
 40
0.4992070249240796
 40
0.5439098567351031
 40
0.5885930341671733
 40
0.6332580811673216
 40
0.677906736682944
 40
0.7225407622243254
 40
0.767161839912567
 40
0.8117715241257685
 40
0.8563712240127989
 40
0.9009622031285232
 40
0.9455455880182744
 40
0.990122380985724
 40
1.0
 40
1.0
 40
1.0
 40
1.0
 10
418.0635255538994
 20
420.6835125703292
 30
0.0
 10
418.004053808251
 20
420.8471146328728
 30
0.0
 10
417.6520843029222
 20
421.8153548685737
 30
0.0
 10
416.7024502747269
 20
423.5665056549793
 30
0.0
 10
415.2005636063962
 20
425.9330543143122
 30
0.0
 10
413.3602421732655
 20
428.2719992363208
 30
0.0
 10
411.2192671894489
 20
430.5805269345748
 30
0.0
 10
408.7731413670339
 20
432.852099041203
 30
0.0
 10
406.03036379672
 20
435.0815293187293
 30
0.0
 10
402.9970089146152
 20
437.2638781462214
 30
0.0
 10
399.6804624300628
 20
439.3947824078331
 30
0.0
 10
396.0881503158275
 20
441.4702856521403
 30
0.0
 10
392.2277357340176
 20
443.486760564117
 30
0.0
 10
388.1071007075536
 20
445.4407751670111
 30
0.0
 10
383.7344899727262
 20
447.3289991202627
 30
0.0
 10
379.11853845298
 20
449.1481836625354
 30
0.0
 10
374.2682963316216
 20
450.8951599968556
 30
0.0
 10
369.1932301056568
 20
452.5668386501015
 30
0.0
 10
363.9032542053558
 20
454.1602424140713
 30
0.0
 10
358.4086079796832
 20
455.6724326576958
 30
0.0
 10
352.7202767276548
 20
457.1008403926857
 30
0.0
 10
346.8483592275782
 20
458.4420880051924
 30
0.0
 10
340.8080787859772
 20
459.6964393372549
 30
0.0
 10
334.5972637016433
 20
460.8512464850784
 30
0.0
 10
329.9190661768565
 20
461.6595900003483
 30
0.0
 10
327.2748524268398
 20
462.0521565579278
 30
0.0
 10
326.7952120255488
 20
462.1233651662371
 30
0.0
  0
SPLINE
  5
35D
330
353
100
AcDbEntity
  8
0
  6
CONTINUOUS
 62
     7
100
AcDbSpline
210
0.0
220
0.0
230
1.0
 70
     8
 71
     3
 72
    10
 73
     6
 74
     0
 42
0.00000001
 43
0.00000001
 40
0.0
 40
0.0
 40
0.0
 40
0.0
 40
0.136334787053895
 40
0.6267285237544833
 40
1.0
 40
1.0
 40
1.0
 40
1.0
 10
408.9517654067284
 20
399.8992522852218
 30
0.0
 10
408.7926376437455
 20
399.6959920526965
 30
0.0
 10
408.0611302263225
 20
398.7616084795711
 30
0.0
 10
406.6306449723734
 20
397.2844282305247
 30
0.0
 10
405.2504441267092
 20
396.022519937377
 30
0.0
 10
404.6539287183616
 20
395.4771299362411
 30
0.0
  0
SPLINE
  5
35E
330
353
100
AcDbEntity
  8
0
  6
CONTINUOUS
 62
     7
100
AcDbSpline
210
0.0
220
0.0
230
1.0
 70
     8
 71
     3
 72
    19
 73
    15
 74
     0
 42
0.00000001
 43
0.00000001
 40
0.0
 40
0.0
 40
0.0
 40
0.0
 40
0.0810378603206565
 40
0.1727855995510885
 40
0.2644913096471139
 40
0.356151404435591
 40
0.4477634817842973
 40
0.5393275696323521
 40
0.630848155183128
 40
0.7223373631693867
 40
0.813817724434688
 40
0.9053177077256829
 40
0.9968978101212581
 40
1.0
 40
1.0
 40
1.0
 40
1.0
 10
143.5646230659196
 20
379.5547995642639
 30
0.0
 10
142.2172424043754
 20
380.0691388070873
 30
0.0
 10
139.3444126614961
 20
381.1657918294186
 30
0.0
 10
135.2443217471919
 20
382.9247913290311
 30
0.0
 10
131.2109773658771
 20
384.8086639305661
 30
0.0
 10
127.4477582081747
 20
386.7496089197442
 30
0.0
 10
123.954666264619
 20
388.7407624972107
 30
0.0
 10
120.740977165668
 20
390.7778238679933
 30
0.0
 10
117.8115196193799
 20
392.8555350012774
 30
0.0
 10
115.1751094880282
 20
394.9688236831365
 30
0.0
 10
112.8241757083086
 20
397.1119522105581
 30
0.0
 10
110.8075670344399
 20
399.2810659962167
 30
0.0
 10
109.555003506304
 20
400.7612272765463
 30
0.0
 10
109.0610553585366
 20
401.518760873658
 30
0.0
 10
109.0448715409735
 20
401.5435808584865
 30
0.0
  0
SPLINE
  5
35F
330
353
100
AcDbEntity
  8
0
  6
CONTINUOUS
 62
     7
100
AcDbSpline
210
0.0
220
0.0
230
1.0
 70
     8
 71
     3
 72
    15
 73
    11
 74
     0
 42
0.00000001
 43
0.00000001
 40
0.0
 40
0.0
 40
0.0
 40
0.0
 40
0.0713010729346126
 40
0.2063976479327622
 40
0.3415010288325577
 40
0.476622129564842
 40
0.6117909314907499
 40
0.7470216564156233
 40
0.8823189468680519
 40
0.9999999999999999
 40
0.9999999999999999
 40
0.9999999999999999
 40
0.9999999999999999
 10
404.6539287183616
 20
395.477129936241
 30
0.0
 10
404.2195912987403
 20
395.1022045404951
 30
0.0
 10
402.962299954735
 20
394.0168952085699
 30
0.0
 10
400.6567363463773
 20
392.2451362233517
 30
0.0
 10
397.6475498537746
 20
390.1786242703918
 30
0.0
 10
394.3516360210921
 20
388.1553882255079
 30
0.0
 10
390.7826563559466
 20
386.1791761905152
 30
0.0
 10
386.9380394186129
 20
384.256822241698
 30
0.0
 10
383.0336844753509
 20
382.4662936079494
 30
0.0
 10
380.2915268294672
 20
381.3492401526133
 30
0.0
 10
379.0159235701163
 20
380.8296066331347
 30
0.0
  0
SPLINE
  5
360
330
353
100
AcDbEntity
  8
0
  6
CONTINUOUS
 62
     7
100
AcDbSpline
210
0.0
220
0.0
230
1.0
 70
     8
 71
     3
 72
    10
 73
     6
 74
     0
 42
0.00000001
 43
0.00000001
 40
0.0
 40
0.0
 40
0.0
 40
0.0
 40
0.1899081584737829
 40
0.6452037747035587
 40
1.0
 40
1.0
 40
1.0
 40
1.0
 10
406.7923663139213
 20
303.1164710644261
 30
0.0
 10
407.2008809636985
 20
303.4203403366258
 30
0.0
 10
408.5887897095688
 20
304.452721478201
 30
0.0
 10
410.4862845055404
 20
306.0925660753963
 30
0.0
 10
411.8320209326322
 20
307.445522716984
 30
0.0
 10
412.4214136164007
 20
308.038077640782
 30
0.0
  0
SPLINE
  5
361
330
353
100
AcDbEntity
  8
0
  6
CONTINUOUS
 62
     7
100
AcDbSpline
210
0.0
220
0.0
230
1.0
 70
     8
 71
     3
 72
     9
 73
     5
 74
     0
 42
0.00000001
 43
0.00000001
 40
0.0
 40
0.0
 40
0.0
 40
0.0
 40
0.1216356112282588
 40
1.0
 40
1.0
 40
1.0
 40
1.0
 10
108.4202245998415
 20
306.5205924764679
 30
0.0
 10
108.5070115087438
 20
306.4346024174638
 30
0.0
 10
109.2205106890071
 20
305.7276543605923
 30
0.0
 10
110.0719600759352
 20
305.0394728030621
 30
0.0
 10
110.8198428962544
 20
304.4349986299181
 30
0.0
  0
LWPOLYLINE
  5
382
330
353
100
AcDbEntity
  8
0
  6
CONTINUOUS
 62
     7
100
AcDbPolyline
 90
        9
 70
   128
 43
0.0
 10
420.4635953764
 20
325.0963106035
 10
420.4643604222
 20
324.9348011396
 10
420.2879437939
 20
322.4207091231
 10
419.7579888853
 20
319.9121416118
 10
418.8756620298
 20
317.414619503
 10
417.6429050671
 20
314.9336393851
 10
416.0624310695
 20
312.4746614407
 10
414.1377183705
 20
310.0430974296
 10
412.5666778695
 20
308.3385007837
  0
LWPOLYLINE
  5
383
330
353
100
AcDbEntity
  8
0
  6
CONTINUOUS
 62
     7
100
AcDbPolyline
 90
       10
 70
   128
 43
0.0
 10
108.2751694106
 20
306.8325952884
 10
107.3351306865
 20
307.7312198882
 10
105.0827424971
 20
310.1313078098
 10
103.1705249044
 20
312.5639669564
 10
101.6026863487
 20
315.0238434912
 10
100.3826773555
 20
317.5055236768
 10
99.5131829408
 20
320.0035457899
 10
98.9961167026
 20
322.5124121417
 10
98.8326166088
 20
325.0266011772
 10
98.8331258805
 20
325.0963106035
  0
LWPOLYLINE
  5
384
330
353
100
AcDbEntity
  8
0
  6
CONTINUOUS
 62
     7
100
AcDbPolyline
 90
       39
 70
   128
 43
0.0
 10
382.2079386193
 20
380.2581041777
 10
382.0676445711
 20
380.2016005591
 10
377.1395788848
 20
378.3122740464
 10
371.9493443489
 20
376.5026304684
 10
366.508522406
 20
374.7767078475
 10
360.8292536574
 20
373.1383573919
 10
354.9242107725
 20
371.5912349022
 10
348.8065702108
 20
370.1387926135
 10
342.4899828207
 20
368.7842714927
 10
335.9885433785
 20
367.5306940058
 10
329.3167591378
 20
366.3808573746
 10
322.4895174582
 20
365.337327334
 10
315.5220525853
 20
364.4024324078
 10
308.4299116577
 20
363.578258712
 10
301.2289200152
 20
362.8666453003
 10
293.9351458856
 20
362.2691800607
 10
286.5648645313
 20
361.7871961717
 10
279.1345219318
 20
361.4217691277
 10
271.6606980868
 20
361.1737143395
 10
264.1600700199
 20
361.0435853142
 10
256.6493745652
 20
361.0316724206
 10
249.1453710211
 20
361.138002241
 10
241.6648037537
 20
361.3623375119
 10
234.2243648336
 20
361.7041776538
 10
226.8406567895
 20
362.1627598876
 10
219.5301555613
 20
362.7370609369
 10
212.3091737357
 20
363.4257993116
 10
205.1938241467
 20
364.2274381671
 10
198.1999839216
 20
365.1401887335
 10
191.3432590527
 20
366.1620143076
 10
184.6389495742
 20
367.2906347968
 10
178.1020154222
 20
368.5235318076
 10
171.7470430528
 20
369.8579542646
 10
165.5882128944
 20
371.2909245495
 10
159.6392677052
 20
372.8192451454
 10
153.9134819082
 20
374.4395057713
 10
148.4236319703
 20
376.1480909922
 10
143.1819678935
 20
377.9411882864
 10
142.8314682608
 20
378.0673068398
  0
LWPOLYLINE
  5
386
330
353
100
AcDbEntity
  8
0
  6
CONTINUOUS
 62
     7
100
AcDbPolyline
 90
       39
 70
   128
 43
0.0
 10
379.401967979
 20
380.8405712659
 10
379.2964349595
 20
380.7982977805
 10
374.4183354261
 20
378.9382343902
 10
369.2802449858
 20
377.1576475947
 10
363.8938030661
 20
375.4605709957
 10
358.2712116903
 20
373.8508490175
 10
352.4252078365
 20
372.3321281981
 10
346.3690345836
 20
370.9078489287
 10
340.1164111118
 20
369.5812376599
 10
333.6815016244
 20
368.3552995929
 10
327.0788832611
 20
367.2328118717
 10
320.3235130761
 20
366.2163172921
 10
313.4306941556
 20
365.3081185413
 10
306.4160409515
 20
364.5102729814
 10
299.2954439093
 20
363.8245879894
 10
292.0850334716
 20
363.2526168622
 10
284.8011435373
 20
362.7956552984
 10
277.4602744596
 20
362.4547384629
 10
270.0790556682
 20
362.2306386421
 10
262.6742079977
 20
362.1238634941
 10
255.2625058097
 20
362.1346548989
 10
247.8607389934
 20
362.2629884106
 10
240.4856749315
 20
362.5085733125
 10
233.154020516
 20
362.8708532757
 10
225.8823843024
 20
363.3490076196
 10
218.6872388855
 20
363.9419531709
 10
211.5848835837
 20
364.6483467172
 10
204.5914075164
 20
365.4665880498
 10
197.722653156
 20
366.3948235891
 10
190.9941804405
 20
367.4309505829
 10
184.4212315246
 20
368.5726218703
 10
178.0186962517
 20
369.8172511988
 10
171.8010784235
 20
371.1620190825
 10
165.7824629442
 20
372.6038791896
 10
159.9764839136
 20
374.1395652433
 10
154.3962937416
 20
375.7655984207
 10
149.0545333537
 20
377.4782952338
 10
143.9633035554
 20
379.2737758732
 10
143.2053773528
 20
379.5562084242
  0
LWPOLYLINE
  5
389
330
353
100
AcDbEntity
  8
0
  6
CONTINUOUS
 62
     7
100
AcDbPolyline
 90
        8
 70
   128
 43
0.0
 10
414.3968902635
 20
414.2393440997
 10
414.3578273796
 20
411.909957728
 10
413.9751847352
 20
409.4578125412
 10
413.2429421974
 20
407.0145137599
 10
412.1627585312
 20
404.5855962416
 10
410.7370806998
 20
402.1765622657
 10
408.9691383223
 20
399.7928690691
 10
408.834629425
 20
399.6294722303
  0
LWPOLYLINE
  5
38A
330
353
100
AcDbEntity
  8
0
  6
CONTINUOUS
 62
     7
100
AcDbPolyline
 90
       52
 70
   128
 43
0.0
 10
406.5194181059
 20
303.0333983804
 10
405.8328626434
 20
302.5178160736
 10
402.5851385909
 20
300.2564456517
 10
399.0227913434
 20
298.0483403986
 10
395.1536621092
 20
295.898360653
 10
390.9862673654
 20
293.8112388112
 10
386.5297801121
 20
291.791568911
 10
381.7940096808
 20
289.8437965191
 10
376.7893801433
 20
287.9722089462
 10
371.5269073665
 20
286.1809258099
 10
366.0181747653
 20
284.4738899668
 10
360.2753078058
 20
282.8548588338
 10
354.3109473155
 20
281.3273961177
 10
348.1382216591
 20
279.8948639706
 10
341.7707178413
 20
278.5604155897
 10
335.2224515998
 20
277.3269882764
 10
328.5078365549
 20
276.1972969713
 10
321.6416524833
 20
275.1738282778
 10
314.6390127853
 20
274.258834989
 10
307.5153312188
 20
273.454331129
 10
300.2862879712
 20
272.7620875196
 10
292.967795145
 20
272.1836278829
 10
285.5759617336
 20
271.7202254867
 10
278.1270581629
 20
271.3729003423
 10
270.6374804777
 20
271.1424169596
 10
263.1237142523
 20
271.0292826636
 10
255.6022983032
 20
271.0337464781
 10
248.0897882849
 20
271.1557985778
 10
240.6027202489
 20
271.3951703094
 10
233.1575742451
 20
271.7513347834
 10
225.7707380478
 20
272.2235080336
 10
218.4584710832
 20
272.8106507426
 10
211.2368686407
 20
273.51147053
 10
204.1218264446
 20
274.3244247965
 10
197.1290056659
 20
275.2477241198
 10
190.2737984496
 20
276.2793361931
 10
183.5712940346
 20
277.4169902985
 10
177.0362455404
 20
278.6581823054
 10
170.6830374933
 20
280.0001801822
 10
164.5256541641
 20
281.44003001
 10
158.5776487868
 20
282.9745624843
 10
152.8521137265
 20
284.6003998915
 10
147.3616516607
 20
286.3139635434
 10
142.1183478396
 20
288.1114816544
 10
137.1337434846
 20
289.988997644
 10
132.4188103846
 20
291.9423788452
 10
127.9839267455
 20
293.9673256017
 10
123.8388543464
 20
296.0593807316
 10
119.9927170528
 20
298.2139393383
 10
116.4539807333
 20
300.4262589468
 10
113.2304346258
 20
302.6914699421
 10
111.2416625483
 20
304.2435255456
  0
LWPOLYLINE
  5
392
330
353
100
AcDbEntity
  8
0
  6
CONTINUOUS
 62
     7
100
AcDbPolyline
 90
        8
 70
   128
 43
0.0
 10
-2.1976808136
 20
377.011393347
 10
-2.1971981546
 20
376.9996308847
 10
-2.1718837014
 20
376.9348359975
 10
-2.1091326676
 20
376.8729327674
 10
-2.0113563073
 20
376.8162998709
 10
-1.8823117478
 20
376.7671134681
 10
-1.7269576201
 20
376.7272635823
 10
-1.5512635191
 20
376.6982814741
  0
LWPOLYLINE
  5
394
330
353
100
AcDbEntity
  8
0
  6
CONTINUOUS
 62
     7
100
AcDbPolyline
 90
       58
 70
   128
 43
0.0
 10
409.3146561043
 20
394.2314942696
 10
406.4986610339
 20
391.9138199643
 10
403.3598571325
 20
389.6426903878
 10
399.9051441722
 20
387.423097976
 10
396.1421163621
 20
385.2599218746
 10
392.0790456537
 20
383.1579172141
 10
387.7248635584
 20
381.1217046571
 10
383.0891415135
 20
379.1557602407
 10
378.1820698419
 20
377.2644055373
 10
373.0144353523
 20
375.4517981551
 10
367.5975976268
 20
373.7219225984
 10
361.9434640503
 20
372.0785815092
 10
356.0644636355
 20
370.5253873078
 10
349.9735197013
 20
369.0657542523
 10
343.6840214643
 20
367.7028909327
 10
337.2097946066
 20
366.4397932185
 10
330.565070884
 20
365.2792376726
 10
323.7644568413
 20
364.223775448
 10
316.8229017041
 20
363.2757266796
 10
309.7556645171
 20
362.4371753845
 10
302.5782806014
 20
361.7099648803
 10
295.3065274046
 20
361.0956937336
 10
287.9563898184
 20
360.5957122457
 10
280.5440250404
 20
360.2111194844
 10
273.085727057
 20
359.942760868
 10
265.597890826
 20
359.791226307
 10
258.0969762364
 20
359.7568489074
 10
250.5994719263
 20
359.839704238
 10
243.1218590375
 20
360.0396101648
 10
235.6805749859
 20
360.3561272514
 10
228.2919773288
 20
360.7885597243
 10
220.9723078075
 20
361.3359570032
 10
213.7376566441
 20
361.9971157901
 10
206.6039271719
 20
362.7705827144
 10
199.5868008767
 20
363.6546575281
 10
192.7017029248
 20
364.6473968427
 10
185.963768256
 20
365.7466184018
 10
179.3878083128
 20
366.9499058779
 10
172.9882784825
 20
368.254614184
 10
166.7792463204
 20
369.6578752879
 10
160.7743606268
 20
371.1566045174
 10
154.9868214438
 20
372.7475073402
 10
149.4293510384
 20
374.4270866067
 10
144.1141659367
 20
376.1916502372
 10
139.0529500692
 20
378.0373193378
 10
134.2568290868
 20
379.9600367272
 10
129.7363459042
 20
381.9555758555
 10
125.5014375246
 20
384.0195500944
 10
121.5614131957
 20
386.1474223806
 10
117.9249339461
 20
388.3345151892
 10
114.5999935464
 20
390.5760208153
 10
111.5939009371
 20
392.8670119432
 10
108.9132641623
 20
395.2024524772
 10
106.5639758434
 20
397.5772086121
 10
104.5512002259
 20
399.9860601185
 10
102.8793618275
 20
402.4237118181
 10
101.5521357118
 20
404.8848052233
 10
100.8372487121
 20
406.5981045562
  0
LWPOLYLINE
  5
396
330
353
100
AcDbEntity
  8
0
  6
CONTINUOUS
 62
     7
100
AcDbPolyline
 90
       55
 70
   128
 43
0.0
 10
412.5666778695
 20
308.3385007837
 10
411.8730029099
 20
307.6442987784
 10
409.2732689115
 20
305.2835448033
 10
406.3442379133
 20
302.9660310913
 10
403.0923561757
 20
300.6968580651
 10
399.5247804944
 20
298.4810197588
 10
395.6493624495
 20
296.3233928262
 10
391.474631126
 20
294.2287258089
 10
387.0097743422
 20
292.2016286851
 10
382.2646184298
 20
290.246562724
 10
377.2496066071
 20
288.3678306673
 10
371.975775996
 20
286.5695672602
 10
366.4547333311
 20
284.8557301507
 10
360.6986294154
 20
283.2300911801
 10
354.7201323787
 20
281.696228082
 10
348.5323997971
 20
280.2575166079
 10
342.149049736
 20
278.917123098
 10
335.584130779
 20
277.6779975128
 10
328.8520911094
 20
276.5428669406
 10
321.9677467127
 20
275.5142295958
 10
314.9462487691
 20
274.5943493205
 10
307.8030503088
 20
273.7852506027
 10
300.5538722023
 20
273.0887141205
 10
293.214668562
 20
272.5062728228
 10
285.80159163
 20
272.0392085563
 10
278.33095623
 20
271.6885492438
 10
270.8192038612
 20
271.4550666222
 10
263.2828665138
 20
271.3392745439
 10
255.7385302851
 20
271.3414278462
 10
248.2027988764
 20
271.4615217899
 10
240.6922570514
 20
271.6992920702
 10
233.223434136
 20
272.0542153985
 10
225.8127676407
 20
272.5255106535
 10
218.4765670841
 20
273.1121406007
 10
211.2309780992
 20
273.8128141752
 10
204.0919468992
 20
274.6259893227
 10
197.0751851835
 20
275.5498763939
 10
190.1961355585
 20
276.5824420826
 10
183.4699375516
 20
277.7214139011
 10
176.9113942919
 20
278.964285181
 10
170.534939931
 20
280.3083205905
 10
164.3546078763
 20
281.750562154
 10
158.383999906
 20
283.2878357621
 10
152.6362562338
 20
284.9167581574
 10
147.1240265902
 20
286.6337443803
 10
141.8594423823
 20
288.4350156587
 10
136.854089995
 20
290.3166077247
 10
132.1189852916
 20
292.2743795391
 10
127.6645493697
 20
294.3040224048
 10
123.5005856263
 20
296.40106945
 10
119.6362581825
 20
298.5609054584
 10
116.0800717147
 20
300.7787770268
 10
112.8398527375
 20
303.0498030265
 10
109.922732379
 20
305.3689853453
 10
108.2751694106
 20
306.8325952884
  0
LWPOLYLINE
  5
397
330
353
100
AcDbEntity
  8
0
  6
CONTINUOUS
 62
     7
100
AcDbPolyline
 90
        8
 70
   128
 43
0.0
 10
408.3792773753
 20
395.2839224974
 10
405.5586178289
 20
392.9635848025
 10
402.4123754445
 20
390.6902372389
 10
398.947570719
 20
388.4689525341
 10
395.1719349866
 20
386.3046872427
 10
391.093893167
 20
384.2022706869
 10
386.7225449661
 20
382.1663941802
 10
382.2079386193
 20
380.2581041777
  0
LWPOLYLINE
  5
398
330
353
100
AcDbEntity
  8
0
  6
CONTINUOUS
 62
     7
100
AcDbPolyline
 90
       44
 70
   128
 43
0.0
 10
142.8314682608
 20
378.0673068398
 10
138.2001858799
 20
379.8147965527
 10
133.4894022332
 20
381.7647350385
 10
129.0601285537
 20
383.7866526685
 10
124.9222482829
 20
385.8760377538
 10
121.0849946497
 20
388.0282280593
 10
117.5569300675
 20
390.238421207
 10
114.3459270279
 20
392.5016853916
 10
111.4591505342
 20
394.8129703858
 10
108.9030421136
 20
397.167118809
 10
106.6833054434
 20
399.5588776355
 10
104.8048936242
 20
401.9829099162
 10
103.2719981272
 20
404.4338066871
 10
102.0880394417
 20
406.9060990393
 10
101.2556594425
 20
409.3942703218
 10
100.7767154947
 20
411.8927684514
 10
100.6522763097
 20
414.396018302
 10
100.8826195599
 20
416.8984341442
 10
101.4672312594
 20
419.3944321099
 10
102.404806911
 20
421.8784426515
 10
103.6932544168
 20
424.3449229703
 10
105.3296987465
 20
426.7883693841
 10
107.310488353
 20
429.2033296087
 10
109.6312033202
 20
431.5844149234
 10
112.2866652254
 20
433.9263121959
 10
115.2709486949
 20
436.2237957376
 10
118.5773946252
 20
438.4717389643
 10
122.1986250427
 20
440.6651258357
 10
126.1265595663
 20
442.7990620481
 10
130.352433438
 20
444.8687859553
 10
134.8668170811
 20
446.869679194
 10
139.6596371402
 20
448.7972769889
 10
144.7201989597
 20
450.6472781158
 10
150.0372104474
 20
452.4155544985
 10
155.5988072717
 20
454.0981604212
 10
161.3925793353
 20
455.691341332
 10
167.4055984671
 20
457.1915422214
 10
173.6244472704
 20
458.5954155546
 10
180.0352490617
 20
459.8998287412
 10
186.6236988355
 20
461.1018711253
 10
193.375095184
 20
462.1988604804
 10
200.2743731021
 20
463.1883489943
 10
207.3061376029
 20
464.0681287312
 10
210.101173117
 20
464.3832736862
  0
LWPOLYLINE
  5
399
330
353
100
AcDbEntity
  8
0
  6
CONTINUOUS
 62
     7
100
AcDbPolyline
 90
       35
 70
   128
 43
0.0
 10
313.3087914335
 20
463.9127704314
 10
317.6159880337
 20
463.374467335
 10
324.5432030159
 20
462.4069093521
 10
331.3256122294
 20
461.3313862895
 10
337.9480814671
 20
460.1502980599
 10
344.3958334107
 20
458.8662801327
 10
350.6544806043
 20
457.4821976543
 10
356.7100575587
 20
456.0011390536
 10
362.549051914
 20
454.4264091517
 10
368.1584345904
 20
452.7615217867
 10
373.525688862
 20
451.0101919733
 10
378.6388382856
 20
449.1763276131
 10
383.4864734256
 20
447.2640207746
 10
388.0577773124
 20
445.2775385621
 10
392.3425495795
 20
443.2213135942
 10
396.3312292247
 20
441.0999341129
 10
400.0149159439
 20
438.9181337451
 10
403.3853899916
 20
436.6807809408
 10
406.4351305224
 20
434.3928681089
 10
409.1573323726
 20
432.0595004774
 10
411.5459212454
 20
429.6858847021
 10
413.595567265
 20
427.2773172478
 10
415.3016968698
 20
424.8391725704
 10
416.6605030174
 20
422.3768911239
 10
417.66895368
 20
419.8959672212
 10
418.3247986098
 20
417.4019367734
 10
418.6265743604
 20
414.9003649379
 10
418.5736075521
 20
412.3968336994
 10
418.1660163744
 20
409.8969294152
 10
417.4047103228
 20
407.4062303492
 10
416.2913881687
 20
404.930294225
 10
414.8285341691
 20
402.4746458241
 10
413.0194125234
 20
400.0447646585
 10
410.8680600893
 20
397.646072743
 10
408.3792773753
 20
395.2839224974
  0
LWPOLYLINE
  5
39A
330
353
100
AcDbEntity
  8
0
  6
CONTINUOUS
 62
     7
100
AcDbPolyline
 90
        8
 70
   128
 43
0.0
 10
405.3153665461
 20
395.6699389779
 10
402.5306599277
 20
393.3803541916
 10
399.4222789456
 20
391.1375299536
 10
395.9972650824
 20
388.9465469822
 10
392.2633770962
 20
386.8123685584
 10
388.2290734442
 20
384.7398292828
 10
383.9034931218
 20
382.7336241235
 10
379.401967979
 20
380.8405712659
  0
LWPOLYLINE
  5
39B
330
353
100
AcDbEntity
  8
0
  6
CONTINUOUS
 62
     7
100
AcDbPolyline
 90
       42
 70
   128
 43
0.0
 10
143.2053773528
 20
379.5562084242
 10
139.1341376196
 20
381.147972998
 10
134.5779751604
 20
383.0966409489
 10
130.3051373511
 20
385.115365366
 10
126.3253035437
 20
387.1995731894
 10
122.6474893419
 20
389.3445430181
 10
119.2800261777
 20
391.5454158053
 10
116.2305424382
 20
393.7972058664
 10
113.5059461849
 20
396.0948121727
 10
111.1124095048
 20
398.4330299069
 10
109.0553545281
 20
400.8065622537
 10
107.3394411461
 20
403.210032399
 10
105.9685564545
 20
405.6379957099
 10
104.9458059479
 20
408.0849520685
 10
104.2735064853
 20
410.5453583318
 10
103.9531810412
 20
413.013640888
 10
103.9855552557
 20
415.4842082834
 10
104.3705557908
 20
417.9514638883
 10
105.1073104965
 20
420.409818575
 10
106.1941503864
 20
422.8537033796
 10
107.6286134186
 20
425.2775821169
 10
109.4074500729
 20
427.6759639219
 10
111.5266307122
 20
430.0434156886
 10
113.9813547108
 20
432.3745743772
 10
116.7660613292
 20
434.6641591634
 10
119.8744423113
 20
436.9069834014
 10
123.2994561745
 20
439.0979663728
 10
127.0333441607
 20
441.2321447966
 10
131.0676478127
 20
443.3046840722
 10
135.3932281351
 20
445.3108892315
 10
140.0002862974
 20
447.2462155746
 10
144.8783858308
 20
449.1062789648
 10
150.0164762711
 20
450.8868657603
 10
155.4029181908
 20
452.5839423594
 10
161.0255095666
 20
454.1936643376
 10
166.8715134204
 20
455.712385157
 10
172.9276866733
 20
457.1366644264
 10
179.1803101451
 20
458.4632756952
 10
185.6152196325
 20
459.6892137622
 10
192.2178379958
 20
460.8117014833
 10
198.9732081808
 20
461.8281960629
 10
203.2308507026
 20
462.4040820792
  0
LWPOLYLINE
  5
39C
330
353
100
AcDbEntity
  8
0
  6
CONTINUOUS
 62
     7
100
AcDbPolyline
 90
       36
 70
   128
 43
0.0
 10
305.0536071364
 20
463.6749485347
 10
307.7118376732
 20
463.3961666378
 10
314.7053137405
 20
462.5779253052
 10
321.5740681009
 20
461.6496897659
 10
328.3025408165
 20
460.6135627721
 10
334.8754897323
 20
459.4718914847
 10
341.2780250052
 20
458.2272621563
 10
347.4956428334
 20
456.8824942726
 10
353.5142583127
 20
455.4406341654
 10
359.3202373433
 20
453.9049481117
 10
364.9004275153
 20
452.2789149343
 10
370.2421879032
 20
450.5662181213
 10
375.3334177015
 20
448.7707374818
 10
380.1625836373
 20
446.896540357
 10
384.7187460966
 20
444.9478724062
 10
388.9915839058
 20
442.929147989
 10
392.9714177132
 20
440.8449401656
 10
396.649231915
 20
438.699970337
 10
400.0166950793
 20
436.4990975497
 10
403.0661788187
 20
434.2473074886
 10
405.790775072
 20
431.9497011823
 10
408.1843117521
 20
429.6114834481
 10
410.2413667288
 20
427.2379511013
 10
411.9572801108
 20
424.834480956
 10
413.3281648024
 20
422.4065176451
 10
414.350915309
 20
419.9595612865
 10
415.0232147716
 20
417.4991550233
 10
415.3435402157
 20
415.030872467
 10
415.3111660012
 20
412.5603050716
 10
414.9261654661
 20
410.0930494668
 10
414.1894107604
 20
407.63469478
 10
413.1025708705
 20
405.1908099755
 10
411.6681078383
 20
402.7669312382
 10
409.889271184
 20
400.3685494331
 10
407.7700905447
 20
398.0010976664
 10
405.3153665461
 20
395.6699389779
  0
LWPOLYLINE
  5
39D
330
353
100
AcDbEntity
  8
0
  6
CONTINUOUS
 62
     7
100
AcDbPolyline
 90
       68
 70
   128
 43
0.0
 10
104.8932368665
 20
414.0986793109
 10
104.9388938773
 20
414.8159538371
 10
105.3215365217
 20
417.2680990239
 10
106.0537790595
 20
419.7113978052
 10
107.1339627258
 20
422.1403153235
 10
108.5596405571
 20
424.5493492994
 10
110.3275829346
 20
426.9330424959
 10
112.4337849003
 20
429.2859950815
 10
114.8734752292
 20
431.6028768617
 10
117.6411272381
 20
433.8784393541
 10
120.7304713049
 20
436.1075276777
 10
124.1345090718
 20
438.2850922305
 10
127.8455292983
 20
440.4062001285
 10
131.85512533
 20
442.46604638
 10
136.1542141424
 20
444.4599647707
 10
140.7330569164
 20
446.3834384342
 10
145.5812811006
 20
448.2321100841
 10
150.6879039077
 20
450.0017918843
 10
156.0413571947
 20
451.6884749364
 10
161.629513668
 20
453.2883383609
 10
167.4397143559
 20
454.7977579525
 10
173.458797285
 20
456.2133143903
 10
179.6731272965
 20
457.5318009838
 10
186.0686269344
 20
458.7502309367
 10
192.6308083347
 20
459.8658441132
 10
199.3448060462
 20
460.8761132908
 10
206.1954107044
 20
461.7787498848
 10
213.1671034865
 20
462.5717091329
 10
220.244091266
 20
463.2531947276
 10
227.4103423894
 20
463.8216628846
 10
234.6496229929
 20
464.2758258408
 10
241.9455337776
 20
464.614654771
 10
249.2815471589
 20
464.8373821187
 10
256.6410447071
 20
464.9435033348
 10
264.0073547931
 20
464.9327780207
 10
271.3637903553
 20
464.8052304726
 10
278.693686701
 20
464.5611496267
 10
285.9804392576
 20
464.2010884047
 10
293.2075411869
 20
463.725862461
 10
300.3586207784
 20
463.1365483353
 10
307.4174785368
 20
462.4344810136
 10
314.368123879
 20
461.6212509041
 10
321.1948113577
 20
460.6987002347
 10
327.8820763301
 20
459.6689188794
 10
334.4147699901
 20
458.534239624
 10
340.7780936855
 20
457.2972328821
 10
346.9576324415
 20
455.9607008719
 10
352.9393876152
 20
454.5276712681
 10
358.7098086071
 20
453.0013903438
 10
364.2558235579
 20
451.3853156161
 10
369.5648689598
 20
449.6831080141
 10
374.6249181175
 20
447.8986235856
 10
379.4245083921
 20
446.0359047616
 10
383.9527671679
 20
444.0991711994
 10
388.1994364824
 20
442.0928102235
 10
392.1548962637
 20
440.0213668868
 10
395.8101861232
 20
437.8895336747
 10
399.1570256537
 20
435.7021398751
 10
402.1878331871
 20
433.4641406385
 10
404.8957429697
 20
431.180605753
 10
407.2746207147
 20
428.8567081595
 10
409.3190774991
 20
426.4977122336
 10
411.0244819705
 20
424.1089618597
 10
412.3869708394
 20
421.6958683258
 10
413.4034576303
 20
419.2638980648
 10
414.0716396736
 20
416.8185602716
 10
414.390003322
 20
414.3653944228
 10
414.3968902635
 20
414.2393440997
  0
LWPOLYLINE
  5
39E
330
353
100
AcDbEntity
  8
0
  6
CONTINUOUS
 62
     7
100
AcDbPolyline
 90
       40
 70
   128
 43
0.0
 10
148.3887529526
 20
377.7035373028
 10
152.0062601938
 20
379.3956872632
 10
156.258763039
 20
381.1927599912
 10
160.7809975395
 20
382.9151101002
 10
165.5611657018
 20
384.5582441754
 10
170.5867966128
 20
386.1178754675
 10
175.8447789755
 20
387.5899350767
 10
181.3213953142
 20
388.9705825674
 10
187.0023577621
 20
390.256215988
 10
192.8728453369
 20
391.4434812677
 10
198.9175426067
 20
392.529280967
 10
205.1206796466
 20
393.5107823584
 10
211.4660731804
 20
394.3854248168
 10
217.9371688006
 20
395.1509264999
 10
224.5170841579
 20
395.8052903013
 10
231.1886530042
 20
396.3468090605
 10
237.9344699782
 20
396.7740700169
 10
244.7369360137
 20
397.0859584955
 10
251.5783042534
 20
397.2816608147
 10
258.4407263488
 20
397.3606664097
 10
265.3062990242
 20
397.3227691637
 10
272.1571107842
 20
397.1680679465
 10
278.9752886434
 20
396.8969663558
 10
285.7430447541
 20
396.5101716648
 10
292.4427228133
 20
396.0086929765
 10
299.056844126
 20
395.3938385917
 10
305.5681532049
 20
394.6672125952
 10
311.959662788
 20
393.8307106714
 10
318.2146981566
 20
392.8865151581
 10
324.3169406376
 20
391.8370893537
 10
330.250470177
 20
390.6851710903
 10
335.999806874
 20
389.4337655911
 10
341.5499513653
 20
388.0861376302
 10
346.8864239579
 20
386.6458030151
 10
351.9953024039
 20
385.1165194143
 10
356.8632582228
 20
383.5022765541
 10
361.4775914738
 20
381.8072858098
 10
365.8262638882
 20
380.0359692188
 10
369.8979302762
 20
378.1929479438
 10
370.9079683043
 20
377.7035373028
  0
LWPOLYLINE
  5
39F
330
353
100
AcDbEntity
  8
0
  6
CONTINUOUS
 62
     7
100
AcDbPolyline
 90
       27
 70
   128
 43
0.0
 10
184.1570613478
 20
368.6213163751
 10
188.8323523621
 20
369.8927789743
 10
193.9843568262
 20
371.1467941077
 10
199.3357807117
 20
372.3043009107
 10
204.8703719201
 20
373.3617840731
 10
210.5713220798
 20
374.3160320534
 10
216.4213175926
 20
375.1641468317
 10
222.4025922144
 20
375.9035527114
 10
228.4969810107
 20
376.5320041412
 10
234.6859755231
 20
377.0475925346
 10
240.9507799786
 20
377.4487520667
 10
247.2723683721
 20
377.7342644291
 10
253.6315422472
 20
377.9032625303
 10
260.008989002
 20
377.9552331285
 10
266.3853405403
 20
377.8900183907
 10
272.7412320921
 20
377.7078163719
 10
279.0573610235
 20
377.4091804138
 10
285.3145454586
 20
376.9950174638
 10
291.493782534
 20
376.4665853212
 10
297.5763061096
 20
375.8254888171
 10
303.5436437615
 20
375.0736749406
 10
309.3776728811
 20
374.2134269255
 10
315.0606757138
 20
373.247357317
 10
320.5753931669
 20
372.1784000366
 10
325.9050772246
 20
371.0098014724
 10
331.0335418116
 20
369.7451106199
 10
335.1396599091
 20
368.6213163751
  0
LWPOLYLINE
  5
3A3
330
353
100
AcDbEntity
  8
0
  6
CONTINUOUS
 62
     7
100
AcDbPolyline
 90
        8
 70
   128
 43
0.0
 10
-0.6062786709
 20
456.0446622584
 10
-0.7819555098
 20
456.0750937891
 10
-0.9372968107
 20
456.1160206888
 10
-1.0663334715
 20
456.1658703118
 10
-1.1641071648
 20
456.2227271501
 10
-1.2268608656
 20
456.2844064384
 10
-1.2521832175
 20
456.3485381055
 10
-1.2526678307
 20
456.3601364819
  0
LINE
  5
3A5
330
353
100
AcDbEntity
  8
0
  6
CONTINUOUS
 62
     7
100
AcDbLine
 10
420.4635953764
 20
325.0963106035
 30
0.0
 11
419.6475990444
 21
413.2522304895
 31
0.0
  0
LINE
  5
3A6
330
353
100
AcDbEntity
  8
0
  6
CONTINUOUS
 62
     7
100
AcDbLine
 10
99.6491222125
 20
413.2522304895
 30
0.0
 11
98.8331258805
 21
325.0963106035
 31
0.0
  0
LINE
  5
3A7
330
353
100
AcDbEntity
  8
0
  6
CONTINUOUS
 62
     7
100
AcDbLine
 10
-1.2526678307
 20
456.3601364819
 30
0.0
 11
-2.1976808136
 21
377.011393347
 31
0.0
  0
LINE
  5
3A8
330
353
100
AcDbEntity
  8
0
  6
CONTINUOUS
 62
     7
100
AcDbLine
 10
42.9295158041
 20
495.7647299062
 30
0.0
 11
-0.9141765704
 21
457.0982277114
 31
0.0
  0
LINE
  5
3A9
330
353
100
AcDbEntity
  8
0
  6
CONTINUOUS
 62
     7
100
AcDbLine
 10
177.7287258776
 20
-22.3917147271
 30
0.0
 11
221.5693463011
 21
16.2720782616
 31
0.0
  0
LINE
  5
3AA
330
353
100
AcDbEntity
  8
0
  6
CONTINUOUS
 62
     7
100
AcDbLine
 10
177.7287258776
 20
-22.3917147271
 30
0.0
 11
170.2454111038
 21
-13.9064333531
 31
0.0
  0
LINE
  5
3AB
330
353
100
AcDbEntity
  8
0
  6
CONTINUOUS
 62
     7
100
AcDbLine
 10
0.0
 20
0.0
 30
0.0
 11
177.7287258776
 21
-22.3917147271
 31
0.0
  0
LINE
  5
3AC
330
353
100
AcDbEntity
  8
0
  6
CONTINUOUS
 62
     7
100
AcDbLine
 10
46.7277411206
 20
41.2099941123
 30
0.0
 11
0.0
 21
0.0
 31
0.0
  0
LINE
  5
3AD
330
353
100
AcDbEntity
  8
0
  6
CONTINUOUS
 62
     7
100
AcDbLine
 10
7.4833147738
 20
6.5996632917
 30
0.0
 11
170.2454111038
 21
-13.9064333531
 31
0.0
  0
LINE
  5
3AE
330
353
100
AcDbEntity
  8
0
  6
CONTINUOUS
 62
     7
100
AcDbLine
 10
46.7277411206
 20
41.2099941123
 30
0.0
 11
170.2454111038
 21
25.6482304392
 31
0.0
  0
LINE
  5
3AF
330
353
100
AcDbEntity
  8
0
  6
CONTINUOUS
 62
     7
100
AcDbLine
 10
7.4833147738
 20
368.63833527
 30
0.0
 11
0.6159070961
 21
376.4252436411
 31
0.0
  0
LINE
  5
3B0
330
353
100
AcDbEntity
  8
0
  6
CONTINUOUS
 62
     7
100
AcDbLine
 10
7.4833147738
 20
368.63833527
 30
0.0
 11
7.4833147738
 21
6.5996632917
 31
0.0
  0
LINE
  5
3B1
330
353
100
AcDbEntity
  8
0
  6
CONTINUOUS
 62
     7
100
AcDbLine
 10
0.0
 20
376.5028406414
 30
0.0
 11
0.0
 21
0.0
 31
0.0
  0
LINE
  5
3B2
330
353
100
AcDbEntity
  8
0
  6
CONTINUOUS
 62
     7
100
AcDbLine
 10
7.4837357102
 20
368.6387065011
 30
0.0
 11
7.4833147738
 21
368.63833527
 31
0.0
  0
LINE
  5
3B3
330
353
100
AcDbEntity
  8
0
  6
CONTINUOUS
 62
     7
100
AcDbLine
 10
46.7277411206
 20
363.6939080173
 30
0.0
 11
46.7277411206
 21
226.0005662679
 31
0.0
  0
LINE
  5
3B4
330
353
100
AcDbEntity
  8
0
  6
CONTINUOUS
 62
     7
100
AcDbLine
 10
46.7277411206
 20
179.6161267876
 30
0.0
 11
46.7277411206
 21
41.2099941123
 31
0.0
  0
LINE
  5
3B5
330
353
100
AcDbEntity
  8
0
  6
CONTINUOUS
 62
     7
100
AcDbLine
 10
177.7287258776
 20
278.5201782871
 30
0.0
 11
177.7287258776
 21
-22.3917147271
 31
0.0
  0
LINE
  5
3B6
330
353
100
AcDbEntity
  8
0
  6
CONTINUOUS
 62
     7
100
AcDbLine
 10
170.2454111038
 20
280.0978371295
 30
0.0
 11
170.2454111038
 21
-13.9064333531
 31
0.0
  0
LINE
  5
3B7
330
353
100
AcDbEntity
  8
0
  6
CONTINUOUS
 62
     7
100
AcDbLine
 10
221.5693463011
 20
272.546059359
 30
0.0
 11
221.5693463011
 21
16.2720782616
 31
0.0
  0
LINE
  5
3B8
330
353
100
AcDbEntity
  8
0
  6
CONTINUOUS
 62
     7
100
AcDbLine
 10
0.616748969
 20
376.4251375751
 30
0.0
 11
7.4842501881
 21
368.638123138
 31
0.0
  0
LINE
  5
3B9
330
353
100
AcDbEntity
  8
0
  6
CONTINUOUS
 62
     7
100
AcDbLine
 10
7.4842501881
 20
368.638123138
 30
0.0
 11
99.1292864928
 21
357.0919338602
 31
0.0
  0
LINE
  5
3BA
330
353
100
AcDbEntity
  8
0
  6
CONTINUOUS
 62
     7
100
AcDbLine
 10
170.2454111038
 20
164.0543631145
 30
0.0
 11
8.1904215548
 21
184.4713726788
 31
0.0
  0
LINE
  5
3BB
330
353
100
AcDbEntity
  8
0
  6
CONTINUOUS
 62
     7
100
AcDbLine
 10
8.1904215548
 20
192.0138450117
 30
0.0
 11
8.1904215548
 21
184.4713726788
 31
0.0
  0
LINE
  5
3BC
330
353
100
AcDbEntity
  8
0
  6
CONTINUOUS
 62
     7
100
AcDbLine
 10
170.2454111038
 20
171.5968354474
 30
0.0
 11
8.1904215548
 21
192.0138450117
 31
0.0
  0
LINE
  5
3BD
330
353
100
AcDbEntity
  8
0
  6
CONTINUOUS
 62
     7
100
AcDbLine
 10
46.7277411206
 20
226.0005662679
 30
0.0
 11
8.1904215548
 21
192.0138450117
 31
0.0
  0
LINE
  5
3BE
330
353
100
AcDbEntity
  8
0
  6
CONTINUOUS
 62
     7
100
AcDbLine
 10
170.2454111038
 20
210.4388025948
 30
0.0
 11
46.7277411206
 21
226.0005662679
 31
0.0
  0
LINE
  5
3BF
330
353
100
AcDbEntity
  8
0
  6
CONTINUOUS
 62
     7
100
AcDbLine
 10
-0.2527387426
 20
457.291036753
 30
0.0
 11
43.5909536319
 21
495.9575389478
 31
0.0
  0
LINE
  5
3C0
330
353
100
AcDbEntity
  8
0
  6
CONTINUOUS
 62
     7
100
AcDbLine
 10
355.1001863275
 20
456.711064643
 30
0.0
 11
353.2616101573
 21
456.9427034673
 31
0.0
  0
LINE
  5
3C1
330
353
100
AcDbEntity
  8
0
  6
CONTINUOUS
 62
     7
100
AcDbLine
 10
275.3009110864
 20
466.764828309
 30
0.0
 11
43.5909536319
 21
495.9575389478
 31
0.0
  0
LINE
  5
3C2
330
353
100
AcDbEntity
  8
0
  6
CONTINUOUS
 62
     7
100
AcDbLine
 10
-1.5512635191
 20
376.6982814741
 30
0.0
 11
-0.6062786709
 21
456.0446622584
 31
0.0
  0
LINE
  5
3C3
330
353
100
AcDbEntity
  8
0
  6
CONTINUOUS
 62
     7
100
AcDbLine
 10
-1.5512635191
 20
376.6982814741
 30
0.0
 11
99.1932819301
 21
364.0056618041
 31
0.0
  0
LINE
  5
3C4
330
353
100
AcDbEntity
  8
0
  6
CONTINUOUS
 62
     7
100
AcDbLine
 10
355.1001863275
 20
456.711064643
 30
0.0
 11
354.8971865703
 21
456.5320356851
 31
0.0
  0
LINE
  5
3C5
330
353
100
AcDbEntity
  8
0
  6
CONTINUOUS
 62
     7
100
AcDbLine
 10
123.6739516368
 20
441.6777413538
 30
0.0
 11
-0.2527387426
 21
457.291036753
 31
0.0
  0
LINE
  5
3C6
330
353
100
AcDbEntity
  8
0
  6
CONTINUOUS
 62
     7
100
AcDbLine
 10
-0.6062786709
 20
456.0446622584
 30
0.0
 11
121.8019155602
 21
440.6226793912
 31
0.0
  0
ARC
  5
3C7
330
353
100
AcDbEntity
  8
0
  6
CONTINUOUS
 62
     7
100
AcDbCircle
 10
-0.2527387426
 20
456.3482277114
 30
0.0
 40
0.9999999999993752
100
AcDbArc
 50
131.4096221099
 51
179.3176615833
  0
ARC
  5
3C8
330
353
100
AcDbEntity
  8
0
  6
CONTINUOUS
 62
     7
100
AcDbCircle
 10
118.2888896348
 20
413.0947767434
 30
0.0
 40
18.62166803499053
100
AcDbArc
 50
157.0915343395
 51
200.4186444667
  0
ARC
  5
3C9
330
353
100
AcDbEntity
  8
0
  6
CONTINUOUS
 62
     7
100
AcDbCircle
 10
401.0351430082
 20
413.0940816503
 30
0.0
 40
18.59694144090327
100
AcDbArc
 50
338.8868649763
 51
22.992865629
  0
ARC
  5
3CA
330
353
100
AcDbEntity
  8
0
  6
CONTINUOUS
 62
     7
100
AcDbCircle
 10
259.6090124669
 20
4.3848859131
 30
0.0
 40
462.6548853205298
100
AcDbArc
 50
83.3347266672
 51
96.1428765478
  0
ARC
  5
3CB
330
353
100
AcDbEntity
  8
0
  6
CONTINUOUS
 62
     7
100
AcDbCircle
 10
259.755541016
 20
13.2968158459
 30
0.0
 40
452.6503918020303
100
AcDbArc
 50
84.2566279482
 51
97.1735337581
  0
ARC
  5
3CC
330
353
100
AcDbEntity
  8
0
  6
CONTINUOUS
 62
     7
100
AcDbCircle
 10
125.37869766
 20
413.8285610781
 30
0.0
 40
20.48724158546513
100
AcDbArc
 50
179.2445501713
 51
217.6372202048
  0
ARC
  5
3CD
330
353
100
AcDbEntity
  8
0
  6
CONTINUOUS
 62
     7
100
AcDbCircle
 10
1.352356967
 20
456.1624150113
 30
0.0
 40
1.962172080357805
100
AcDbArc
 50
144.887061517
 51
183.4404688546
  0
ARC
  5
3CE
330
353
100
AcDbEntity
  8
0
  6
CONTINUOUS
 62
     7
100
AcDbCircle
 10
354.9495822654
 20
455.6446154067
 30
0.0
 40
1.077030898866545
100
AcDbArc
 50
38.5031947324
 51
81.9618386693
  0
ARC
  5
3CF
330
353
100
AcDbEntity
  8
0
  6
CONTINUOUS
 62
     7
100
AcDbCircle
 10
43.4704139063
 20
495.1401077334
 30
0.0
 40
0.8262709094385329
100
AcDbArc
 50
81.6115255697
 51
130.891268194
  0
ARC
  5
3D0
330
353
100
AcDbEntity
  8
0
  6
CONTINUOUS
 62
     7
100
AcDbCircle
 10
389.7074862634
 20
418.312878631
 30
0.0
 40
31.05405258461931
100
AcDbArc
 50
309.1526336244
 51
337.4325982362
  0
ARC
  5
3D1
330
353
100
AcDbEntity
  8
0
  6
CONTINUOUS
 62
     7
100
AcDbCircle
 10
-0.3732784681
 20
456.4736055386
 30
0.0
 40
0.8262709094226517
100
AcDbArc
 50
81.6115255692
 51
130.8912681945
  0
VIEWPORT
  5
3E2
330
353
100
AcDbEntity
  8
0
100
AcDbViewport
 10
0.0
 20
0.0
 30
0.0
 40
205.6
 41
156.0
 68
     1
 69
     1
1001
ACAD
1000
MVIEW
1002
{
1070
    16
1010
0.0
1020
0.0
1030
0.0
1010
0.0
1020
0.0
1030
1.0
1040
0.0
1040
357.2134125294
1040
228.7789015083
1040
-46.4080096273
1040
50.0
1040
0.0
1040
0.0
1070
     0
1070
   100
1070
     0
1070
     3
1070
     0
1070
     0
1070
     0
1070
     0
1040
0.0
1040
0.0
1040
0.0
1040
10.0
1040
10.0
1040
10.0
1040
10.0
1070
     0
1002
{
1002
}
1002
}
  0
ENDBLK
  5
356
330
353
100
AcDbEntity
  8
0
100
AcDbBlockEnd
  0
ENDSEC
  0
SECTION
  2
ENTITIES
  0
CIRCLE
  5
65
330
1F
100
AcDbEntity
  8
0
  6
CONTINUOUS
 62
     7
100
AcDbCircle
 10
298.7417837622
 20
-56.0
 30
0.0
 40
155.7245796237925
  0
CIRCLE
  5
66
330
1F
100
AcDbEntity
  8
0
  6
CONTINUOUS
 62
     7
100
AcDbCircle
 10
298.7417837622
 20
-56.0
 30
0.0
 40
159.0000380769355
  0
CIRCLE
  5
67
330
1F
100
AcDbEntity
  8
0
  6
CONTINUOUS
 62
     7
100
AcDbCircle
 10
298.7417837622
 20
-56.0
 30
0.0
 40
154.7708626730443
  0
CIRCLE
  5
68
330
1F
100
AcDbEntity
  8
0
  6
CONTINUOUS
 62
     7
100
AcDbCircle
 10
298.7417837622
 20
-56.0
 30
0.0
 40
159.9999999999994
  0
CIRCLE
  5
69
330
1F
100
AcDbEntity
  8
0
  6
CONTINUOUS
 62
     7
100
AcDbCircle
 10
298.7417837622
 20
-56.0
 30
0.0
 40
134.4338916994192
  0
SPLINE
  5
6A
330
1F
100
AcDbEntity
  8
0
  6
CONTINUOUS
 62
     7
100
AcDbSpline
210
0.0
220
0.0
230
1.0
 70
     8
 71
     3
 72
    12
 73
     8
 74
     0
 42
0.00000001
 43
0.00000001
 40
0.0
 40
0.0
 40
0.0
 40
0.0
 40
0.2500000000000183
 40
0.2500000000000183
 40
0.5000000000000365
 40
0.5000000000000365
 40
1.0
 40
1.0
 40
1.0
 40
1.0
 10
332.7504725516196
 20
100.4243363947891
 30
0.0
 10
332.8802538570263
 20
100.3961202480694
 30
0.0
 10
333.0074618060302
 20
100.3685135024163
 30
0.0
 10
333.2472041354762
 20
100.3166568206813
 30
0.0
 10
333.357306979262
 20
100.2929373956087
 30
0.0
 10
333.6356983653578
 20
100.2335434524396
 30
0.0
 10
333.7481149241112
 20
100.2105877305838
 30
0.0
 10
333.7504344746838
 20
100.2124449845302
 30
0.0
  0
SPLINE
  5
6E
330
1F
100
AcDbEntity
  8
0
  6
CONTINUOUS
 62
     7
100
AcDbSpline
210
0.0
220
0.0
230
1.0
 70
     8
 71
     3
 72
    14
 73
    10
 74
     0
 42
0.00000001
 43
0.00000001
 40
0.0
 40
0.0
 40
0.0
 40
0.0
 40
0.2499999999999999
 40
0.2499999999999999
 40
0.4999999999999999
 40
0.4999999999999999
 40
0.7499999999999999
 40
0.7499999999999999
 40
1.0
 40
1.0
 40
1.0
 40
1.0
 10
148.3958988957197
 20
-1.008650712469195
 30
0.0
 10
148.3975957190928
 20
-1.007464586140615
 30
0.0
 10
148.409419524818
 20
-0.9784997965792269
 30
0.0
 10
148.4506017764833
 20
-0.8722848627411919
 30
0.0
 10
148.4800496203793
 20
-0.7947942709654252
 30
0.0
 10
148.5504121403818
 20
-0.6081734602789296
 30
0.0
 10
148.5918774389431
 20
-0.4975995766899055
 30
0.0
 10
148.6799881714697
 20
-0.2621728677153004
 30
0.0
 10
148.7271980209894
 20
-0.135821760020069
 30
0.0
 10
148.7746640371127
 20
-0.0086887894050203
 30
0.0
  0
CIRCLE
  5
84
330
1F
100
AcDbEntity
  8
0
  6
CONTINUOUS
 62
     7
100
AcDbCircle
 10
298.7417837622
 20
-56.0
 30
0.0
 40
115.7594727084463
  0
CIRCLE
  5
85
330
1F
100
AcDbEntity
  8
0
  6
CONTINUOUS
 62
     7
100
AcDbCircle
 10
298.7417837622
 20
-56.0
 30
0.0
 40
48.16836135518236
  0
CIRCLE
  5
86
330
1F
100
AcDbEntity
  8
0
  6
CONTINUOUS
 62
     7
100
AcDbCircle
 10
298.7417837622
 20
-56.0
 30
0.0
 40
45.22880627331193
  0
CIRCLE
  5
87
330
1F
100
AcDbEntity
  8
0
  6
CONTINUOUS
 62
     7
100
AcDbCircle
 10
298.7417837622
 20
-56.0
 30
0.0
 40
45.0504322296847
  0
CIRCLE
  5
88
330
1F
100
AcDbEntity
  8
0
  6
CONTINUOUS
 62
     7
100
AcDbCircle
 10
298.7417837622
 20
-56.0
 30
0.0
 40
42.11087714781422
  0
CIRCLE
  5
89
330
1F
100
AcDbEntity
  8
0
  6
CONTINUOUS
 62
     7
100
AcDbCircle
 10
298.7417837622
 20
-56.0
 30
0.0
 40
34.47938398148534
  0
CIRCLE
  5
8A
330
1F
100
AcDbEntity
  8
0
  6
CONTINUOUS
 62
     7
100
AcDbCircle
 10
298.7417837622
 20
-56.0
 30
0.0
 40
22.99999999999983
  0
LINE
  5
8B
330
1F
100
AcDbEntity
  8
0
  6
CONTINUOUS
 62
     7
100
AcDbLine
 10
333.7504344747
 20
100.2124449845
 30
0.0
 11
334.4791660129
 21
100.7948514313
 31
0.0
  0
LINE
  5
8C
330
1F
100
AcDbEntity
  8
0
  6
CONTINUOUS
 62
     7
100
AcDbLine
 10
147.3569950928
 20
-1.7373822507
 30
0.0
 11
148.3958988957
 21
-1.0086507125
 31
0.0
  0
LINE
  5
8D
330
1F
100
AcDbEntity
  8
0
  6
CONTINUOUS
 62
     7
100
AcDbLine
 10
-0.2669050272
 20
-1.0086507125
 30
0.0
 11
-0.2669050272
 21
124.0
 31
0.0
  0
LINE
  5
8E
330
1F
100
AcDbEntity
  8
0
  6
CONTINUOUS
 62
     7
100
AcDbLine
 10
148.7746640371
 20
-0.0086887894
 30
0.0
 11
-1.2668669503
 21
-0.0086887894
 31
0.0
  0
LINE
  5
8F
330
1F
100
AcDbEntity
  8
0
  6
CONTINUOUS
 62
     7
100
AcDbLine
 10
-1.2668669503
 20
124.0
 30
0.0
 11
-1.2668669503
 21
-0.0086887894
 31
0.0
  0
LINE
  5
90
330
1F
100
AcDbEntity
  8
0
  6
CONTINUOUS
 62
     7
100
AcDbLine
 10
334.4835675244
 20
124.0
 30
0.0
 11
-2.0
 21
124.0
 31
0.0
  0
LINE
  5
91
330
1F
100
AcDbEntity
  8
0
  6
CONTINUOUS
 62
     7
100
AcDbLine
 10
332.7504725516
 20
124.0
 30
0.0
 11
332.7504725516
 21
100.4243363948
 31
0.0
  0
LINE
  5
92
330
1F
100
AcDbEntity
  8
0
  6
CONTINUOUS
 62
     7
100
AcDbLine
 10
-0.2669050272
 20
-1.0086507125
 30
0.0
 11
148.3958988957
 21
-1.0086507125
 31
0.0
  0
LINE
  5
93
330
1F
100
AcDbEntity
  8
0
  6
CONTINUOUS
 62
     7
100
AcDbLine
 10
333.7504344747
 20
100.2124449845
 30
0.0
 11
333.7504344747
 21
124.0
 31
0.0
  0
LINE
  5
94
330
1F
100
AcDbEntity
  8
0
  6
CONTINUOUS
 62
     7
100
AcDbLine
 10
-1.2668669503
 20
-0.0086887894
 30
0.0
 11
-2.0
 21
-0.7418218392
 31
0.0
  0
LINE
  5
95
330
1F
100
AcDbEntity
  8
0
  6
CONTINUOUS
 62
     7
100
AcDbLine
 10
-1.0000380769
 20
-1.7417837622
 30
0.0
 11
-0.2669050272
 21
-1.0086507125
 31
0.0
  0
LINE
  5
96
330
1F
100
AcDbEntity
  8
0
  6
CONTINUOUS
 62
     7
100
AcDbLine
 10
-2.0
 20
124.0
 30
0.0
 11
-2.0
 21
-0.7418218392
 31
0.0
  0
LINE
  5
97
330
1F
100
AcDbEntity
  8
0
  6
CONTINUOUS
 62
     7
100
AcDbLine
 10
-1.0000380769
 20
-1.7417837622
 30
0.0
 11
147.3553972554
 21
-1.7417837622
 31
0.0
  0
LINE
  5
98
330
1F
100
AcDbEntity
  8
0
  6
CONTINUOUS
 62
     7
100
AcDbLine
 10
334.4835675244
 20
100.793867681
 30
0.0
 11
334.4835675244
 21
124.0
 31
0.0
  0
ARC
  5
99
330
1F
100
AcDbEntity
  8
0
  6
CONTINUOUS
 62
     7
100
AcDbCircle
 10
298.7417837622
 20
-56.0
 30
0.0
 40
160.8160192545639
100
AcDbArc
 50
160.2805453688
 51
77.1595009448
  0
ARC
  5
9A
330
1F
100
AcDbEntity
  8
0
  6
CONTINUOUS
 62
     7
100
AcDbCircle
 10
298.7417837622
 20
-56.0
 30
0.0
 40
160.8160002160962
100
AcDbArc
 50
160.28020434
 51
77.1602313271
  0
ARC
  5
9B
330
1F
100
AcDbEntity
  8
0
  6
CONTINUOUS
 62
     7
100
AcDbCircle
 10
298.7417837622
 20
-56.0
 30
0.0
 40
160.0786179654383
100
AcDbArc
 50
77.7340377152
 51
159.5265178618
  0
ARC
  5
9C
330
1F
100
AcDbEntity
  8
0
  6
CONTINUOUS
 62
     7
100
AcDbCircle
 10
-0.266815834
 20
-0.0085995962
 30
0.0
 40
1.000051120240127
100
AcDbArc
 50
180.0051101326
 51
269.9948898674
  0
ARC
  5
9D
330
1F
100
AcDbEntity
  8
0
  6
CONTINUOUS
 62
     7
100
AcDbCircle
 10
-1.0000511148
 20
-0.741834877
 30
0.0
 40
0.9999488852723454
100
AcDbArc
 50
179.9992529465
 51
270.0007470535
  0
LINE
  5
CD
330
1B
100
AcDbEntity
 67
     1
  8
0
  6
CONTINUOUS
 62
     7
100
AcDbLine
 10
459.5577839783
 20
400.5042632677
 30
0.0
 11
458.7417837622
 21
494.0086265355
 31
0.0
  0
LINE
  5
CE
330
1B
100
AcDbEntity
 67
     1
  8
0
  6
CONTINUOUS
 62
     7
100
AcDbLine
 10
138.7417837622
 20
494.0086265355
 30
0.0
 11
137.9257835461
 21
400.5042632677
 31
0.0
  0
LINE
  5
CF
330
1B
100
AcDbEntity
 67
     1
  8
0
  6
CONTINUOUS
 62
     7
100
AcDbLine
 10
238.7417837622
 20
384.9999
 30
0.0
 11
238.7417837622
 21
379.2005090272
 31
0.0
  0
LINE
  5
D0
330
1B
100
AcDbEntity
 67
     1
  8
0
  6
CONTINUOUS
 62
     7
100
AcDbLine
 10
358.7417837622
 20
379.2005090272
 30
0.0
 11
358.7417837622
 21
384.9999
 31
0.0
  0
LINE
  5
D1
330
1B
100
AcDbEntity
 67
     1
  8
0
  6
CONTINUOUS
 62
     7
100
AcDbLine
 10
190.0
 20
0.0
 30
0.0
 11
182.0
 21
8.0
 31
0.0
  0
LINE
  5
D2
330
1B
100
AcDbEntity
 67
     1
  8
0
  6
CONTINUOUS
 62
     7
100
AcDbLine
 10
0.0
 20
0.0
 30
0.0
 11
190.0
 21
0.0
 31
0.0
  0
LINE
  5
D3
330
1B
100
AcDbEntity
 67
     1
  8
0
  6
CONTINUOUS
 62
     7
100
AcDbLine
 10
8.0
 20
8.0
 30
0.0
 11
182.0
 21
8.0
 31
0.0
  0
LINE
  5
D4
330
1B
100
AcDbEntity
 67
     1
  8
0
  6
CONTINUOUS
 62
     7
100
AcDbLine
 10
0.0
 20
0.0
 30
0.0
 11
8.0
 21
8.0
 31
0.0
  0
LINE
  5
D5
330
1B
100
AcDbEntity
 67
     1
  8
0
  6
CONTINUOUS
 62
     7
100
AcDbLine
 10
8.0
 20
392.0
 30
0.0
 11
8.0
 21
8.0
 31
0.0
  0
LINE
  5
D6
330
1B
100
AcDbEntity
 67
     1
  8
0
  6
CONTINUOUS
 62
     7
100
AcDbLine
 10
0.0
 20
399.9999
 30
0.0
 11
0.0
 21
0.0
 31
0.0
  0
LINE
  5
D7
330
1B
100
AcDbEntity
 67
     1
  8
0
  6
CONTINUOUS
 62
     7
100
AcDbLine
 10
8.0
 20
392.0
 30
0.0
 11
0.0001
 21
399.9999
 31
0.0
  0
LINE
  5
D8
330
1B
100
AcDbEntity
 67
     1
  8
0
  6
CONTINUOUS
 62
     7
100
AcDbLine
 10
189.9999
 20
399.9999
 30
0.0
 11
182.0
 21
392.0
 31
0.0
  0
LINE
  5
D9
330
1B
100
AcDbEntity
 67
     1
  8
0
  6
CONTINUOUS
 62
     7
100
AcDbLine
 10
190.0
 20
399.9999
 30
0.0
 11
190.0
 21
0.0
 31
0.0
  0
LINE
  5
DA
330
1B
100
AcDbEntity
 67
     1
  8
0
  6
CONTINUOUS
 62
     7
100
AcDbLine
 10
182.0
 20
392.0
 30
0.0
 11
182.0
 21
8.0
 31
0.0
  0
LINE
  5
DB
330
1B
100
AcDbEntity
 67
     1
  8
0
  6
CONTINUOUS
 62
     7
100
AcDbLine
 10
8.001
 20
391.9999
 30
0.0
 11
181.999
 21
391.9999
 31
0.0
  0
LINE
  5
DC
330
1B
100
AcDbEntity
 67
     1
  8
0
  6
CONTINUOUS
 62
     7
100
AcDbLine
 10
181.999
 20
391.9999
 30
0.0
 11
189.999
 21
399.9999
 31
0.0
  0
LINE
  5
DD
330
1B
100
AcDbEntity
 67
     1
  8
0
  6
CONTINUOUS
 62
     7
100
AcDbLine
 10
0.001
 20
399.9999
 30
0.0
 11
8.001
 21
391.9999
 31
0.0
  0
LINE
  5
DE
330
1B
100
AcDbEntity
 67
     1
  8
0
  6
CONTINUOUS
 62
     7
100
AcDbLine
 10
5.0001
 20
394.9999
 30
0.0
 11
5.001
 21
394.9999
 31
0.0
  0
LINE
  5
DF
330
1B
100
AcDbEntity
 67
     1
  8
0
  6
CONTINUOUS
 62
     7
100
AcDbLine
 10
184.999
 20
394.9999
 30
0.0
 11
184.9999
 21
394.9999
 31
0.0
  0
LINE
  5
E0
330
1B
100
AcDbEntity
 67
     1
  8
0
  6
CONTINUOUS
 62
     7
100
AcDbLine
 10
182.0
 20
204.0
 30
0.0
 11
8.0
 21
204.0
 31
0.0
  0
LINE
  5
E1
330
1B
100
AcDbEntity
 67
     1
  8
0
  6
CONTINUOUS
 62
     7
100
AcDbLine
 10
182.0
 20
196.0
 30
0.0
 11
8.0
 21
196.0
 31
0.0
  0
LINE
  5
E2
330
1B
100
AcDbEntity
 67
     1
  8
0
  6
CONTINUOUS
 62
     7
100
AcDbLine
 10
459.0578030168
 20
399.9999
 30
0.0
 11
-2.0
 21
399.9999
 31
0.0
  0
LINE
  5
E3
330
1B
100
AcDbEntity
 67
     1
  8
0
  6
CONTINUOUS
 62
     7
100
AcDbLine
 10
457.7418218392
 20
494.9999
 30
0.0
 11
139.7417456853
 21
494.9999
 31
0.0
  0
LINE
  5
E4
330
1B
100
AcDbEntity
 67
     1
  8
0
  6
CONTINUOUS
 62
     7
100
AcDbLine
 10
357.7417837622
 20
378.2005090272
 30
0.0
 11
239.7417837698
 21
378.2005090272
 31
0.0
  0
LINE
  5
E5
330
1B
100
AcDbEntity
 67
     1
  8
0
  6
CONTINUOUS
 62
     7
100
AcDbLine
 10
-1.0000380769
 20
399.9999
 30
0.0
 11
-0.2669050272
 21
484.0086265355
 31
0.0
  0
LINE
  5
E6
330
1B
100
AcDbEntity
 67
     1
  8
0
  6
CONTINUOUS
 62
     7
100
AcDbLine
 10
-1.2668669503
 20
484.0086265355
 30
0.0
 11
-2.0
 21
399.9999
 31
0.0
  0
LINE
  5
E7
330
1B
100
AcDbEntity
 67
     1
  8
0
  6
CONTINUOUS
 62
     7
100
AcDbLine
 10
-0.2669050272
 20
484.9999
 30
0.0
 11
-0.2669050272
 21
484.0086265355
 31
0.0
  0
LINE
  5
E8
330
1B
100
AcDbEntity
 67
     1
  8
0
  6
CONTINUOUS
 62
     7
100
AcDbLine
 10
138.6631657968
 20
484.9999
 30
0.0
 11
-0.2669050272
 21
484.9999
 31
0.0
  0
LINE
  5
E9
330
1B
100
AcDbEntity
 67
     1
  8
0
  6
CONTINUOUS
 62
     7
100
AcDbLine
 10
459.5577839783
 20
400.5042632677
 30
0.0
 11
137.9257835461
 21
400.5042632677
 31
0.0
  0
LINE
  5
EA
330
1B
100
AcDbEntity
 67
     1
  8
0
  6
CONTINUOUS
 62
     7
100
AcDbLine
 10
458.7417837622
 20
494.0086265355
 30
0.0
 11
138.7417837622
 21
494.0086265355
 31
0.0
  0
LINE
  5
EB
330
1B
100
AcDbEntity
 67
     1
  8
0
  6
CONTINUOUS
 62
     7
100
AcDbLine
 10
358.7417837622
 20
384.9999
 30
0.0
 11
238.7417837622
 21
384.9999
 31
0.0
  0
LINE
  5
EC
330
1B
100
AcDbEntity
 67
     1
  8
0
  6
CONTINUOUS
 62
     7
100
AcDbLine
 10
358.7417837622
 20
379.2005090272
 30
0.0
 11
238.7417837622
 21
379.2005090272
 31
0.0
  0
LINE
  5
ED
330
1B
100
AcDbEntity
 67
     1
  8
0
  6
CONTINUOUS
 62
     7
100
AcDbLine
 10
-0.2669050272
 20
484.0086265355
 30
0.0
 11
138.6545150843
 21
484.0086265355
 31
0.0
  0
ARC
  5
EE
330
1B
100
AcDbEntity
 67
     1
  8
0
  6
CONTINUOUS
 62
     7
100
AcDbCircle
 10
138.4257645077
 20
400.4999
 30
0.0
 40
0.5000000000000595
100
AcDbArc
 50
179.5
 51
270.0
  0
ARC
  5
EF
330
1B
100
AcDbEntity
 67
     1
  8
0
  6
CONTINUOUS
 62
     7
100
AcDbCircle
 10
459.0578030168
 20
400.4999
 30
0.0
 40
0.5000000000000879
100
AcDbArc
 50
270.0
 51
0.5
  0
ARC
  5
F0
330
1B
100
AcDbEntity
 67
     1
  8
0
  6
CONTINUOUS
 62
     7
100
AcDbCircle
 10
139.7417456853
 20
493.9999
 30
0.0
 40
1.000000000000006
100
AcDbArc
 50
90.0
 51
179.5
  0
ARC
  5
F1
330
1B
100
AcDbEntity
 67
     1
  8
0
  6
CONTINUOUS
 62
     7
100
AcDbCircle
 10
457.7418218392
 20
493.9999
 30
0.0
 40
1.000000000000006
100
AcDbArc
 50
0.5
 51
90.0
  0
ARC
  5
F2
330
1B
100
AcDbEntity
 67
     1
  8
0
  6
CONTINUOUS
 62
     7
100
AcDbCircle
 10
223.7417837622
 20
384.9999
 30
0.0
 40
15.0
100
AcDbArc
 50
0.0
 51
90.0
  0
ARC
  5
F3
330
1B
100
AcDbEntity
 67
     1
  8
0
  6
CONTINUOUS
 62
     7
100
AcDbCircle
 10
373.7417837622
 20
384.9999
 30
0.0
 40
15.0
100
AcDbArc
 50
90.0
 51
180.0
  0
ARC
  5
F4
330
1B
100
AcDbEntity
 67
     1
  8
0
  6
CONTINUOUS
 62
     7
100
AcDbCircle
 10
239.7417837622
 20
379.2005090272
 30
0.0
 40
1.000000000000057
100
AcDbArc
 50
180.0
 51
270.0
  0
ARC
  5
F5
330
1B
100
AcDbEntity
 67
     1
  8
0
  6
CONTINUOUS
 62
     7
100
AcDbCircle
 10
357.7417837622
 20
379.2005090272
 30
0.0
 40
1.0
100
AcDbArc
 50
270.0
 51
0.0
  0
ARC
  5
F6
330
1B
100
AcDbEntity
 67
     1
  8
0
  6
CONTINUOUS
 62
     7
100
AcDbCircle
 10
-0.7668859887
 20
455.3589385281
 30
0.0
 40
28.65405039222816
100
AcDbArc
 50
89.0002023313
 51
90.9997976687
  0
ARC
  5
F7
330
1B
100
AcDbEntity
 67
     1
  8
0
  6
CONTINUOUS
 62
     7
100
AcDbCircle
 10
-0.2669050272
 20
483.9999
 30
0.0
 40
1.0
100
AcDbArc
 50
90.0
 51
179.5
  0
VIEWPORT
  5
3D2
330
1B
100
AcDbEntity
 67
     1
  8
0
100
AcDbViewport
 10
0.0
 20
0.0
 30
0.0
 40
205.6
 41
156.0
 68
     1
 69
     1
1001
ACAD
1000
MVIEW
1002
{
1070
    16
1010
0.0
1020
0.0
1030
0.0
1010
0.0
1020
0.0
1030
1.0
1040
0.0
1040
357.2134125294
1040
228.7789015083
1040
-46.4080096273
1040
50.0
1040
0.0
1040
0.0
1070
     0
1070
   100
1070
     0
1070
     3
1070
     0
1070
     0
1070
     0
1070
     0
1040
0.0
1040
0.0
1040
0.0
1040
10.0
1040
10.0
1040
10.0
1040
10.0
1070
     0
1002
{
1002
}
1002
}
  0
ENDSEC
  0
SECTION
  2
OBJECTS
  0
DICTIONARY
  5
C
330
0
100
AcDbDictionary
  3
ACAD_GROUP
350
D
  3
ACAD_MLINESTYLE
350
17
  3
ACAD_SCALELIST
350
47
  3
DWGPROPS
350
3E4
  0
DICTIONARY
  5
D
102
{ACAD_REACTORS
330
C
102
}
330
C
100
AcDbDictionary
  0
DICTIONARY
  5
17
102
{ACAD_REACTORS
330
C
102
}
330
C
100
AcDbDictionary
  3
STANDARD
350
18
  0
DICTIONARY
  5
47
102
{ACAD_REACTORS
330
C
102
}
330
C
100
AcDbDictionary
  0
XRECORD
  5
3E4
102
{ACAD_REACTORS
330
C
102
}
330
C
100
AcDbXrecord
  1
DWGPROPS COOKIE
  2

  3

  4

  6

  7

  8
m.jentzsch
  9

300
=
301
=
302
=
303
=
304
=
305
=
306
=
307
=
308
=
309
=
 40
0.0
 41
2460389.447524213
 42
2460389.447546042
  1

 90
        0
  0
MLINESTYLE
  5
18
102
{ACAD_REACTORS
330
17
102
}
330
17
100
AcDbMlineStyle
  2
Standard
 70
     0
  3

 62
   256
 51
90.0
 52
90.0
 71
     2
 49
0.5
 62
   256
  6
BYLAYER
 49
-0.5
 62
   256
  6
BYLAYER
  0
ENDSEC
  0
EOF
