  0
SECTION
  2
HEADER
  9
$ACADVER
  1
AC1014
  9
$ACADMAINTVER
 70
     9
  9
$DWGCODEPAGE
  3
ANSI_1252
  9
$INSBASE
 10
0.0
 20
0.0
 30
0.0
  9
$EXTMIN
 10
-269.5578030168
 20
-216.8160192546
 30
0.0
  9
$EXTMAX
 10
192.0000000001
 20
124.0
 30
0.0
  9
$LIMMIN
 10
0.0
 20
0.0
  9
$LIMMAX
 10
420.0
 20
297.0
  9
$ORTHOMODE
 70
     0
  9
$REGENMODE
 70
     1
  9
$FILLMODE
 70
     1
  9
$QTEXTMODE
 70
     0
  9
$MIRRTEXT
 70
     1
  9
$DRAGMODE
 70
     2
  9
$LTSCALE
 40
1.0
  9
$OSMODE
 70
    37
  9
$ATTMODE
 70
     1
  9
$TEXTSIZE
 40
3.5
  9
$TRACEWID
 40
1.0
  9
$TEXTSTYLE
  7
STANDARD
  9
$CLAYER
  8
0
  9
$CELTYPE
  6
BYLAYER
  9
$CECOLOR
 62
   256
  9
$CELTSCALE
 40
1.0
  9
$DELOBJ
 70
     1
  9
$DISPSILH
 70
     0
  9
$DIMSCALE
 40
1.0
  9
$DIMASZ
 40
6.0
  9
$DIMEXO
 40
0.0
  9
$DIMDLI
 40
3.75
  9
$DIMRND
 40
0.0
  9
$DIMDLE
 40
0.0
  9
$DIMEXE
 40
1.0
  9
$DIMTP
 40
0.0
  9
$DIMTM
 40
0.0
  9
$DIMTXT
 40
3.5
  9
$DIMCEN
 40
2.5
  9
$DIMTSZ
 40
0.0
  9
$DIMTOL
 70
     0
  9
$DIMLIM
 70
     0
  9
$DIMTIH
 70
     1
  9
$DIMTOH
 70
     1
  9
$DIMSE1
 70
     0
  9
$DIMSE2
 70
     0
  9
$DIMTAD
 70
     1
  9
$DIMZIN
 70
     0
  9
$DIMBLK
  1

  9
$DIMASO
 70
     1
  9
$DIMSHO
 70
     1
  9
$DIMPOST
  1

  9
$DIMAPOST
  1

  9
$DIMALT
 70
     0
  9
$DIMALTD
 70
     3
  9
$DIMALTF
 40
0.0393700787
  9
$DIMLFAC
 40
1.0
  9
$DIMTOFL
 70
     1
  9
$DIMTVP
 40
0.0
  9
$DIMTIX
 70
     0
  9
$DIMSOXD
 70
     0
  9
$DIMSAH
 70
     0
  9
$DIMBLK1
  1

  9
$DIMBLK2
  1

  9
$DIMSTYLE
  2
ISO-25
  9
$DIMCLRD
 70
     0
  9
$DIMCLRE
 70
     0
  9
$DIMCLRT
 70
     0
  9
$DIMTFAC
 40
1.0
  9
$DIMGAP
 40
1.524
  9
$DIMJUST
 70
     0
  9
$DIMSD1
 70
     0
  9
$DIMSD2
 70
     0
  9
$DIMTOLJ
 70
     0
  9
$DIMTZIN
 70
     0
  9
$DIMALTZ
 70
     0
  9
$DIMALTTZ
 70
     0
  9
$DIMFIT
 70
     3
  9
$DIMUPT
 70
     0
  9
$DIMUNIT
 70
     2
  9
$DIMDEC
 70
     2
  9
$DIMTDEC
 70
     2
  9
$DIMALTU
 70
     2
  9
$DIMALTTD
 70
     3
  9
$DIMTXSTY
  7
STANDARD
  9
$DIMAUNIT
 70
     0
  9
$LUNITS
 70
     2
  9
$LUPREC
 70
     2
  9
$SKETCHINC
 40
1.0
  9
$FILLETRAD
 40
0.0
  9
$AUNITS
 70
     0
  9
$AUPREC
 70
     2
  9
$MENU
  1
.
  9
$ELEVATION
 40
0.0
  9
$PELEVATION
 40
0.0
  9
$THICKNESS
 40
0.0
  9
$LIMCHECK
 70
     0
  9
$CHAMFERA
 40
0.0
  9
$CHAMFERB
 40
0.0
  9
$CHAMFERC
 40
0.0
  9
$CHAMFERD
 40
0.0
  9
$SKPOLY
 70
     0
  9
$TDCREATE
 40
2460389.483166192
  9
$TDUPDATE
 40
2460389.483200035
  9
$TDINDWG
 40
0.0000000116
  9
$TDUSRTIMER
 40
0.0000000116
  9
$USRTIMER
 70
     1
  9
$ANGBASE
 50
0.0
  9
$ANGDIR
 70
     0
  9
$PDMODE
 70
     0
  9
$PDSIZE
 40
-1.0
  9
$PLINEWID
 40
0.0
  9
$COORDS
 70
     1
  9
$SPLFRAME
 70
     0
  9
$SPLINETYPE
 70
     6
  9
$SPLINESEGS
 70
     8
  9
$ATTDIA
 70
     0
  9
$ATTREQ
 70
     1
  9
$HANDLING
 70
     1
  9
$HANDSEED
  5
4B2
  9
$SURFTAB1
 70
     6
  9
$SURFTAB2
 70
     6
  9
$SURFTYPE
 70
     6
  9
$SURFU
 70
     6
  9
$SURFV
 70
     6
  9
$UCSNAME
  2

  9
$UCSORG
 10
0.0
 20
0.0
 30
0.0
  9
$UCSXDIR
 10
1.0
 20
0.0
 30
0.0
  9
$UCSYDIR
 10
0.0
 20
1.0
 30
0.0
  9
$PUCSNAME
  2

  9
$PUCSORG
 10
0.0
 20
0.0
 30
0.0
  9
$PUCSXDIR
 10
1.0
 20
0.0
 30
0.0
  9
$PUCSYDIR
 10
0.0
 20
1.0
 30
0.0
  9
$USERI1
 70
     0
  9
$USERI2
 70
     0
  9
$USERI3
 70
     0
  9
$USERI4
 70
     0
  9
$USERI5
 70
     0
  9
$USERR1
 40
0.0
  9
$USERR2
 40
0.0
  9
$USERR3
 40
0.0
  9
$USERR4
 40
0.0
  9
$USERR5
 40
0.0
  9
$WORLDVIEW
 70
     1
  9
$SHADEDGE
 70
     3
  9
$SHADEDIF
 70
    70
  9
$TILEMODE
 70
     1
  9
$MAXACTVP
 70
    64
  9
$PINSBASE
 10
0.0
 20
0.0
 30
0.0
  9
$PLIMCHECK
 70
     0
  9
$PEXTMIN
 10
-269.5578030168
 20
0.0
 30
0.0
  9
$PEXTMAX
 10
192.0
 20
494.9999
 30
0.0
  9
$PLIMMIN
 10
-320.3270235296
 20
-19.0384576923
  9
$PLIMMAX
 10
433.5959010858
 20
514.0383576923
  9
$UNITMODE
 70
     0
  9
$VISRETAIN
 70
     1
  9
$PLINEGEN
 70
     0
  9
$PSLTSCALE
 70
     1
  9
$TREEDEPTH
 70
  3020
  9
$PICKSTYLE
 70
     1
  9
$CMLSTYLE
  2
STANDARD
  9
$CMLJUST
 70
     0
  9
$CMLSCALE
 40
20.0
  9
$PROXYGRAPHICS
 70
     1
  9
$MEASUREMENT
 70
     1
  0
ENDSEC
  0
SECTION
  2
CLASSES
  0
CLASS
  1
ACDBDICTIONARYWDFLT
  2
AcDbDictionaryWithDefault
  3
ObjectDBX Classes
 90
        0
280
     0
281
     0
  0
CLASS
  1
VISUALSTYLE
  2
AcDbVisualStyle
  3
ObjectDBX Classes
 90
     4095
280
     0
281
     0
  0
CLASS
  1
MATERIAL
  2
AcDbMaterial
  3
ObjectDBX Classes
 90
     1153
280
     0
281
     0
  0
CLASS
  1
SCALE
  2
AcDbScale
  3
ObjectDBX Classes
 90
     1153
280
     0
281
     0
  0
CLASS
  1
TABLESTYLE
  2
AcDbTableStyle
  3
ObjectDBX Classes
 90
     4095
280
     0
281
     0
  0
CLASS
  1
MLEADERSTYLE
  2
AcDbMLeaderStyle
  3
ACDB_MLEADERSTYLE_CLASS
 90
     4095
280
     0
281
     0
  0
CLASS
  1
SUN
  2
AcDbSun
  3
SCENEOE
 90
     1153
280
     0
281
     0
  0
CLASS
  1
XRECORD
  2
AcDbXrecord
  3
ObjectDBX Classes
 90
        0
280
     0
281
     0
  0
CLASS
  1
LWPOLYLINE
  2
AcDbPolyline
  3
ObjectDBX Classes
 90
        0
280
     0
281
     1
  0
CLASS
  1
HATCH
  2
AcDbHatch
  3
ObjectDBX Classes
 90
        0
280
     0
281
     1
  0
ENDSEC
  0
SECTION
  2
TABLES
  0
TABLE
  2
VPORT
  5
8
330
0
100
AcDbSymbolTable
 70
     1
  0
VPORT
  5
29
330
8
100
AcDbSymbolTableRecord
100
AcDbViewportTableRecord
  2
*ACTIVE
 70
     0
 10
0.0
 20
0.0
 11
1.0
 21
1.0
 12
-38.7789015083
 22
-46.4080096273
 13
0.0
 23
0.0
 14
10.0
 24
10.0
 15
10.0
 25
10.0
 16
0.0
 26
0.0
 36
1.0
 17
0.0
 27
0.0
 37
0.0
 40
347.6323396397
 41
1.3542726191
 42
50.0
 43
0.0
 44
0.0
 50
0.0
 51
0.0
 71
     0
 72
   100
 73
     1
 74
     3
 75
     0
 76
     0
 77
     0
 78
     0
  0
ENDTAB
  0
TABLE
  2
LTYPE
  5
5
330
0
100
AcDbSymbolTable
 70
     6
  0
LTYPE
  5
14
330
5
100
AcDbSymbolTableRecord
100
AcDbLinetypeTableRecord
  2
BYBLOCK
 70
     0
  3

 72
    65
 73
     0
 40
0.0
  0
LTYPE
  5
15
330
5
100
AcDbSymbolTableRecord
100
AcDbLinetypeTableRecord
  2
BYLAYER
 70
     0
  3

 72
    65
 73
     0
 40
0.0
  0
LTYPE
  5
16
330
5
100
AcDbSymbolTableRecord
100
AcDbLinetypeTableRecord
  2
CONTINUOUS
 70
     0
  3
Solid line
 72
    65
 73
     0
 40
0.0
  0
LTYPE
  5
5E
330
5
100
AcDbSymbolTableRecord
100
AcDbLinetypeTableRecord
  2
HIDDEN
 70
     0
  3
Hidden __ __ __ __ __ __ __ __ __ __ __ __ __ __
 72
    65
 73
     2
 40
1.905
 49
1.27
 74
     0
 49
-0.635
 74
     0
  0
LTYPE
  5
5F
330
5
100
AcDbSymbolTableRecord
100
AcDbLinetypeTableRecord
  2
PHANTOM
 70
     0
  3
Phantom ______  __  __  ______  __  __  ______
 72
    65
 73
     6
 40
12.7
 49
6.35
 74
     0
 49
-1.27
 74
     0
 49
1.27
 74
     0
 49
-1.27
 74
     0
 49
1.27
 74
     0
 49
-1.27
 74
     0
  0
LTYPE
  5
60
330
5
100
AcDbSymbolTableRecord
100
AcDbLinetypeTableRecord
  2
CENTER
 70
     0
  3
Center ____ _ ____ _ ____ _ ____ _ ____ _ ____
 72
    65
 73
     4
 40
10.16
 49
6.35
 74
     0
 49
-1.27
 74
     0
 49
1.27
 74
     0
 49
-1.27
 74
     0
  0
LTYPE
  5
61
330
5
100
AcDbSymbolTableRecord
100
AcDbLinetypeTableRecord
  2
CENTERX2
 70
     0
  3
Center (2x) ________  __  ________  __  _____
 72
    65
 73
     4
 40
20.32
 49
12.7
 74
     0
 49
-2.54
 74
     0
 49
2.54
 74
     0
 49
-2.54
 74
     0
  0
LTYPE
  5
62
330
5
100
AcDbSymbolTableRecord
100
AcDbLinetypeTableRecord
  2
DOT2
 70
     0
  3
Dot (.5x) ........................................
 72
    65
 73
     2
 40
0.635
 49
0.0
 74
     0
 49
-0.635
 74
     0
  0
ENDTAB
  0
TABLE
  2
LAYER
  5
2
330
0
100
AcDbSymbolTable
 70
     1
  0
LAYER
  5
10
330
2
100
AcDbSymbolTableRecord
100
AcDbLayerTableRecord
  2
0
 70
     0
 62
     7
  6
CONTINUOUS
  0
ENDTAB
  0
TABLE
  2
STYLE
  5
3
330
0
100
AcDbSymbolTable
 70
     1
  0
STYLE
  5
11
330
3
100
AcDbSymbolTableRecord
100
AcDbTextStyleTableRecord
  2
STANDARD
 70
     0
 40
0.0
 41
1.0
 50
0.0
 71
     0
 42
3.5
  3
txt
  4

  0
ENDTAB
  0
TABLE
  2
VIEW
  5
6
330
0
100
AcDbSymbolTable
 70
     0
  0
ENDTAB
  0
TABLE
  2
UCS
  5
7
330
0
100
AcDbSymbolTable
 70
     0
  0
ENDTAB
  0
TABLE
  2
APPID
  5
9
330
0
100
AcDbSymbolTable
 70
     1
  0
APPID
  5
12
330
9
100
AcDbSymbolTableRecord
100
AcDbRegAppTableRecord
  2
ACAD
 70
     0
  0
ENDTAB
  0
TABLE
  2
DIMSTYLE
  5
A
330
0
100
AcDbSymbolTable
 70
     1
  0
DIMSTYLE
105
27
330
A
100
AcDbSymbolTableRecord
100
AcDbDimStyleTableRecord
  2
ISO-25
 70
     0
  3

  4

  5

  6

  7

 40
1.0
 41
2.5
 42
0.625
 43
3.75
 44
1.25
 45
0.0
 46
0.0
 47
0.0
 48
0.0
140
2.5
141
2.5
142
0.0
143
0.0393700787
144
1.0
145
0.0
146
1.0
147
0.625
 71
     0
 72
     0
 73
     0
 74
     0
 75
     0
 76
     0
 77
     1
 78
     8
170
     0
171
     3
172
     1
173
     0
174
     0
175
     0
176
     0
177
     0
178
     0
270
     2
271
     2
272
     2
273
     2
274
     3
340
11
275
     0
280
     0
281
     0
282
     0
283
     0
284
     8
285
     0
286
     0
287
     3
288
     0
  0
ENDTAB
  0
TABLE
  2
BLOCK_RECORD
  5
1
330
0
100
AcDbSymbolTable
 70
     8
  0
BLOCK_RECORD
  5
1F
330
1
100
AcDbSymbolTableRecord
100
AcDbBlockTableRecord
  2
*MODEL_SPACE
  0
BLOCK_RECORD
  5
1B
330
1
100
AcDbSymbolTableRecord
100
AcDbBlockTableRecord
  2
*PAPER_SPACE
  0
BLOCK_RECORD
  5
23
330
1
100
AcDbSymbolTableRecord
100
AcDbBlockTableRecord
  2
*PAPER_SPACE0
  0
BLOCK_RECORD
  5
169
330
1
100
AcDbSymbolTableRecord
100
AcDbBlockTableRecord
  2
*PAPER_SPACE1
  0
BLOCK_RECORD
  5
1D1
330
1
100
AcDbSymbolTableRecord
100
AcDbBlockTableRecord
  2
*PAPER_SPACE2
  0
BLOCK_RECORD
  5
23A
330
1
100
AcDbSymbolTableRecord
100
AcDbBlockTableRecord
  2
*PAPER_SPACE3
  0
BLOCK_RECORD
  5
289
330
1
100
AcDbSymbolTableRecord
100
AcDbBlockTableRecord
  2
*PAPER_SPACE4
  0
BLOCK_RECORD
  5
2D3
330
1
100
AcDbSymbolTableRecord
100
AcDbBlockTableRecord
  2
*PAPER_SPACE5
  0
BLOCK_RECORD
  5
371
330
1
100
AcDbSymbolTableRecord
100
AcDbBlockTableRecord
  2
*PAPER_SPACE6
  0
BLOCK_RECORD
  5
410
330
1
100
AcDbSymbolTableRecord
100
AcDbBlockTableRecord
  2
*PAPER_SPACE7
  0
ENDTAB
  0
ENDSEC
  0
SECTION
  2
BLOCKS
  0
BLOCK
  5
20
330
1F
100
AcDbEntity
  8
0
100
AcDbBlockBegin
  2
*MODEL_SPACE
 70
     0
 10
0.0
 20
0.0
 30
0.0
  3
*MODEL_SPACE
  1

  0
ENDBLK
  5
21
330
1F
100
AcDbEntity
  8
0
100
AcDbBlockEnd
  0
BLOCK
  5
1C
330
1B
100
AcDbEntity
 67
     1
  8
0
100
AcDbBlockBegin
  2
*PAPER_SPACE
 70
     0
 10
0.0
 20
0.0
 30
0.0
  3
*PAPER_SPACE
  1

  0
ENDBLK
  5
1D
330
1B
100
AcDbEntity
 67
     1
  8
0
100
AcDbBlockEnd
  0
BLOCK
  5
24
330
23
100
AcDbEntity
  8
0
100
AcDbBlockBegin
  2
*PAPER_SPACE0
 70
     0
 10
0.0
 20
0.0
 30
0.0
  3
*PAPER_SPACE0
  1

  0
SPLINE
  5
13B
330
23
100
AcDbEntity
  8
0
  6
CONTINUOUS
 62
     7
100
AcDbSpline
210
0.0
220
0.0
230
1.0
 70
     8
 71
     3
 72
    18
 73
    14
 74
     0
 42
0.00000001
 43
0.00000001
 40
0.0
 40
0.0
 40
0.0
 40
0.0
 40
0.4999999999999906
 40
0.4999999999999906
 40
0.7499999999999843
 40
0.7499999999999843
 40
0.8749999999999811
 40
0.8749999999999811
 40
0.9374999999999892
 40
0.9374999999999892
 40
0.9687499999999946
 40
0.9687499999999946
 40
1.0
 40
1.0
 40
1.0
 40
1.0
 10
-11.82943322397941
 20
399.9999
 30
0.0
 10
-12.26852810370052
 20
399.9999000000001
 30
0.0
 10
-12.70737793740338
 20
400.0167407719037
 30
0.0
 10
-13.36094888559888
 20
400.0905376416011
 30
0.0
 10
-13.5783388486891
 20
400.1226444380426
 30
0.0
 10
-13.89845675069739
 20
400.200453808599
 30
0.0
 10
-14.00460925636283
 20
400.230879368972
 30
0.0
 10
-14.1568669572986
 20
400.2968441560664
 30
0.0
 10
-14.20673089491194
 20
400.3218683149863
 30
0.0
 10
-14.2737552204217
 20
400.3738376597248
 30
0.0
 10
-14.29488958456793
 20
400.3936735894247
 30
0.0
 10
-14.32605619544949
 20
400.4429047323682
 30
0.0
 10
-14.33463027896818
 20
400.4742424064914
 30
0.0
 10
-14.3281762967379
 20
400.5042632677489
 30
0.0
  0
SPLINE
  5
13D
330
23
100
AcDbEntity
  8
0
  6
CONTINUOUS
 62
     7
100
AcDbSpline
210
0.0
220
0.0
230
1.0
 70
    24
 71
     3
 72
    32
 73
    28
 74
     0
 42
0.00000001
 43
0.00000001
 40
0.0
 40
0.0
 40
0.0
 40
0.0
 40
0.1250000000000019
 40
0.1250000000000019
 40
0.1875000000000023
 40
0.1875000000000023
 40
0.2500000000000026
 40
0.2500000000000026
 40
0.3750000000000021
 40
0.3750000000000021
 40
0.4375000000000018
 40
0.4375000000000018
 40
0.5000000000000016
 40
0.5000000000000016
 40
0.6250000000000008
 40
0.6250000000000008
 40
0.6875000000000004
 40
0.6875000000000004
 40
0.7500000000000001
 40
0.7500000000000001
 40
0.8749999999999999
 40
0.8749999999999999
 40
0.9374999999999999
 40
0.9374999999999999
 40
0.96875
 40
0.96875
 40
1.0
 40
1.0
 40
1.0
 40
1.0
 10
-1.741783762214497
 20
399.9999
 30
0.0
 10
-1.741783762214497
 20
399.9999
 30
0.0
 10
-1.809057136923919
 20
399.9999000000001
 30
0.0
 10
-2.006614472187383
 20
399.9999000000001
 30
0.0
 10
-2.088698106118767
 20
399.9999
 30
0.0
 10
-2.286077412138765
 20
399.9999000000002
 30
0.0
 10
-2.401793138903353
 20
399.9999
 30
0.0
 10
-2.791280234514866
 20
399.9999
 30
0.0
 10
-3.108897358130705
 20
399.9999
 30
0.0
 10
-3.671255344888616
 20
399.9999000000001
 30
0.0
 10
-3.874230752362581
 20
399.9999
 30
0.0
 10
-4.304503832328485
 20
399.9999000000003
 30
0.0
 10
-4.530804538077533
 20
399.9999000000002
 30
0.0
 10
-5.241894932498346
 20
399.9999000000002
 30
0.0
 10
-5.758858488342844
 20
399.9999000000001
 30
0.0
 10
-6.59619708945542
 20
399.9999
 30
0.0
 10
-6.884279518699597
 20
399.9999000000001
 30
0.0
 10
-7.470915456299493
 20
399.9999000000001
 30
0.0
 10
-7.770369539587707
 20
399.9999000000001
 30
0.0
 10
-8.683023231739355
 20
399.9999000000001
 30
0.0
 10
-9.310410468972192
 20
399.9999
 30
0.0
 10
-10.25393828780698
 20
399.9999000000002
 30
0.0
 10
-10.56918633877787
 20
399.9999
 30
0.0
 10
-11.04202865590548
 20
399.9999000000001
 30
0.0
 10
-11.19964496641374
 20
399.9999
 30
0.0
 10
-11.5147558304846
 20
399.9998999999999
 30
0.0
 10
-11.67370271522631
 20
399.9998999999999
 30
0.0
 10
-11.82943322397946
 20
399.9999
 30
0.0
  0
LWPOLYLINE
  5
13E
330
23
100
AcDbEntity
  8
0
  6
CONTINUOUS
 62
     7
100
AcDbPolyline
 90
        3
 70
   128
 43
0.0
 10
-14.3281762967
 20
400.5042632677
 10
-14.16653266
 20
420.5023532292
 10
-13.6293671033
 20
486.982446929
  0
SPLINE
  5
13F
330
23
100
AcDbEntity
  8
0
  6
CONTINUOUS
 62
     7
100
AcDbSpline
210
0.0
220
0.0
230
1.0
 70
     8
 71
     3
 72
    20
 73
    16
 74
     0
 42
0.00000001
 43
0.00000001
 40
0.0
 40
0.0
 40
0.0
 40
0.0
 40
0.1250000000000003
 40
0.1250000000000003
 40
0.2500000000000006
 40
0.2500000000000006
 40
0.5000000000000004
 40
0.5000000000000004
 40
0.7500000000000003
 40
0.7500000000000003
 40
0.8750000000000003
 40
0.8750000000000003
 40
0.9375000000000002
 40
0.9375000000000002
 40
1.0
 40
1.0
 40
1.0
 40
1.0
 10
-6.54253979231461
 20
484.0140343103463
 30
0.0
 10
-6.843244062839787
 20
484.0139436440401
 30
0.0
 10
-7.145235139651776
 20
484.046678173379
 30
0.0
 10
-7.753762812706351
 20
484.1574723122886
 30
0.0
 10
-8.061071998474153
 20
484.2360636301008
 30
0.0
 10
-8.986461218083331
 20
484.5228373127495
 30
0.0
 10
-9.58736671288833
 20
484.7731914116261
 30
0.0
 10
-10.77742629376804
 20
485.3361892587479
 30
0.0
 10
-11.36877852161874
 20
485.6519346226481
 30
0.0
 10
-12.22963511171052
 20
486.1405074212606
 30
0.0
 10
-12.51321441896613
 20
486.3064526961489
 30
0.0
 10
-12.93459651664607
 20
486.5582234095294
 30
0.0
 10
-13.07438970999791
 20
486.6426259736058
 30
0.0
 10
-13.35279186247046
 20
486.8121209952634
 30
0.0
 10
-13.49231809895031
 20
486.8977810112563
 30
0.0
 10
-13.62936710334336
 20
486.9824469290031
 30
0.0
  0
SPLINE
  5
140
330
23
100
AcDbEntity
  8
0
  6
CONTINUOUS
 62
     7
100
AcDbSpline
210
0.0
220
0.0
230
1.0
 70
     8
 71
     3
 72
    20
 73
    16
 74
     0
 42
0.00000001
 43
0.00000001
 40
0.0
 40
0.0
 40
0.0
 40
0.0
 40
0.125
 40
0.125
 40
0.25
 40
0.25
 40
0.375
 40
0.375
 40
0.5
 40
0.5
 40
0.625
 40
0.625
 40
0.75
 40
0.75
 40
1.0
 40
1.0
 40
1.0
 40
1.0
 10
-1.008650712469195
 20
484.0086265354984
 30
0.0
 10
-1.008646063257963
 20
484.0091592823373
 30
0.0
 10
-1.041428559841816
 20
484.0096642880669
 30
0.0
 10
-1.170057449806236
 20
484.0106004112883
 30
0.0
 10
-1.265456564822388
 20
484.0110317222461
 30
0.0
 10
-1.51699877739353
 20
484.0118225277323
 30
0.0
 10
-1.673138623785791
 20
484.0121820261058
 30
0.0
 10
-2.048274056975906
 20
484.0128267094046
 30
0.0
 10
-2.265130669397264
 20
484.0131072867281
 30
0.0
 10
-2.749101582235382
 20
484.0135790010621
 30
0.0
 10
-3.017109448359298
 20
484.0137717075502
 30
0.0
 10
-3.605640435237728
 20
484.0140700387719
 30
0.0
 10
-3.92883438682004
 20
484.014175692959
 30
0.0
 10
-4.952343757510532
 20
484.0143505681811
 30
0.0
 10
-5.709216071389515
 20
484.0142855684464
 30
0.0
 10
-6.542539792314596
 20
484.0140343103463
 30
0.0
  0
LWPOLYLINE
  5
141
330
23
100
AcDbEntity
  8
0
  6
CONTINUOUS
 62
     7
100
AcDbPolyline
 90
        9
 70
   128
 43
0.0
 10
-6.5425397923
 20
484.0140343103
 10
-6.5328927939
 20
484.2071053789
 10
-6.5067568075
 20
484.3923558717
 10
-6.4651182864
 20
484.5627938588
 10
-6.409548798
 20
484.7119864801
 10
-6.3421457078
 20
484.834302742
 10
-6.2654530181
 20
484.9251260481
 10
-6.1823653496
 20
484.9810284442
 10
-6.0960186895
 20
484.9999
  0
SPLINE
  5
142
330
23
100
AcDbEntity
  8
0
  6
CONTINUOUS
 62
     7
100
AcDbSpline
210
0.0
220
0.0
230
1.0
 70
    24
 71
     3
 72
    20
 73
    16
 74
     0
 42
0.00000001
 43
0.00000001
 40
0.0
 40
0.0
 40
0.0
 40
0.0
 40
0.2500000000000008
 40
0.2500000000000008
 40
0.3750000000000007
 40
0.3750000000000007
 40
0.5000000000000006
 40
0.5000000000000006
 40
0.6250000000000004
 40
0.6250000000000004
 40
0.7500000000000002
 40
0.7500000000000002
 40
0.8750000000000001
 40
0.8750000000000001
 40
1.0
 40
1.0
 40
1.0
 40
1.0
 10
-6.096018689464723
 20
484.9999
 30
0.0
 10
-5.179368606967036
 20
484.9999
 30
0.0
 10
-4.346812748445124
 20
484.9998999999999
 30
0.0
 10
-3.220954438819486
 20
484.9998999999999
 30
0.0
 10
-2.865441068382338
 20
484.9999
 30
0.0
 10
-2.218054793613089
 20
484.9999
 30
0.0
 10
-1.923244168105922
 20
484.9999
 30
0.0
 10
-1.390870741829322
 20
484.9999
 30
0.0
 10
-1.152325105348712
 20
484.9999
 30
0.0
 10
-0.7396676557023113
 20
484.9998999999999
 30
0.0
 10
-0.5679089962209449
 20
484.9998999999999
 30
0.0
 10
-0.2912022903388267
 20
484.9999000000001
 30
0.0
 10
-0.186257814988551
 20
484.9999000000001
 30
0.0
 10
-0.0447550628354249
 20
484.9999000000001
 30
0.0
 10
-0.0086887894050203
 20
484.9999000000002
 30
0.0
 10
-0.0086887894050203
 20
484.9999
 30
0.0
  0
SPLINE
  5
145
330
23
100
AcDbEntity
  8
0
  6
CONTINUOUS
 62
     7
100
AcDbSpline
210
0.0
220
0.0
230
1.0
 70
     8
 71
     3
 72
    18
 73
    14
 74
     0
 42
0.00000001
 43
0.00000001
 40
0.0
 40
0.0
 40
0.0
 40
0.0
 40
0.1249999999999993
 40
0.1249999999999993
 40
0.2499999999999986
 40
0.2499999999999986
 40
0.4999999999999968
 40
0.4999999999999968
 40
0.7499999999999951
 40
0.7499999999999951
 40
0.8749999999999974
 40
0.8749999999999974
 40
1.0
 40
1.0
 40
1.0
 40
1.0
 10
-6.096018689464716
 20
484.9999
 30
0.0
 10
-6.416431495664579
 20
484.9999000000001
 30
0.0
 10
-6.737187940848314
 20
485.0240683013338
 30
0.0
 10
-7.38040997029045
 20
485.102738080716
 30
0.0
 10
-7.703586973074585
 20
485.1576569461535
 30
0.0
 10
-8.671433266991206
 20
485.3536167544448
 30
0.0
 10
-9.306416965604441
 20
485.5229499465294
 30
0.0
 10
-10.56663959556457
 20
485.8988751668541
 30
0.0
 10
-11.19281911097139
 20
486.1068255560792
 30
0.0
 10
-12.11555101182124
 20
486.4289597214498
 30
0.0
 10
-12.42090570625418
 20
486.5382920409905
 30
0.0
 10
-13.0278587633833
 20
486.7591322386693
 30
0.0
 10
-13.33052384708148
 20
486.8710457588058
 30
0.0
 10
-13.62936710334335
 20
486.9824469290031
 30
0.0
  0
LINE
  5
14C
330
23
100
AcDbEntity
  8
0
  6
CONTINUOUS
 62
     7
100
AcDbLine
 10
104.0613165405
 20
486.982446929
 30
0.0
 11
104.0
 21
494.0086265355
 31
0.0
  0
LINE
  5
14D
330
23
100
AcDbEntity
  8
0
  6
CONTINUOUS
 62
     7
100
AcDbLine
 10
-216.0
 20
494.0086265355
 30
0.0
 11
-216.8160002161
 21
400.5042632677
 31
0.0
  0
LINE
  5
14E
330
23
100
AcDbEntity
  8
0
  6
CONTINUOUS
 62
     7
100
AcDbLine
 10
-116.0
 20
384.9999
 30
0.0
 11
-116.0
 21
379.2005090272
 31
0.0
  0
LINE
  5
14F
330
23
100
AcDbEntity
  8
0
  6
CONTINUOUS
 62
     7
100
AcDbLine
 10
0.0
 20
0.0
 30
0.0
 11
124.0
 21
0.0
 31
0.0
  0
LINE
  5
150
330
23
100
AcDbEntity
  8
0
  6
CONTINUOUS
 62
     7
100
AcDbLine
 10
124.0
 20
484.9999
 30
0.0
 11
124.0
 21
0.0
 31
0.0
  0
LINE
  5
151
330
23
100
AcDbEntity
  8
0
  6
CONTINUOUS
 62
     7
100
AcDbLine
 10
0.0
 20
399.9999
 30
0.0
 11
0.0
 21
0.0
 31
0.0
  0
LINE
  5
152
330
23
100
AcDbEntity
  8
0
  6
CONTINUOUS
 62
     7
100
AcDbLine
 10
124.0
 20
399.9999
 30
0.0
 11
-1.7417837622
 21
399.9999
 31
0.0
  0
LINE
  5
153
330
23
100
AcDbEntity
  8
0
  6
CONTINUOUS
 62
     7
100
AcDbLine
 10
-0.0086887894
 20
484.0086265355
 30
0.0
 11
-0.7418218392
 21
399.9999
 31
0.0
  0
LINE
  5
154
330
23
100
AcDbEntity
  8
0
  6
CONTINUOUS
 62
     7
100
AcDbLine
 10
124.0
 20
484.0086265355
 30
0.0
 11
-0.0086887894
 21
484.0086265355
 31
0.0
  0
LINE
  5
155
330
23
100
AcDbEntity
  8
0
  6
CONTINUOUS
 62
     7
100
AcDbLine
 10
-1.7417837622
 20
399.9999
 30
0.0
 11
-1.0086507125
 21
484.0086265355
 31
0.0
  0
LINE
  5
156
330
23
100
AcDbEntity
  8
0
  6
CONTINUOUS
 62
     7
100
AcDbLine
 10
-0.0086887894
 20
484.0086265355
 30
0.0
 11
-0.0086887894
 21
484.9999
 31
0.0
  0
LINE
  5
157
330
23
100
AcDbEntity
  8
0
  6
CONTINUOUS
 62
     7
100
AcDbLine
 10
-0.0086887894
 20
484.9999
 30
0.0
 11
124.0
 21
484.9999
 31
0.0
  0
LINE
  5
158
330
23
100
AcDbEntity
  8
0
  6
CONTINUOUS
 62
     7
100
AcDbLine
 10
-216.3160192546
 20
399.9999
 30
0.0
 11
-11.829433224
 21
399.9999
 31
0.0
  0
LINE
  5
159
330
23
100
AcDbEntity
  8
0
  6
CONTINUOUS
 62
     7
100
AcDbLine
 10
-215.0000380769
 20
494.9999
 30
0.0
 11
103.0000380769
 21
494.9999
 31
0.0
  0
LINE
  5
15A
330
23
100
AcDbEntity
  8
0
  6
CONTINUOUS
 62
     7
100
AcDbLine
 10
-115.0
 20
378.2005090272
 30
0.0
 11
0.0
 21
378.2005090272
 31
0.0
  0
LINE
  5
15B
330
23
100
AcDbEntity
  8
0
  6
CONTINUOUS
 62
     7
100
AcDbLine
 10
-216.8160002161
 20
400.5042632677
 30
0.0
 11
-14.3281762967
 21
400.5042632677
 31
0.0
  0
LINE
  5
15C
330
23
100
AcDbEntity
  8
0
  6
CONTINUOUS
 62
     7
100
AcDbLine
 10
-216.0
 20
494.0086265355
 30
0.0
 11
104.0
 21
494.0086265355
 31
0.0
  0
LINE
  5
15D
330
23
100
AcDbEntity
  8
0
  6
CONTINUOUS
 62
     7
100
AcDbLine
 10
-13.6293671033
 20
486.982446929
 30
0.0
 11
104.0613165405
 21
486.982446929
 31
0.0
  0
LINE
  5
15E
330
23
100
AcDbEntity
  8
0
  6
CONTINUOUS
 62
     7
100
AcDbLine
 10
-116.0
 20
384.9999
 30
0.0
 11
0.0
 21
384.9999
 31
0.0
  0
LINE
  5
15F
330
23
100
AcDbEntity
  8
0
  6
CONTINUOUS
 62
     7
100
AcDbLine
 10
-116.0
 20
379.2005090272
 30
0.0
 11
0.0
 21
379.2005090272
 31
0.0
  0
ARC
  5
160
330
23
100
AcDbEntity
  8
0
  6
CONTINUOUS
 62
     7
100
AcDbCircle
 10
-216.3160192546
 20
400.4999
 30
0.0
 40
0.5000000000000568
100
AcDbArc
 50
179.5
 51
270.0
  0
ARC
  5
161
330
23
100
AcDbEntity
  8
0
  6
CONTINUOUS
 62
     7
100
AcDbCircle
 10
-215.0000380769
 20
493.9999
 30
0.0
 40
1.000000000000006
100
AcDbArc
 50
90.0
 51
179.5
  0
ARC
  5
162
330
23
100
AcDbEntity
  8
0
  6
CONTINUOUS
 62
     7
100
AcDbCircle
 10
103.0000380769
 20
493.9999
 30
0.0
 40
1.000000000000006
100
AcDbArc
 50
0.5
 51
90.0
  0
ARC
  5
163
330
23
100
AcDbEntity
  8
0
  6
CONTINUOUS
 62
     7
100
AcDbCircle
 10
106.0612403866
 20
486.9999
 30
0.0
 40
2.000000000000057
100
AcDbArc
 50
180.5
 51
270.0
  0
ARC
  5
164
330
23
100
AcDbEntity
  8
0
  6
CONTINUOUS
 62
     7
100
AcDbCircle
 10
-131.0
 20
384.9999
 30
0.0
 40
15.0
100
AcDbArc
 50
0.0
 51
90.0
  0
ARC
  5
165
330
23
100
AcDbEntity
  8
0
  6
CONTINUOUS
 62
     7
100
AcDbCircle
 10
-115.0
 20
379.2005090272
 30
0.0
 40
1.000000000000028
100
AcDbArc
 50
180.0
 51
270.0
  0
ARC
  5
166
330
23
100
AcDbEntity
  8
0
  6
CONTINUOUS
 62
     7
100
AcDbCircle
 10
-0.5086697509
 20
455.3589385282
 30
0.0
 40
28.65405039215905
100
AcDbArc
 50
89.0002023313
 51
90.9997976687
  0
ARC
  5
167
330
23
100
AcDbEntity
  8
0
  6
CONTINUOUS
 62
     7
100
AcDbCircle
 10
-0.0086887894
 20
483.9999
 30
0.0
 40
0.9999999999999432
100
AcDbArc
 50
90.0
 51
179.5
  0
ARC
  5
168
330
23
100
AcDbEntity
  8
0
  6
CONTINUOUS
 62
     7
100
AcDbCircle
 10
-8.0327792737
 20
706.7503450983
 30
0.0
 40
306.3107811687849
100
AcDbArc
 50
268.8223559211
 51
271.1776440789
  0
VIEWPORT
  5
4A1
330
23
100
AcDbEntity
  8
0
100
AcDbViewport
 10
0.0
 20
0.0
 30
0.0
 40
205.6
 41
156.0
 68
     1
 69
     1
1001
ACAD
1000
MVIEW
1002
{
1070
    16
1010
0.0
1020
0.0
1030
0.0
1010
0.0
1020
0.0
1030
1.0
1040
0.0
1040
357.2134125294
1040
-38.7789015083
1040
-46.4080096273
1040
50.0
1040
0.0
1040
0.0
1070
     0
1070
   100
1070
     0
1070
     3
1070
     0
1070
     0
1070
     0
1070
     0
1040
0.0
1040
0.0
1040
0.0
1040
10.0
1040
10.0
1040
10.0
1040
10.0
1070
     0
1002
{
1002
}
1002
}
  0
ENDBLK
  5
25
330
23
100
AcDbEntity
  8
0
100
AcDbBlockEnd
  0
BLOCK
  5
16B
330
169
100
AcDbEntity
  8
0
100
AcDbBlockBegin
  2
*PAPER_SPACE1
 70
     0
 10
0.0
 20
0.0
 30
0.0
  3
*PAPER_SPACE1
  1

  0
SPLINE
  5
18F
330
169
100
AcDbEntity
  8
0
  6
CONTINUOUS
 62
     7
100
AcDbSpline
210
0.0
220
0.0
230
1.0
 70
     8
 71
     3
 72
     8
 73
     4
 74
     0
 42
0.00000001
 43
0.00000001
 40
0.0
 40
0.0
 40
0.0
 40
0.0
 40
1.0
 40
1.0
 40
1.0
 40
1.0
 10
56.23931457667483
 20
400.5042632677491
 30
0.0
 10
56.24122790464937
 20
400.3360857345227
 30
0.0
 10
56.23895908556131
 20
400.1679646419039
 30
0.0
 10
56.2325073704994
 20
399.9999
 30
0.0
  0
SPLINE
  5
190
330
169
100
AcDbEntity
  8
0
  6
CONTINUOUS
 62
     7
100
AcDbSpline
210
0.0
220
0.0
230
1.0
 70
    24
 71
     3
 72
     9
 73
     5
 74
     0
 42
0.00000001
 43
0.00000001
 40
0.0
 40
0.0
 40
0.0
 40
0.0
 40
0.7363099956148166
 40
1.0
 40
1.0
 40
1.0
 40
1.0
 10
56.2325073704994
 20
399.9999
 30
0.0
 10
55.07859913878313
 20
399.9999
 30
0.0
 10
53.51144910878425
 20
399.9999000000001
 30
0.0
 10
52.19849558271067
 20
399.9999000000001
 30
0.0
 10
51.85228286166279
 20
399.9999000000001
 30
0.0
  0
SPLINE
  5
192
330
169
100
AcDbEntity
  8
0
  6
CONTINUOUS
 62
     7
100
AcDbSpline
210
0.0
220
0.0
230
1.0
 70
    24
 71
     3
 72
     9
 73
     5
 74
     0
 42
0.00000001
 43
0.00000001
 40
0.0
 40
0.0
 40
0.0
 40
0.0
 40
0.7402165652853754
 40
1.0
 40
1.0
 40
1.0
 40
1.0
 10
51.33683420322377
 20
484.9999
 30
0.0
 10
52.29019155036185
 20
484.9999
 30
0.0
 10
53.57813536552157
 20
484.9999000000001
 30
0.0
 10
54.93425160118512
 20
484.9999
 30
0.0
 10
55.28654813475809
 20
484.9999
 30
0.0
  0
LWPOLYLINE
  5
1A1
330
169
100
AcDbEntity
  8
0
  6
CONTINUOUS
 62
     7
100
AcDbPolyline
 90
        4
 70
   128
 43
0.0
 10
56.2393145767
 20
400.5042632677
 10
54.2170304098
 20
400.4830611066
 10
52.2783244963
 20
400.4663417603
 10
52.0730015698
 20
400.464803056
  0
SPLINE
  5
1A2
330
169
100
AcDbEntity
  8
0
  6
CONTINUOUS
 62
     7
100
AcDbSpline
210
0.0
220
0.0
230
1.0
 70
     8
 71
     3
 72
     9
 73
     5
 74
     0
 42
0.00000001
 43
0.00000001
 40
0.0
 40
0.0
 40
0.0
 40
0.0
 40
0.2364963335232237
 40
1.0
 40
1.0
 40
1.0
 40
1.0
 10
55.28654813475809
 20
484.0086265354984
 30
0.0
 10
54.966399584428
 20
484.0089864938487
 30
0.0
 10
53.61268493879001
 20
484.0105085400678
 30
0.0
 10
52.32704379684433
 20
484.0115755081183
 30
0.0
 10
51.34545207119542
 20
484.0123901421367
 30
0.0
  0
LINE
  5
1A3
330
169
100
AcDbEntity
  8
0
  6
CONTINUOUS
 62
     7
100
AcDbLine
 10
52.0742164539
 20
400.5042632677
 30
0.0
 11
51.2582162378
 21
494.0086265355
 31
0.0
  0
LINE
  5
1A4
330
169
100
AcDbEntity
  8
0
  6
CONTINUOUS
 62
     7
100
AcDbLine
 10
-268.7417837622
 20
494.0086265355
 30
0.0
 11
-269.5577839783
 21
400.5042632677
 31
0.0
  0
LINE
  5
1A5
330
169
100
AcDbEntity
  8
0
  6
CONTINUOUS
 62
     7
100
AcDbLine
 10
-168.7417837622
 20
384.9999
 30
0.0
 11
-168.7417837622
 21
379.2005090272
 31
0.0
  0
LINE
  5
1A6
330
169
100
AcDbEntity
  8
0
  6
CONTINUOUS
 62
     7
100
AcDbLine
 10
-48.7417837622
 20
379.2005090272
 30
0.0
 11
-48.7417837622
 21
384.9999
 31
0.0
  0
LINE
  5
1A7
330
169
100
AcDbEntity
  8
0
  6
CONTINUOUS
 62
     7
100
AcDbLine
 10
190.0
 20
0.0
 30
0.0
 11
182.0
 21
8.0
 31
0.0
  0
LINE
  5
1A8
330
169
100
AcDbEntity
  8
0
  6
CONTINUOUS
 62
     7
100
AcDbLine
 10
0.0
 20
0.0
 30
0.0
 11
190.0
 21
0.0
 31
0.0
  0
LINE
  5
1A9
330
169
100
AcDbEntity
  8
0
  6
CONTINUOUS
 62
     7
100
AcDbLine
 10
0.0
 20
0.0
 30
0.0
 11
8.0
 21
8.0
 31
0.0
  0
LINE
  5
1AA
330
169
100
AcDbEntity
  8
0
  6
CONTINUOUS
 62
     7
100
AcDbLine
 10
8.0
 20
8.0
 30
0.0
 11
182.0
 21
8.0
 31
0.0
  0
LINE
  5
1AB
330
169
100
AcDbEntity
  8
0
  6
CONTINUOUS
 62
     7
100
AcDbLine
 10
8.0
 20
392.0
 30
0.0
 11
8.0
 21
8.0
 31
0.0
  0
LINE
  5
1AC
330
169
100
AcDbEntity
  8
0
  6
CONTINUOUS
 62
     7
100
AcDbLine
 10
0.0
 20
399.9999
 30
0.0
 11
0.0
 21
0.0
 31
0.0
  0
LINE
  5
1AD
330
169
100
AcDbEntity
  8
0
  6
CONTINUOUS
 62
     7
100
AcDbLine
 10
8.0
 20
392.0
 30
0.0
 11
0.0001
 21
399.9999
 31
0.0
  0
LINE
  5
1AE
330
169
100
AcDbEntity
  8
0
  6
CONTINUOUS
 62
     7
100
AcDbLine
 10
189.9999
 20
399.9999
 30
0.0
 11
182.0
 21
392.0
 31
0.0
  0
LINE
  5
1AF
330
169
100
AcDbEntity
  8
0
  6
CONTINUOUS
 62
     7
100
AcDbLine
 10
182.0
 20
392.0
 30
0.0
 11
182.0
 21
8.0
 31
0.0
  0
LINE
  5
1B0
330
169
100
AcDbEntity
  8
0
  6
CONTINUOUS
 62
     7
100
AcDbLine
 10
190.0
 20
399.9999
 30
0.0
 11
190.0
 21
0.0
 31
0.0
  0
LINE
  5
1B1
330
169
100
AcDbEntity
  8
0
  6
CONTINUOUS
 62
     7
100
AcDbLine
 10
0.001
 20
399.9999
 30
0.0
 11
8.001
 21
391.9999
 31
0.0
  0
LINE
  5
1B2
330
169
100
AcDbEntity
  8
0
  6
CONTINUOUS
 62
     7
100
AcDbLine
 10
181.999
 20
391.9999
 30
0.0
 11
189.999
 21
399.9999
 31
0.0
  0
LINE
  5
1B3
330
169
100
AcDbEntity
  8
0
  6
CONTINUOUS
 62
     7
100
AcDbLine
 10
8.001
 20
391.9999
 30
0.0
 11
181.999
 21
391.9999
 31
0.0
  0
LINE
  5
1B4
330
169
100
AcDbEntity
  8
0
  6
CONTINUOUS
 62
     7
100
AcDbLine
 10
5.0001
 20
394.9999
 30
0.0
 11
5.001
 21
394.9999
 31
0.0
  0
LINE
  5
1B5
330
169
100
AcDbEntity
  8
0
  6
CONTINUOUS
 62
     7
100
AcDbLine
 10
184.999
 20
394.9999
 30
0.0
 11
184.9999
 21
394.9999
 31
0.0
  0
LINE
  5
1B6
330
169
100
AcDbEntity
  8
0
  6
CONTINUOUS
 62
     7
100
AcDbLine
 10
182.0
 20
204.0
 30
0.0
 11
8.0
 21
204.0
 31
0.0
  0
LINE
  5
1B7
330
169
100
AcDbEntity
  8
0
  6
CONTINUOUS
 62
     7
100
AcDbLine
 10
182.0
 20
196.0
 30
0.0
 11
8.0
 21
196.0
 31
0.0
  0
LINE
  5
1B8
330
169
100
AcDbEntity
  8
0
  6
CONTINUOUS
 62
     7
100
AcDbLine
 10
-269.0578030168
 20
399.9999
 30
0.0
 11
51.5742354923
 21
399.9999
 31
0.0
  0
LINE
  5
1B9
330
169
100
AcDbEntity
  8
0
  6
CONTINUOUS
 62
     7
100
AcDbLine
 10
-267.7418218392
 20
494.9999
 30
0.0
 11
50.2582543147
 21
494.9999
 31
0.0
  0
LINE
  5
1BA
330
169
100
AcDbEntity
  8
0
  6
CONTINUOUS
 62
     7
100
AcDbLine
 10
-167.7417837622
 20
378.2005090272
 30
0.0
 11
-49.7417837698
 21
378.2005090272
 31
0.0
  0
LINE
  5
1BB
330
169
100
AcDbEntity
  8
0
  6
CONTINUOUS
 62
     7
100
AcDbLine
 10
55.2865481348
 20
484.0086265355
 30
0.0
 11
56.2393145767
 21
400.5042632677
 31
0.0
  0
LINE
  5
1BC
330
169
100
AcDbEntity
  8
0
  6
CONTINUOUS
 62
     7
100
AcDbLine
 10
55.2865481348
 20
484.0086265355
 30
0.0
 11
55.2865481348
 21
484.9999
 31
0.0
  0
LINE
  5
1BD
330
169
100
AcDbEntity
  8
0
  6
CONTINUOUS
 62
     7
100
AcDbLine
 10
190.2669050272
 20
484.0086265355
 30
0.0
 11
55.2865481348
 21
484.0086265355
 31
0.0
  0
LINE
  5
1BE
330
169
100
AcDbEntity
  8
0
  6
CONTINUOUS
 62
     7
100
AcDbLine
 10
191.0000380769
 20
399.9999
 30
0.0
 11
190.2669050272
 21
484.0086265355
 31
0.0
  0
LINE
  5
1BF
330
169
100
AcDbEntity
  8
0
  6
CONTINUOUS
 62
     7
100
AcDbLine
 10
192.0
 20
399.9999
 30
0.0
 11
56.2325073705
 21
399.9999
 31
0.0
  0
LINE
  5
1C0
330
169
100
AcDbEntity
  8
0
  6
CONTINUOUS
 62
     7
100
AcDbLine
 10
191.2668669503
 20
484.0086265355
 30
0.0
 11
192.0
 21
399.9999
 31
0.0
  0
LINE
  5
1C1
330
169
100
AcDbEntity
  8
0
  6
CONTINUOUS
 62
     7
100
AcDbLine
 10
190.2669050272
 20
484.0086265355
 30
0.0
 11
190.2669050272
 21
484.9999
 31
0.0
  0
LINE
  5
1C2
330
169
100
AcDbEntity
  8
0
  6
CONTINUOUS
 62
     7
100
AcDbLine
 10
55.2865481348
 20
484.9999
 30
0.0
 11
190.2669050272
 21
484.9999
 31
0.0
  0
LINE
  5
1C3
330
169
100
AcDbEntity
  8
0
  6
CONTINUOUS
 62
     7
100
AcDbLine
 10
-269.5577839783
 20
400.5042632677
 30
0.0
 11
52.0742164539
 21
400.5042632677
 31
0.0
  0
LINE
  5
1C4
330
169
100
AcDbEntity
  8
0
  6
CONTINUOUS
 62
     7
100
AcDbLine
 10
-268.7417837622
 20
494.0086265355
 30
0.0
 11
51.2582162378
 21
494.0086265355
 31
0.0
  0
LINE
  5
1C5
330
169
100
AcDbEntity
  8
0
  6
CONTINUOUS
 62
     7
100
AcDbLine
 10
-168.7417837622
 20
384.9999
 30
0.0
 11
-48.7417837622
 21
384.9999
 31
0.0
  0
LINE
  5
1C6
330
169
100
AcDbEntity
  8
0
  6
CONTINUOUS
 62
     7
100
AcDbLine
 10
-168.7417837622
 20
379.2005090272
 30
0.0
 11
-48.7417837622
 21
379.2005090272
 31
0.0
  0
ARC
  5
1C7
330
169
100
AcDbEntity
  8
0
  6
CONTINUOUS
 62
     7
100
AcDbCircle
 10
-269.0578030168
 20
400.4999
 30
0.0
 40
0.5000000000001448
100
AcDbArc
 50
179.5
 51
270.0
  0
ARC
  5
1C8
330
169
100
AcDbEntity
  8
0
  6
CONTINUOUS
 62
     7
100
AcDbCircle
 10
51.5742354923
 20
400.4999
 30
0.0
 40
0.5000000000000102
100
AcDbArc
 50
270.0
 51
0.5
  0
ARC
  5
1C9
330
169
100
AcDbEntity
  8
0
  6
CONTINUOUS
 62
     7
100
AcDbCircle
 10
-267.7418218392
 20
493.9999
 30
0.0
 40
1.000000000000006
100
AcDbArc
 50
90.0
 51
179.5
  0
ARC
  5
1CA
330
169
100
AcDbEntity
  8
0
  6
CONTINUOUS
 62
     7
100
AcDbCircle
 10
50.2582543147
 20
493.9999
 30
0.0
 40
0.9999999999999432
100
AcDbArc
 50
0.5
 51
90.0
  0
ARC
  5
1CB
330
169
100
AcDbEntity
  8
0
  6
CONTINUOUS
 62
     7
100
AcDbCircle
 10
-183.7417837622
 20
384.9999
 30
0.0
 40
15.00000000000009
100
AcDbArc
 50
0.0
 51
90.0
  0
ARC
  5
1CC
330
169
100
AcDbEntity
  8
0
  6
CONTINUOUS
 62
     7
100
AcDbCircle
 10
-33.7417837622
 20
384.9999
 30
0.0
 40
15.00000000000006
100
AcDbArc
 50
90.0
 51
180.0
  0
ARC
  5
1CD
330
169
100
AcDbEntity
  8
0
  6
CONTINUOUS
 62
     7
100
AcDbCircle
 10
-167.7417837622
 20
379.2005090272
 30
0.0
 40
1.000000000000028
100
AcDbArc
 50
180.0
 51
270.0
  0
ARC
  5
1CE
330
169
100
AcDbEntity
  8
0
  6
CONTINUOUS
 62
     7
100
AcDbCircle
 10
-49.7417837622
 20
379.2005090272
 30
0.0
 40
1.000000000000028
100
AcDbArc
 50
270.0
 51
0.0
  0
ARC
  5
1CF
330
169
100
AcDbEntity
  8
0
  6
CONTINUOUS
 62
     7
100
AcDbCircle
 10
190.7668859887
 20
455.3589385281
 30
0.0
 40
28.65405039222942
100
AcDbArc
 50
89.0002023313
 51
90.9997976687
  0
ARC
  5
1D0
330
169
100
AcDbEntity
  8
0
  6
CONTINUOUS
 62
     7
100
AcDbCircle
 10
190.2669050272
 20
483.9999
 30
0.0
 40
1.000000000000063
100
AcDbArc
 50
0.5
 51
90.0
  0
VIEWPORT
  5
4A3
330
169
100
AcDbEntity
  8
0
100
AcDbViewport
 10
0.0
 20
0.0
 30
0.0
 40
205.6
 41
156.0
 68
     1
 69
     1
1001
ACAD
1000
MVIEW
1002
{
1070
    16
1010
0.0
1020
0.0
1030
0.0
1010
0.0
1020
0.0
1030
1.0
1040
0.0
1040
357.2134125294
1040
-38.7789015083
1040
-46.4080096273
1040
50.0
1040
0.0
1040
0.0
1070
     0
1070
   100
1070
     0
1070
     3
1070
     0
1070
     0
1070
     0
1070
     0
1040
0.0
1040
0.0
1040
0.0
1040
10.0
1040
10.0
1040
10.0
1040
10.0
1070
     0
1002
{
1002
}
1002
}
  0
ENDBLK
  5
16C
330
169
100
AcDbEntity
  8
0
100
AcDbBlockEnd
  0
BLOCK
  5
1D3
330
1D1
100
AcDbEntity
  8
0
100
AcDbBlockBegin
  2
*PAPER_SPACE2
 70
     0
 10
0.0
 20
0.0
 30
0.0
  3
*PAPER_SPACE2
  1

  0
SPLINE
  5
1E0
330
1D1
100
AcDbEntity
  8
0
  6
CONTINUOUS
 62
     7
100
AcDbSpline
210
0.0
220
0.0
230
1.0
 70
     8
 71
     3
 72
     9
 73
     5
 74
     0
 42
0.00000001
 43
0.00000001
 40
0.0
 40
0.0
 40
0.0
 40
0.0
 40
0.5295306565672421
 40
1.0
 40
1.0
 40
1.0
 40
1.0
 10
-45.27540971036972
 20
485.4841231539343
 30
0.0
 10
-45.28917798986934
 20
485.345885391444
 30
0.0
 10
-45.31517890091929
 20
485.0848282443723
 30
0.0
 10
-45.35793734091498
 20
485.0539058380388
 30
0.0
 10
-45.37805387610594
 20
485.0393577938337
 30
0.0
  0
CIRCLE
  5
1F9
330
1D1
100
AcDbEntity
  8
0
  6
CONTINUOUS
 62
     7
100
AcDbCircle
 10
-14.0
 20
449.9999
 30
0.0
 40
8.499999999999986
  0
CIRCLE
  5
1FA
330
1D1
100
AcDbEntity
  8
0
  6
CONTINUOUS
 62
     7
100
AcDbCircle
 10
-149.0
 20
449.9999
 30
0.0
 40
8.5
  0
SPLINE
  5
1FB
330
1D1
100
AcDbEntity
  8
0
  6
CONTINUOUS
 62
     7
100
AcDbSpline
210
0.0
220
0.0
230
1.0
 70
     8
 71
     3
 72
    18
 73
    14
 74
     0
 42
0.00000001
 43
0.00000001
 40
0.0
 40
0.0
 40
0.0
 40
0.0
 40
0.031250000000001
 40
0.031250000000001
 40
0.062500000000002
 40
0.062500000000002
 40
0.1250000000000089
 40
0.1250000000000089
 40
0.2500000000000108
 40
0.2500000000000108
 40
0.5000000000000091
 40
0.5000000000000091
 40
1.0
 40
1.0
 40
1.0
 40
1.0
 10
151.8013216658532
 20
400.5042632677492
 30
0.0
 10
151.8056769353177
 20
400.4704161962358
 30
0.0
 10
151.8259572631215
 20
400.4422996574634
 30
0.0
 10
151.8711380517169
 20
400.39678403212
 30
0.0
 10
151.8965144146354
 20
400.3786870658778
 30
0.0
 10
151.9758131347132
 20
400.3296961339953
 30
0.0
 10
152.0321215920841
 20
400.30506607401
 30
0.0
 10
152.2018762583473
 20
400.2402421513648
 30
0.0
 10
152.3186630348674
 20
400.2092179857003
 30
0.0
 10
152.6708410760447
 20
400.1295966642824
 30
0.0
 10
152.9070900007931
 20
400.096089104291
 30
0.0
 10
153.6176317178756
 20
400.0185837996111
 30
0.0
 10
154.0944040558582
 20
399.9998999999991
 30
0.0
 10
154.5712169861939
 20
399.9998999999991
 30
0.0
  0
SPLINE
  5
1FD
330
1D1
100
AcDbEntity
  8
0
  6
CONTINUOUS
 62
     7
100
AcDbSpline
210
0.0
220
0.0
230
1.0
 70
    24
 71
     3
 72
    30
 73
    26
 74
     0
 42
0.00000001
 43
0.00000001
 40
0.0
 40
0.0
 40
0.0
 40
0.0
 40
0.1249999999999991
 40
0.1249999999999991
 40
0.1874999999999994
 40
0.1874999999999994
 40
0.2499999999999997
 40
0.2499999999999997
 40
0.3750000000000007
 40
0.3750000000000007
 40
0.4375000000000012
 40
0.4375000000000012
 40
0.5000000000000017
 40
0.5000000000000017
 40
0.6250000000000027
 40
0.6250000000000027
 40
0.7500000000000036
 40
0.7500000000000036
 40
0.8750000000000046
 40
0.8750000000000046
 40
0.9375000000000047
 40
0.9375000000000047
 40
0.9687500000000023
 40
0.9687500000000023
 40
1.0
 40
1.0
 40
1.0
 40
1.0
 10
144.483567524429
 20
399.9999
 30
0.0
 10
144.483567524429
 20
399.9998999999999
 30
0.0
 10
144.5511045976516
 20
399.9999
 30
0.0
 10
144.7493985847034
 20
399.9998999999999
 30
0.0
 10
144.8317853437421
 20
399.9999
 30
0.0
 10
145.0298824041265
 20
399.9999
 30
0.0
 10
145.1460028872031
 20
399.9999000000001
 30
0.0
 10
145.5368049355977
 20
399.9999000000001
 30
0.0
 10
145.8554600607006
 20
399.9999
 30
0.0
 10
146.4194913104362
 20
399.9999000000001
 30
0.0
 10
146.6230558302715
 20
399.9999000000001
 30
0.0
 10
147.0543723923327
 20
399.9999
 30
0.0
 10
147.2811994984113
 20
399.9999
 30
0.0
 10
147.9937980297624
 20
399.9999
 30
0.0
 10
148.5117397202495
 20
399.9999000000001
 30
0.0
 10
149.6286711030209
 20
399.9999
 30
0.0
 10
150.2191939567939
 20
399.9999000000003
 30
0.0
 10
151.4335060634033
 20
399.9999
 30
0.0
 10
152.0583586097202
 20
399.9999000000002
 30
0.0
 10
152.998886156926
 20
399.9999000000002
 30
0.0
 10
153.3132503202754
 20
399.9999000000001
 30
0.0
 10
153.7850351032903
 20
399.9999000000001
 30
0.0
 10
153.9423424294975
 20
399.9999
 30
0.0
 10
154.2569263881395
 20
399.9999
 30
0.0
 10
154.4156445397357
 20
399.9999
 30
0.0
 10
154.5712169861939
 20
399.9999
 30
0.0
  0
SPLINE
  5
1FE
330
1D1
100
AcDbEntity
  8
0
  6
CONTINUOUS
 62
     7
100
AcDbSpline
210
0.0
220
0.0
230
1.0
 70
     8
 71
     3
 72
    14
 73
    10
 74
     0
 42
0.00000001
 43
0.00000001
 40
0.0
 40
0.0
 40
0.0
 40
0.0
 40
0.25
 40
0.25
 40
0.5
 40
0.5
 40
0.75
 40
0.75
 40
1.0
 40
1.0
 40
1.0
 40
1.0
 10
145.3440470201139
 20
484.010839718011
 30
0.0
 10
145.084325234773
 20
484.0107981153454
 30
0.0
 10
144.855645781036
 20
484.0107193243582
 30
0.0
 10
144.4591557008755
 20
484.0104888223841
 30
0.0
 10
144.2906489154334
 20
484.0103357620225
 30
0.0
 10
144.0218514929499
 20
484.0099617851927
 30
0.0
 10
143.920866988252
 20
484.009741290734
 30
0.0
 10
143.7851149228866
 20
484.0092339029696
 30
0.0
 10
143.7504316900977
 20
484.008945617456
 30
0.0
 10
143.7504344746837
 20
484.0086265354984
 30
0.0
  0
SPLINE
  5
1FF
330
1D1
100
AcDbEntity
  8
0
  6
CONTINUOUS
 62
     7
100
AcDbSpline
210
0.0
220
0.0
230
1.0
 70
     8
 71
     3
 72
    20
 73
    16
 74
     0
 42
0.00000001
 43
0.00000001
 40
0.0
 40
0.0
 40
0.0
 40
0.0
 40
0.1250000000000049
 40
0.1250000000000049
 40
0.2500000000000097
 40
0.2500000000000097
 40
0.5000000000000099
 40
0.5000000000000099
 40
0.75000000000001
 40
0.75000000000001
 40
0.875000000000005
 40
0.875000000000005
 40
0.9375000000000026
 40
0.9375000000000026
 40
1.0
 40
1.0
 40
1.0
 40
1.0
 10
145.3440470201139
 20
484.010839718011
 30
0.0
 10
145.5263539369533
 20
484.0108689202347
 30
0.0
 10
145.7188881742237
 20
484.0438225084202
 30
0.0
 10
146.1240778511932
 20
484.1550841224324
 30
0.0
 10
146.3373390527604
 20
484.2339419188861
 30
0.0
 10
147.0036641390165
 20
484.5213877744831
 30
0.0
 10
147.467944633347
 20
484.7721104609082
 30
0.0
 10
148.44045144724
 20
485.3356563335392
 30
0.0
 10
148.9512829360484
 20
485.6515662851599
 30
0.0
 10
149.732675230666
 20
486.1403151469655
 30
0.0
 10
149.9964871713971
 20
486.3063083147521
 30
0.0
 10
150.3979711128042
 20
486.5581399558919
 30
0.0
 10
150.5327613947577
 20
486.6425610037458
 30
0.0
 10
150.8044121116723
 20
486.8120901795229
 30
0.0
 10
150.9421857882828
 20
486.8977633380148
 30
0.0
 10
151.0791317038564
 20
486.9824469290029
 30
0.0
  0
LWPOLYLINE
  5
200
330
1D1
100
AcDbEntity
  8
0
  6
CONTINUOUS
 62
     7
100
AcDbPolyline
 90
        3
 70
   128
 43
0.0
 10
151.0791317039
 20
486.982446929
 10
151.2461189241
 20
466.9836005261
 10
151.8013216659
 20
400.5042632677
  0
SPLINE
  5
202
330
1D1
100
AcDbEntity
  8
0
  6
CONTINUOUS
 62
     7
100
AcDbSpline
210
0.0
220
0.0
230
1.0
 70
    24
 71
     3
 72
    12
 73
     8
 74
     0
 42
0.00000001
 43
0.00000001
 40
0.0
 40
0.0
 40
0.0
 40
0.0
 40
0.5
 40
0.5
 40
0.75
 40
0.75
 40
1.0
 40
1.0
 40
1.0
 40
1.0
 10
142.7504725516195
 20
484.9999
 30
0.0
 10
142.7504725516195
 20
484.9999
 30
0.0
 10
142.8997914627333
 20
484.9998999999998
 30
0.0
 10
143.3427882202355
 20
484.9999
 30
0.0
 10
143.5283890361141
 20
484.9999
 30
0.0
 10
143.9651649697989
 20
484.9999
 30
0.0
 10
144.2171716170429
 20
484.9999
 30
0.0
 10
144.5034675971591
 20
484.9999
 30
0.0
  0
SPLINE
  5
203
330
1D1
100
AcDbEntity
  8
0
  6
CONTINUOUS
 62
     7
100
AcDbSpline
210
0.0
220
0.0
230
1.0
 70
     8
 71
     3
 72
    18
 73
    14
 74
     0
 42
0.00000001
 43
0.00000001
 40
0.0
 40
0.0
 40
0.0
 40
0.0
 40
0.1249999999999993
 40
0.1249999999999993
 40
0.2499999999999986
 40
0.2499999999999986
 40
0.4999999999999968
 40
0.4999999999999968
 40
0.7499999999999951
 40
0.7499999999999951
 40
0.8749999999999974
 40
0.8749999999999974
 40
1.0
 40
1.0
 40
1.0
 40
1.0
 10
-45.44459139788276
 20
484.9999
 30
0.0
 10
-45.35719414616979
 20
484.9999000000001
 30
0.0
 10
-45.28597539016412
 20
485.0240683013338
 30
0.0
 10
-45.17070884218597
 20
485.102738080716
 30
0.0
 10
-45.12663450039557
 20
485.1576569461535
 30
0.0
 10
-45.0310892698074
 20
485.3536167544448
 30
0.0
 10
-45.0161572095395
 20
485.5229499465294
 30
0.0
 10
-45.06286335787141
 20
485.8988751668541
 30
0.0
 10
-45.12527212626176
 20
486.1068255560792
 30
0.0
 10
-45.26929607681095
 20
486.4289597214498
 30
0.0
 10
-45.32578009068026
 20
486.5382920409905
 30
0.0
 10
-45.45528049859335
 20
486.7591322386693
 30
0.0
 10
-45.52858911601489
 20
486.8710457588058
 30
0.0
 10
-45.60961571513025
 20
486.9824469290031
 30
0.0
  0
SPLINE
  5
205
330
1D1
100
AcDbEntity
  8
0
  6
CONTINUOUS
 62
     7
100
AcDbSpline
210
0.0
220
0.0
230
1.0
 70
     8
 71
     3
 72
    18
 73
    14
 74
     0
 42
0.00000001
 43
0.00000001
 40
0.0
 40
0.0
 40
0.0
 40
0.0
 40
0.1249999999999955
 40
0.1249999999999955
 40
0.249999999999991
 40
0.249999999999991
 40
0.4999999999999933
 40
0.4999999999999933
 40
0.7499999999999957
 40
0.7499999999999957
 40
0.8749999999999978
 40
0.8749999999999978
 40
1.0
 40
1.0
 40
1.0
 40
1.0
 10
144.5034675971591
 20
484.9999
 30
0.0
 10
144.7347867798217
 20
484.9998999999999
 30
0.0
 10
144.974741772796
 20
485.024137340678
 30
0.0
 10
145.4700689270243
 20
485.1029482352031
 30
0.0
 10
145.7260553355425
 20
485.157947154098
 30
0.0
 10
146.5112314249523
 20
485.354079659241
 30
0.0
 10
147.0508181367686
 20
485.5234700089729
 30
0.0
 10
148.1606882135096
 20
485.8993870121437
 30
0.0
 10
148.7321625213734
 20
486.1072688530534
 30
0.0
 10
149.6008620202707
 20
486.4292593881964
 30
0.0
 10
149.8928407989375
 20
486.5385370061661
 30
0.0
 10
150.481997093278
 20
486.7592595388052
 30
0.0
 10
150.7802383857298
 20
486.8711081177055
 30
0.0
 10
151.0791317038565
 20
486.9824469290031
 30
0.0
  0
SPLINE
  5
20E
330
1D1
100
AcDbEntity
  8
0
  6
CONTINUOUS
 62
     7
100
AcDbSpline
210
0.0
220
0.0
230
1.0
 70
     8
 71
     3
 72
    10
 73
     6
 74
     0
 42
0.00000001
 43
0.00000001
 40
0.0
 40
0.0
 40
0.0
 40
0.0
 40
0.0110679100183003
 40
0.993696670990119
 40
1.0
 40
1.0
 40
1.0
 40
1.0
 10
-45.2744935094163
 20
485.4636483830014
 30
0.0
 10
-45.27302729334096
 20
485.4680469359513
 30
0.0
 10
-45.14138780308325
 20
485.8629568526548
 30
0.0
 10
-45.3839981863533
 20
486.462611453255
 30
0.0
 10
-45.60818676526862
 20
486.9791545481539
 30
0.0
 10
-45.60961571513028
 20
486.982446929004
 30
0.0
  0
LINE
  5
20F
330
1D1
100
AcDbEntity
  8
0
  6
CONTINUOUS
 62
     7
100
AcDbLine
 10
269.5577839783
 20
400.5042632677
 30
0.0
 11
268.7417837622
 21
494.0086265355
 31
0.0
  0
LINE
  5
210
330
1D1
100
AcDbEntity
  8
0
  6
CONTINUOUS
 62
     7
100
AcDbLine
 10
-51.2582162378
 20
494.0086265355
 30
0.0
 11
-51.3368342032
 21
484.9999
 31
0.0
  0
LINE
  5
211
330
1D1
100
AcDbEntity
  8
0
  6
CONTINUOUS
 62
     7
100
AcDbLine
 10
48.7417837622
 20
384.9999
 30
0.0
 11
48.7417837622
 21
379.2005090272
 31
0.0
  0
LINE
  5
212
330
1D1
100
AcDbEntity
  8
0
  6
CONTINUOUS
 62
     7
100
AcDbLine
 10
168.7417837622
 20
379.2005090272
 30
0.0
 11
168.7417837622
 21
384.9999
 31
0.0
  0
LINE
  5
213
330
1D1
100
AcDbEntity
  8
0
  6
CONTINUOUS
 62
     7
100
AcDbLine
 10
0.0
 20
0.0
 30
0.0
 11
-8.0
 21
8.0
 31
0.0
  0
LINE
  5
214
330
1D1
100
AcDbEntity
  8
0
  6
CONTINUOUS
 62
     7
100
AcDbLine
 10
-190.0
 20
0.0
 30
0.0
 11
0.0
 21
0.0
 31
0.0
  0
LINE
  5
215
330
1D1
100
AcDbEntity
  8
0
  6
CONTINUOUS
 62
     7
100
AcDbLine
 10
-182.0
 20
8.0
 30
0.0
 11
-190.0
 21
0.0
 31
0.0
  0
LINE
  5
216
330
1D1
100
AcDbEntity
  8
0
  6
CONTINUOUS
 62
     7
100
AcDbLine
 10
-182.0
 20
8.0
 30
0.0
 11
-8.0
 21
8.0
 31
0.0
  0
LINE
  5
217
330
1D1
100
AcDbEntity
  8
0
  6
CONTINUOUS
 62
     7
100
AcDbLine
 10
0.0
 20
400.0
 30
0.0
 11
-8.0
 21
392.0
 31
0.0
  0
LINE
  5
218
330
1D1
100
AcDbEntity
  8
0
  6
CONTINUOUS
 62
     7
100
AcDbLine
 10
-8.0
 20
392.0
 30
0.0
 11
-8.0
 21
8.0
 31
0.0
  0
LINE
  5
219
330
1D1
100
AcDbEntity
  8
0
  6
CONTINUOUS
 62
     7
100
AcDbLine
 10
0.0
 20
400.0
 30
0.0
 11
0.0
 21
0.0
 31
0.0
  0
LINE
  5
21A
330
1D1
100
AcDbEntity
  8
0
  6
CONTINUOUS
 62
     7
100
AcDbLine
 10
-182.0
 20
392.0
 30
0.0
 11
-190.0
 21
400.0
 31
0.0
  0
LINE
  5
21B
330
1D1
100
AcDbEntity
  8
0
  6
CONTINUOUS
 62
     7
100
AcDbLine
 10
-190.0
 20
400.0
 30
0.0
 11
-190.0
 21
0.0
 31
0.0
  0
LINE
  5
21C
330
1D1
100
AcDbEntity
  8
0
  6
CONTINUOUS
 62
     7
100
AcDbLine
 10
-182.0
 20
392.0
 30
0.0
 11
-182.0
 21
8.0
 31
0.0
  0
LINE
  5
21D
330
1D1
100
AcDbEntity
  8
0
  6
CONTINUOUS
 62
     7
100
AcDbLine
 10
144.4835675244
 20
399.9999
 30
0.0
 11
-192.0
 21
399.9999
 31
0.0
  0
LINE
  5
21E
330
1D1
100
AcDbEntity
  8
0
  6
CONTINUOUS
 62
     7
100
AcDbLine
 10
-181.999
 20
391.9999
 30
0.0
 11
-8.001
 21
391.9999
 31
0.0
  0
LINE
  5
21F
330
1D1
100
AcDbEntity
  8
0
  6
CONTINUOUS
 62
     7
100
AcDbLine
 10
-189.999
 20
399.9999
 30
0.0
 11
-181.999
 21
391.9999
 31
0.0
  0
LINE
  5
220
330
1D1
100
AcDbEntity
  8
0
  6
CONTINUOUS
 62
     7
100
AcDbLine
 10
-8.001
 20
391.9999
 30
0.0
 11
-0.001
 21
399.9999
 31
0.0
  0
LINE
  5
221
330
1D1
100
AcDbEntity
  8
0
  6
CONTINUOUS
 62
     7
100
AcDbLine
 10
-184.9999
 20
394.9999
 30
0.0
 11
-184.999
 21
394.9999
 31
0.0
  0
LINE
  5
222
330
1D1
100
AcDbEntity
  8
0
  6
CONTINUOUS
 62
     7
100
AcDbLine
 10
-5.001
 20
394.9999
 30
0.0
 11
-5.0001
 21
394.9999
 31
0.0
  0
LINE
  5
223
330
1D1
100
AcDbEntity
  8
0
  6
CONTINUOUS
 62
     7
100
AcDbLine
 10
-191.2668669503
 20
484.0086265355
 30
0.0
 11
-192.0
 21
399.9999
 31
0.0
  0
LINE
  5
224
330
1D1
100
AcDbEntity
  8
0
  6
CONTINUOUS
 62
     7
100
AcDbLine
 10
142.7504725516
 20
484.9999
 30
0.0
 11
-190.2669050272
 21
484.9999
 31
0.0
  0
LINE
  5
225
330
1D1
100
AcDbEntity
  8
0
  6
CONTINUOUS
 62
     7
100
AcDbLine
 10
143.7504344747
 20
484.0086265355
 30
0.0
 11
144.4835675244
 21
399.9999
 31
0.0
  0
LINE
  5
226
330
1D1
100
AcDbEntity
  8
0
  6
CONTINUOUS
 62
     7
100
AcDbLine
 10
-45.6096157151
 20
486.982446929
 30
0.0
 11
151.0791317039
 21
486.982446929
 31
0.0
  0
LINE
  5
227
330
1D1
100
AcDbEntity
  8
0
  6
CONTINUOUS
 62
     7
100
AcDbLine
 10
-50.2582543147
 20
494.9999
 30
0.0
 11
267.7418218392
 21
494.9999
 31
0.0
  0
LINE
  5
228
330
1D1
100
AcDbEntity
  8
0
  6
CONTINUOUS
 62
     7
100
AcDbLine
 10
154.5712169862
 20
399.9999
 30
0.0
 11
269.0578030168
 21
399.9999
 31
0.0
  0
LINE
  5
229
330
1D1
100
AcDbEntity
  8
0
  6
CONTINUOUS
 62
     7
100
AcDbLine
 10
49.7417837698
 20
378.2005090272
 30
0.0
 11
167.7417837622
 21
378.2005090272
 31
0.0
  0
LINE
  5
22A
330
1D1
100
AcDbEntity
  8
0
  6
CONTINUOUS
 62
     7
100
AcDbLine
 10
-51.2582162378
 20
494.0086265355
 30
0.0
 11
268.7417837622
 21
494.0086265355
 31
0.0
  0
LINE
  5
22B
330
1D1
100
AcDbEntity
  8
0
  6
CONTINUOUS
 62
     7
100
AcDbLine
 10
-45.6319052292
 20
484.9999
 30
0.0
 11
-45.6096157151
 21
486.982446929
 31
0.0
  0
LINE
  5
22C
330
1D1
100
AcDbEntity
  8
0
  6
CONTINUOUS
 62
     7
100
AcDbLine
 10
151.8013216659
 20
400.5042632677
 30
0.0
 11
269.5577839783
 21
400.5042632677
 31
0.0
  0
LINE
  5
22D
330
1D1
100
AcDbEntity
  8
0
  6
CONTINUOUS
 62
     7
100
AcDbLine
 10
48.7417837622
 20
384.9999
 30
0.0
 11
168.7417837622
 21
384.9999
 31
0.0
  0
LINE
  5
22E
330
1D1
100
AcDbEntity
  8
0
  6
CONTINUOUS
 62
     7
100
AcDbLine
 10
48.7417837622
 20
379.2005090272
 30
0.0
 11
168.7417837622
 21
379.2005090272
 31
0.0
  0
ARC
  5
22F
330
1D1
100
AcDbEntity
  8
0
  6
CONTINUOUS
 62
     7
100
AcDbCircle
 10
-50.2582543147
 20
493.9999
 30
0.0
 40
1.00000000000002
100
AcDbArc
 50
90.0
 51
179.5
  0
ARC
  5
230
330
1D1
100
AcDbEntity
  8
0
  6
CONTINUOUS
 62
     7
100
AcDbCircle
 10
267.7418218392
 20
493.9999
 30
0.0
 40
0.9999999999999485
100
AcDbArc
 50
0.5
 51
90.0
  0
ARC
  5
231
330
1D1
100
AcDbEntity
  8
0
  6
CONTINUOUS
 62
     7
100
AcDbCircle
 10
269.0578030168
 20
400.4999
 30
0.0
 40
0.5000000000001448
100
AcDbArc
 50
270.0
 51
0.5
  0
ARC
  5
232
330
1D1
100
AcDbEntity
  8
0
  6
CONTINUOUS
 62
     7
100
AcDbCircle
 10
33.7417837622
 20
384.9999
 30
0.0
 40
15.00000000000001
100
AcDbArc
 50
0.0
 51
90.0
  0
ARC
  5
233
330
1D1
100
AcDbEntity
  8
0
  6
CONTINUOUS
 62
     7
100
AcDbCircle
 10
183.7417837622
 20
384.9999
 30
0.0
 40
15.00000000000009
100
AcDbArc
 50
90.0
 51
180.0
  0
ARC
  5
234
330
1D1
100
AcDbEntity
  8
0
  6
CONTINUOUS
 62
     7
100
AcDbCircle
 10
49.7417837622
 20
379.2005090272
 30
0.0
 40
1.000000000000071
100
AcDbArc
 50
180.0
 51
270.0
  0
ARC
  5
235
330
1D1
100
AcDbEntity
  8
0
  6
CONTINUOUS
 62
     7
100
AcDbCircle
 10
167.7417837622
 20
379.2005090272
 30
0.0
 40
1.000000000000057
100
AcDbArc
 50
270.0
 51
360.0
  0
ARC
  5
236
330
1D1
100
AcDbEntity
  8
0
  6
CONTINUOUS
 62
     7
100
AcDbCircle
 10
-190.2669050272
 20
483.9999
 30
0.0
 40
1.000000000000006
100
AcDbArc
 50
90.0
 51
179.5
  0
ARC
  5
237
330
1D1
100
AcDbEntity
  8
0
  6
CONTINUOUS
 62
     7
100
AcDbCircle
 10
142.7504725516
 20
483.9999
 30
0.0
 40
1.000000000000006
100
AcDbArc
 50
0.5
 51
90.0
  0
ARC
  5
238
330
1D1
100
AcDbEntity
  8
0
  6
CONTINUOUS
 62
     7
100
AcDbCircle
 10
148.1402438394
 20
645.8212753634
 30
0.0
 40
245.3443292892518
100
AcDbArc
 50
269.1449890279
 51
270.8550109721
  0
ARC
  5
239
330
1D1
100
AcDbEntity
  8
0
  6
CONTINUOUS
 62
     7
100
AcDbCircle
 10
144.4175092441
 20
484.0751213557
 30
0.0
 40
0.9287649753361473
100
AcDbArc
 50
356.0312743371
 51
84.6896046576
  0
VIEWPORT
  5
4A5
330
1D1
100
AcDbEntity
  8
0
100
AcDbViewport
 10
0.0
 20
0.0
 30
0.0
 40
205.6
 41
156.0
 68
     1
 69
     1
1001
ACAD
1000
MVIEW
1002
{
1070
    16
1010
0.0
1020
0.0
1030
0.0
1010
0.0
1020
0.0
1030
1.0
1040
0.0
1040
357.2134125294
1040
-38.7789015083
1040
-46.4080096273
1040
50.0
1040
0.0
1040
0.0
1070
     0
1070
   100
1070
     0
1070
     3
1070
     0
1070
     0
1070
     0
1070
     0
1040
0.0
1040
0.0
1040
0.0
1040
10.0
1040
10.0
1040
10.0
1040
10.0
1070
     0
1002
{
1002
}
1002
}
  0
ENDBLK
  5
1D4
330
1D1
100
AcDbEntity
  8
0
100
AcDbBlockEnd
  0
BLOCK
  5
23C
330
23A
100
AcDbEntity
  8
0
100
AcDbBlockBegin
  2
*PAPER_SPACE3
 70
     0
 10
0.0
 20
0.0
 30
0.0
  3
*PAPER_SPACE3
  1

  0
SPLINE
  5
24E
330
23A
100
AcDbEntity
  8
0
  6
CONTINUOUS
 62
     7
100
AcDbSpline
210
0.0
220
0.0
230
1.0
 70
     8
 71
     3
 72
    18
 73
    14
 74
     0
 42
0.00000001
 43
0.00000001
 40
0.0
 40
0.0
 40
0.0
 40
0.0
 40
0.031250000000001
 40
0.031250000000001
 40
0.062500000000002
 40
0.062500000000002
 40
0.1250000000000089
 40
0.1250000000000089
 40
0.2500000000000108
 40
0.2500000000000108
 40
0.5000000000000091
 40
0.5000000000000091
 40
1.0
 40
1.0
 40
1.0
 40
1.0
 10
-98.9440612641494
 20
400.5042632677492
 30
0.0
 10
-98.94315749130858
 20
400.4704161962358
 30
0.0
 10
-98.93433455556288
 20
400.4422996574634
 30
0.0
 10
-98.91407026607074
 20
400.39678403212
 30
0.0
 10
-98.90242340519609
 20
400.3786870658778
 30
0.0
 10
-98.86576397362163
 20
400.3296961339953
 30
0.0
 10
-98.83937778905566
 20
400.30506607401
 30
0.0
 10
-98.7595209994962
 20
400.2402421513648
 30
0.0
 10
-98.7041324151668
 20
400.2092179857003
 30
0.0
 10
-98.536717335102
 20
400.1295966642824
 30
0.0
 10
-98.42384504856916
 20
400.096089104291
 30
0.0
 10
-98.08389822707176
 20
400.0185837996111
 30
0.0
 10
-97.85507963707244
 20
399.9998999999991
 30
0.0
 10
-97.6258086390387
 20
399.9998999999991
 30
0.0
  0
LWPOLYLINE
  5
250
330
23A
100
AcDbEntity
  8
0
  6
CONTINUOUS
 62
     7
100
AcDbPolyline
 90
        3
 70
   128
 43
0.0
 10
-98.3605325915
 20
486.982446929
 10
-98.4956541138
 20
466.9836005261
 10
-98.9440612641
 20
400.5042632677
  0
SPLINE
  5
255
330
23A
100
AcDbEntity
  8
0
  6
CONTINUOUS
 62
     7
100
AcDbSpline
210
0.0
220
0.0
230
1.0
 70
     8
 71
     3
 72
     8
 73
     4
 74
     0
 42
0.00000001
 43
0.00000001
 40
0.0
 40
0.0
 40
0.0
 40
0.0
 40
1.0
 40
1.0
 40
1.0
 40
1.0
 10
-108.5693294512295
 20
399.9999
 30
0.0
 10
-108.5765982653397
 20
400.1679443754368
 30
0.0
 10
-108.5796759461487
 20
400.3360654518987
 30
0.0
 10
-108.5785603973746
 20
400.5042632677491
 30
0.0
  0
SPLINE
  5
257
330
23A
100
AcDbEntity
  8
0
  6
CONTINUOUS
 62
     7
100
AcDbSpline
210
0.0
220
0.0
230
1.0
 70
    24
 71
     3
 72
    30
 73
    26
 74
     0
 42
0.00000001
 43
0.00000001
 40
0.0
 40
0.0
 40
0.0
 40
0.0
 40
0.1249999999999991
 40
0.1249999999999991
 40
0.1874999999999994
 40
0.1874999999999994
 40
0.2499999999999997
 40
0.2499999999999997
 40
0.3750000000000007
 40
0.3750000000000007
 40
0.4375000000000012
 40
0.4375000000000012
 40
0.5000000000000017
 40
0.5000000000000017
 40
0.6250000000000027
 40
0.6250000000000027
 40
0.7500000000000036
 40
0.7500000000000036
 40
0.8750000000000046
 40
0.8750000000000046
 40
0.9375000000000047
 40
0.9375000000000047
 40
0.9687500000000023
 40
0.9687500000000023
 40
1.0
 40
1.0
 40
1.0
 40
1.0
 10
-108.5693294512295
 20
399.9999
 30
0.0
 10
-107.8942853768854
 20
399.9998999999999
 30
0.0
 10
-107.2307720935505
 20
399.9999
 30
0.0
 10
-106.2520612620159
 20
399.9998999999999
 30
0.0
 10
-105.9286053437187
 20
399.9999
 30
0.0
 10
-105.2873829275225
 20
399.9999
 30
0.0
 10
-104.9692031717457
 20
399.9999000000001
 30
0.0
 10
-104.0444650266762
 20
399.9999000000001
 30
0.0
 10
-103.460168379478
 20
399.9999
 30
0.0
 10
-102.6313894758232
 20
399.9999000000001
 30
0.0
 10
-102.3618439695561
 20
399.9999000000001
 30
0.0
 10
-101.8458703973146
 20
399.9999
 30
0.0
 10
-101.6002469273919
 20
399.9999
 30
0.0
 10
-100.8989286244426
 20
399.9999
 30
0.0
 10
-100.4788446241864
 20
399.9999000000001
 30
0.0
 10
-99.72839260267263
 20
399.9999
 30
0.0
 10
-99.40561786508134
 20
399.9999000000003
 30
0.0
 10
-98.83531224385744
 20
399.9999
 30
0.0
 10
-98.58429963535356
 20
399.9999000000002
 30
0.0
 10
-98.22001637322964
 20
399.9999000000002
 30
0.0
 10
-98.10079604480148
 20
399.9999000000001
 30
0.0
 10
-97.922581419533
 20
399.9999000000001
 30
0.0
 10
-97.86329476315991
 20
399.9999
 30
0.0
 10
-97.74464156141663
 20
399.9999
 30
0.0
 10
-97.68472229355862
 20
399.9999
 30
0.0
 10
-97.62580863903861
 20
399.9999
 30
0.0
  0
SPLINE
  5
259
330
23A
100
AcDbEntity
  8
0
  6
CONTINUOUS
 62
     7
100
AcDbSpline
210
0.0
220
0.0
230
1.0
 70
     8
 71
     3
 72
    14
 73
    10
 74
     0
 42
0.00000001
 43
0.00000001
 40
0.0
 40
0.0
 40
0.0
 40
0.0
 40
0.25
 40
0.25
 40
0.5
 40
0.5
 40
0.75
 40
0.75
 40
1.0
 40
1.0
 40
1.0
 40
1.0
 10
-102.6078538282537
 20
484.010839718011
 30
0.0
 10
-103.0109671531264
 20
484.0107981153454
 30
0.0
 10
-103.4292619568584
 20
484.0107193243582
 30
0.0
 10
-104.2956199086225
 20
484.0104888223841
 30
0.0
 10
-104.7466239143528
 20
484.0103357620225
 30
0.0
 10
-105.6611550137821
 20
484.0099617851927
 30
0.0
 10
-106.1249577934194
 20
484.009741290734
 30
0.0
 10
-107.065518183368
 20
484.0092339029696
 30
0.0
 10
-107.5442575244579
 20
484.008945617456
 30
0.0
 10
-108.0237942346885
 20
484.0086265354984
 30
0.0
  0
SPLINE
  5
25A
330
23A
100
AcDbEntity
  8
0
  6
CONTINUOUS
 62
     7
100
AcDbSpline
210
0.0
220
0.0
230
1.0
 70
     8
 71
     3
 72
    20
 73
    16
 74
     0
 42
0.00000001
 43
0.00000001
 40
0.0
 40
0.0
 40
0.0
 40
0.0
 40
0.1250000000000049
 40
0.1250000000000049
 40
0.2500000000000097
 40
0.2500000000000097
 40
0.5000000000000099
 40
0.5000000000000099
 40
0.75000000000001
 40
0.75000000000001
 40
0.875000000000005
 40
0.875000000000005
 40
0.9375000000000026
 40
0.9375000000000026
 40
1.0
 40
1.0
 40
1.0
 40
1.0
 10
-102.6078538282537
 20
484.010839718011
 30
0.0
 10
-102.3248958649933
 20
484.0108689202347
 30
0.0
 10
-102.0565914392114
 20
484.0438225084202
 30
0.0
 10
-101.544904936528
 20
484.1550841224324
 30
0.0
 10
-101.3009465367666
 20
484.2339419188861
 30
0.0
 10
-100.6075037209069
 20
484.5213877744831
 30
0.0
 10
-100.2103442385916
 20
484.7721104609082
 30
0.0
 10
-99.51304044481176
 20
485.3356563335392
 30
0.0
 10
-99.21303464794515
 20
485.6515662851599
 30
0.0
 10
-98.83976313703799
 20
486.1403151469655
 30
0.0
 10
-98.72757608228511
 20
486.3063083147521
 30
0.0
 10
-98.57681143845467
 20
486.5581399558919
 30
0.0
 10
-98.52948399055542
 20
486.6425610037458
 30
0.0
 10
-98.44063508223167
 20
486.8120901795229
 30
0.0
 10
-98.39885984847224
 20
486.8977633380148
 30
0.0
 10
-98.36053259154833
 20
486.9824469290029
 30
0.0
  0
SPLINE
  5
25B
330
23A
100
AcDbEntity
  8
0
  6
CONTINUOUS
 62
     7
100
AcDbSpline
210
0.0
220
0.0
230
1.0
 70
     8
 71
     3
 72
    18
 73
    14
 74
     0
 42
0.00000001
 43
0.00000001
 40
0.0
 40
0.0
 40
0.0
 40
0.0
 40
0.1249999999999955
 40
0.1249999999999955
 40
0.249999999999991
 40
0.249999999999991
 40
0.4999999999999933
 40
0.4999999999999933
 40
0.7499999999999957
 40
0.7499999999999957
 40
0.8749999999999978
 40
0.8749999999999978
 40
1.0
 40
1.0
 40
1.0
 40
1.0
 10
-102.0662759887193
 20
484.9999
 30
0.0
 10
-101.8272376341526
 20
484.9998999999999
 30
0.0
 10
-101.6020465225042
 20
485.024137340678
 30
0.0
 10
-101.1742579636079
 20
485.1029482352031
 30
0.0
 10
-100.9712669298174
 20
485.157947154098
 30
0.0
 10
-100.3948438343957
 20
485.354079659241
 30
0.0
 10
-100.0578056526514
 20
485.5234700089729
 30
0.0
 10
-99.45451913625611
 20
485.8993870121437
 30
0.0
 10
-99.1884653632829
 20
486.1072688530534
 30
0.0
 10
-98.84109995023616
 20
486.4292593881964
 30
0.0
 10
-98.73372325179677
 20
486.5385370061661
 30
0.0
 10
-98.53507909715303
 20
486.7592595388052
 30
0.0
 10
-98.44351929820996
 20
486.8711081177055
 30
0.0
 10
-98.36053259154836
 20
486.9824469290031
 30
0.0
  0
LWPOLYLINE
  5
25C
330
23A
100
AcDbEntity
  8
0
  6
CONTINUOUS
 62
     7
100
AcDbPolyline
 90
        9
 70
   128
 43
0.0
 10
-102.0662759887
 20
484.9999
 10
-102.1712123918
 20
484.9809511477
 10
-102.2721719461
 20
484.9248227089
 10
-102.3653285163
 20
484.8336418226
 10
-102.4471516821
 20
484.710864035
 10
-102.5145405334
 20
484.5611423424
 10
-102.5649411874
 20
484.3901508534
 10
-102.5964435751
 20
484.2043697528
 10
-102.6078538283
 20
484.010839718
  0
SPLINE
  5
25D
330
23A
100
AcDbEntity
  8
0
  6
CONTINUOUS
 62
     7
100
AcDbSpline
210
0.0
220
0.0
230
1.0
 70
    24
 71
     3
 72
    12
 73
     8
 74
     0
 42
0.00000001
 43
0.00000001
 40
0.0
 40
0.0
 40
0.0
 40
0.0
 40
0.5
 40
0.5
 40
0.75
 40
0.75
 40
1.0
 40
1.0
 40
1.0
 40
1.0
 10
-108.0237942346885
 20
484.9999
 30
0.0
 10
-106.9665918545532
 20
484.9999
 30
0.0
 10
-105.9348183625645
 20
484.9998999999998
 30
0.0
 10
-104.4244567769822
 20
484.9999
 30
0.0
 10
-103.9269002651703
 20
484.9999
 30
0.0
 10
-102.971761781967
 20
484.9999
 30
0.0
 10
-102.5106341071521
 20
484.9999
 30
0.0
 10
-102.0662759887193
 20
484.9999
 30
0.0
  0
LINE
  5
26C
330
23A
100
AcDbEntity
  8
0
  6
CONTINUOUS
 62
     7
100
AcDbLine
 10
216.8160002161
 20
400.5042632677
 30
0.0
 11
216.0
 21
494.0086265355
 31
0.0
  0
LINE
  5
26D
330
23A
100
AcDbEntity
  8
0
  6
CONTINUOUS
 62
     7
100
AcDbLine
 10
-104.0
 20
494.0086265355
 30
0.0
 11
-104.0613165405
 21
486.982446929
 31
0.0
  0
LINE
  5
26E
330
23A
100
AcDbEntity
  8
0
  6
CONTINUOUS
 62
     7
100
AcDbLine
 10
-4.0
 20
384.9999
 30
0.0
 11
-4.0
 21
379.2005090272
 31
0.0
  0
LINE
  5
26F
330
23A
100
AcDbEntity
  8
0
  6
CONTINUOUS
 62
     7
100
AcDbLine
 10
116.0
 20
379.2005090272
 30
0.0
 11
116.0
 21
384.9999
 31
0.0
  0
LINE
  5
270
330
23A
100
AcDbEntity
  8
0
  6
CONTINUOUS
 62
     7
100
AcDbLine
 10
-124.0
 20
0.0
 30
0.0
 11
0.0
 21
0.0
 31
0.0
  0
LINE
  5
271
330
23A
100
AcDbEntity
  8
0
  6
CONTINUOUS
 62
     7
100
AcDbLine
 10
0.0
 20
378.2005090272
 30
0.0
 11
0.0
 21
0.0
 31
0.0
  0
LINE
  5
272
330
23A
100
AcDbEntity
  8
0
  6
CONTINUOUS
 62
     7
100
AcDbLine
 10
-124.0
 20
484.9999
 30
0.0
 11
-124.0
 21
0.0
 31
0.0
  0
LINE
  5
273
330
23A
100
AcDbEntity
  8
0
  6
CONTINUOUS
 62
     7
100
AcDbLine
 10
-97.625808639
 20
399.9999
 30
0.0
 11
216.3160192546
 21
399.9999
 31
0.0
  0
LINE
  5
274
330
23A
100
AcDbEntity
  8
0
  6
CONTINUOUS
 62
     7
100
AcDbLine
 10
-103.0000380769
 20
494.9999
 30
0.0
 11
215.0000380769
 21
494.9999
 31
0.0
  0
LINE
  5
275
330
23A
100
AcDbEntity
  8
0
  6
CONTINUOUS
 62
     7
100
AcDbLine
 10
-3.0
 20
378.2005090272
 30
0.0
 11
115.0
 21
378.2005090272
 31
0.0
  0
LINE
  5
276
330
23A
100
AcDbEntity
  8
0
  6
CONTINUOUS
 62
     7
100
AcDbLine
 10
-108.5785603974
 20
400.5042632677
 30
0.0
 11
-108.0237942347
 21
484.0086265355
 31
0.0
  0
LINE
  5
277
330
23A
100
AcDbEntity
  8
0
  6
CONTINUOUS
 62
     7
100
AcDbLine
 10
-108.0237942347
 20
484.9999
 30
0.0
 11
-108.0237942347
 21
484.0086265355
 31
0.0
  0
LINE
  5
278
330
23A
100
AcDbEntity
  8
0
  6
CONTINUOUS
 62
     7
100
AcDbLine
 10
-108.0237942347
 20
484.0086265355
 30
0.0
 11
-124.0
 21
484.0086265355
 31
0.0
  0
LINE
  5
279
330
23A
100
AcDbEntity
  8
0
  6
CONTINUOUS
 62
     7
100
AcDbLine
 10
-108.5693294512
 20
399.9999
 30
0.0
 11
-124.0
 21
399.9999
 31
0.0
  0
LINE
  5
27A
330
23A
100
AcDbEntity
  8
0
  6
CONTINUOUS
 62
     7
100
AcDbLine
 10
-124.0
 20
484.9999
 30
0.0
 11
-108.0237942347
 21
484.9999
 31
0.0
  0
LINE
  5
27B
330
23A
100
AcDbEntity
  8
0
  6
CONTINUOUS
 62
     7
100
AcDbLine
 10
-98.9440612641
 20
400.5042632677
 30
0.0
 11
216.8160002161
 21
400.5042632677
 31
0.0
  0
LINE
  5
27C
330
23A
100
AcDbEntity
  8
0
  6
CONTINUOUS
 62
     7
100
AcDbLine
 10
-104.0
 20
494.0086265355
 30
0.0
 11
216.0
 21
494.0086265355
 31
0.0
  0
LINE
  5
27D
330
23A
100
AcDbEntity
  8
0
  6
CONTINUOUS
 62
     7
100
AcDbLine
 10
-104.0613165405
 20
486.982446929
 30
0.0
 11
-98.3605325915
 21
486.982446929
 31
0.0
  0
LINE
  5
27E
330
23A
100
AcDbEntity
  8
0
  6
CONTINUOUS
 62
     7
100
AcDbLine
 10
-4.0
 20
384.9999
 30
0.0
 11
116.0
 21
384.9999
 31
0.0
  0
LINE
  5
27F
330
23A
100
AcDbEntity
  8
0
  6
CONTINUOUS
 62
     7
100
AcDbLine
 10
-4.0
 20
379.2005090272
 30
0.0
 11
116.0
 21
379.2005090272
 31
0.0
  0
ARC
  5
280
330
23A
100
AcDbEntity
  8
0
  6
CONTINUOUS
 62
     7
100
AcDbCircle
 10
216.3160192546
 20
400.4999
 30
0.0
 40
0.4999999999999432
100
AcDbArc
 50
270.0
 51
0.5
  0
ARC
  5
281
330
23A
100
AcDbEntity
  8
0
  6
CONTINUOUS
 62
     7
100
AcDbCircle
 10
-103.0000380769
 20
493.9999
 30
0.0
 40
1.00000000000002
100
AcDbArc
 50
90.0
 51
179.5
  0
ARC
  5
282
330
23A
100
AcDbEntity
  8
0
  6
CONTINUOUS
 62
     7
100
AcDbCircle
 10
215.0000380769
 20
493.9999
 30
0.0
 40
1.000000000000006
100
AcDbArc
 50
0.5
 51
90.0
  0
ARC
  5
283
330
23A
100
AcDbEntity
  8
0
  6
CONTINUOUS
 62
     7
100
AcDbCircle
 10
-19.0
 20
384.9999
 30
0.0
 40
15.00000000000001
100
AcDbArc
 50
0.0
 51
90.0
  0
ARC
  5
284
330
23A
100
AcDbEntity
  8
0
  6
CONTINUOUS
 62
     7
100
AcDbCircle
 10
131.0
 20
384.9999
 30
0.0
 40
15.00000000000006
100
AcDbArc
 50
90.0
 51
180.0
  0
ARC
  5
285
330
23A
100
AcDbEntity
  8
0
  6
CONTINUOUS
 62
     7
100
AcDbCircle
 10
-3.0
 20
379.2005090272
 30
0.0
 40
1.000000000000057
100
AcDbArc
 50
180.0
 51
270.0
  0
ARC
  5
286
330
23A
100
AcDbEntity
  8
0
  6
CONTINUOUS
 62
     7
100
AcDbCircle
 10
115.0
 20
379.2005090272
 30
0.0
 40
1.000000000000028
100
AcDbArc
 50
270.0
 51
0.0
  0
ARC
  5
287
330
23A
100
AcDbEntity
  8
0
  6
CONTINUOUS
 62
     7
100
AcDbCircle
 10
-106.0612403866
 20
486.9999
 30
0.0
 40
2.000000000000057
100
AcDbArc
 50
270.0
 51
359.5
  0
ARC
  5
288
330
23A
100
AcDbEntity
  8
0
  6
CONTINUOUS
 62
     7
100
AcDbCircle
 10
-103.7613108308
 20
881.5901617475
 30
0.0
 40
481.1100161183697
100
AcDbArc
 50
269.4263002808
 51
270.5736997192
  0
VIEWPORT
  5
4A7
330
23A
100
AcDbEntity
  8
0
100
AcDbViewport
 10
0.0
 20
0.0
 30
0.0
 40
205.6
 41
156.0
 68
     1
 69
     1
1001
ACAD
1000
MVIEW
1002
{
1070
    16
1010
0.0
1020
0.0
1030
0.0
1010
0.0
1020
0.0
1030
1.0
1040
0.0
1040
357.2134125294
1040
-38.7789015083
1040
-46.4080096273
1040
50.0
1040
0.0
1040
0.0
1070
     0
1070
   100
1070
     0
1070
     3
1070
     0
1070
     0
1070
     0
1070
     0
1040
0.0
1040
0.0
1040
0.0
1040
10.0
1040
10.0
1040
10.0
1040
10.0
1070
     0
1002
{
1002
}
1002
}
  0
ENDBLK
  5
23D
330
23A
100
AcDbEntity
  8
0
100
AcDbBlockEnd
  0
BLOCK
  5
28B
330
289
100
AcDbEntity
  8
0
100
AcDbBlockBegin
  2
*PAPER_SPACE4
 70
     0
 10
0.0
 20
0.0
 30
0.0
  3
*PAPER_SPACE4
  1

  0
SPLINE
  5
28D
330
289
100
AcDbEntity
  8
0
  6
CONTINUOUS
 62
     7
100
AcDbSpline
210
0.0
220
0.0
230
1.0
 70
     8
 71
     3
 72
    10
 73
     6
 74
     0
 42
0.00000001
 43
0.00000001
 40
0.0
 40
0.0
 40
0.0
 40
0.0
 40
0.2174254319484542
 40
0.7286057107374837
 40
1.0
 40
1.0
 40
1.0
 40
1.0
 10
-145.0962014647339
 20
-105.1615072597785
 30
0.0
 10
-145.0487331213517
 20
-105.2820275080386
 30
0.0
 10
-144.8896638452438
 20
-105.685898114871
 30
0.0
 10
-144.7401581704488
 20
-106.2678278475124
 30
0.0
 10
-144.6621993607558
 20
-106.7093424374322
 30
0.0
 10
-144.6351635016669
 20
-106.8624582467393
 30
0.0
  0
SPLINE
  5
28E
330
289
100
AcDbEntity
  8
0
  6
CONTINUOUS
 62
     7
100
AcDbSpline
210
0.0
220
0.0
230
1.0
 70
     8
 71
     3
 72
    10
 73
     6
 74
     0
 42
0.00000001
 43
0.00000001
 40
0.0
 40
0.0
 40
0.0
 40
0.0
 40
0.1590270681124804
 40
0.6429058132624308
 40
0.9999999999999999
 40
0.9999999999999999
 40
0.9999999999999999
 40
0.9999999999999999
 10
-151.8088176171713
 20
-98.97353919105389
 30
0.0
 10
-151.6386853262813
 20
-99.0120476665104
 30
0.0
 10
-150.9508839341346
 20
-99.16772759587536
 30
0.0
 10
-149.938371041096
 20
-99.62352264913845
 30
0.0
 10
-149.1679050924352
 20
-100.1292949750723
 30
0.0
 10
-148.8407496027472
 20
-100.344056176718
 30
0.0
  0
CIRCLE
  5
296
330
289
100
AcDbEntity
  8
0
  6
CONTINUOUS
 62
     7
100
AcDbCircle
 10
-108.7417837622
 20
56.0
 30
0.0
 40
59.00000000000007
  0
CIRCLE
  5
297
330
289
100
AcDbEntity
  8
0
  6
CONTINUOUS
 62
     7
100
AcDbCircle
 10
-108.7417837622
 20
56.0
 30
0.0
 40
23.0
  0
CIRCLE
  5
298
330
289
100
AcDbEntity
  8
0
  6
CONTINUOUS
 62
     7
100
AcDbCircle
 10
-108.7417837622
 20
56.0
 30
0.0
 40
59.9999999999999
  0
CIRCLE
  5
299
330
289
100
AcDbEntity
  8
0
  6
CONTINUOUS
 62
     7
100
AcDbCircle
 10
-108.7417837622
 20
56.0
 30
0.0
 40
74.99999999999976
  0
SPLINE
  5
29A
330
289
100
AcDbEntity
  8
0
  6
CONTINUOUS
 62
     7
100
AcDbSpline
210
0.0
220
0.0
230
1.0
 70
     8
 71
     3
 72
    18
 73
    14
 74
     0
 42
0.00000001
 43
0.00000001
 40
0.0
 40
0.0
 40
0.0
 40
0.0
 40
0.031250000000001
 40
0.031250000000001
 40
0.062500000000002
 40
0.062500000000002
 40
0.1250000000000089
 40
0.1250000000000089
 40
0.2500000000000108
 40
0.2500000000000108
 40
0.5000000000000091
 40
0.5000000000000091
 40
1.0
 40
1.0
 40
1.0
 40
1.0
 10
-151.8013216658532
 20
-98.9440612641494
 30
0.0
 10
-151.8056769353177
 20
-98.94315749130858
 30
0.0
 10
-151.8259572631215
 20
-98.93433455556288
 30
0.0
 10
-151.8711380517169
 20
-98.91407026607074
 30
0.0
 10
-151.8965144146354
 20
-98.90242340519609
 30
0.0
 10
-151.9758131347132
 20
-98.86576397362163
 30
0.0
 10
-152.0321215920841
 20
-98.83937778905566
 30
0.0
 10
-152.2018762583473
 20
-98.7595209994962
 30
0.0
 10
-152.3186630348674
 20
-98.7041324151668
 30
0.0
 10
-152.6708410760447
 20
-98.536717335102
 30
0.0
 10
-152.9070900007931
 20
-98.42384504856916
 30
0.0
 10
-153.6176317178756
 20
-98.08389822707176
 30
0.0
 10
-154.0944040558582
 20
-97.85507963707244
 30
0.0
 10
-154.5712169861939
 20
-97.6258086390387
 30
0.0
  0
SPLINE
  5
29C
330
289
100
AcDbEntity
  8
0
  6
CONTINUOUS
 62
     7
100
AcDbSpline
210
0.0
220
0.0
230
1.0
 70
     8
 71
     3
 72
    18
 73
    14
 74
     0
 42
0.00000001
 43
0.00000001
 40
0.0
 40
0.0
 40
0.0
 40
0.0
 40
0.4999999999999906
 40
0.4999999999999906
 40
0.7499999999999843
 40
0.7499999999999843
 40
0.8749999999999811
 40
0.8749999999999811
 40
0.9374999999999892
 40
0.9374999999999892
 40
0.9687499999999946
 40
0.9687499999999946
 40
1.0
 40
1.0
 40
1.0
 40
1.0
 10
45.36917321461703
 20
11.82943322397941
 30
0.0
 10
45.57791714354532
 20
12.26852810370052
 30
0.0
 10
45.78747797358137
 20
12.70737793740338
 30
0.0
 10
46.10229808672689
 20
13.36094888559888
 30
0.0
 10
46.20744963117848
 20
13.5783388486891
 30
0.0
 10
46.36370719115564
 20
13.89845675069739
 30
0.0
 10
46.41574366654992
 20
14.00460925636283
 30
0.0
 10
46.49127916869072
 20
14.1568669572986
 30
0.0
 10
46.51615647704801
 20
14.20673089491194
 30
0.0
 10
46.55028569797459
 20
14.2737552204217
 30
0.0
 10
46.56117749107091
 20
14.29488958456793
 30
0.0
 10
46.57797654303545
 20
14.32605619544949
 30
0.0
 10
46.5832535013603
 20
14.33463027896818
 30
0.0
 10
46.58125070063574
 20
14.3281762967379
 30
0.0
  0
SPLINE
  5
29E
330
289
100
AcDbEntity
  8
0
  6
CONTINUOUS
 62
     7
100
AcDbSpline
210
0.0
220
0.0
230
1.0
 70
     8
 71
     3
 72
    30
 73
    26
 74
     0
 42
0.00000001
 43
0.00000001
 40
0.0
 40
0.0
 40
0.0
 40
0.0
 40
0.1249999999999991
 40
0.1249999999999991
 40
0.1874999999999994
 40
0.1874999999999994
 40
0.2499999999999997
 40
0.2499999999999997
 40
0.3750000000000007
 40
0.3750000000000007
 40
0.4375000000000012
 40
0.4375000000000012
 40
0.5000000000000017
 40
0.5000000000000017
 40
0.6250000000000027
 40
0.6250000000000027
 40
0.7500000000000036
 40
0.7500000000000036
 40
0.8750000000000046
 40
0.8750000000000046
 40
0.9375000000000047
 40
0.9375000000000047
 40
0.9687500000000023
 40
0.9687500000000023
 40
1.0
 40
1.0
 40
1.0
 40
1.0
 10
-144.483567524429
 20
-108.5693294512295
 30
0.0
 10
-144.483567524429
 20
-107.8942853768854
 30
0.0
 10
-144.5511045976516
 20
-107.2307720935505
 30
0.0
 10
-144.7493985847034
 20
-106.2520612620159
 30
0.0
 10
-144.8317853437421
 20
-105.9286053437187
 30
0.0
 10
-145.0298824041265
 20
-105.2873829275225
 30
0.0
 10
-145.1460028872031
 20
-104.9692031717457
 30
0.0
 10
-145.5368049355977
 20
-104.0444650266762
 30
0.0
 10
-145.8554600607006
 20
-103.460168379478
 30
0.0
 10
-146.4194913104362
 20
-102.6313894758232
 30
0.0
 10
-146.6230558302715
 20
-102.3618439695561
 30
0.0
 10
-147.0543723923327
 20
-101.8458703973146
 30
0.0
 10
-147.2811994984113
 20
-101.6002469273919
 30
0.0
 10
-147.9937980297624
 20
-100.8989286244426
 30
0.0
 10
-148.5117397202495
 20
-100.4788446241864
 30
0.0
 10
-149.6286711030209
 20
-99.72839260267263
 30
0.0
 10
-150.2191939567939
 20
-99.40561786508134
 30
0.0
 10
-151.4335060634033
 20
-98.83531224385744
 30
0.0
 10
-152.0583586097202
 20
-98.58429963535356
 30
0.0
 10
-152.998886156926
 20
-98.22001637322964
 30
0.0
 10
-153.3132503202754
 20
-98.10079604480148
 30
0.0
 10
-153.7850351032903
 20
-97.922581419533
 30
0.0
 10
-153.9423424294975
 20
-97.86329476315991
 30
0.0
 10
-154.2569263881395
 20
-97.74464156141663
 30
0.0
 10
-154.4156445397357
 20
-97.68472229355862
 30
0.0
 10
-154.5712169861939
 20
-97.62580863903861
 30
0.0
  0
SPLINE
  5
2A0
330
289
100
AcDbEntity
  8
0
  6
CONTINUOUS
 62
     7
100
AcDbSpline
210
0.0
220
0.0
230
1.0
 70
     8
 71
     3
 72
    32
 73
    28
 74
     0
 42
0.00000001
 43
0.00000001
 40
0.0
 40
0.0
 40
0.0
 40
0.0
 40
0.1250000000000019
 40
0.1250000000000019
 40
0.1875000000000023
 40
0.1875000000000023
 40
0.2500000000000026
 40
0.2500000000000026
 40
0.3750000000000021
 40
0.3750000000000021
 40
0.4375000000000018
 40
0.4375000000000018
 40
0.5000000000000016
 40
0.5000000000000016
 40
0.6250000000000008
 40
0.6250000000000008
 40
0.6875000000000004
 40
0.6875000000000004
 40
0.7500000000000001
 40
0.7500000000000001
 40
0.8749999999999999
 40
0.8749999999999999
 40
0.9374999999999999
 40
0.9374999999999999
 40
0.96875
 40
0.96875
 40
1.0
 40
1.0
 40
1.0
 40
1.0
 10
56.2325073704994
 20
1.741783762214497
 30
0.0
 10
55.55892206272814
 20
1.741783762214497
 30
0.0
 10
54.89681692586007
 20
1.809057136923919
 30
0.0
 10
53.92015203392501
 20
2.006614472187383
 30
0.0
 10
53.59736691496618
 20
2.088698106118767
 30
0.0
 10
52.95746429630704
 20
2.286077412138765
 30
0.0
 10
52.63990047312209
 20
2.401793138903353
 30
0.0
 10
51.7169164161951
 20
2.791280234514866
 30
0.0
 10
51.13370278081356
 20
3.108897358130705
 30
0.0
 10
50.30648845211842
 20
3.671255344888616
 30
0.0
 10
50.03746633294872
 20
3.874230752362581
 30
0.0
 10
49.52241944722538
 20
4.304503832328485
 30
0.0
 10
49.27728984579158
 20
4.530804538077533
 30
0.0
 10
48.57763469248438
 20
5.241894932498346
 30
0.0
 10
48.15882679441651
 20
5.758858488342844
 30
0.0
 10
47.59932544096099
 20
6.59619708945542
 30
0.0
 10
47.42535026256736
 20
6.884279518699597
 30
0.0
 10
47.10309990272041
 20
7.470915456299493
 30
0.0
 10
46.9542928580655
 20
7.770369539587707
 30
0.0
 10
46.53656152765838
 20
8.683023231739355
 30
0.0
 10
46.29548879889914
 20
9.310410468972192
 30
0.0
 10
45.94492991335267
 20
10.25393828780698
 30
0.0
 10
45.83005944050096
 20
10.56918633877787
 30
0.0
 10
45.65767387294435
 20
11.04202865590548
 30
0.0
 10
45.60021860974503
 20
11.19964496641374
 30
0.0
 10
45.48497802592363
 20
11.5147558304846
 30
0.0
 10
45.42664406158813
 20
11.67370271522631
 30
0.0
 10
45.36917321461698
 20
11.82943322397946
 30
0.0
  0
LINE
  5
2B9
330
289
100
AcDbEntity
  8
0
  6
CONTINUOUS
 62
     7
100
AcDbLine
 10
54.1448102704
 20
1.9652429424
 30
0.0
 11
53.5840162222
 21
2.1063849732
 31
0.0
  0
LINE
  5
2BA
330
289
100
AcDbEntity
  8
0
  6
CONTINUOUS
 62
     7
100
AcDbLine
 10
0.0
 20
-124.0
 30
0.0
 11
0.0
 21
0.0
 31
0.0
  0
LINE
  5
2BB
330
289
100
AcDbEntity
  8
0
  6
CONTINUOUS
 62
     7
100
AcDbLine
 10
192.0
 20
-124.0
 30
0.0
 11
-144.4835675244
 21
-124.0
 31
0.0
  0
LINE
  5
2BC
330
289
100
AcDbEntity
  8
0
  6
CONTINUOUS
 62
     7
100
AcDbLine
 10
0.0
 20
0.0
 30
0.0
 11
190.0
 21
0.0
 31
0.0
  0
LINE
  5
2BD
330
289
100
AcDbEntity
  8
0
  6
CONTINUOUS
 62
     7
100
AcDbLine
 10
190.0
 20
0.0
 30
0.0
 11
190.0
 21
-124.0
 31
0.0
  0
LINE
  5
2BE
330
289
100
AcDbEntity
  8
0
  6
CONTINUOUS
 62
     7
100
AcDbLine
 10
191.0000380769
 20
1.7417837622
 30
0.0
 11
56.2325073705
 21
1.7417837622
 31
0.0
  0
LINE
  5
2BF
330
289
100
AcDbEntity
  8
0
  6
CONTINUOUS
 62
     7
100
AcDbLine
 10
192.0
 20
-124.0
 30
0.0
 11
192.0
 21
0.7418218392
 31
0.0
  0
LINE
  5
2C0
330
289
100
AcDbEntity
  8
0
  6
CONTINUOUS
 62
     7
100
AcDbLine
 10
-144.4835675244
 20
-108.5693294512
 30
0.0
 11
-144.4835675244
 21
-124.0
 31
0.0
  0
LINE
  5
2C1
330
289
100
AcDbEntity
  8
0
  6
CONTINUOUS
 62
     7
100
AcDbLine
 10
-41.3453872697
 20
-97.8264228349
 30
0.0
 11
-46.7932138462
 21
-85.3922317195
 31
0.0
  0
LINE
  5
2C2
330
289
100
AcDbEntity
  8
0
  6
CONTINUOUS
 62
     7
100
AcDbLine
 10
-40.393071889
 20
-115.9483137418
 30
0.0
 11
-40.393071889
 21
-102.3730449378
 31
0.0
  0
LINE
  5
2C3
330
289
100
AcDbEntity
  8
0
  6
CONTINUOUS
 62
     7
100
AcDbLine
 10
0.0
 20
-115.9483137418
 30
0.0
 11
-40.393071889
 21
-115.9483137418
 31
0.0
  0
LINE
  5
2C4
330
289
100
AcDbEntity
  8
0
  6
CONTINUOUS
 62
     7
100
AcDbLine
 10
-40.393071889
 20
-113.9489990919
 30
0.0
 11
0.0
 21
-113.9489990919
 31
0.0
  0
LINE
  5
2C5
330
289
100
AcDbEntity
  8
0
  6
CONTINUOUS
 62
     7
100
AcDbLine
 10
0.0
 20
-112.3696181876
 30
0.0
 11
-40.393071889
 21
-112.3696181876
 31
0.0
  0
LINE
  5
2C6
330
289
100
AcDbEntity
  8
0
  6
CONTINUOUS
 62
     7
100
AcDbLine
 10
-40.393071889
 20
-102.3730449378
 30
0.0
 11
0.0
 21
-102.3730449378
 31
0.0
  0
ARC
  5
2C7
330
289
100
AcDbEntity
  8
0
  6
CONTINUOUS
 62
     7
100
AcDbCircle
 10
-108.7417837622
 20
56.0
 30
0.0
 40
160.8160002160958
100
AcDbArc
 50
344.9817116094
 51
254.4691878015
  0
ARC
  5
2C8
330
289
100
AcDbEntity
  8
0
  6
CONTINUOUS
 62
     7
100
AcDbCircle
 10
-108.7417837622
 20
56.0
 30
0.0
 40
160.3160192545641
100
AcDbArc
 50
344.0068843682
 51
253.3891803024
  0
ARC
  5
2C9
330
289
100
AcDbEntity
  8
0
  6
CONTINUOUS
 62
     7
100
AcDbCircle
 10
56.2403814182
 20
11.7379461535
 30
0.0
 40
10.00040491246664
100
AcDbArc
 50
164.9885229594
 51
222.5379977767
  0
ARC
  5
2CA
330
289
100
AcDbEntity
  8
0
  6
CONTINUOUS
 62
     7
100
AcDbCircle
 10
191.0000511148
 20
0.741834877
 30
0.0
 40
0.9999488852722772
100
AcDbArc
 50
359.9992529465
 51
90.0007470535
  0
ARC
  5
2CB
330
289
100
AcDbEntity
  8
0
  6
CONTINUOUS
 62
     7
100
AcDbCircle
 10
-40.393071889
 20
-100.0
 30
0.0
 40
15.94831374184341
100
AcDbArc
 50
113.659801051
 51
270.0
  0
ARC
  5
2CC
330
289
100
AcDbEntity
  8
0
  6
CONTINUOUS
 62
     7
100
AcDbCircle
 10
-40.393071889
 20
-100.0
 30
0.0
 40
13.94899909189228
100
AcDbArc
 50
113.659801051
 51
270.0
  0
ARC
  5
2CD
330
289
100
AcDbEntity
  8
0
  6
CONTINUOUS
 62
     7
100
AcDbCircle
 10
-40.393071889
 20
-100.0
 30
0.0
 40
12.36961818755732
100
AcDbArc
 50
113.659801051
 51
270.0
  0
ARC
  5
2CE
330
289
100
AcDbEntity
  8
0
  6
CONTINUOUS
 62
     7
100
AcDbCircle
 10
-40.393071889
 20
-100.0
 30
0.0
 40
2.373044937801737
100
AcDbArc
 50
113.6598010511
 51
270.0
  0
ARC
  5
2CF
330
289
100
AcDbEntity
  8
0
  6
CONTINUOUS
 62
     7
100
AcDbCircle
 10
-108.7417837622
 20
56.0
 30
0.0
 40
154.3677055127227
100
AcDbArc
 50
293.6598010511
 51
314.7843188222
  0
ARC
  5
2D0
330
289
100
AcDbEntity
  8
0
  6
CONTINUOUS
 62
     7
100
AcDbCircle
 10
-108.7417837622
 20
56.0
 30
0.0
 40
156.3670201626772
100
AcDbArc
 50
293.6598010511
 51
314.0617306551
  0
ARC
  5
2D1
330
289
100
AcDbEntity
  8
0
  6
CONTINUOUS
 62
     7
100
AcDbCircle
 10
-108.7417837622
 20
56.0
 30
0.0
 40
157.9464010670103
100
AcDbArc
 50
293.6598010511
 51
313.5098305631
  0
ARC
  5
2D2
330
289
100
AcDbEntity
  8
0
  6
CONTINUOUS
 62
     7
100
AcDbCircle
 10
-108.7417837622
 20
56.0
 30
0.0
 40
167.9429743167732
100
AcDbArc
 50
293.6598010511
 51
310.3532459354
  0
VIEWPORT
  5
4A9
330
289
100
AcDbEntity
  8
0
100
AcDbViewport
 10
0.0
 20
0.0
 30
0.0
 40
205.6
 41
156.0
 68
     1
 69
     1
1001
ACAD
1000
MVIEW
1002
{
1070
    16
1010
0.0
1020
0.0
1030
0.0
1010
0.0
1020
0.0
1030
1.0
1040
0.0
1040
357.2134125294
1040
-38.7789015083
1040
-46.4080096273
1040
50.0
1040
0.0
1040
0.0
1070
     0
1070
   100
1070
     0
1070
     3
1070
     0
1070
     0
1070
     0
1070
     0
1040
0.0
1040
0.0
1040
0.0
1040
10.0
1040
10.0
1040
10.0
1040
10.0
1070
     0
1002
{
1002
}
1002
}
  0
ENDBLK
  5
28C
330
289
100
AcDbEntity
  8
0
100
AcDbBlockEnd
  0
BLOCK
  5
2D5
330
2D3
100
AcDbEntity
  8
0
100
AcDbBlockBegin
  2
*PAPER_SPACE5
 70
     0
 10
0.0
 20
0.0
 30
0.0
  3
*PAPER_SPACE5
  1

  0
SPLINE
  5
2D9
330
2D3
100
AcDbEntity
  8
0
  6
CONTINUOUS
 62
     7
100
AcDbSpline
210
0.0
220
0.0
230
1.0
 70
     8
 71
     3
 72
    54
 73
    50
 74
     0
 42
0.00000001
 43
0.00000001
 40
0.0
 40
0.0
 40
0.0
 40
0.0
 40
0.0207926451329888
 40
0.0421306536732553
 40
0.0634839512085109
 40
0.0848508485374898
 40
0.1062293002020636
 40
0.1276171482863309
 40
0.1490123039141935
 40
0.1704128651796696
 40
0.1918171804367096
 40
0.2132238701712211
 40
0.2346318208550035
 40
0.256040088489051
 40
0.2774479105626462
 40
0.2988548608332851
 40
0.3202606497802776
 40
0.3416650969950714
 40
0.363068107659648
 40
0.3844696530659452
 40
0.405869754840721
 40
0.4272684724035498
 40
0.4486658931523102
 40
0.4700621248941935
 40
0.491457290091588
 40
0.5128515215532903
 40
0.5342449592620475
 40
0.5556377480846556
 40
0.5770300361580788
 40
0.5984219737841188
 40
0.6198137126960135
 40
0.6412054055838847
 40
0.662597187259325
 40
0.6839891788868153
 40
0.7053815344858712
 40
0.7267744080484475
 40
0.7481679531045669
 40
0.7695623220567851
 40
0.7909576651679742
 40
0.8123541290696912
 40
0.8337518546284135
 40
0.8551509739687383
 40
0.8765516064057086
 40
0.8979538529831763
 40
0.9193577892524358
 40
0.9407634558603618
 40
0.9621708464565264
 40
0.9835798923898637
 40
1.0
 40
1.0
 40
1.0
 40
1.0
 10
37.43599743956288
 20
450.2524140071155
 30
0.0
 10
36.77867424394508
 20
451.5396224659457
 30
0.0
 10
35.44678714017134
 20
454.1478011482347
 30
0.0
 10
33.06191668280533
 20
458.0038963958776
 30
0.0
 10
30.38403549998527
 20
461.8308731480773
 30
0.0
 10
27.40884024408495
 20
465.5837033243319
 30
0.0
 10
24.15012820091554
 20
469.2561453533157
 30
0.0
 10
20.61232248756127
 20
472.8403867702554
 30
0.0
 10
16.80312998361476
 20
476.3292955190689
 30
0.0
 10
12.73010171531461
 20
479.715849285697
 30
0.0
 10
8.401511142863235
 20
482.9933106354034
 30
0.0
 10
3.826078354080622
 20
486.1551939842163
 30
0.0
 10
-0.9869863106221344
 20
489.1952795822768
 30
0.0
 10
-6.028020220440578
 20
492.107613983468
 30
0.0
 10
-11.28693659945074
 20
494.8865224902818
 30
0.0
 10
-16.75325303622888
 20
497.5266145734334
 30
0.0
 10
-22.41611467671479
 20
500.0227875599581
 30
0.0
 10
-28.26429992696203
 20
502.3702242680903
 30
0.0
 10
-34.28623968792455
 20
504.564398907479
 30
0.0
 10
-40.47003731012931
 20
506.6010834054408
 30
0.0
 10
-46.80348936711841
 20
508.476353965287
 30
0.0
 10
-53.27410731607186
 20
510.1865976636133
 30
0.0
 10
-59.86914004204391
 20
511.7285189158442
 30
0.0
 10
-66.57559724750334
 20
513.0991456642047
 30
0.0
 10
-73.38027362387975
 20
514.295835168059
 30
0.0
 10
-80.26977372816417
 20
515.3162793000408
 30
0.0
 10
-87.230537480333
 20
516.158509271706
 30
0.0
 10
-94.24886619442854
 20
516.8208997294529
 30
0.0
 10
-101.3109490556784
 20
517.3021721752947
 30
0.0
 10
-108.4028899570091
 20
517.6013976782714
 30
0.0
 10
-115.5107346095615
 20
517.7179988512862
 30
0.0
 10
-122.6204957920792
 20
517.651751094572
 30
0.0
 10
-129.7181792231436
 20
517.4027834002529
 30
0.0
 10
-136.789814725926
 20
516.9715783289228
 30
0.0
 10
-143.8214857767864
 20
516.3589706560476
 30
0.0
 10
-150.7993582908644
 20
515.5661449808936
 30
0.0
 10
-157.7097040460082
 20
514.5946332102866
 30
0.0
 10
-164.5389274849539
 20
513.4463112015504
 30
0.0
 10
-171.2735918785244
 20
512.1233945178888
 30
0.0
 10
-177.9004459879166
 20
510.6284340324743
 30
0.0
 10
-184.4064465543944
 20
508.9643087623098
 30
0.0
 10
-190.7787936205752
 20
507.1342258843414
 30
0.0
 10
-197.0049147728845
 20
505.1416910270739
 30
0.0
 10
-203.072636397371
 20
502.9905869094168
 30
0.0
 10
-208.9696528333918
 20
500.6848453992491
 30
0.0
 10
-214.6856116143983
 20
498.2296354966911
 30
0.0
 10
-220.2044293075417
 20
495.626892201196
 30
0.0
 10
-225.1190307784288
 20
493.1044718322069
 30
0.0
 10
-228.1181851621913
 20
491.4075597543305
 30
0.0
 10
-229.4199969424681
 20
490.6709987606609
 30
0.0
  0
SPLINE
  5
2DA
330
2D3
100
AcDbEntity
  8
0
  6
CONTINUOUS
 62
     7
100
AcDbSpline
210
0.0
220
0.0
230
1.0
 70
     8
 71
     3
 72
    20
 73
    16
 74
     0
 42
0.00000001
 43
0.00000001
 40
0.0
 40
0.0
 40
0.0
 40
0.0
 40
0.0450579385957863
 40
0.1306449884513264
 40
0.2162410369924946
 40
0.3018368596248612
 40
0.3874286227669833
 40
0.473011763645499
 40
0.5585806095899197
 40
0.6441283447564924
 40
0.7296470903839226
 40
0.8151281541670118
 40
0.9005625042728579
 40
0.985941506368954
 40
1.0
 40
1.0
 40
1.0
 40
1.0
 10
-229.4199969424681
 20
490.6709987606609
 30
0.0
 10
-230.2985737974361
 20
490.1565762321844
 30
0.0
 10
-232.8459975511194
 20
488.6650138707811
 30
0.0
 10
-236.8891525439418
 20
486.0979891117793
 30
0.0
 10
-241.4637631392451
 20
482.9345162298114
 30
0.0
 10
-245.788824318216
 20
479.653270103591
 30
0.0
 10
-249.8592542415878
 20
476.2629966264172
 30
0.0
 10
-253.6658354321694
 20
472.7697314341387
 30
0.0
 10
-257.2008951971184
 20
469.1804976339212
 30
0.0
 10
-260.4578188351153
 20
465.5025069118336
 30
0.0
 10
-263.4273378558294
 20
461.7427434859828
 30
0.0
 10
-266.1130293263161
 20
457.9104085834094
 30
0.0
 10
-268.4732745001048
 20
454.0075125028363
 30
0.0
 10
-270.0357339633068
 20
451.1610754940186
 30
0.0
 10
-270.7176198009536
 20
449.6036514862705
 30
0.0
 10
-270.8140249611556
 20
449.3834625592097
 30
0.0
  0
SPLINE
  5
2DB
330
2D3
100
AcDbEntity
  8
0
  6
CONTINUOUS
 62
     7
100
AcDbSpline
210
0.0
220
0.0
230
1.0
 70
     8
 71
     3
 72
    53
 73
    49
 74
     0
 42
0.00000001
 43
0.00000001
 40
0.0
 40
0.0
 40
0.0
 40
0.0
 40
0.0031019371458213
 40
0.0257203825085347
 40
0.0483359674114891
 40
0.0709499989980933
 40
0.0935634955436489
 40
0.1161770241909696
 40
0.1387911787223242
 40
0.1614063999118171
 40
0.1840229805177947
 40
0.2066410963362991
 40
0.2292608322217941
 40
0.2518822033488806
 40
0.274505172243968
 40
0.2971296622032525
 40
0.3197555677082301
 40
0.3423827623975123
 40
0.3650111050814001
 40
0.3876404442094508
 40
0.410270621129772
 40
0.43290147241604
 40
0.4555328314855071
 40
0.4781645296886756
 40
0.5007963970180275
 40
0.5234282618031404
 40
0.54605989620078
 40
0.5686911283916163
 40
0.5913217865853465
 40
0.6139516994776255
 40
0.6365806969851835
 40
0.6592086113752492
 40
0.6818352789411279
 40
0.704460542410539
 40
0.7270842543177485
 40
0.7497062816253858
 40
0.7723265119470105
 40
0.794944861795924
 40
0.8175612873646042
 40
0.8401757984144164
 40
0.8627884759096245
 40
0.8853994940351191
 40
0.9080091471474077
 40
0.9306178819518928
 40
0.9532262967660367
 40
0.9758349825517484
 40
0.9984449848982982
 40
1.0
 40
1.0
 40
1.0
 40
1.0
 10
11.70287607652366
 20
375.1886175340533
 30
0.0
 10
11.52928872319985
 20
375.0348001468969
 30
0.0
 10
10.08995165212244
 20
373.7593900247233
 30
0.0
 10
7.134149171281259
 20
371.4573418167265
 30
0.0
 10
2.828554894599184
 20
368.2979510497534
 30
0.0
 10
-1.746229515381136
 20
365.2626918462391
 30
0.0
 10
-6.548394033257472
 20
362.3457031097898
 30
0.0
 10
-11.5769886755686
 20
359.5562861007027
 30
0.0
 10
-16.81949597725194
 20
356.899372242473
 30
0.0
 10
-22.2659235945241
 20
354.3807258341182
 30
0.0
 10
-27.90504554631044
 20
352.0055370829066
 30
0.0
 10
-33.72543426490281
 20
349.7787832839637
 30
0.0
 10
-39.71521665581211
 20
347.7051146121182
 30
0.0
 10
-45.8621737195559
 20
345.7888690672532
 30
0.0
 10
-52.15374882670501
 20
344.0340547001728
 30
0.0
 10
-58.57708098828169
 20
342.4443422889979
 30
0.0
 10
-65.11903181605871
 20
341.0230567144218
 30
0.0
 10
-71.76621448066439
 20
339.7731700301524
 30
0.0
 10
-78.50502238869338
 20
338.6972953029793
 30
0.0
 10
-85.32165815294115
 20
337.7976813750931
 30
0.0
 10
-92.20216267278404
 20
337.0762084353202
 30
0.0
 10
-99.13244434676284
 20
336.5343843757148
 30
0.0
 10
-106.0983083835029
 20
336.1733419003158
 30
0.0
 10
-113.0854861899634
 20
335.9938363663424
 30
0.0
 10
-120.0796647308206
 20
335.9962443424222
 30
0.0
 10
-127.0665102721596
 20
336.1805627114131
 30
0.0
 10
-134.0317037091975
 20
336.5464081088364
 30
0.0
 10
-140.9609702387243
 20
337.0930175997055
 30
0.0
 10
-147.840114395343
 20
337.819250870255
 30
0.0
 10
-154.6550435112442
 20
338.7235921253322
 30
0.0
 10
-161.3917968458885
 20
339.804152831349
 30
0.0
 10
-168.0365745703736
 20
341.0586751584731
 30
0.0
 10
-174.5757665865177
 20
342.4845361319043
 30
0.0
 10
-180.9959811497902
 20
344.0787525149189
 30
0.0
 10
-187.2840733321616
 20
345.8379864350957
 30
0.0
 10
-193.4271731276401
 20
347.7585518578599
 30
0.0
 10
-199.4127138871101
 20
349.8364217339346
 30
0.0
 10
-205.2284584732006
 20
352.067236773292
 30
0.0
 10
-210.8625328077645
 20
354.4463127123267
 30
0.0
 10
-216.3034306042827
 20
356.9686583315011
 30
0.0
 10
-221.5401241835492
 20
359.6289592205018
 30
0.0
 10
-226.561777596404
 20
362.42169615122
 30
0.0
 10
-231.3589413001026
 20
365.3407690511044
 30
0.0
 10
-235.919211922708
 20
368.3809734375954
 30
0.0
 10
-240.24352082968
 20
371.5325582306277
 30
0.0
 10
-244.285415265749
 20
374.8015970779723
 30
0.0
 10
-246.9694683655626
 20
377.0995485992719
 30
0.0
 10
-248.2259636081157
 20
378.3309900551809
 30
0.0
 10
-248.3068188808905
 20
378.4102331206949
 30
0.0
  0
SPLINE
  5
2DD
330
2D3
100
AcDbEntity
  8
0
  6
CONTINUOUS
 62
     7
100
AcDbSpline
210
0.0
220
0.0
230
1.0
 70
     8
 71
     3
 72
    10
 73
     6
 74
     0
 42
0.00000001
 43
0.00000001
 40
0.0
 40
0.0
 40
0.0
 40
0.0
 40
0.0169446959079693
 40
0.5864651782968098
 40
1.0
 40
1.0
 40
1.0
 40
1.0
 10
23.64778497573872
 20
302.7754268675367
 30
0.0
 10
23.65785638400543
 20
302.7846307542716
 30
0.0
 10
24.00643332376952
 20
303.1031823000965
 30
0.0
 10
24.74614645225694
 20
303.4896272849786
 30
0.0
 10
25.48376197264276
 20
303.7038614463972
 30
0.0
 10
25.79404940147668
 20
303.793981794028
 30
0.0
  0
SPLINE
  5
2DF
330
2D3
100
AcDbEntity
  8
0
  6
CONTINUOUS
 62
     7
100
AcDbSpline
210
0.0
220
0.0
230
1.0
 70
     8
 71
     3
 72
    19
 73
    15
 74
     0
 42
0.00000001
 43
0.00000001
 40
0.0
 40
0.0
 40
0.0
 40
0.0
 40
0.0502431295313803
 40
0.1435937390895824
 40
0.2357747588174158
 40
0.3261833365356416
 40
0.4149405525012715
 40
0.5024793937835904
 40
0.5892436118807319
 40
0.675579260512014
 40
0.7617243183040874
 40
0.8478251708533784
 40
0.9339497139275872
 40
1.0
 40
1.0
 40
1.0
 40
1.0
 10
-71.31008924992172
 20
357.0078577210583
 30
0.0
 10
-71.31780034197544
 20
356.6437392133703
 30
0.0
 10
-71.33983847038795
 20
355.6030966722251
 30
0.0
 10
-71.7201649062553
 20
353.8915503365309
 30
0.0
 10
-72.42616159777499
 20
351.8854800501301
 30
0.0
 10
-73.45049890288762
 20
349.9180825805772
 30
0.0
 10
-74.76154084407138
 20
348.0043171202223
 30
0.0
 10
-76.35342193232268
 20
346.1542630295531
 30
0.0
 10
-78.21540283573297
 20
344.3769489314564
 30
0.0
 10
-80.33876841911616
 20
342.6829743163793
 30
0.0
 10
-82.71007102362692
 20
341.0822524836375
 30
0.0
 10
-85.32292373293723
 20
339.5926442957373
 30
0.0
 10
-87.91380826537079
 20
338.3133216678293
 30
0.0
 10
-89.71442874994851
 20
337.5968874649892
 30
0.0
 10
-90.49597388971412
 20
337.2859248418338
 30
0.0
  0
SPLINE
  5
2E0
330
2D3
100
AcDbEntity
  8
0
  6
CONTINUOUS
 62
     7
100
AcDbSpline
210
0.0
220
0.0
230
1.0
 70
     8
 71
     3
 72
    20
 73
    16
 74
     0
 42
0.00000001
 43
0.00000001
 40
0.0
 40
0.0
 40
0.0
 40
0.0
 40
0.048043095493933
 40
0.1321969449567832
 40
0.2162117282659581
 40
0.3001085742758235
 40
0.3839382260281883
 40
0.4677697877000979
 40
0.5517305800155704
 40
0.6360377134275235
 40
0.7210059808540443
 40
0.80704384470774
 40
0.8945859979944318
 40
0.983896448926565
 40
0.9999999999999999
 40
0.9999999999999999
 40
0.9999999999999999
 40
0.9999999999999999
 10
-142.4551406883047
 20
337.2815752889347
 30
0.0
 10
-143.0428749967355
 20
337.5083620061387
 30
0.0
 10
-144.6601038455854
 20
338.1323957171836
 30
0.0
 10
-147.0955168983236
 20
339.3033021463788
 30
0.0
 10
-149.7522972363793
 20
340.7656495577547
 30
0.0
 10
-152.1646413127874
 20
342.3402743050571
 30
0.0
 10
-154.3281657005573
 20
344.0046293418835
 30
0.0
 10
-156.2277837466178
 20
345.7459721656275
 30
0.0
 10
-157.8550623748882
 20
347.5490328558935
 30
0.0
 10
-159.2047771667173
 20
349.400819981303
 30
0.0
 10
-160.2717324393936
 20
351.291145158047
 30
0.0
 10
-161.0630709759957
 20
353.2141198315791
 30
0.0
 10
-161.5413989652361
 20
355.168403882154
 30
0.0
 10
-161.7494591766609
 20
356.5996717402223
 30
0.0
 10
-161.7027143371157
 20
357.3816154365431
 30
0.0
 10
-161.6955733701027
 20
357.5010689247958
 30
0.0
  0
LWPOLYLINE
  5
300
330
2D3
100
AcDbEntity
  8
0
  6
CONTINUOUS
 62
     7
100
AcDbPolyline
 90
        3
 70
   128
 43
0.0
 10
22.8063676251
 20
302.1646011488
 10
22.7621279063
 20
318.6513639844
 10
22.6134506574
 20
373.459449535
  0
LWPOLYLINE
  5
301
330
2D3
100
AcDbEntity
  8
0
  6
CONTINUOUS
 62
     7
100
AcDbPolyline
 90
       57
 70
   128
 43
0.0
 10
-277.30297176
 20
349.1302749632
 10
-277.2266641106
 20
345.6411167126
 10
-276.8113797993
 20
341.281565197
 10
-276.0414918405
 20
336.9381067857
 10
-274.9187030959
 20
332.6203484727
 10
-273.4454969839
 20
328.3378404074
 10
-271.6251319866
 20
324.1000547719
 10
-269.461634443
 20
319.9163648298
 10
-266.9597896429
 20
315.796024194
 10
-264.1251312429
 20
311.7481463598
 10
-260.9639290271
 20
307.7816845468
 10
-257.4831750389
 20
303.9054118963
 10
-253.6905681162
 20
300.1279020664
 10
-249.5944968627
 20
296.4575102685
 10
-245.2040210938
 20
292.9023547874
 10
-240.5288517976
 20
289.4702990242
 10
-235.5793296564
 20
286.1689341047
 10
-230.3664021742
 20
283.0055620885
 10
-224.901599463
 20
279.9871798184
 10
-219.1970087403
 20
277.1204634443
 10
-213.2652475937
 20
274.411753657
 10
-207.1194360737
 20
271.8670416635
 10
-200.7731676736
 20
269.4919559353
 10
-194.2404792635
 20
267.2917497596
 10
-187.535820043
 20
265.2712896195
 10
-180.6740195818
 20
263.4350444303
 10
-173.6702550197
 20
261.7870756553
 10
-166.5400174966
 20
260.331028322
 10
-159.2990778896
 20
259.0701229603
 10
-151.9634519297
 20
258.0071484792
 10
-144.5493647784
 20
257.1444559981
 10
-137.0732151396
 20
256.4839536466
 10
-129.5515389894
 20
256.0271023438
 10
-122.0009730006
 20
255.7749125675
 10
-114.4382177452
 20
255.7279421186
 10
-106.8800007562
 20
255.8862948879
 10
-99.3430395285
 20
256.2496206259
 10
-91.8440045428
 20
256.8171157175
 10
-84.3994823937
 20
257.5875249599
 10
-77.0259391022
 20
258.5591443384
 10
-69.7396836964
 20
259.7298247956
 10
-62.5568321383
 20
261.0969769848
 10
-55.4932716782
 20
262.657576997
 10
-48.5646257146
 20
264.4081730494
 10
-41.786219238
 20
266.3448931204
 10
-35.1730449346
 20
268.4634535134
 10
-28.7397300252
 20
270.7591683319
 10
-22.500503912
 20
273.2269598438
 10
-16.4691667056
 20
275.8613697126
 10
-10.6590587016
 20
278.6565710701
 10
-5.0830308744
 20
281.6063814046
 10
0.2465835478
 20
284.7042762358
 10
5.3179963611
 20
287.9434035452
 10
10.1199904599
 20
291.3165989322
 10
14.6419446471
 20
294.8164014605
 10
18.8738571266
 20
298.43507016
 10
22.8063676251
 20
302.1646011488
  0
LWPOLYLINE
  5
302
330
2D3
100
AcDbEntity
  8
0
  6
CONTINUOUS
 62
     7
100
AcDbPolyline
 90
      134
 70
   128
 43
0.0
 10
-228.9200375762
 20
490.6214907102
 10
-234.1040421856
 20
487.4840013194
 10
-239.0256039496
 20
484.2086856639
 10
-243.6737409394
 20
480.8028522536
 10
-248.0380813438
 20
477.2741008347
 10
-252.1088866127
 20
473.6303054315
 10
-255.877073188
 20
469.8795967761
 10
-259.3342327718
 20
466.0303441663
 10
-262.4726510894
 20
462.0911367899
 10
-265.2853251022
 20
458.0707645586
 10
-267.7659786348
 20
453.9781984952
 10
-269.909076379
 20
449.8225707147
 10
-271.7098362459
 20
445.6131540476
 10
-273.164240036
 20
441.3593413486
 10
-274.2690424057
 20
437.0706245371
 10
-275.0217781091
 20
432.7565734173
 10
-275.4207674983
 20
428.4268143241
 10
-275.4651202721
 20
424.0910086431
 10
-275.154737462
 20
419.7588312522
 10
-274.4903116536
 20
415.4399489331
 10
-273.4733254405
 20
411.143998801
 10
-272.1060481166
 20
406.8805668006
 10
-270.3915306124
 20
402.6591663157
 10
-268.3335986868
 20
398.4892169414
 10
-265.9368443905
 20
394.3800234654
 10
-263.2066158197
 20
390.340755105
 10
-260.1490051819
 20
386.3804250475
 10
-256.7708352019
 20
382.5078703378
 10
-253.079643898
 20
378.7317321597
 10
-249.0836677613
 20
375.0604365539
 10
-244.791823377
 20
371.5021756167
 10
-240.2136875282
 20
368.0648892195
 10
-235.3594758262
 20
364.7562472922
 10
-230.2400199153
 20
361.5836327089
 10
-224.8667433035
 20
358.5541248132
 10
-219.251635872
 20
355.6744836217
 10
-213.4072271211
 20
352.9511347401
 10
-207.3465582121
 20
350.3901550246
 10
-201.0831528671
 20
347.9972590223
 10
-194.6309871926
 20
345.7777862199
 10
-188.0044584932
 20
343.736689129
 10
-181.2183531454
 20
341.8785222354
 10
-174.2878136039
 20
340.207431836
 10
-167.2283046124
 20
338.727146787
 10
-160.0555786959
 20
337.440970183
 10
-152.7856410106
 20
336.3517719871
 10
-145.4347136301
 20
335.4619826263
 10
-138.0191993479
 20
334.7735875685
 10
-130.5556450759
 20
334.2881228925
 10
-123.0607049221
 20
334.0066718595
 10
-115.5511030288
 20
333.9298624971
 10
-108.0435962541
 20
334.0578661968
 10
-100.5549367813
 20
334.3903973325
 10
-93.101834738
 20
334.926713897
 10
-85.700920909
 20
335.6656191585
 10
-78.3687096271
 20
336.6054643303
 10
-71.1215619227
 20
337.7441522504
 10
-63.9756490161
 20
339.0791420608
 10
-56.9469162333
 20
340.6074548772
 10
-50.0510474255
 20
342.3256804361
 10
-43.3034299724
 20
344.2299847044
 10
-36.7191204471
 20
346.3161184347
 10
-30.3128110187
 20
348.5794266469
 10
-24.0987966685
 20
351.0148590153
 10
-18.0909432924
 20
353.6169811381
 10
-12.3026567605
 20
356.3799866633
 10
-6.7468530034
 20
359.2977102451
 10
-1.4359291918
 20
362.3636413014
 10
3.6182639268
 20
365.5709385412
 10
8.4044484711
 20
368.91244523
 10
12.9119445918
 20
372.3807051601
 10
17.1306943027
 20
375.9679792871
 10
21.0512839234
 20
379.666263
 10
24.6649650855
 20
383.4673039815
 10
27.9636742533
 20
387.3626206231
 10
30.9400507168
 20
391.34352095
 10
33.5874530162
 20
395.401122017
 10
35.8999737618
 20
399.5263697296
 10
37.8724528156
 20
403.710059047
 10
39.5004888056
 20
407.9428545225
 10
40.7804489468
 20
412.2153111341
 10
41.7094771476
 20
416.5178953607
 10
42.2855003829
 20
420.8410064543
 10
42.5072333197
 20
425.1749978637
 10
42.374181185
 20
429.5101987594
 10
41.8866408701
 20
433.836935613
 10
41.0457002682
 20
438.1455537827
 10
39.8532358465
 20
442.4264390566
 10
38.3119084595
 20
446.6700391058
 10
36.4251574112
 20
450.8668847992
 10
34.197192781
 20
455.007611333
 10
31.6329860293
 20
459.0829791271
 10
28.7382589038
 20
463.0838944425
 10
25.5194706727
 20
467.0014296727
 10
21.9838037113
 20
470.8268432647
 10
18.1391474749
 20
474.5515992249
 10
13.9940808951
 20
478.1673861664
 10
9.5578532361
 20
481.6661358546
 10
4.8403634566
 20
485.0400412109
 10
-0.1478618791
 20
488.2815737331
 10
-5.3956920898
 20
491.3835002947
 10
-10.8914172142
 20
494.3388992846
 10
-16.6227741407
 20
497.1411760521
 10
-22.5769739708
 20
499.7840776218
 10
-28.7407305565
 20
502.2617066471
 10
-35.1002901468
 20
504.5685345686
 10
-41.6414620773
 20
506.6994139513
 10
-48.3496504358
 20
508.6495899701
 10
-55.2098866311
 20
510.4147110196
 10
-62.2068627935
 20
511.9908384247
 10
-69.3249659334
 20
513.3744552288
 10
-76.5483127793
 20
514.5624740418
 10
-83.86078522
 20
515.5522439292
 10
-91.2460662699
 20
516.3415563272
 10
-98.6876764793
 20
516.9286499714
 10
-106.1690107061
 20
517.3122148263
 10
-113.673375168
 20
517.4913950085
 10
-121.1840246938
 20
517.4657906972
 10
-128.6842000873
 20
517.2354590256
 10
-136.1571655247
 20
516.8009139536
 10
-143.5862458978
 20
516.1631251212
 10
-150.9548640235
 20
515.3235156848
 10
-158.2465776334
 20
514.2839591413
 10
-165.4451160633
 20
513.0467751477
 10
-172.534416559
 20
511.6147243454
 10
-179.4986601191
 20
509.9910021997
 10
-186.322306793
 20
508.1792318696
 10
-192.9901303569
 20
506.1834561231
 10
-199.487252289
 20
504.0081283164
 10
-205.7991749699
 20
501.6581024563
 10
-211.9118140318
 20
499.1386223695
 10
-217.811529787
 20
496.4553100012
 10
-223.4851576625
 20
493.6141528706
 10
-228.9200375762
 20
490.6214907102
  0
LWPOLYLINE
  5
303
330
2D3
100
AcDbEntity
  8
0
  6
CONTINUOUS
 62
     7
100
AcDbPolyline
 90
      133
 70
   128
 43
0.0
 10
-226.6039386924
 20
489.2844352846
 10
-231.7186476036
 20
486.1877760615
 10
-236.57232664
 20
482.9541311498
 10
-241.1539806575
 20
479.5908257952
 10
-245.4532307361
 20
476.1054789661
 10
-249.4603376916
 20
472.505986094
 10
-253.166224138
 20
468.8005011882
 10
-256.5624950505
 20
464.9974183636
 10
-259.6414567831
 20
461.1053528261
 10
-262.3961344972
 20
457.1331213559
 10
-264.8202879619
 20
453.089722335
 10
-266.9084256897
 20
448.9843153625
 10
-268.6558173771
 20
444.8262005058
 10
-270.05850462
 20
440.6247972323
 10
-271.1133098805
 20
436.3896230719
 10
-271.8178436856
 20
432.1302720561
 10
-272.1705100395
 20
427.856392985
 10
-272.1705100395
 20
423.5776675692
 10
-271.8178436856
 20
419.3037884981
 10
-271.1133098805
 20
415.0444374823
 10
-270.05850462
 20
410.8092633219
 10
-268.6558173771
 20
406.6078600484
 10
-266.9084256897
 20
402.4497451917
 10
-264.8202879619
 20
398.3443382192
 10
-262.3961344972
 20
394.3009391983
 10
-259.6414567831
 20
390.3287077281
 10
-256.5624950505
 20
386.4366421906
 10
-253.166224138
 20
382.633559366
 10
-249.4603376916
 20
378.9280744602
 10
-245.4532307361
 20
375.3285815881
 10
-241.1539806575
 20
371.843234759
 10
-236.57232664
 20
368.4799294044
 10
-231.7186476036
 20
365.2462844927
 10
-226.6039386924
 20
362.1496252696
 10
-221.2397863672
 20
359.1969666643
 10
-215.6383421583
 20
356.3949973982
 10
-209.8122951384
 20
353.7500648328
 10
-203.7748431779
 20
351.2681605913
 10
-197.5396630474
 20
348.9549069848
 10
-191.1208794351
 20
346.8155442769
 10
-184.5330329507
 20
344.8549188122
 10
-177.7910471851
 20
343.077472038
 10
-170.9101949047
 20
341.4872304429
 10
-163.9060634529
 20
340.0877964356
 10
-156.7945194403
 20
338.8823401842
 10
-149.5916728013
 20
337.8735924348
 10
-142.3138403003
 20
337.0638383256
 10
-134.9775085687
 20
336.45491221
 10
-127.5992967574
 20
336.0481935016
 10
-120.1959188894
 20
335.8446035491
 10
-112.7841459966
 20
335.8446035491
 10
-105.3807681286
 20
336.0481935016
 10
-98.0025563174
 20
336.45491221
 10
-90.6662245858
 20
337.0638383256
 10
-83.3883920848
 20
337.8735924348
 10
-76.1855454458
 20
338.8823401842
 10
-69.0740014332
 20
340.0877964356
 10
-62.0698699814
 20
341.4872304429
 10
-55.1890177009
 20
343.077472038
 10
-48.4470319354
 20
344.8549188122
 10
-41.8591854509
 20
346.8155442769
 10
-35.4404018387
 20
348.9549069848
 10
-29.2052217081
 20
351.2681605913
 10
-23.1677697476
 20
353.7500648328
 10
-17.3417227277
 20
356.3949973982
 10
-11.7402785188
 20
359.1969666643
 10
-6.3761261936
 20
362.1496252696
 10
-1.2614172825
 20
365.2462844927
 10
3.5922617539
 20
368.4799294044
 10
8.1739157714
 20
371.843234759
 10
12.47316585
 20
375.3285815881
 10
16.4802728056
 20
378.9280744602
 10
20.186159252
 20
382.633559366
 10
23.5824301645
 20
386.4366421906
 10
26.6613918971
 20
390.3287077281
 10
29.4160696112
 20
394.3009391983
 10
31.8402230758
 20
398.3443382192
 10
33.9283608036
 20
402.4497451917
 10
35.675752491
 20
406.6078600484
 10
37.0784397339
 20
410.8092633219
 10
38.1332449945
 20
415.0444374823
 10
38.8377787995
 20
419.3037884981
 10
39.1904451534
 20
423.5776675692
 10
39.1904451534
 20
427.856392985
 10
38.8377787995
 20
432.1302720561
 10
38.1332449945
 20
436.3896230719
 10
37.0784397339
 20
440.6247972323
 10
35.675752491
 20
444.8262005058
 10
33.9283608036
 20
448.9843153625
 10
31.8402230758
 20
453.089722335
 10
29.4160696112
 20
457.1331213559
 10
26.6613918971
 20
461.1053528261
 10
23.5824301645
 20
464.9974183636
 10
20.186159252
 20
468.8005011882
 10
16.4802728056
 20
472.505986094
 10
12.47316585
 20
476.1054789661
 10
8.1739157714
 20
479.5908257952
 10
3.5922617539
 20
482.9541311498
 10
-1.2614172825
 20
486.1877760615
 10
-6.3761261936
 20
489.2844352846
 10
-11.7402785188
 20
492.2370938899
 10
-17.3417227277
 20
495.0390631561
 10
-23.1677697476
 20
497.6839957214
 10
-29.2052217081
 20
500.1658999629
 10
-35.4404018387
 20
502.4791535694
 10
-41.8591854509
 20
504.6185162773
 10
-48.4470319354
 20
506.579141742
 10
-55.1890177009
 20
508.3565885162
 10
-62.0698699814
 20
509.9468301113
 10
-69.0740014332
 20
511.3462641186
 10
-76.1855454458
 20
512.55172037
 10
-83.3883920848
 20
513.5604681194
 10
-90.6662245858
 20
514.3702222286
 10
-98.0025563174
 20
514.9791483442
 10
-105.3807681286
 20
515.3858670526
 10
-112.7841459966
 20
515.5894570051
 10
-120.1959188894
 20
515.5894570051
 10
-127.5992967574
 20
515.3858670526
 10
-134.9775085687
 20
514.9791483442
 10
-142.3138403003
 20
514.3702222286
 10
-149.5916728013
 20
513.5604681194
 10
-156.7945194403
 20
512.55172037
 10
-163.9060634529
 20
511.3462641186
 10
-170.9101949047
 20
509.9468301113
 10
-177.7910471851
 20
508.3565885162
 10
-184.5330329507
 20
506.579141742
 10
-191.1208794351
 20
504.6185162773
 10
-197.5396630474
 20
502.4791535694
 10
-203.7748431779
 20
500.1658999629
 10
-209.8122951384
 20
497.6839957214
 10
-215.6383421583
 20
495.0390631561
 10
-221.2397863672
 20
492.2370938899
 10
-226.6039386924
 20
489.2844352846
  0
LWPOLYLINE
  5
304
330
2D3
100
AcDbEntity
  8
0
  6
CONTINUOUS
 62
     7
100
AcDbPolyline
 90
       15
 70
   128
 43
0.0
 10
-271.1676412709
 20
428.24715721
 10
-271.2170631864
 20
427.2722884544
 10
-271.2170631864
 20
423.0197675914
 10
-270.8665566963
 20
418.7720633921
 10
-270.166337726
 20
414.5387982728
 10
-269.1179924968
 20
410.3295619405
 10
-267.7238958476
 20
406.1538896693
 10
-265.987205856
 20
402.0212407001
 10
-263.9118566831
 20
397.9409768119
 10
-261.5025496625
 20
393.9223411147
 10
-258.7647426494
 20
389.974437111
 10
-255.7046376574
 20
386.106208073
 10
-252.3291668084
 20
382.3264167838
 10
-248.6459766295
 20
378.6436256863
 10
-248.1902518036
 20
378.2147306579
  0
LWPOLYLINE
  5
305
330
2D3
100
AcDbEntity
  8
0
  6
CONTINUOUS
 62
     7
100
AcDbPolyline
 90
       15
 70
   128
 43
0.0
 10
11.4329453271
 20
374.8532616324
 10
11.6833458452
 20
375.0661774868
 10
15.6659117435
 20
378.6436256863
 10
19.3491019223
 20
382.3264167838
 10
22.7245727713
 20
386.106208073
 10
25.7846777634
 20
389.974437111
 10
28.5224847765
 20
393.9223411147
 10
30.9317917971
 20
397.9409768119
 10
33.0071409699
 20
402.0212407001
 10
34.7438309616
 20
406.1538896694
 10
36.1379276107
 20
410.3295619405
 10
37.18627284
 20
414.5387982728
 10
37.8864918103
 20
418.7720633921
 10
38.2369983004
 20
423.0197675914
 10
38.2378563954
 20
427.2513756637
  0
SPLINE
  5
309
330
2D3
100
AcDbEntity
  8
0
  6
CONTINUOUS
 62
     7
100
AcDbSpline
210
0.0
220
0.0
230
1.0
 70
     8
 71
     3
 72
    20
 73
    16
 74
     0
 42
0.00000001
 43
0.00000001
 40
0.0
 40
0.0
 40
0.0
 40
0.0
 40
0.2500000000000008
 40
0.2500000000000008
 40
0.3750000000000007
 40
0.3750000000000007
 40
0.5000000000000006
 40
0.5000000000000006
 40
0.6250000000000004
 40
0.6250000000000004
 40
0.7500000000000002
 40
0.7500000000000002
 40
0.8750000000000001
 40
0.8750000000000001
 40
1.0
 40
1.0
 40
1.0
 40
1.0
 10
27.82364259213425
 20
374.9831260287066
 30
0.0
 10
28.79531026316563
 20
375.1705547850435
 30
0.0
 10
29.78879522657417
 20
375.2767334799687
 30
0.0
 10
31.31092726436077
 20
375.3171852151241
 30
0.0
 10
31.82586042713485
 20
375.3101646271956
 30
0.0
 10
32.83557126329424
 20
375.2558023749256
 30
0.0
 10
33.33403043769008
 20
375.2087338046861
 30
0.0
 10
34.31827083662246
 20
375.0751779003754
 30
0.0
 10
34.80634395465668
 20
374.9881698793976
 30
0.0
 10
35.75897187911341
 20
374.7751263737145
 30
0.0
 10
36.21746104500177
 20
374.6506713749992
 30
0.0
 10
37.09999091508963
 20
374.3671033247271
 30
0.0
 10
37.52402977800683
 20
374.2079884206851
 30
0.0
 10
38.33684664883501
 20
373.8542832236833
 30
0.0
 10
38.72514305226528
 20
373.6595692795279
 30
0.0
 10
39.08734919257525
 20
373.4504721254849
 30
0.0
  0
SPLINE
  5
310
330
2D3
100
AcDbEntity
  8
0
  6
CONTINUOUS
 62
     7
100
AcDbSpline
210
0.0
220
0.0
230
1.0
 70
     8
 71
     3
 72
     8
 73
     4
 74
     0
 42
0.00000001
 43
0.00000001
 40
0.0
 40
0.0
 40
0.0
 40
0.0
 40
1.0
 40
1.0
 40
1.0
 40
1.0
 10
38.53868593549649
 20
303.3617534990916
 30
0.0
 10
38.53900106815294
 20
303.2230495453011
 30
0.0
 10
38.53635932454676
 20
303.0860990480246
 30
0.0
 10
38.53076017518008
 20
302.9509023212593
 30
0.0
  0
SPLINE
  5
319
330
2D3
100
AcDbEntity
  8
0
  6
CONTINUOUS
 62
     7
100
AcDbSpline
210
0.0
220
0.0
230
1.0
 70
     8
 71
     3
 72
    14
 73
    10
 74
     0
 42
0.00000001
 43
0.00000001
 40
0.0
 40
0.0
 40
0.0
 40
0.0
 40
0.2753152534547192
 40
0.4869876461600471
 40
0.6973627605579665
 40
0.8111006302709685
 40
0.8893283448540542
 40
0.945345296130005
 40
1.0
 40
1.0
 40
1.0
 40
1.0
 10
22.95874502490076
 20
302.1852948806106
 30
0.0
 10
22.94112156244944
 20
302.1673188311488
 30
0.0
 10
22.90994854029151
 20
302.1355221402468
 30
0.0
 10
22.86718076865558
 20
302.1031201638874
 30
0.0
 10
22.83613089217472
 20
302.0894756414922
 30
0.0
 10
22.81615068693087
 20
302.0955263167139
 30
0.0
 10
22.80721647556129
 20
302.1118075627822
 30
0.0
 10
22.8039905641019
 20
302.1349129934859
 30
0.0
 10
22.80558180023529
 20
302.1547866379861
 30
0.0
 10
22.80636762511105
 20
302.1646011487888
 30
0.0
  0
LWPOLYLINE
  5
31A
330
2D3
100
AcDbEntity
  8
0
  6
CONTINUOUS
 62
     7
100
AcDbPolyline
 90
       32
 70
   128
 43
0.0
 10
-213.0550025603
 20
274.2698927413
 10
-210.6863587189
 20
273.257666605
 10
-204.4854065432
 20
270.7847052149
 10
-198.0899753845
 20
268.4827196132
 10
-191.5141998148
 20
266.3567974292
 10
-184.772612986
 20
264.4116371732
 10
-177.8801145104
 20
262.6515378529
 10
-170.8519375307
 20
261.0803894719
 10
-163.7036150533
 20
259.7016644325
 10
-156.4509456188
 20
258.5184098614
 10
-149.1099583853
 20
257.5332408749
 10
-141.6968777028
 20
256.7483347996
 10
-134.2280872551
 20
256.16542636
 10
-126.7200938505
 20
255.7858038446
 10
-119.1894909398
 20
255.6103062591
 10
-111.6529219435
 20
255.6393214714
 10
-104.1270434674
 20
255.8727853549
 10
-96.6284884904
 20
256.31018193
 10
-89.1738296035
 20
256.9505445044
 10
-81.7795423828
 20
257.7924578099
 10
-74.4619689765
 20
258.8340611301
 10
-67.2372819875
 20
260.0730524125
 10
-60.12144873
 20
261.5066933568
 10
-53.1301959399
 20
263.1318154666
 10
-46.2789750172
 20
264.944827052
 10
-39.582927877
 20
266.9417211677
 10
-33.0568534841
 20
269.1180844687
 10
-26.7151751456
 20
271.4691069645
 10
-20.5719086341
 20
273.9895926494
 10
-14.6406312114
 20
276.6739709863
 10
-8.9344516211
 20
279.5163092183
 10
-6.4359074939
 20
280.8493657081
  0
LWPOLYLINE
  5
31B
330
2D3
100
AcDbEntity
  8
0
  6
CONTINUOUS
 62
     7
100
AcDbPolyline
 90
       10
 70
   128
 43
0.0
 10
38.5386859355
 20
303.3617534991
 10
36.9624598824
 20
304.0855143355
 10
35.1591506225
 20
304.6136092643
 10
33.2032864741
 20
304.9242128405
 10
31.1757006416
 20
305.0044882409
 10
29.1601904891
 20
304.8511177923
 10
27.240054309
 20
304.4704400868
 10
25.4946487174
 20
303.878188016
 10
23.9961089528
 20
303.0988385523
 10
22.8063676251
 20
302.1646011488
  0
SPLINE
  5
31C
330
2D3
100
AcDbEntity
  8
0
  6
CONTINUOUS
 62
     7
100
AcDbSpline
210
0.0
220
0.0
230
1.0
 70
     8
 71
     3
 72
    20
 73
    16
 74
     0
 42
0.00000001
 43
0.00000001
 40
0.0
 40
0.0
 40
0.0
 40
0.0
 40
0.1250000000000003
 40
0.1250000000000003
 40
0.2500000000000006
 40
0.2500000000000006
 40
0.5000000000000004
 40
0.5000000000000004
 40
0.7500000000000003
 40
0.7500000000000003
 40
0.8750000000000003
 40
0.8750000000000003
 40
0.9375000000000002
 40
0.9375000000000002
 40
1.0
 40
1.0
 40
1.0
 40
1.0
 10
28.1405256767968
 20
373.6306502966563
 30
0.0
 10
27.82177406660591
 20
373.5690902459711
 30
0.0
 10
27.51460314077982
 20
373.5265973613162
 30
0.0
 10
26.91934159847777
 20
373.4638955427514
 30
0.0
 10
26.63057879716002
 20
373.4438780660147
 30
0.0
 10
25.79463365189095
 20
373.4051260765312
 30
0.0
 10
25.29541209070395
 20
373.4071607681706
 30
0.0
 10
24.38013318421424
 20
373.4236764578145
 30
0.0
 10
23.96354051835241
 20
373.4392045047879
 30
0.0
 10
23.40936004513323
 20
373.4552554086326
 30
0.0
 10
23.23567773294065
 20
373.4595047159652
 30
0.0
 10
22.99072378938513
 20
373.4624749175968
 30
0.0
 10
22.91167493538375
 20
373.4628986908323
 30
0.0
 10
22.75869882213238
 20
373.4623197482223
 30
0.0
 10
22.68429866397208
 20
373.4613045930362
 30
0.0
 10
22.61345065742611
 20
373.4594495349533
 30
0.0
  0
SPLINE
  5
31D
330
2D3
100
AcDbEntity
  8
0
  6
CONTINUOUS
 62
     7
100
AcDbSpline
210
0.0
220
0.0
230
1.0
 70
     8
 71
     3
 72
    20
 73
    16
 74
     0
 42
0.00000001
 43
0.00000001
 40
0.0
 40
0.0
 40
0.0
 40
0.0
 40
0.125
 40
0.125
 40
0.25
 40
0.25
 40
0.375
 40
0.375
 40
0.5
 40
0.5
 40
0.625
 40
0.625
 40
0.75
 40
0.75
 40
1.0
 40
1.0
 40
1.0
 40
1.0
 10
38.38026933584823
 20
372.2328683732281
 30
0.0
 10
38.05099309106578
 20
372.4233943084129
 30
0.0
 10
37.69799842485186
 20
372.6008222533014
 30
0.0
 10
36.9590774257474
 20
372.92314297992
 30
0.0
 10
36.57358898758045
 20
373.0681482900645
 30
0.0
 10
35.77129117966545
 20
373.3265895781519
 30
0.0
 10
35.35448348628835
 20
373.4400272457617
 30
0.0
 10
34.48845829921397
 20
373.634235744152
 30
0.0
 10
34.04475463584729
 20
373.7135660221732
 30
0.0
 10
33.14998879648893
 20
373.8353707413066
 30
0.0
 10
32.69684284079298
 20
373.8783198900875
 30
0.0
 10
31.77892067273759
 20
373.9279872062283
 30
0.0
 10
31.31079740002615
 20
373.9344571264978
 30
0.0
 10
29.92703466060284
 20
373.8978277924062
 30
0.0
 10
29.02386290839387
 20
373.8012479752583
 30
0.0
 10
28.14052567679678
 20
373.6306502966563
 30
0.0
  0
SPLINE
  5
31F
330
2D3
100
AcDbEntity
  8
0
  6
CONTINUOUS
 62
     7
100
AcDbSpline
210
0.0
220
0.0
230
1.0
 70
     8
 71
     3
 72
    18
 73
    14
 74
     0
 42
0.00000001
 43
0.00000001
 40
0.0
 40
0.0
 40
0.0
 40
0.0
 40
0.1249999999999993
 40
0.1249999999999993
 40
0.2499999999999986
 40
0.2499999999999986
 40
0.4999999999999968
 40
0.4999999999999968
 40
0.7499999999999951
 40
0.7499999999999951
 40
0.8749999999999974
 40
0.8749999999999974
 40
1.0
 40
1.0
 40
1.0
 40
1.0
 10
27.82364259213425
 20
374.9831260287066
 30
0.0
 10
27.535277334748
 20
374.8880081342747
 30
0.0
 10
27.25810901193
 20
374.8058802418424
 30
0.0
 10
26.72177659538359
 20
374.6546037584958
 30
0.0
 10
26.46209067923506
 20
374.5855164152346
 30
0.0
 10
25.71015932120142
 20
374.3894487641674
 30
0.0
 10
25.25059948089657
 20
374.2746086326642
 30
0.0
 10
24.39251374765562
 20
374.0480732891905
 30
0.0
 10
23.99386762940566
 20
373.9367887385411
 30
0.0
 10
23.44323795718418
 20
373.7643703662608
 30
0.0
 10
23.26725981131915
 20
373.7059406389092
 30
0.0
 10
22.929649805363
 20
373.5856423817986
 30
0.0
 10
22.7674702927498
 20
373.5235503486789
 30
0.0
 10
22.61345065742611
 20
373.4594495349533
 30
0.0
  0
SPLINE
  5
320
330
2D3
100
AcDbEntity
  8
0
  6
CONTINUOUS
 62
     7
100
AcDbSpline
210
0.0
220
0.0
230
1.0
 70
     8
 71
     3
 72
    12
 73
     8
 74
     0
 42
0.00000001
 43
0.00000001
 40
0.0
 40
0.0
 40
0.0
 40
0.0
 40
0.2459603097918271
 40
0.4918799787100614
 40
0.739053652095192
 40
0.9500860340745573
 40
0.9999999999999999
 40
0.9999999999999999
 40
0.9999999999999999
 40
0.9999999999999999
 10
38.53076017518008
 20
302.9509023212593
 30
0.0
 10
37.65348700739292
 20
303.366343937973
 30
0.0
 10
35.89908562670153
 20
304.1971585265437
 30
0.0
 10
32.54422949756243
 20
304.7181670301663
 30
0.0
 10
29.28368348600485
 20
304.6164695572793
 30
0.0
 10
27.07716389340839
 20
304.1615646228425
 30
0.0
 10
25.99590726086343
 20
303.8718349612612
 30
0.0
 10
25.78908387687341
 20
303.8164153067158
 30
0.0
  0
LWPOLYLINE
  5
321
330
2D3
100
AcDbEntity
  8
0
  6
CONTINUOUS
 62
     7
100
AcDbPolyline
 90
        3
 70
   128
 43
0.0
 10
-161.7188359177
 20
357.5424660693
 10
-161.7160714958
 20
357.2628293962
 10
-161.7153946347
 20
357.2294380945
  0
LWPOLYLINE
  5
323
330
2D3
100
AcDbEntity
  8
0
  6
CONTINUOUS
 62
     7
100
AcDbPolyline
 90
       12
 70
   128
 43
0.0
 10
-140.8706386675
 20
360.7510013687
 10
-143.2120946822
 20
359.2548828908
 10
-145.2793461776
 20
357.6296919209
 10
-147.0511803559
 20
355.8921051174
 10
-148.5094158008
 20
354.0599524725
 10
-149.6390890433
 20
352.1520343514
 10
-150.4286081073
 20
350.1879285759
 10
-150.8698714587
 20
348.1877895293
 10
-150.9583511384
 20
346.1721413446
 10
-150.6931392253
 20
344.1616672999
 10
-150.0769571523
 20
342.1769975795
 10
-149.196113135
 20
340.3752027864
  0
LWPOLYLINE
  5
324
330
2D3
100
AcDbEntity
  8
0
  6
CONTINUOUS
 62
     7
100
AcDbPolyline
 90
       28
 70
   128
 43
0.0
 10
-83.7029704339
 20
340.5170529649
 10
-83.3409758427
 20
341.200719613
 10
-82.5514567788
 20
343.1648253884
 10
-82.1101934274
 20
345.1649644351
 10
-82.0217137476
 20
347.1806126197
 10
-82.2869256608
 20
349.1910866644
 10
-82.9031077337
 20
351.1757563849
 10
-83.8639371046
 20
353.114256384
 10
-85.1595543637
 20
354.9866950286
 10
-86.7766647249
 20
356.7738585644
 10
-88.6986744475
 20
358.457408275
 10
-90.9058611108
 20
360.0200686624
 10
-93.3755759929
 20
361.4458047162
 10
-96.082476477
 20
362.7199864552
 10
-98.9987861012
 20
363.8295390505
 10
-102.0945795823
 20
364.7630769911
 10
-105.3380898899
 20
365.5110209144
 10
-108.6960342191
 20
366.0656959036
 10
-112.133955517
 20
366.4214102427
 10
-115.6165760589
 20
366.5745138213
 10
-119.1081594453
 20
366.5234355894
 10
-122.5728773058
 20
366.2686996788
 10
-125.9751769465
 20
365.8129200248
 10
-129.2801461692
 20
365.1607735432
 10
-132.4538715173
 20
364.3189521395
 10
-135.4637862739
 20
363.2960940405
 10
-138.2790046407
 20
362.1026951544
 10
-140.8706386675
 20
360.7510013687
  0
LWPOLYLINE
  5
325
330
2D3
100
AcDbEntity
  8
0
  6
CONTINUOUS
 62
     7
100
AcDbPolyline
 90
        9
 70
   128
 43
0.0
 10
-132.7534884103
 20
348.1998659386
 10
-134.6635977277
 20
346.9491179993
 10
-136.2870990641
 20
345.5700298005
 10
-137.5983888338
 20
344.084350387
 10
-138.5767872136
 20
342.5155098105
 10
-139.2068642767
 20
340.8882496242
 10
-139.4786833314
 20
339.2282326932
 10
-139.3879576289
 20
337.5616384763
 10
-139.2682084394
 20
336.971562383
  0
LWPOLYLINE
  5
326
330
2D3
100
AcDbEntity
  8
0
  6
CONTINUOUS
 62
     7
100
AcDbPolyline
 90
       21
 70
   128
 43
0.0
 10
-93.7132782966
 20
336.9657046839
 10
-93.5013815546
 20
338.3941126121
 10
-93.5921072572
 20
340.060706829
 10
-94.0439469184
 20
341.7075951455
 10
-94.8497747571
 20
343.3088051491
 10
-95.9968823867
 20
344.8390848014
 10
-97.4671792347
 20
346.2743006783
 10
-99.2374778415
 20
347.5918185679
 10
-101.2798595406
 20
348.7708604262
 10
-103.5621147524
 20
349.7928320586
 10
-106.048250949
 20
350.6416163621
 10
-108.6990602774
 20
351.3038275011
 10
-111.4727378909
 20
351.7690220104
 10
-114.3255412367
 20
352.0298634947
 10
-117.2124799018
 20
352.0822383279
 10
-120.088025139
 20
351.9253205277
 10
-122.9068278819
 20
351.5615847815
 10
-125.6244339276
 20
350.9967674193
 10
-128.1979850053
 20
350.2397759483
 10
-130.586894677
 20
349.3025485763
 10
-132.7534884103
 20
348.1998659386
  0
LWPOLYLINE
  5
328
330
2D3
100
AcDbEntity
  8
0
  6
CONTINUOUS
 62
     7
100
AcDbPolyline
 90
       16
 70
   128
 43
0.0
 10
-96.3762562846
 20
336.7852565009
 10
-97.4671792347
 20
337.8086887701
 10
-99.2374778415
 20
339.1262066597
 10
-101.2798595406
 20
340.305248518
 10
-103.5621147524
 20
341.3272201504
 10
-106.048250949
 20
342.1760044539
 10
-108.6990602774
 20
342.8382155929
 10
-111.4727378909
 20
343.3034101022
 10
-114.3255412367
 20
343.5642515865
 10
-117.2124799018
 20
343.6166264198
 10
-120.088025139
 20
343.4597086195
 10
-122.9068278819
 20
343.0959728733
 10
-125.6244339276
 20
342.5311555111
 10
-128.1979850053
 20
341.7741640401
 10
-130.586894677
 20
340.8369366681
 10
-132.7534884103
 20
339.7342540304
  0
LWPOLYLINE
  5
32A
330
2D3
100
AcDbEntity
  8
0
  6
CONTINUOUS
 62
     7
100
AcDbPolyline
 90
       58
 70
   128
 43
0.0
 10
-271.1823690903
 20
401.3144024164
 10
-269.6683781985
 20
398.2247150756
 10
-267.3335288601
 20
394.1092231416
 10
-264.6670927792
 20
390.0614327572
 10
-261.674931361
 20
386.0902418441
 10
-258.3636220257
 20
382.2043799417
 10
-254.74044375
 20
378.4123890178
 10
-250.8133610658
 20
374.7226046916
 10
-246.5910065534
 20
371.1431379096
 10
-242.0826618642
 20
367.6818571168
 10
-237.2982373184
 20
364.3463709596
 10
-232.2482501194
 20
361.1440115604
 10
-226.9438012352
 20
358.0818184001
 10
-221.3965509955
 20
355.1665228439
 10
-215.6186934603
 20
352.4045333442
 10
-209.6229296144
 20
349.8019213533
 10
-203.4224394481
 20
347.3644079772
 10
-197.0308529843
 20
345.0973513993
 10
-190.4622203174
 20
343.005735102
 10
-183.7309807274
 20
341.0941569119
 10
-176.8519309399
 20
339.3668188926
 10
-169.8401925992
 20
337.827518108
 10
-162.711179028
 20
336.4796382754
 10
-155.4805613453
 20
335.3261423271
 10
-148.164234018
 20
334.3695658975
 10
-140.7782799214
 20
333.6120117493
 10
-133.3389349856
 20
333.0551451509
 10
-125.8625525054
 20
332.7001902159
 10
-118.3655671919
 20
332.5479272123
 10
-110.8644590461
 20
332.5986908472
 10
-103.3757171314
 20
332.8523695312
 10
-95.915803328
 20
333.3084056234
 10
-88.5011161454
 20
333.9657966576
 10
-81.1479546752
 20
334.8230975455
 10
-73.8724827622
 20
335.8784237538
 10
-66.6906934726
 20
337.1294554464
 10
-59.6183739379
 20
338.5734425842
 10
-52.6710706515
 20
340.20721097
 10
-45.8640552935
 20
342.0271692263
 10
-39.2122911612
 20
344.02931669
 10
-32.7304002757
 20
346.2092522063
 10
-26.43263124
 20
348.562183804
 10
-20.3328279171
 20
351.0829392286
 10
-14.4443989986
 20
353.7659773127
 10
-8.7802885293
 20
356.6054001563
 10
-3.3529474532
 20
359.5949660918
 10
1.8256937562
 20
362.7281034043
 10
6.7442513214
 20
365.9979247782
 10
11.3919131856
 20
369.3972424363
 10
15.7584627792
 20
372.9185839407
 10
19.8343014787
 20
376.5542086186
 10
23.6104697059
 20
380.2961245779
 10
27.0786666236
 20
384.1361062752
 10
30.2312683822
 20
388.0657125973
 10
33.0613448789
 20
392.0763054167
 10
35.5626749913
 20
396.15906858
 10
37.729760253
 20
400.3050272877
 10
38.3852355278
 20
401.7178061772
  0
LWPOLYLINE
  5
32B
330
2D3
100
AcDbEntity
  8
0
  6
CONTINUOUS
 62
     7
100
AcDbPolyline
 90
       10
 70
   128
 43
0.0
 10
22.6134506574
 20
373.459449535
 10
26.2230683713
 20
377.3316440544
 10
29.5094837498
 20
381.2985909166
 10
32.4652540487
 20
385.3513061776
 10
35.0836853354
 20
389.4806116539
 10
37.3588476491
 20
393.677155708
 10
39.28558843
 20
397.9314344274
 10
40.8595441886
 20
402.2338131477
 10
42.0771503876
 20
406.5745482727
 10
42.686763812
 20
409.4697413463
  0
LWPOLYLINE
  5
32C
330
2D3
100
AcDbEntity
  8
0
  6
CONTINUOUS
 62
     7
100
AcDbPolyline
 90
       17
 70
   128
 43
0.0
 10
-225.9295589692
 20
488.3241219029
 10
-231.0129434447
 20
485.2464278066
 10
-235.8368966922
 20
482.0325869744
 10
-240.3904909062
 20
478.6898797896
 10
-244.6634107312
 20
475.2258785589
 10
-248.6459766295
 20
471.6484303595
 10
-252.3291668084
 20
467.9656392619
 10
-255.7046376574
 20
464.1858479727
 10
-258.7647426494
 20
460.3176189348
 10
-261.5025496625
 20
456.3697149311
 10
-263.9118566831
 20
452.3510792339
 10
-265.987205856
 20
448.2708153457
 10
-267.7238958476
 20
444.1381663764
 10
-269.1179924968
 20
439.9624941053
 10
-270.166337726
 20
435.753257773
 10
-270.8665566963
 20
431.5199926537
 10
-271.1676412709
 20
428.24715721
  0
LWPOLYLINE
  5
32D
330
2D3
100
AcDbEntity
  8
0
  6
CONTINUOUS
 62
     7
100
AcDbPolyline
 90
       51
 70
   128
 43
0.0
 10
38.2378563954
 20
427.2513756637
 10
38.2369983004
 20
427.2722884544
 10
37.8864918103
 20
431.5199926537
 10
37.18627284
 20
435.753257773
 10
36.1379276107
 20
439.9624941053
 10
34.7438309616
 20
444.1381663764
 10
33.0071409699
 20
448.2708153457
 10
30.9317917971
 20
452.3510792339
 10
28.5224847765
 20
456.3697149311
 10
25.7846777634
 20
460.3176189348
 10
22.7245727713
 20
464.1858479727
 10
19.3491019223
 20
467.9656392619
 10
15.6659117435
 20
471.6484303595
 10
11.6833458452
 20
475.2258785589
 10
7.4104260202
 20
478.6898797896
 10
2.8568318062
 20
482.0325869744
 10
-1.9671214414
 20
485.2464278066
 10
-7.0505059168
 20
488.3241219029
 10
-12.3818061193
 20
491.2586972964
 10
-17.9489449392
 20
494.0435062299
 10
-23.7393110164
 20
496.6722402155
 10
-29.7397873094
 20
499.1389443252
 10
-35.9367808095
 20
501.4380306808
 10
-42.3162533332
 20
503.5642911123
 10
-48.8637533234
 20
505.512908956
 10
-55.5644485867
 20
507.2794699656
 10
-62.4031598932
 20
508.8599723123
 10
-69.3643953621
 20
510.2508356499
 10
-76.4323855563
 20
511.4489092257
 10
-83.5911192046
 20
512.4514790176
 10
-90.8243794727
 20
513.2562738826
 10
-98.1157806998
 20
513.8614707015
 10
-105.4488055169
 20
514.2656985088
 10
-112.8068422642
 20
514.4680415985
 10
-120.1732226219
 20
514.4680415985
 10
-127.5312593692
 20
514.2656985088
 10
-134.8642841862
 20
513.8614707015
 10
-142.1556854133
 20
513.2562738826
 10
-149.3889456815
 20
512.4514790176
 10
-156.5476793298
 20
511.4489092257
 10
-163.6156695239
 20
510.2508356499
 10
-170.5769049929
 20
508.8599723123
 10
-177.4156162994
 20
507.2794699656
 10
-184.1163115627
 20
505.512908956
 10
-190.6638115529
 20
503.5642911123
 10
-197.0432840766
 20
501.4380306808
 10
-203.2402775767
 20
499.1389443252
 10
-209.2407538697
 20
496.6722402155
 10
-215.0311199469
 20
494.0435062299
 10
-220.5982587667
 20
491.2586972964
 10
-225.9295589692
 20
488.3241219029
  0
LWPOLYLINE
  5
32E
330
2D3
100
AcDbEntity
  8
0
  6
CONTINUOUS
 62
     7
100
AcDbPolyline
 90
       15
 70
   128
 43
0.0
 10
-211.549148885
 20
427.3550899068
 10
-216.2789246363
 20
424.4814820666
 10
-220.7483625617
 20
421.4722047232
 10
-224.9458024078
 20
418.3351087374
 10
-228.8602935334
 20
415.0783784346
 10
-232.4816234781
 20
411.7105102523
 10
-235.8003446055
 20
408.2402905741
 10
-238.8077987512
 20
404.6767728067
 10
-241.4961398106
 20
401.0292537613
 10
-243.8583542089
 20
397.3072493985
 10
-245.8882791984
 20
393.5204700027
 10
-247.5806189366
 20
389.6787948491
 10
-248.9309583024
 20
385.7922464294
 10
-249.9357744145
 20
381.8709643048
 10
-250.256181473
 20
380.20412474
  0
LWPOLYLINE
  5
32F
330
2D3
100
AcDbEntity
  8
0
  6
CONTINUOUS
 62
     7
100
AcDbPolyline
 90
       46
 70
   128
 43
0.0
 10
17.2761165869
 20
380.20412474
 10
17.1525984325
 20
380.8864138705
 10
16.234608116
 20
384.8147839109
 10
14.9703543666
 20
388.7109703345
 10
13.363135478
 20
392.5648084357
 10
11.4171445007
 20
396.366243991
 10
9.1374583029
 20
400.1053594889
 10
6.5300243258
 20
403.7724000042
 10
3.6016450668
 20
407.3577986467
 10
0.3599603331
 20
410.8522015209
 10
-3.18657269
 20
414.2464921286
 10
-7.0287015029
 20
417.5318151531
 10
-11.15640243
 20
420.6995995619
 10
-15.558906771
 20
423.741580967
 10
-20.2247288947
 20
426.6498231863
 10
-25.1416962039
 20
429.416738948
 10
-30.2969808924
 20
432.0351096847
 10
-35.6771334109
 20
434.4981043661
 10
-41.268117556
 20
436.7992973203
 10
-47.0553470883
 20
438.9326849977
 10
-53.0237237867
 20
440.8927016334
 10
-59.1576768379
 20
442.6742337678
 10
-65.4412034588
 20
444.272633587
 10
-71.8579106458
 20
445.6837310483
 10
-78.3910579426
 20
446.9038447596
 10
-85.0236011137
 20
447.9297915834
 10
-91.7382366114
 20
448.7588949418
 10
-98.5174467183
 20
449.3889917987
 10
-105.3435452493
 20
449.8184383033
 10
-112.1987236927
 20
450.0461140787
 10
-119.0650976706
 20
450.0714251449
 10
-125.9247535974
 20
449.8943054681
 10
-132.7597954139
 20
449.5152171335
 10
-139.5523912765
 20
448.935149139
 10
-146.2848200781
 20
448.155614816
 10
-152.9395176807
 20
447.1786478805
 10
-159.4991227381
 20
446.0067971276
 10
-165.9465219896
 20
444.6431197821
 10
-172.2648949067
 20
443.0911735226
 10
-178.4377575759
 20
441.3550071997
 10
-184.4490057034
 20
439.439150273
 10
-190.2829566291
 20
437.3486009945
 10
-195.9243902411
 20
435.0888133686
 10
-201.3585886834
 20
432.6656829232
 10
-206.5713747526
 20
430.085531329
 10
-211.549148885
 20
427.3550899068
  0
LWPOLYLINE
  5
330
330
2D3
100
AcDbEntity
  8
0
  6
CONTINUOUS
 62
     7
100
AcDbPolyline
 90
       16
 70
   128
 43
0.0
 10
42.2953252416
 20
436.2672846256
 10
42.4640881871
 20
435.7836181557
 10
43.7904052688
 20
431.3827770302
 10
44.7513296393
 20
426.9504049003
 10
45.3446706708
 20
422.4966062835
 10
45.5690757188
 20
418.0315345432
 10
45.424033205
 20
413.5653687425
 10
44.909873784
 20
409.1082904385
 10
44.0277695897
 20
404.6704604714
 10
42.7797315627
 20
400.2619958009
 10
41.1686048661
 20
395.8929464424
 10
39.1980623994
 20
391.5732725557
 10
36.8725964256
 20
387.3128217391
 10
34.1975083297
 20
383.1213065794
 10
31.1788965333
 20
379.0082825103
 10
27.8236425921
 20
374.9831260287
  0
LWPOLYLINE
  5
332
330
2D3
100
AcDbEntity
  8
0
  6
CONTINUOUS
 62
     7
100
AcDbPolyline
 90
       14
 70
   128
 43
0.0
 10
-198.3443405818
 20
408.3153364323
 10
-202.7292166708
 20
405.6404940623
 10
-206.8521871918
 20
402.8302678159
 10
-210.7007308187
 20
399.893192258
 10
-214.263159651
 20
396.8381871903
 10
-217.5286547094
 20
393.6745305629
 10
-220.4872987929
 20
390.411830297
 10
-223.1301065964
 20
387.0599951061
 10
-225.4490519997
 20
383.6292044035
 10
-227.4370924417
 20
380.1298773878
 10
-229.0881903089
 20
376.5726414
 10
-230.3973312714
 20
372.9682996491
 10
-231.3605395111
 20
369.3277984024
 10
-231.9719727852
 20
365.6865328503
  0
LWPOLYLINE
  5
333
330
2D3
100
AcDbEntity
  8
0
  6
CONTINUOUS
 62
     7
100
AcDbPolyline
 90
       43
 70
   128
 43
0.0
 10
-1.0098301146
 20
365.7009735807
 10
-1.2686014644
 20
367.4974396206
 10
-2.0576803346
 20
371.1518801392
 10
-3.1942864971
 20
374.7756775685
 10
-4.6749681163
 20
378.3578265546
 10
-6.495228411
 20
381.8874482289
 10
-8.6495393103
 20
385.3538232463
 10
-11.131358243
 20
388.7464243399
 10
-13.9331480063
 20
392.0549482916
 10
-17.0463996571
 20
395.2693472229
 10
-20.4616583522
 20
398.37985911
 10
-24.1685520633
 20
401.3770374303
 10
-28.155823076
 20
404.251779852
 10
-32.4113621793
 20
406.9953558767
 10
-36.9222454409
 20
409.5994333542
 10
-41.6747734564
 20
412.0561037869
 10
-46.6545129545
 20
414.3579063473
 10
-51.8463406301
 20
416.4978505367
 10
-57.2344890731
 20
418.469437415
 10
-62.8025946538
 20
420.2666793376
 10
-68.5337472185
 20
421.8841181398
 10
-74.4105414452
 20
423.3168417133
 10
-80.4151297032
 20
424.5604989235
 10
-86.5292762551
 20
425.6113128244
 10
-92.7344126388
 20
426.4660921287
 10
-99.0116940591
 20
427.1222408998
 10
-105.3420566186
 20
427.5777664354
 10
-111.7062752143
 20
427.8312853194
 10
-118.0850219235
 20
427.8820276233
 10
-124.458924702
 20
427.7298392445
 10
-130.8086262167
 20
427.375182374
 10
-137.1148426327
 20
426.819134093
 10
-143.358422178
 20
426.0633831019
 10
-149.5204033067
 20
425.1102245917
 10
-155.5820722848
 20
423.9625532735
 10
-161.5250200226
 20
422.6238545872
 10
-167.3311979834
 20
421.0981941168
 10
-172.9829729953
 20
419.390205243
 10
-178.4631808035
 20
417.5050750718
 10
-183.7551781971
 20
415.4485286818
 10
-188.8428935537
 20
413.2268117365
 10
-193.7108756491
 20
410.8466715175
 10
-198.3443405818
 20
408.3153364323
  0
LWPOLYLINE
  5
334
330
2D3
100
AcDbEntity
  8
0
  6
CONTINUOUS
 62
     7
100
AcDbPolyline
 90
       22
 70
   128
 43
0.0
 10
-150.5502073959
 20
379.6205526155
 10
-153.3520986713
 20
377.8574807893
 10
-155.8810761053
 20
375.9618877079
 10
-158.1184160337
 20
373.9478076791
 10
-160.0475539745
 20
371.8301522468
 10
-161.6542072653
 20
369.6245997909
 10
-162.9264808073
 20
367.3474794503
 10
-163.8549551322
 20
365.0156502271
 10
-164.4327561411
 20
362.6463761692
 10
-164.6556059975
 20
360.2571985526
 10
-164.5218547988
 20
357.8658060126
 10
-164.0324927924
 20
355.4899035829
 10
-163.1911430431
 20
353.1470816138
 10
-162.0040346102
 20
350.8546855395
 10
-160.4799564293
 20
348.6296874584
 10
-158.6301922418
 20
346.488560478
 10
-156.4684370548
 20
344.4471567532
 10
-154.0106957472
 20
342.520590123
 10
-151.2751645758
 20
340.7231242128
 10
-148.2820964564
 20
339.0680668311
 10
-145.0536510181
 20
337.5676714439
 10
-144.8925312304
 20
337.4994692878
  0
LWPOLYLINE
  5
335
330
2D3
100
AcDbEntity
  8
0
  6
CONTINUOUS
 62
     7
100
AcDbPolyline
 90
       41
 70
   128
 43
0.0
 10
-88.2575717507
 20
337.4281323769
 10
-87.0985148793
 20
337.9276428649
 10
-83.9267380747
 20
339.4677913655
 10
-80.9960485087
 20
341.1596424399
 10
-78.3281439815
 20
342.9906702146
 10
-75.9427767248
 20
344.9473184008
 10
-73.8576071632
 20
347.0151006597
 10
-72.0880731626
 20
349.178707855
 10
-70.6472757337
 20
351.4221213959
 10
-69.5458820364
 20
353.7287318336
 10
-68.7920464044
 20
356.0814618314
 10
-68.3913499731
 20
358.4628925994
 10
-68.3467593584
 20
360.8553928575
 10
-68.6586046939
 20
363.2412493709
 10
-69.3245771856
 20
365.6027980926
 10
-70.3397462063
 20
367.9225549421
 10
-71.6965957998
 20
370.1833452514
 10
-73.3850803263
 20
372.36843092
 10
-75.3926988372
 20
374.461634338
 10
-77.7045876275
 20
376.4474581598
 10
-80.3036302813
 20
378.3112000405
 10
-83.1705843962
 20
380.0390614872
 10
-86.284224047
 20
381.6182500185
 10
-89.6214969351
 20
383.0370738748
 10
-93.1576950596
 20
384.2850285809
 10
-96.8666376468
 20
385.3528747165
 10
-100.7208649835
 20
386.2327063227
 10
-104.6918417189
 20
386.9180094339
 10
-108.7501681306
 20
387.4037103057
 10
-112.8657977897
 20
387.6862129788
 10
-117.0082600142
 20
387.7634259022
 10
-121.1468854631
 20
387.6347774185
 10
-125.2510332015
 20
387.3012199961
 10
-129.2903175554
 20
386.7652231773
 10
-133.2348330769
 20
386.0307552951
 10
-137.0553759529
 20
385.1032540927
 10
-140.7236602208
 20
383.9895864646
 10
-144.2125271872
 20
382.6979976162
 10
-147.4961465018
 20
381.2380500194
 10
-150.5502073959
 20
379.6205526155
 10
-150.5502073959
 20
379.6205526155
  0
LWPOLYLINE
  5
336
330
2D3
100
AcDbEntity
  8
0
  6
CONTINUOUS
 62
     7
100
AcDbPolyline
 90
       10
 70
   128
 43
0.0
 10
-148.4716280639
 20
376.0142334568
 10
-151.173015156
 20
374.3102611449
 10
-153.6029608835
 20
372.4751299888
 10
-155.7424476264
 20
370.5232023779
 10
-157.5747310001
 20
368.4697547923
 10
-159.0854709029
 20
366.3308582435
 10
-160.2628437467
 20
364.123252497
 10
-161.0976349927
 20
361.864215061
 10
-161.5833112676
 20
359.5714259662
 10
-161.7188359177
 20
357.5424660693
  0
LWPOLYLINE
  5
337
330
2D3
100
AcDbEntity
  8
0
  6
CONTINUOUS
 62
     7
100
AcDbPolyline
 90
       28
 70
   128
 43
0.0
 10
-71.2646702514
 20
357.2294380945
 10
-71.3303897531
 20
358.9950540256
 10
-71.7280858174
 20
361.2934845004
 10
-72.4761048045
 20
363.5626300569
 10
-73.5685924516
 20
365.7847315547
 10
-74.9969985617
 20
367.9423980365
 10
-76.7501439203
 20
370.0187428368
 10
-78.8143077879
 20
371.9975157422
 10
-81.1733352836
 20
373.8632301719
 10
-83.8087638187
 20
375.6012843807
 10
-86.6999675916
 20
377.1980757381
 10
-89.8243190129
 20
378.6411071866
 10
-93.1573657965
 20
379.9190850485
 10
-96.6730223322
 20
381.0220074144
 10
-100.343773841
 20
381.9412424214
 10
-104.1408917152
 20
382.6695958092
 10
-108.0346583591
 20
383.2013672249
 10
-111.9945997695
 20
383.5323948363
 10
-115.9897240357
 20
383.6600879035
 10
-119.9887638935
 20
383.583447055
 10
-123.960421434
 20
383.3030721095
 10
-127.8736130519
 20
382.821157381
 10
-131.6977127171
 20
382.1414745058
 10
-135.4027916648
 20
381.2693429237
 10
-138.9598526287
 20
380.211588247
 10
-142.341056784
 20
378.9764888402
 10
-145.5199416237
 20
377.5737110307
 10
-148.4716280639
 20
376.0142334568
  0
LWPOLYLINE
  5
338
330
2D3
100
AcDbEntity
  8
0
  6
CONTINUOUS
 62
     7
100
AcDbPolyline
 90
        9
 70
   128
 43
0.0
 10
-148.345498568
 20
367.5971555031
 10
-151.0362318893
 20
365.8999033428
 10
-153.4565943605
 20
364.0720096045
 10
-155.5876433635
 20
362.1277800349
 10
-157.4127005506
 20
360.0824308667
 10
-158.9174823747
 20
357.9519697301
 10
-160.0902118779
 20
355.7530703722
 10
-160.9217108617
 20
353.5029421618
 10
-161.0659599453
 20
352.9720871255
  0
LWPOLYLINE
  5
339
330
2D3
100
AcDbEntity
  8
0
  6
CONTINUOUS
 62
     7
100
AcDbPolyline
 90
       26
 70
   128
 43
0.0
 10
-71.9579119898
 20
353.1410712442
 10
-72.6496875915
 20
355.1946589233
 10
-73.7378666695
 20
357.4079968639
 10
-75.1606394102
 20
359.5571539083
 10
-76.9068706879
 20
361.6253099888
 10
-78.9628938751
 20
363.59627898
 10
-81.3126178028
 20
365.4546353772
 10
-83.9376526954
 20
367.1858350219
 10
-86.8174540956
 20
368.7763289295
 10
-89.929483653
 20
370.213669329
 10
-93.2493855167
 20
371.4866070827
 10
-96.7511769535
 20
372.5851797269
 10
-100.4074516975
 20
373.500789441
 10
-104.1895944413
 20
374.2262703378
 10
-108.0680047901
 20
374.7559445455
 10
-112.0123289242
 20
375.0856666452
 10
-115.9916971595
 20
375.2128561145
 10
-119.974965544
 20
375.1365175234
 10
-123.930959602
 20
374.8572483248
 10
-127.8287183162
 20
374.3772341789
 10
-131.6377364398
 20
373.7002318471
 10
-135.3282032417
 20
372.8315397907
 10
-138.8712358153
 20
371.7779567027
 10
-142.239105127
 20
370.5477282994
 10
-145.4054530331
 20
369.150482786
 10
-148.345498568
 20
367.5971555031
  0
LWPOLYLINE
  5
33A
330
2D3
100
AcDbEntity
  8
0
  6
CONTINUOUS
 62
     7
100
AcDbPolyline
 90
        9
 70
   128
 43
0.0
 10
-146.266919236
 20
363.9908363444
 10
-148.8873607807
 20
362.3314300645
 10
-151.2313997431
 20
360.5395236781
 10
-153.2790376091
 20
358.6304050986
 10
-155.0128046545
 20
356.6203622526
 10
-156.4179089901
 20
354.5265441169
 10
-157.4823627612
 20
352.3668144097
 10
-158.1970844235
 20
350.1595991833
 10
-158.5035296741
 20
348.453301818
  0
LWPOLYLINE
  5
33B
330
2D3
100
AcDbEntity
  8
0
  6
CONTINUOUS
 62
     7
100
AcDbPolyline
 90
       26
 70
   128
 43
0.0
 10
-74.4715481501
 20
348.4104844517
 10
-74.7829804625
 20
350.1595991833
 10
-75.4977021248
 20
352.3668144097
 10
-76.5621558959
 20
354.5265441169
 10
-77.9672602316
 20
356.6203622526
 10
-79.7010272769
 20
358.6304050986
 10
-81.748665143
 20
360.5395236781
 10
-84.0927041053
 20
362.3314300645
 10
-86.7131456501
 20
363.9908363444
 10
-89.5876330939
 20
365.5035850484
 10
-92.6916423235
 20
366.8567699381
 10
-95.9986910265
 20
368.0388461169
 10
-99.4805646294
 20
369.0397285278
 10
-103.1075570144
 20
369.850877995
 10
-106.8487239612
 20
370.4653740771
 10
-110.6721471525
 20
370.8779741103
 10
-114.5452064897
 20
371.0851579366
 10
-118.4348583963
 20
371.0851579366
 10
-122.3079177336
 20
370.8779741103
 10
-126.1313409249
 20
370.4653740771
 10
-129.8725078717
 20
369.850877995
 10
-133.4995002566
 20
369.0397285278
 10
-136.9813738595
 20
368.0388461169
 10
-140.2884225625
 20
366.8567699381
 10
-143.3924317921
 20
365.5035850484
 10
-146.266919236
 20
363.9908363444
  0
LINE
  5
33C
330
2D3
100
AcDbEntity
  8
0
  6
CONTINUOUS
 62
     7
100
AcDbLine
 10
43.5682375626
 20
419.7405532553
 30
0.0
 11
43.5069221892
 21
425.4774972606
 31
0.0
  0
LINE
  5
33D
330
2D3
100
AcDbEntity
  8
0
  6
CONTINUOUS
 62
     7
100
AcDbLine
 10
-276.4869870753
 20
425.4774972606
 30
0.0
 11
-277.30297176
 21
349.1302749632
 31
0.0
  0
LINE
  5
33E
330
2D3
100
AcDbEntity
  8
0
  6
CONTINUOUS
 62
     7
100
AcDbLine
 10
22.8819976046
 20
302.1355777461
 30
0.0
 11
22.9434640766
 21
302.1991180681
 31
0.0
  0
LINE
  5
33F
330
2D3
100
AcDbEntity
  8
0
  6
CONTINUOUS
 62
     7
100
AcDbLine
 10
22.9606549989
 20
302.1507005514
 30
0.0
 11
23.6477849757
 21
302.7754268675
 31
0.0
  0
LINE
  5
340
330
2D3
100
AcDbEntity
  8
0
  6
CONTINUOUS
 62
     7
100
AcDbLine
 10
-13.758545658
 20
504.9603449728
 30
0.0
 11
-22.3945618617
 21
499.9748789371
 31
0.0
  0
LINE
  5
341
330
2D3
100
AcDbEntity
  8
0
  6
CONTINUOUS
 62
     7
100
AcDbLine
 10
128.693434176
 20
-67.7608116808
 30
0.0
 11
134.3502884254
 21
-77.5587706232
 31
0.0
  0
LINE
  5
342
330
2D3
100
AcDbEntity
  8
0
  6
CONTINUOUS
 62
     7
100
AcDbLine
 10
0.0
 20
0.0
 30
0.0
 11
134.3502884254
 21
-77.5587706232
 31
0.0
  0
LINE
  5
343
330
2D3
100
AcDbEntity
  8
0
  6
CONTINUOUS
 62
     7
100
AcDbLine
 10
0.0
 20
0.0
 30
0.0
 11
5.6568542495
 21
3.2666940478
 31
0.0
  0
LINE
  5
344
330
2D3
100
AcDbEntity
  8
0
  6
CONTINUOUS
 62
     7
100
AcDbLine
 10
5.6568542495
 20
3.2666940478
 30
0.0
 11
128.693434176
 21
-67.7608116808
 31
0.0
  0
LINE
  5
345
330
2D3
100
AcDbEntity
  8
0
  6
CONTINUOUS
 62
     7
100
AcDbLine
 10
134.3502884254
 20
-77.5587706232
 30
0.0
 11
222.0315292926
 21
-26.9414676901
 31
0.0
  0
LINE
  5
346
330
2D3
100
AcDbEntity
  8
0
  6
CONTINUOUS
 62
     7
100
AcDbLine
 10
5.6568542495
 20
3.2666940478
 30
0.0
 11
84.1457069612
 21
48.577344254
 31
0.0
  0
LINE
  5
347
330
2D3
100
AcDbEntity
  8
0
  6
CONTINUOUS
 62
     7
100
AcDbLine
 10
84.1457069612
 20
48.577344254
 30
0.0
 11
128.693434176
 21
22.8604887315
 31
0.0
  0
LINE
  5
348
330
2D3
100
AcDbEntity
  8
0
  6
CONTINUOUS
 62
     7
100
AcDbLine
 10
5.6568542495
 20
288.1710834424
 30
0.0
 11
5.6568542495
 21
3.2666940478
 31
0.0
  0
LINE
  5
349
330
2D3
100
AcDbEntity
  8
0
  6
CONTINUOUS
 62
     7
100
AcDbLine
 10
0.0
 20
284.5543751804
 30
0.0
 11
0.0
 21
0.0
 31
0.0
  0
LINE
  5
34A
330
2D3
100
AcDbEntity
  8
0
  6
CONTINUOUS
 62
     7
100
AcDbLine
 10
84.1457069612
 20
271.5076339517
 30
0.0
 11
84.1457069612
 21
208.6193433836
 31
0.0
  0
LINE
  5
34B
330
2D3
100
AcDbEntity
  8
0
  6
CONTINUOUS
 62
     7
100
AcDbLine
 10
84.1457069612
 20
113.0985326998
 30
0.0
 11
84.1457069612
 21
48.577344254
 31
0.0
  0
LINE
  5
34C
330
2D3
100
AcDbEntity
  8
0
  6
CONTINUOUS
 62
     7
100
AcDbLine
 10
222.0315292926
 20
298.0419591864
 30
0.0
 11
222.0315292926
 21
-26.9414676901
 31
0.0
  0
LINE
  5
34D
330
2D3
100
AcDbEntity
  8
0
  6
CONTINUOUS
 62
     7
100
AcDbLine
 10
134.3502884254
 20
247.7788737523
 30
0.0
 11
134.3502884254
 21
-77.5587706232
 31
0.0
  0
LINE
  5
34E
330
2D3
100
AcDbEntity
  8
0
  6
CONTINUOUS
 62
     7
100
AcDbLine
 10
128.693434176
 20
245.7908600833
 30
0.0
 11
128.693434176
 21
-67.7608116808
 31
0.0
  0
LINE
  5
34F
330
2D3
100
AcDbEntity
  8
0
  6
CONTINUOUS
 62
     7
100
AcDbLine
 10
133.1187907629
 20
248.3463945526
 30
0.0
 11
128.693434176
 21
245.7908600833
 31
0.0
  0
LINE
  5
350
330
2D3
100
AcDbEntity
  8
0
  6
CONTINUOUS
 62
     7
100
AcDbLine
 10
128.6927270692
 20
245.7911866333
 30
0.0
 11
133.1181543668
 21
248.3467619362
 31
0.0
  0
LINE
  5
351
330
2D3
100
AcDbEntity
  8
0
  6
CONTINUOUS
 62
     7
100
AcDbLine
 10
27.5225425103
 20
304.1954910086
 30
0.0
 11
128.6927270692
 21
245.7911866333
 31
0.0
  0
LINE
  5
352
330
2D3
100
AcDbEntity
  8
0
  6
CONTINUOUS
 62
     7
100
AcDbLine
 10
132.608651288
 20
248.0518015663
 30
0.0
 11
128.6927270692
 21
245.7911866333
 31
0.0
  0
LINE
  5
353
330
2D3
100
AcDbEntity
  8
0
  6
CONTINUOUS
 62
     7
100
AcDbLine
 10
128.693434176
 20
93.9140036725
 30
0.0
 11
7.0710678119
 21
164.1251012892
 31
0.0
  0
LINE
  5
354
330
2D3
100
AcDbEntity
  8
0
  6
CONTINUOUS
 62
     7
100
AcDbLine
 10
84.1457069612
 20
208.6193433836
 30
0.0
 11
7.0710678119
 21
164.1251012892
 31
0.0
  0
LINE
  5
355
330
2D3
100
AcDbEntity
  8
0
  6
CONTINUOUS
 62
     7
100
AcDbLine
 10
128.693434176
 20
182.9024878611
 30
0.0
 11
84.1457069612
 21
208.6193433836
 31
0.0
  0
LINE
  5
356
330
2D3
100
AcDbEntity
  8
0
  6
CONTINUOUS
 62
     7
100
AcDbLine
 10
128.693434176
 20
87.3816771774
 30
0.0
 11
7.0710678119
 21
157.5927747941
 31
0.0
  0
LINE
  5
357
330
2D3
100
AcDbEntity
  8
0
  6
CONTINUOUS
 62
     7
100
AcDbLine
 10
7.0710678119
 20
164.1251012892
 30
0.0
 11
7.0710678119
 21
157.5927747941
 31
0.0
  0
LINE
  5
358
330
2D3
100
AcDbEntity
  8
0
  6
CONTINUOUS
 62
     7
100
AcDbLine
 10
-13.2585862917
 20
504.9108369223
 30
0.0
 11
222.2202596472
 21
368.9717927057
 31
0.0
  0
LINE
  5
359
330
2D3
100
AcDbEntity
  8
0
  6
CONTINUOUS
 62
     7
100
AcDbLine
 10
134.5328748782
 20
318.3509429736
 30
0.0
 11
222.2202596472
 21
368.9717927057
 31
0.0
  0
LINE
  5
35A
330
2D3
100
AcDbEntity
  8
0
  6
CONTINUOUS
 62
     7
100
AcDbLine
 10
39.0873491926
 20
373.4504721255
 30
0.0
 11
134.5328748782
 21
318.3509429736
 31
0.0
  0
LINE
  5
35B
330
2D3
100
AcDbEntity
  8
0
  6
CONTINUOUS
 62
     7
100
AcDbLine
 10
133.8257950215
 20
247.9382496817
 30
0.0
 11
133.8257950215
 21
317.1333392214
 31
0.0
  0
LINE
  5
35C
330
2D3
100
AcDbEntity
  8
0
  6
CONTINUOUS
 62
     7
100
AcDbLine
 10
135.2399547349
 20
317.1333392214
 30
0.0
 11
135.2399547349
 21
247.9382496817
 31
0.0
  0
LINE
  5
35D
330
2D3
100
AcDbEntity
  8
0
  6
CONTINUOUS
 62
     7
100
AcDbLine
 10
38.3802693358
 20
372.2328683732
 30
0.0
 11
38.5386859355
 21
303.3617534991
 31
0.0
  0
LINE
  5
35E
330
2D3
100
AcDbEntity
  8
0
  6
CONTINUOUS
 62
     7
100
AcDbLine
 10
133.8257950215
 20
317.1333392214
 30
0.0
 11
38.3802693358
 21
372.2328683732
 31
0.0
  0
LINE
  5
35F
330
2D3
100
AcDbEntity
  8
0
  6
CONTINUOUS
 62
     7
100
AcDbLine
 10
133.8257950215
 20
247.9382496817
 30
0.0
 11
38.5307601752
 21
302.9509023213
 31
0.0
  0
LINE
  5
360
330
2D3
100
AcDbEntity
  8
0
  6
CONTINUOUS
 62
     7
100
AcDbLine
 10
222.927339504
 20
367.7541889535
 30
0.0
 11
135.2399547349
 21
317.1333392214
 31
0.0
  0
LINE
  5
361
330
2D3
100
AcDbEntity
  8
0
  6
CONTINUOUS
 62
     7
100
AcDbLine
 10
222.927339504
 20
367.7541889535
 30
0.0
 11
223.4457428549
 21
298.8583672982
 31
0.0
  0
LINE
  5
362
330
2D3
100
AcDbEntity
  8
0
  6
CONTINUOUS
 62
     7
100
AcDbLine
 10
223.4457428549
 20
298.8583672982
 30
0.0
 11
135.2399547349
 21
247.9382496817
 31
0.0
  0
LINE
  5
363
330
2D3
100
AcDbEntity
  8
0
  6
CONTINUOUS
 62
     7
100
AcDbLine
 10
-71.2722889412
 20
356.9741934456
 30
0.0
 11
-71.2646702514
 21
357.2294380945
 31
0.0
  0
LINE
  5
364
330
2D3
100
AcDbEntity
  8
0
  6
CONTINUOUS
 62
     7
100
AcDbLine
 10
-13.2585862917
 20
504.9108369223
 30
0.0
 11
-22.0624406378
 21
499.8284799894
 31
0.0
  0
ARC
  5
365
330
2D3
100
AcDbEntity
  8
0
  6
CONTINUOUS
 62
     7
100
AcDbCircle
 10
-220.9976063797
 20
424.91641057
 30
0.0
 40
55.45777850948124
100
AcDbArc
 50
154.123813594
 51
205.1877084529
  0
ARC
  5
366
330
2D3
100
AcDbEntity
  8
0
  6
CONTINUOUS
 62
     7
100
AcDbCircle
 10
-12.0344155064
 20
424.9347826764
 30
0.0
 40
55.50828053696988
100
AcDbArc
 50
335.2751229234
 51
26.8168548967
  0
ARC
  5
367
330
2D3
100
AcDbEntity
  8
0
  6
CONTINUOUS
 62
     7
100
AcDbCircle
 10
-10.2451105899
 20
419.1857545846
 30
0.0
 40
53.8162079762943
100
AcDbArc
 50
349.5987472104
 51
0.590680514
  0
ARC
  5
368
330
2D3
100
AcDbEntity
  8
0
  6
CONTINUOUS
 62
     7
100
AcDbCircle
 10
134.5328748782
 20
318.5249093395
 30
0.0
 40
1.560906569066747
100
AcDbArc
 50
243.0641210904
 51
296.9358789096
  0
ARC
  5
369
330
2D3
100
AcDbEntity
  8
0
  6
CONTINUOUS
 62
     7
100
AcDbCircle
 10
134.5328748782
 20
249.3028800927
 30
0.0
 40
1.536937891525407
100
AcDbArc
 50
242.609179853
 51
297.390820147
  0
ARC
  5
36A
330
2D3
100
AcDbEntity
  8
0
  6
CONTINUOUS
 62
     7
100
AcDbCircle
 10
135.3625997883
 20
317.0550023375
 30
0.0
 40
1.538800038577374
100
AcDbArc
 50
122.6293696929
 51
177.081938098
  0
ARC
  5
36B
330
2D3
100
AcDbEntity
  8
0
  6
CONTINUOUS
 62
     7
100
AcDbCircle
 10
133.7031499681
 20
317.0550023375
 30
0.0
 40
1.538800038578092
100
AcDbArc
 50
2.918061902
 51
57.3706303071
  0
ARC
  5
36C
330
2D3
100
AcDbEntity
  8
0
  6
CONTINUOUS
 62
     7
100
AcDbCircle
 10
221.3905347371
 20
367.6758520696
 30
0.0
 40
1.538800038578297
100
AcDbArc
 50
2.918061902
 51
57.3706303071
  0
ARC
  5
36D
330
2D3
100
AcDbEntity
  8
0
  6
CONTINUOUS
 62
     7
100
AcDbCircle
 10
39.9170741027
 20
372.1545314894
 30
0.0
 40
1.538800038577681
100
AcDbArc
 50
122.6293696929
 51
177.081938098
  0
ARC
  5
36E
330
2D3
100
AcDbEntity
  8
0
  6
CONTINUOUS
 62
     7
100
AcDbCircle
 10
24.9938232332
 20
373.6067430069
 30
0.0
 40
3.146793260944862
100
AcDbArc
 50
0.4353002786
 51
25.9376151847
  0
ARC
  5
36F
330
2D3
100
AcDbEntity
  8
0
  6
CONTINUOUS
 62
     7
100
AcDbCircle
 10
-124.5185330462
 20
324.9938532241
 30
0.0
 40
16.88472403620534
100
AcDbArc
 50
119.1905916984
 51
135.6680347475
  0
ARC
  5
370
330
2D3
100
AcDbEntity
  8
0
  6
CONTINUOUS
 62
     7
100
AcDbCircle
 10
-13.5504076427
 20
504.5130509052
 30
0.0
 40
0.4933491829659438
100
AcDbArc
 50
53.7357101127
 51
114.9538314582
  0
VIEWPORT
  5
4AB
330
2D3
100
AcDbEntity
  8
0
100
AcDbViewport
 10
0.0
 20
0.0
 30
0.0
 40
205.6
 41
156.0
 68
     1
 69
     1
1001
ACAD
1000
MVIEW
1002
{
1070
    16
1010
0.0
1020
0.0
1030
0.0
1010
0.0
1020
0.0
1030
1.0
1040
0.0
1040
357.2134125294
1040
-38.7789015083
1040
-46.4080096273
1040
50.0
1040
0.0
1040
0.0
1070
     0
1070
   100
1070
     0
1070
     3
1070
     0
1070
     0
1070
     0
1070
     0
1040
0.0
1040
0.0
1040
0.0
1040
10.0
1040
10.0
1040
10.0
1040
10.0
1070
     0
1002
{
1002
}
1002
}
  0
ENDBLK
  5
2D6
330
2D3
100
AcDbEntity
  8
0
100
AcDbBlockEnd
  0
BLOCK
  5
373
330
371
100
AcDbEntity
  8
0
100
AcDbBlockBegin
  2
*PAPER_SPACE6
 70
     0
 10
0.0
 20
0.0
 30
0.0
  3
*PAPER_SPACE6
  1

  0
SPLINE
  5
377
330
371
100
AcDbEntity
  8
0
  6
CONTINUOUS
 62
     7
100
AcDbSpline
210
0.0
220
0.0
230
1.0
 70
     8
 71
     3
 72
    62
 73
    58
 74
     0
 42
0.00000001
 43
0.00000001
 40
0.0
 40
0.0
 40
0.0
 40
0.0
 40
0.0121698789980517
 40
0.030470768055255
 40
0.0487932945163373
 40
0.0671351605655376
 40
0.0854932841306498
 40
0.1038643179898019
 40
0.1222450303985155
 40
0.1406325385604934
 40
0.1590244184301111
 40
0.177418726425174
 40
0.1958139619871599
 40
0.214208731406298
 40
0.2326023440003445
 40
0.2509943447628054
 40
0.2693844593284243
 40
0.2877725486007547
 40
0.306158572607277
 40
0.3245425624558205
 40
0.3429245990333798
 40
0.3613047971205343
 40
0.379683293748399
 40
0.3980602398185679
 40
0.4164357941977475
 40
0.434810119668429
 40
0.4531833802587374
 40
0.4715557395887143
 40
0.4899273599596385
 40
0.5082984019816932
 40
0.5266690245870927
 40
0.5450393853141631
 40
0.5634096407756618
 40
0.5817799418416548
 40
0.6001503983836716
 40
0.6185211676961898
 40
0.6368924084703679
 40
0.6552642813598509
 40
0.6736369494275012
 40
0.6920105783931093
 40
0.7103853365884064
 40
0.7287613944951081
 40
0.7471389236995669
 40
0.7655180950411711
 40
0.7838990756568278
 40
0.8022820245269429
 40
0.8206670860048437
 40
0.8390543806588834
 40
0.8574439925746102
 40
0.8758359520617631
 40
0.8942302125091135
 40
0.9126266199783064
 40
0.931024874117656
 40
0.9494244792687095
 40
0.9678246163289842
 40
0.9862238457148642
 40
1.0
 40
1.0
 40
1.0
 40
1.0
 10
33.29510777678418
 20
443.3366059218714
 30
0.0
 10
32.9293019066324
 20
444.1338000800133
 30
0.0
 10
32.01340242854963
 20
446.1298033510097
 30
0.0
 10
30.19808907692716
 20
449.2743143434722
 30
0.0
 10
27.89774268482886
 20
452.7690963250852
 30
0.0
 10
25.2872699286499
 20
456.2054523265456
 30
0.0
 10
22.38705504294468
 20
459.5783824685362
 30
0.0
 10
19.19887742833781
 20
462.8803494260184
 30
0.0
 10
15.7303634150274
 20
466.1047312204693
 30
0.0
 10
11.98835375128465
 20
469.2449459420678
 30
0.0
 10
7.980614965551351
 20
472.2947133936713
 30
0.0
 10
3.715323409966012
 20
475.2479940871688
 30
0.0
 10
-0.7988185050269297
 20
478.0989903158263
 30
0.0
 10
-5.552668127626156
 20
480.8421590636782
 30
0.0
 10
-10.53665524632468
 20
483.4722077547149
 30
0.0
 10
-15.74083014619602
 20
485.9841018396891
 30
0.0
 10
-21.1548444904683
 20
488.3730445394885
 30
0.0
 10
-26.76796620166458
 20
490.634479448042
 30
0.0
 10
-32.569094961994
 20
492.7640948595524
 30
0.0
 10
-38.54677898002323
 20
494.7578293058811
 30
0.0
 10
-44.68923310490435
 20
496.611877878107
 30
0.0
 10
-50.9843583254519
 20
498.3226989567818
 30
0.0
 10
-57.41976258487334
 20
499.8870210514674
 30
0.0
 10
-63.98278280564642
 20
501.3018495161967
 30
0.0
 10
-70.66050799821893
 20
502.5644729647112
 30
0.0
 10
-77.43980332295175
 20
503.6724692549773
 30
0.0
 10
-84.30733497764753
 20
504.6237109478846
 30
0.0
 10
-91.24959578982298
 20
505.4163701717181
 30
0.0
 10
-98.25293140095889
 20
506.0489228437307
 30
0.0
 10
-105.3035669379825
 20
506.5201522144968
 30
0.0
 10
-112.3876340744102
 20
506.8291517111036
 30
0.0
 10
-119.49119838985
 20
506.975327062589
 30
0.0
 10
-126.6002862438717
 20
506.9583976980433
 30
0.0
 10
-133.7009071597683
 20
506.778397629203
 30
0.0
 10
-140.7790876557667
 20
506.4356758386137
 30
0.0
 10
-147.8208998088074
 20
505.9308953773425
 30
0.0
 10
-154.8124941207829
 20
505.2650310228006
 30
0.0
 10
-161.7401209374542
 20
504.43936711651
 30
0.0
 10
-168.5901576117716
 20
503.4554945072681
 30
0.0
 10
-175.3491353174279
 20
502.3153067573954
 30
0.0
 10
-182.0037654199415
 20
501.0209956215036
 30
0.0
 10
-188.5409653090071
 20
499.5750458131648
 30
0.0
 10
-194.9478835847985
 20
497.980229082524
 30
0.0
 10
-201.2119244911214
 20
496.2395976428003
 30
0.0
 10
-207.3207714402848
 20
494.3564769906771
 30
0.0
 10
-213.2624096004379
 20
492.3344582289989
 30
0.0
 10
-219.0251469907921
 20
490.1773898899908
 30
0.0
 10
-224.5976354415517
 20
487.8893698447786
 30
0.0
 10
-229.9688856112994
 20
485.4747359321534
 30
0.0
 10
-235.1282970117583
 20
482.9380615497605
 30
0.0
 10
-240.0656242118131
 20
480.2841344583144
 30
0.0
 10
-244.7711730832296
 20
477.5180020512549
 30
0.0
 10
-249.2351302878601
 20
474.6447749949863
 30
0.0
 10
-253.4501155644377
 20
471.6703462301527
 30
0.0
 10
-257.4016663050692
 20
468.5987344295537
 30
0.0
 10
-260.793842603524
 20
465.7063164645743
 30
0.0
 10
-262.779124419719
 20
463.8139308058056
 30
0.0
 10
-263.6291391042062
 20
463.0036903726618
 30
0.0
  0
SPLINE
  5
378
330
371
100
AcDbEntity
  8
0
  6
CONTINUOUS
 62
     7
100
AcDbSpline
210
0.0
220
0.0
230
1.0
 70
     8
 71
     3
 72
    14
 73
    10
 74
     0
 42
0.00000001
 43
0.00000001
 40
0.0
 40
0.0
 40
0.0
 40
0.0
 40
0.0920022423001747
 40
0.2666375102545984
 40
0.4412236536007043
 40
0.6157038418768475
 40
0.7900452466192089
 40
0.9642152502777809
 40
1.0
 40
1.0
 40
1.0
 40
1.0
 10
-263.6291391042063
 20
463.0036903726618
 30
0.0
 10
-264.2082279205878
 20
462.4286480622997
 30
0.0
 10
-265.8865218007792
 20
460.762081616824
 30
0.0
 10
-268.448946512584
 20
457.945189330006
 30
0.0
 10
-271.2138746685137
 20
454.5352891438338
 30
0.0
 10
-273.6866127338861
 20
451.0631912810308
 30
0.0
 10
-275.8325271595446
 20
447.5332847179195
 30
0.0
 10
-277.2595066008111
 20
444.9119514157409
 30
0.0
 10
-277.8742748046392
 20
443.4574324579397
 30
0.0
 10
-277.9790560775417
 20
443.209523820326
 30
0.0
  0
SPLINE
  5
379
330
371
100
AcDbEntity
  8
0
  6
CONTINUOUS
 62
     7
100
AcDbSpline
210
0.0
220
0.0
230
1.0
 70
     8
 71
     3
 72
    56
 73
    52
 74
     0
 42
0.00000001
 43
0.00000001
 40
0.0
 40
0.0
 40
0.0
 40
0.0
 40
0.0169472645286506
 40
0.0376333900471404
 40
0.0583154400892986
 40
0.0789955086601785
 40
0.0996750957368327
 40
0.1203550616098876
 40
0.141036290303893
 40
0.1617193672373929
 40
0.1824046495688316
 40
0.2030923238935816
 40
0.2237824519829473
 40
0.2444750061559869
 40
0.2651698960899111
 40
0.285866988787816
 40
0.3065661232033151
 40
0.3272671207646159
 40
0.3479697927933946
 40
0.3686739455973543
 40
0.3893793838356617
 40
0.4100859126125184
 40
0.4307933386415692
 40
0.4515014707374463
 40
0.4722101198256566
 40
0.4929190986136732
 40
0.5136282210310908
 40
0.534337280475947
 40
0.5550460503115008
 40
0.5757543432711165
 40
0.5964619700108579
 40
0.6171687384807756
 40
0.6378744535041397
 40
0.6585789166589411
 40
0.6792819265951894
 40
0.6999832799665608
 40
0.7206827732160674
 40
0.741380205536674
 40
0.7620753834343205
 40
0.7827681274581554
 40
0.8034582818352122
 40
0.8241457279577589
 40
0.8448304029168013
 40
0.8655123245398607
 40
0.8861916246364008
 40
0.9068685923011741
 40
0.9275437290293254
 40
0.9482178168090114
 40
0.968891761032652
 40
0.9895668126260507
 40
1.0
 40
1.0
 40
1.0
 40
1.0
 10
14.34237779650471
 20
387.0147007912244
 30
0.0
 10
13.44003732736154
 20
386.1563175132653
 30
0.0
 10
11.43628440468922
 20
384.2501766930309
 30
0.0
 10
8.001085426983197
 20
381.3888349620214
 30
0.0
 10
4.109872840358339
 20
378.4214091546415
 30
0.0
 10
-0.0473019157730334
 20
375.5478524208346
 30
0.0
 10
-4.451924634887722
 20
372.7714415915796
 30
0.0
 10
-9.097923630672925
 20
370.0987085350844
 30
0.0
 10
-13.97521567379274
 20
367.5350732650159
 30
0.0
 10
-19.0741635589804
 20
365.0859773307199
 30
0.0
 10
-24.38438936066509
 20
362.7565691722976
 30
0.0
 10
-29.89511834039823
 20
360.5517695436872
 30
0.0
 10
-35.59512184022222
 20
358.476233918436
 30
0.0
 10
-41.4727683545269
 20
356.5343456210423
 30
0.0
 10
-47.51604590556634
 20
354.7302032966259
 30
0.0
 10
-53.71259219660359
 20
353.0676119960561
 30
0.0
 10
-60.04972268784623
 20
351.5500750063775
 30
0.0
 10
-66.51445922640619
 20
350.1807868993156
 30
0.0
 10
-73.09355854852686
 20
348.9626274505952
 30
0.0
 10
-79.77354087078928
 20
347.8981563640213
 30
0.0
 10
-86.5407185439404
 20
346.9896087064899
 30
0.0
 10
-93.3812247992342
 20
346.2388910030444
 30
0.0
 10
-100.2810425905032
 20
345.6475779552844
 30
0.0
 10
-107.226033530302
 20
345.2169097605874
 30
0.0
 10
-114.2019669086815
 20
344.9477900179094
 30
0.0
 10
-121.1945487759363
 20
344.8407842114175
 30
0.0
 10
-128.1894486959943
 20
344.8961187475284
 30
0.0
 10
-135.1723266794373
 20
345.1136802070695
 30
0.0
 10
-142.1288669845966
 20
345.4930151972318
 30
0.0
 10
-149.0448096582494
 20
346.0333313689821
 30
0.0
 10
-155.9059816659087
 20
346.7334993222332
 30
0.0
 10
-162.6983211928512
 20
347.5920543179758
 30
0.0
 10
-169.4079063820738
 20
348.6071986800909
 30
0.0
 10
-176.0209839155139
 20
349.7768047411307
 30
0.0
 10
-182.5239974215883
 20
351.0984183313809
 30
0.0
 10
-188.9036157047517
 20
352.5692628148915
 30
0.0
 10
-195.1467607948144
 20
354.1862436864483
 30
0.0
 10
-201.2406358572898
 20
355.9459537486109
 30
0.0
 10
-207.1727529029165
 20
357.8446789363944
 30
0.0
 10
-212.9309606823238
 20
359.8784047769415
 30
0.0
 10
-218.5034715413775
 20
362.0428239159642
 30
0.0
 10
-223.8788920679809
 20
364.3333436874541
 30
0.0
 10
-229.0462397782787
 20
366.7450984099556
 30
0.0
 10
-233.9950122974154
 20
369.272950163739
 30
0.0
 10
-238.7150611103162
 20
371.9115403583478
 30
0.0
 10
-243.1971946488751
 20
374.6551618374421
 30
0.0
 10
-247.4310590096308
 20
377.4983135495174
 30
0.0
 10
-251.4131592281723
 20
380.4337132205187
 30
0.0
 10
-255.1169887599366
 20
383.4597785650563
 30
0.0
 10
-258.0285844061846
 20
386.0419498167286
 30
0.0
 10
-259.5957391513178
 20
387.6402242204692
 30
0.0
 10
-260.1213368592792
 20
388.1762589457621
 30
0.0
  0
SPLINE
  5
37A
330
371
100
AcDbEntity
  8
0
  6
CONTINUOUS
 62
     7
100
AcDbSpline
210
0.0
220
0.0
230
1.0
 70
     8
 71
     3
 72
    10
 73
     6
 74
     0
 42
0.00000001
 43
0.00000001
 40
0.0
 40
0.0
 40
0.0
 40
0.0
 40
0.2942552431872029
 40
0.6558615780786158
 40
1.0
 40
1.0
 40
1.0
 40
1.0
 10
-77.10779514909036
 20
353.0309268899497
 30
0.0
 10
-77.13336782753841
 20
352.5569189754501
 30
0.0
 10
-77.19036642868812
 20
351.5004090711295
 30
0.0
 10
-77.62672026206855
 20
349.872384638141
 30
0.0
 10
-78.18999124879258
 20
348.704512949308
 30
0.0
 10
-78.46465597228372
 20
348.1350301212431
 30
0.0
  0
SPLINE
  5
37B
330
371
100
AcDbEntity
  8
0
  6
CONTINUOUS
 62
     7
100
AcDbSpline
210
0.0
220
0.0
230
1.0
 70
     8
 71
     3
 72
    11
 73
     7
 74
     0
 42
0.00000001
 43
0.00000001
 40
0.0
 40
0.0
 40
0.0
 40
0.0
 40
0.0111275102251057
 40
0.3487936254406573
 40
0.6948743566430374
 40
1.0
 40
1.0
 40
1.0
 40
1.0
 10
-166.154504182814
 20
348.1431479463897
 30
0.0
 10
-166.1657147474261
 20
348.1612575238865
 30
0.0
 10
-166.5171117261903
 20
348.728905188321
 30
0.0
 10
-166.9393002395204
 20
349.8504122438768
 30
0.0
 10
-167.4150787304703
 20
351.429027219645
 30
0.0
 10
-167.4800348644594
 20
352.4562515860038
 30
0.0
 10
-167.510470349964
 20
352.9375621319413
 30
0.0
  0
SPLINE
  5
37C
330
371
100
AcDbEntity
  8
0
  6
CONTINUOUS
 62
     7
100
AcDbSpline
210
0.0
220
0.0
230
1.0
 70
     8
 71
     3
 72
    11
 73
     7
 74
     0
 42
0.00000001
 43
0.00000001
 40
0.0
 40
0.0
 40
0.0
 40
0.0
 40
0.2094129584020956
 40
0.6177883832739142
 40
0.9925694717051229
 40
1.0
 40
1.0
 40
1.0
 40
1.0
 10
34.55120589464188
 20
325.5202836932864
 30
0.0
 10
34.62257530441749
 20
325.686142412939
 30
0.0
 10
34.83312193255797
 20
326.1754415998081
 30
0.0
 10
35.49384128193649
 20
326.8680404433505
 30
0.0
 10
36.08041658262584
 20
327.2863270904598
 30
0.0
 10
36.3425521735815
 20
327.378261934192
 30
0.0
 10
36.34764831885931
 20
327.3800492280046
 30
0.0
  0
LWPOLYLINE
  5
39C
330
371
100
AcDbEntity
  8
0
  6
CONTINUOUS
 62
     7
100
AcDbPolyline
 90
        3
 70
   128
 43
0.0
 10
34.5104084406
 20
325.5760009105
 10
34.3875531207
 20
342.8452318023
 10
33.97720788
 20
400.2541339633
  0
LWPOLYLINE
  5
39D
330
371
100
AcDbEntity
  8
0
  6
CONTINUOUS
 62
     7
100
AcDbPolyline
 90
       64
 70
   128
 43
0.0
 10
-283.1219352521
 20
344.3627809281
 10
-283.1238162501
 20
343.7607045483
 10
-282.9306526737
 20
339.8666428749
 10
-282.3822193362
 20
335.9815652747
 10
-281.4797292793
 20
332.1140648809
 10
-280.225178658
 20
328.2726959488
 10
-278.6213423256
 20
324.4659549356
 10
-276.6717676963
 20
320.702261707
 10
-274.3807668986
 20
316.9899409146
 10
-271.7534072382
 20
313.3372035828
 10
-268.7954999892
 20
309.7521289474
 10
-265.5135875411
 20
306.242646586
 10
-261.914928928
 20
302.8165188787
 10
-258.0074837729
 20
299.4813238392
 10
-253.7998946821
 20
296.2444383538
 10
-249.3014681295
 20
293.1130218645
 10
-244.5221538723
 20
290.0940005338
 10
-239.4725229436
 20
287.1940519252
 10
-234.1637442711
 20
284.4195902336
 10
-228.6075599734
 20
281.7767520979
 10
-222.8162593886
 20
279.2713830282
 10
-216.8026518918
 20
276.9090244762
 10
-210.5800385637
 20
274.6949015786
 10
-204.1621827703
 20
272.6339116001
 10
-197.5632797208
 20
270.7306131011
 10
-190.7979250703
 20
268.9892158553
 10
-183.8810826367
 20
267.4135715383
 10
-176.8280513031
 20
266.0071652083
 10
-169.6544311793
 20
264.7731075977
 10
-162.3760890973
 20
263.7141282327
 10
-155.009123516
 20
262.8325693962
 10
-147.5698289148
 20
262.130380947
 10
-140.0746597525
 20
261.6091160069
 10
-132.5401940728
 20
261.2699275256
 10
-124.9830968368
 20
261.1135657306
 10
-117.4200830627
 20
261.1403764675
 10
-109.8678808553
 20
261.3503004356
 10
-102.3431944056
 20
261.7428733188
 10
-94.8626670449
 20
262.3172268122
 10
-87.4428444317
 20
263.0720905433
 10
-80.1001379561
 20
264.0057948815
 10
-72.8507884403
 20
265.1162746311
 10
-65.7108302167
 20
266.401073599
 10
-58.6960556628
 20
267.8573500277
 10
-51.821980271
 20
269.4818828805
 10
-45.1038083308
 20
271.2710789662
 10
-38.5563993001
 20
273.2209808862
 10
-32.1942349378
 20
275.3272757879
 10
-26.0313872732
 20
277.5853049042
 10
-20.0814874809
 20
279.9900738572
 10
-14.3576957306
 20
282.5362637056
 10
-8.8726720796
 20
285.218242709
 10
-3.6385484706
 20
288.0300787844
 10
1.3330981021
 20
290.9655526271
 10
6.031271199
 20
294.0181714664
 10
10.4455792574
 20
297.1811834268
 10
14.5662585762
 20
300.447592462
 10
18.384194911
 20
303.8101738288
 10
21.8909436339
 20
307.2614900672
 10
25.0787484109
 20
310.7939074505
 10
27.9405583582
 20
314.3996128703
 10
30.4700436373
 20
318.0706311172
 10
32.6616094555
 20
321.7988425212
 10
34.5104084406
 20
325.5760009105
  0
LWPOLYLINE
  5
39E
330
371
100
AcDbEntity
  8
0
  6
CONTINUOUS
 62
     7
100
AcDbPolyline
 90
      134
 70
   128
 43
0.0
 10
-262.9306609456
 20
463.1452263005
 10
-266.2780378222
 20
459.6823126785
 10
-269.3041615744
 20
456.1418464529
 10
-272.0022797369
 20
452.5317277882
 10
-274.3663717531
 20
448.8600122707
 10
-276.3911624092
 20
445.1348929335
 10
-278.0721336056
 20
441.3646819744
 10
-279.4055344381
 20
437.5577922084
 10
-280.3883895682
 20
433.722718295
 10
-281.0185058618
 20
429.8680177838
 10
-281.2944772829
 20
426.0022920189
 10
-281.2156880315
 20
422.134166946
 10
-280.7823139172
 20
418.2722738648
 10
-279.9953219671
 20
414.4252301687
 10
-278.8564682679
 20
410.6016201166
 10
-277.3682940476
 20
406.8099756776
 10
-275.5341200048
 20
403.058757493
 10
-273.358038899
 20
399.3563359975
 10
-270.8449064179
 20
395.7109727411
 10
-268.000330343
 20
392.1308019546
 10
-264.8306580356
 20
388.6238123991
 10
-261.3429622742
 20
385.1978295395
 10
-257.5450254716
 20
381.8604980832
 10
-253.4453223101
 20
378.6192649217
 10
-249.0530008305
 20
375.4813625136
 10
-244.3778620194
 20
372.453792746
 10
-239.4303379397
 20
369.5433113112
 10
-234.2214684521
 20
366.756412631
 10
-228.7628765813
 20
364.0993153664
 10
-223.0667425801
 20
361.5779485402
 10
-217.1457767509
 20
359.1979383077
 10
-211.0131910837
 20
356.9645954025
 10
-204.682669775
 20
354.8829032858
 10
-198.1683386933
 20
352.9575070267
 10
-191.4847338584
 20
351.1927029371
 10
-184.6467690062
 20
349.5924289852
 10
-177.6697023101
 20
348.1602560077
 10
-170.5691023341
 20
346.8993797426
 10
-163.3608132931
 20
345.8126136979
 10
-156.0609196988
 20
344.9023828737
 10
-148.685710468
 20
344.1707183507
 10
-141.2516425765
 20
343.6192527586
 10
-133.7753043367
 20
343.2492166328
 10
-126.2733783825
 20
343.0614356686
 10
-118.7626044442
 20
343.0563288788
 10
-111.2597419953
 20
343.2339076585
 10
-103.7815328557
 20
343.5937757601
 10
-96.3446638342
 20
344.1351301772
 10
-88.9657294936
 20
344.8567629364
 10
-81.6611951217
 20
345.7570637927
 10
-74.4473599909
 20
346.834023823
 10
-67.3403209882
 20
348.0852399083
 10
-60.3559366966
 20
349.5079200962
 10
-53.5097920085
 20
351.0988898311
 10
-46.8171633497
 20
352.8545990372
 10
-40.2929845917
 20
354.7711300408
 10
-33.9518137285
 20
356.8442063119
 10
-27.8078003917
 20
359.0692020066
 10
-21.8746542776
 20
361.4411522896
 10
-16.1656145552
 20
363.9547644122
 10
-10.6934203244
 20
366.604429523
 10
-5.4702821903
 20
369.384235183
 10
-0.5078550164
 20
372.2879785588
 10
4.1827880817
 20
375.3091802636
 10
8.5911804452
 20
378.4410988149
 10
12.707485227
 20
381.6767456778
 10
16.5225173415
 20
385.0089008589
 10
20.0277639603
 20
388.4301290171
 10
23.2154035075
 20
391.9327960546
 10
26.0783231129
 20
395.5090861517
 10
28.6101344835
 20
399.1510192066
 10
30.8051881579
 20
402.8504686427
 10
32.6585861132
 20
406.5991795417
 10
34.1661926938
 20
410.3887870637
 10
35.3246438399
 20
414.2108351126
 10
36.131354594
 20
418.0567952046
 10
36.584524869
 20
421.918085499
 10
36.6831434648
 20
425.7860899472
 10
36.4269903247
 20
429.6521775188
 10
35.8166370266
 20
433.5077214607
 10
34.8534455074
 20
437.3441185468
 10
33.5395650239
 20
441.1528082751
 10
31.8779273573
 20
444.9252919695
 10
29.8722402709
 20
448.6531517437
 10
27.5269792369
 20
452.3280692849
 10
24.8473774497
 20
455.9418444151
 10
21.8394141487
 20
459.486413389
 10
18.5098012762
 20
462.953866887
 10
14.8659685005
 20
466.3364676647
 10
10.9160466372
 20
469.626667817
 10
6.6688495067
 20
472.8171256208
 10
2.1338542664
 20
475.9007219173
 10
-2.6788197359
 20
478.8705759973
 10
-7.7584335428
 20
481.720060955
 10
-13.0936525496
 20
484.4428184754
 10
-18.6725717964
 20
487.0327730218
 10
-24.482742533
 20
489.4841453928
 10
-30.5111999966
 20
491.7914656182
 10
-36.7444923411
 20
493.9495851642
 10
-43.1687106542
 20
495.9536884223
 10
-49.7695199927
 20
497.7993034545
 10
-56.5321913699
 20
499.482311972
 10
-63.4416346216
 20
500.9989585247
 10
-70.4824320781
 20
502.3458588811
 10
-77.6388729673
 20
503.5200075797
 10
-84.8949884712
 20
504.5187846358
 10
-92.2345873587
 20
505.3399613872
 10
-99.6412921148
 20
505.9817054675
 10
-107.0985754851
 20
506.4425848946
 10
-114.5897973542
 20
506.7215712665
 10
-122.0982418771
 20
506.8180420552
 10
-129.607154778
 20
506.7317819969
 10
-137.099780736
 20
506.4629835715
 10
-144.5594007729
 20
506.0122465733
 10
-151.9693695595
 20
505.3805767728
 10
-159.313152558
 20
504.5693836724
 10
-166.5743629168
 20
503.580477361
 10
-173.7367980364
 20
502.4160644753
 10
-180.7844757234
 20
501.0787432759
 10
-187.701669853
 20
499.5714978491
 10
-194.4729454604
 20
497.8976914489
 10
-201.0831931819
 20
496.0610589919
 10
-207.5176629702
 20
494.0656987233
 10
-213.761997007
 20
491.9160630721
 10
-219.8022617415
 20
489.6169487159
 10
-225.6249789812
 20
487.1734858779
 10
-231.2171559671
 20
484.5911268791
 10
-236.5663143657
 20
481.8756339722
 10
-241.660518113
 20
479.0330664837
 10
-246.4884000484
 20
476.0697672932
 10
-251.0391872795
 20
472.99234868
 10
-255.3027252206
 20
469.8076775681
 10
-259.2695002513
 20
466.5228602043
 10
-262.9306609456
 20
463.1452263005
  0
LWPOLYLINE
  5
39F
330
371
100
AcDbEntity
  8
0
  6
CONTINUOUS
 62
     7
100
AcDbPolyline
 90
      133
 70
   128
 43
0.0
 10
-260.0337861328
 20
462.3579177989
 10
-263.3358503109
 20
458.9403481388
 10
-266.3184413793
 20
455.4457273957
 10
-268.9748028099
 20
451.8819720096
 10
-271.2989170897
 20
448.2571550327
 10
-273.2855193522
 20
444.5794878412
 10
-274.9301093045
 20
440.8573015341
 10
-276.2289614213
 20
437.0990280608
 10
-277.1791333849
 20
433.3131811193
 10
-277.7784727501
 20
429.5083368707
 10
-278.0256218205
 20
425.6931145109
 10
-277.9200207239
 20
421.8761567458
 10
-277.4619086808
 20
418.0661102122
 10
-276.6523234624
 20
414.271605891
 10
-275.4930990395
 20
410.5012395551
 10
-273.9868614283
 20
406.7635522967
 10
-272.1370227415
 20
403.0670111797
 10
-269.9477734586
 20
399.4199900587
 10
-267.4240729335
 20
395.8307506095
 10
-264.5716381594
 20
392.3074236138
 10
-261.3969308186
 20
388.8579905407
 10
-257.9071426444
 20
385.4902654653
 10
-254.1101791294
 20
382.2118773682
 10
-250.0146416171
 20
379.0302528529
 10
-245.6298078173
 20
375.9525993222
 10
-240.965610789
 20
372.9858886513
 10
-236.0326164384
 20
370.1368413939
 10
-230.8419995844
 20
367.4119115586
 10
-225.4055186437
 20
364.8172719877
 10
-219.7354889942
 20
362.3588003745
 10
-213.8447550767
 20
360.0420659479
 10
-207.7466612982
 20
357.8723168564
 10
-201.4550218024
 20
355.8544682798
 10
-194.9840891764
 20
353.9930912939
 10
-188.3485221639
 20
352.2924025163
 10
-181.5633524584
 20
350.7562545542
 10
-174.6439506516
 20
349.3881272767
 10
-167.6059914141
 20
348.1911199322
 10
-160.4654179872
 20
347.1679441273
 10
-153.2384060665
 20
346.3209176843
 10
-145.9413271583
 20
345.6519593904
 10
-138.5907114934
 20
345.1625846515
 10
-131.2032105804
 20
344.8539020586
 10
-123.795559485
 20
344.7266108772
 10
-116.3845389195
 20
344.7809994627
 10
-108.9869372291
 20
345.0169446074
 10
-101.6195123609
 20
345.4339118198
 10
-94.298953902
 20
346.030956535
 10
-87.0418452716
 20
346.8067262546
 10
-79.8646261551
 20
347.7594636107
 10
-72.7835552621
 20
348.8870103469
 10
-65.8146734958
 20
350.186812207
 10
-58.9737676147
 20
351.6559247219
 10
-52.276334471
 20
353.291019879
 10
-45.7375459048
 20
355.0883936621
 10
-39.3722143754
 20
357.0439744414
 10
-33.194759406
 20
359.1533321975
 10
-27.2191749189
 20
361.4116885565
 10
-21.458997535
 20
363.813927615
 10
-15.9272759087
 20
366.3546075289
 10
-10.6365411686
 20
369.0279728409
 10
-5.5987785308
 20
371.8279675189
 10
-0.8254001477
 20
374.7482486743
 10
3.6727807431
 20
377.782200931
 10
7.8855743153
 20
380.9229514113
 10
11.8034372365
 20
384.1633853052
 10
15.417494287
 20
387.4961619878
 10
18.7195584651
 20
390.9137316478
 10
21.7021495335
 20
394.4083523909
 10
24.3585109641
 20
397.972107777
 10
26.6826252438
 20
401.596924754
 10
28.6692275064
 20
405.2745919455
 10
30.3138174587
 20
408.9967782525
 10
31.6126695755
 20
412.7550517258
 10
32.5628415391
 20
416.5408986673
 10
33.1621809043
 20
420.3457429159
 10
33.4093299746
 20
424.1609652757
 10
33.3037288781
 20
427.9779230409
 10
32.845616835
 20
431.7879695745
 10
32.0360316166
 20
435.5824738956
 10
30.8768071937
 20
439.3528402316
 10
29.3705695825
 20
443.09052749
 10
27.5207308957
 20
446.7870686069
 10
25.3314816128
 20
450.434089728
 10
22.8077810876
 20
454.0233291772
 10
19.9553463136
 20
457.5466561728
 10
16.7806389728
 20
460.996089246
 10
13.2908507986
 20
464.3638143213
 10
9.4938872835
 20
467.6422024184
 10
5.3983497713
 20
470.8238269337
 10
1.0135159715
 20
473.9014804644
 10
-3.6506810569
 20
476.8681911354
 10
-8.5836754075
 20
479.7172383927
 10
-13.7742922614
 20
482.4421682281
 10
-19.2107732021
 20
485.0368077989
 10
-24.8808028516
 20
487.4952794121
 10
-30.7715367691
 20
489.8120138388
 10
-36.8696305477
 20
491.9817629302
 10
-43.1612700434
 20
493.9996115069
 10
-49.6322026694
 20
495.8609884928
 10
-56.2677696819
 20
497.5616772703
 10
-63.0529393874
 20
499.0978252324
 10
-69.9723411942
 20
500.4659525099
 10
-77.0103004317
 20
501.6629598544
 10
-84.1508738586
 20
502.6861356593
 10
-91.3778857793
 20
503.5331621024
 10
-98.6749646875
 20
504.2021203962
 10
-106.0255803525
 20
504.6914951352
 10
-113.4130812654
 20
505.000177728
 10
-120.8207323608
 20
505.1274689094
 10
-128.2317529263
 20
505.073080324
 10
-135.6293546167
 20
504.8371351792
 10
-142.9967794849
 20
504.4201679668
 10
-150.3173379439
 20
503.8231232517
 10
-157.5744465742
 20
503.0473535321
 10
-164.7516656907
 20
502.0946161759
 10
-171.8327365837
 20
500.9670694397
 10
-178.80161835
 20
499.6672675796
 10
-185.6425242311
 20
498.1981550648
 10
-192.3399573748
 20
496.5630599076
 10
-198.878745941
 20
494.7656861245
 10
-205.2440774704
 20
492.8101053452
 10
-211.4215324398
 20
490.7007475892
 10
-217.3971169269
 20
488.4423912301
 10
-223.1572943109
 20
486.0401521716
 10
-228.6890159372
 20
483.4994722578
 10
-233.9797506772
 20
480.8261069457
 10
-239.0175133151
 20
478.0261122677
 10
-243.7908916981
 20
475.1058311124
 10
-248.289072589
 20
472.0718788557
 10
-252.5018661612
 20
468.9311283754
 10
-256.4197290823
 20
465.6906944814
 10
-260.0337861328
 20
462.3579177989
  0
LWPOLYLINE
  5
3A0
330
371
100
AcDbEntity
  8
0
  6
CONTINUOUS
 62
     7
100
AcDbPolyline
 90
       13
 70
   128
 43
0.0
 10
-277.0139360464
 20
426.6389058104
 10
-277.0719483756
 20
425.0890106544
 10
-276.9669940206
 20
421.2954294001
 10
-276.5116876311
 20
417.5087170503
 10
-275.7070606226
 20
413.7374517265
 10
-274.5549357339
 20
409.9901765576
 10
-273.0579228986
 20
406.2753803271
 10
-271.2194133321
 20
402.6014782432
 10
-269.0435718501
 20
398.976792876
 10
-266.5353274332
 20
395.4095353034
 10
-263.7003620619
 20
391.9077865114
 10
-260.5450978445
 20
388.4794790871
 10
-260.0188159708
 20
387.9461340291
  0
LWPOLYLINE
  5
3A1
330
371
100
AcDbEntity
  8
0
  6
CONTINUOUS
 62
     7
100
AcDbPolyline
 90
       13
 70
   128
 43
0.0
 10
14.310986895
 20
386.870397214
 10
14.5740097328
 20
387.1259908937
 10
17.8558508056
 20
390.5226300486
 10
20.8201753443
 20
393.9958483962
 10
23.4602682004
 20
397.5377779798
 10
25.7701487144
 20
401.1403951897
 10
27.744584264
 20
404.7955389392
 10
29.3791021178
 20
408.4949291521
 10
30.6699995669
 20
412.2301855197
 10
31.6143523136
 20
415.9928464849
 10
32.210021095
 20
419.7743884105
 10
32.4556565298
 20
423.5662448877
 10
32.430106942
 20
425.9638797315
  0
LWPOLYLINE
  5
3A2
330
371
100
AcDbEntity
  8
0
  6
CONTINUOUS
 62
     7
100
AcDbPolyline
 90
        3
 70
   128
 43
0.0
 10
-248.6837558139
 20
292.6912721177
 10
-247.1263629358
 20
291.6800427574
 10
-244.1110306992
 20
289.8102926796
  0
SPLINE
  5
3A6
330
371
100
AcDbEntity
  8
0
  6
CONTINUOUS
 62
     7
100
AcDbSpline
210
0.0
220
0.0
230
1.0
 70
     8
 71
     3
 72
    20
 73
    16
 74
     0
 42
0.00000001
 43
0.00000001
 40
0.0
 40
0.0
 40
0.0
 40
0.0
 40
0.2500000000000008
 40
0.2500000000000008
 40
0.3750000000000007
 40
0.3750000000000007
 40
0.5000000000000006
 40
0.5000000000000006
 40
0.6250000000000004
 40
0.6250000000000004
 40
0.7500000000000002
 40
0.7500000000000002
 40
0.8750000000000001
 40
0.8750000000000001
 40
1.0
 40
1.0
 40
1.0
 40
1.0
 10
37.34703635130872
 20
402.0259338352092
 30
0.0
 10
38.17945004300434
 20
402.333509884859
 30
0.0
 10
39.07427991532779
 20
402.5751505506697
 30
0.0
 10
40.5077992405938
 20
402.8411907136646
 30
0.0
 10
41.00334901967801
 20
402.9135429804674
 30
0.0
 10
41.9958230459096
 20
403.0208131404622
 30
0.0
 10
42.4961247999949
 20
403.0565238722048
 30
0.0
 10
43.50478500280526
 20
403.0924176104086
 30
0.0
 10
44.01559949848968
 20
403.0925054671774
 30
0.0
 10
45.03472829084645
 20
403.0558378495484
 30
0.0
 10
45.53643891639288
 20
403.0195067599133
 30
0.0
 10
46.52468185567975
 20
402.9120627729288
 30
0.0
 10
47.01121335813406
 20
402.8409480164794
 30
0.0
 10
47.96874010320433
 20
402.6631164412955
 30
0.0
 10
48.43933849707024
 20
402.5562209609515
 30
0.0
 10
48.89237003742038
 20
402.4330966955759
 30
0.0
  0
SPLINE
  5
3AD
330
371
100
AcDbEntity
  8
0
  6
CONTINUOUS
 62
     7
100
AcDbSpline
210
0.0
220
0.0
230
1.0
 70
     8
 71
     3
 72
     8
 73
     4
 74
     0
 42
0.00000001
 43
0.00000001
 40
0.0
 40
0.0
 40
0.0
 40
0.0
 40
1.0
 40
1.0
 40
1.0
 40
1.0
 10
48.92824067713721
 20
328.9897518368437
 30
0.0
 10
48.92924790747033
 20
328.8444671220988
 30
0.0
 10
48.92655660102446
 20
328.7002362562784
 30
0.0
 10
48.92016609549007
 20
328.5570594280991
 30
0.0
  0
LWPOLYLINE
  5
3B6
330
371
100
AcDbEntity
  8
0
  6
CONTINUOUS
 62
     7
100
AcDbPolyline
 90
       10
 70
   128
 43
0.0
 10
48.9282406771
 20
328.9897518368
 10
47.0431664611
 20
329.3634504766
 10
45.043128287
 20
329.5365475766
 10
43.0107850117
 20
329.5018892692
 10
41.0301306177
 20
329.2609079352
 10
39.1830228567
 20
328.8235630052
 10
37.5458001793
 20
328.2079293501
 10
36.1861267715
 20
327.4394502715
 10
35.1601960854
 20
326.5498859641
 10
34.5104084406
 20
325.5760009105
  0
SPLINE
  5
3B7
330
371
100
AcDbEntity
  8
0
  6
CONTINUOUS
 62
     7
100
AcDbSpline
210
0.0
220
0.0
230
1.0
 70
     8
 71
     3
 72
    20
 73
    16
 74
     0
 42
0.00000001
 43
0.00000001
 40
0.0
 40
0.0
 40
0.0
 40
0.0
 40
0.1250000000000003
 40
0.1250000000000003
 40
0.2500000000000006
 40
0.2500000000000006
 40
0.5000000000000004
 40
0.5000000000000004
 40
0.7500000000000003
 40
0.7500000000000003
 40
0.8750000000000003
 40
0.8750000000000003
 40
0.9375000000000002
 40
0.9375000000000002
 40
1.0
 40
1.0
 40
1.0
 40
1.0
 10
37.92990181853641
 20
400.762441517078
 30
0.0
 10
37.65683230654589
 20
400.6614640693431
 30
0.0
 10
37.39878493443425
 20
400.5837912426803
 30
0.0
 10
36.90845377036621
 20
400.4576477082356
 30
0.0
 10
36.67565196732475
 20
400.4093236326372
 30
0.0
 10
36.01664458920705
 20
400.2953432774241
 30
0.0
 10
35.6432520604733
 20
400.2614833129736
 30
0.0
 10
34.99557632296298
 20
400.2270636406026
 30
0.0
 10
34.72154177251996
 20
400.2278148753351
 30
0.0
 10
34.38799653107987
 20
400.2359368598605
 30
0.0
 10
34.28921984238877
 20
400.2398836047199
 30
0.0
 10
34.15886308403267
 20
400.245730879392
 30
0.0
 10
34.11838704224245
 20
400.2476703975862
 30
0.0
 10
34.04334614299248
 20
400.2512238899191
 30
0.0
 10
34.00857297193996
 20
400.2528467981932
 30
0.0
 10
33.97720788003907
 20
400.2541339632818
 30
0.0
  0
SPLINE
  5
3B8
330
371
100
AcDbEntity
  8
0
  6
CONTINUOUS
 62
     7
100
AcDbSpline
210
0.0
220
0.0
230
1.0
 70
     8
 71
     3
 72
    20
 73
    16
 74
     0
 42
0.00000001
 43
0.00000001
 40
0.0
 40
0.0
 40
0.0
 40
0.0
 40
0.125
 40
0.125
 40
0.25
 40
0.25
 40
0.375
 40
0.375
 40
0.5
 40
0.5
 40
0.625
 40
0.625
 40
0.75
 40
0.75
 40
1.0
 40
1.0
 40
1.0
 40
1.0
 10
48.42569241882069
 20
401.1279178333343
 30
0.0
 10
48.01384620417456
 20
401.2403081703014
 30
0.0
 10
47.58602996532222
 20
401.3379215490041
 30
0.0
 10
46.71555122786438
 20
401.5003948077694
 30
0.0
 10
46.27324959041599
 20
401.5654172504647
 30
0.0
 10
45.37484561159271
 20
401.6637772481071
 30
0.0
 10
44.91874400886442
 20
401.6971164989059
 30
0.0
 10
43.99226031952819
 20
401.7310085908387
 30
0.0
 10
43.52788119163246
 20
401.731171631849
 30
0.0
 10
42.61091301004107
 20
401.6989493545661
 30
0.0
 10
42.15609091887316
 20
401.6666519081724
 30
0.0
 10
41.2538369377172
 20
401.5693917822333
 30
0.0
 10
40.80333435832063
 20
401.5037083256971
 30
0.0
 10
39.50012779891327
 20
401.2620044209767
 30
0.0
 10
38.68664298954041
 20
401.0422742654756
 30
0.0
 10
37.92990181853639
 20
400.762441517078
 30
0.0
  0
SPLINE
  5
3BA
330
371
100
AcDbEntity
  8
0
  6
CONTINUOUS
 62
     7
100
AcDbSpline
210
0.0
220
0.0
230
1.0
 70
     8
 71
     3
 72
    18
 73
    14
 74
     0
 42
0.00000001
 43
0.00000001
 40
0.0
 40
0.0
 40
0.0
 40
0.0
 40
0.1249999999999993
 40
0.1249999999999993
 40
0.2499999999999986
 40
0.2499999999999986
 40
0.4999999999999968
 40
0.4999999999999968
 40
0.7499999999999951
 40
0.7499999999999951
 40
0.8749999999999974
 40
0.8749999999999974
 40
1.0
 40
1.0
 40
1.0
 40
1.0
 10
37.3470363513087
 20
402.0259338352093
 30
0.0
 10
37.12020545890135
 20
401.9009902346908
 30
0.0
 10
36.90752274654974
 20
401.7927176225414
 30
0.0
 10
36.50539016749579
 20
401.5948635041273
 30
0.0
 10
36.31558480390778
 20
401.5053220928089
 30
0.0
 10
35.7793934679718
 20
401.25539554348
 30
0.0
 10
35.46984331908833
 20
401.114890782792
 30
0.0
 10
34.92301099263913
 20
400.8518522655071
 30
0.0
 10
34.6859713458723
 20
400.7298691907247
 30
0.0
 10
34.38271401434827
 20
400.5510609262869
 30
0.0
 10
34.29016187191937
 20
400.4921083713941
 30
0.0
 10
34.12143218638316
 20
400.3738053018851
 30
0.0
 10
34.04501525715381
 20
400.3142463487684
 30
0.0
 10
33.97720788003907
 20
400.2541339632819
 30
0.0
  0
LWPOLYLINE
  5
3BE
330
371
100
AcDbEntity
  8
0
  6
CONTINUOUS
 62
     7
100
AcDbPolyline
 90
       25
 70
   128
 43
0.0
 10
-89.1061651493
 20
346.7426906294
 10
-89.6357478361
 20
347.6271944501
 10
-90.9178039677
 20
349.3004988033
 10
-92.5219674856
 20
350.8984157486
 10
-94.4317775014
 20
352.4045484961
 10
-96.62763678
 20
353.8034420856
 10
-99.0870128336
 20
355.0807419758
 10
-101.784669136
 20
356.2233413414
 10
-104.6929240829
 20
357.2195155667
 10
-107.7819350431
 20
358.0590425562
 10
-111.020004584
 20
358.7333076269
 10
-114.3739057304
 20
359.2353919066
 10
-117.8092229178
 20
359.5601433314
 10
-121.2907051433
 20
359.704229512
 10
-124.7826276881
 20
359.6661719294
 10
-128.2491587014
 20
359.4463611057
 10
-131.6547268841
 20
359.0470525976
 10
-134.9643864983
 20
358.4723438506
 10
-138.1441759574
 20
357.7281321542
 10
-141.1614663189
 20
356.8220541275
 10
-143.9852961005
 20
355.7634073572
 10
-146.5866889874
 20
354.5630549916
 10
-148.9389511683
 20
353.2333142705
 10
-151.0179452502
 20
351.787830133
 10
-152.8023379404
 20
350.2414352025
  0
SPLINE
  5
3C0
330
371
100
AcDbEntity
  8
0
  6
CONTINUOUS
 62
     7
100
AcDbSpline
210
0.0
220
0.0
230
1.0
 70
     8
 71
     3
 72
    12
 73
     8
 74
     0
 42
0.00000001
 43
0.00000001
 40
0.0
 40
0.0
 40
0.0
 40
0.0
 40
0.2470481848479363
 40
0.4940555490689175
 40
0.7423224641808541
 40
0.9542882360416233
 40
1.0
 40
1.0
 40
1.0
 40
1.0
 10
48.92016609549007
 20
328.5570594280991
 30
0.0
 10
47.86947833780413
 20
328.7777033245292
 30
0.0
 10
45.76827643120832
 20
329.2189546596342
 30
0.0
 10
42.29641963876477
 20
329.1527271765759
 30
0.0
 10
39.23378974333002
 20
328.5698155173661
 30
0.0
 10
37.37375771026521
 20
327.8531611929632
 30
0.0
 10
36.50357105399448
 20
327.4488364768523
 30
0.0
 10
36.34920072091627
 20
327.3771096345156
 30
0.0
  0
LWPOLYLINE
  5
3C2
330
371
100
AcDbEntity
  8
0
  6
CONTINUOUS
 62
     7
100
AcDbPolyline
 90
       60
 70
   128
 43
0.0
 10
-278.7382234881
 20
406.7669327038
 10
-278.5284864497
 20
406.2715902847
 10
-276.7363276727
 20
402.5198455358
 10
-274.6047022368
 20
398.8154888662
 10
-272.1382959175
 20
395.1666632558
 10
-269.342530411
 20
391.5813896153
 10
-266.2235514168
 20
388.0675491542
 10
-262.7882151275
 20
384.6328660564
 10
-259.0440731579
 20
381.2848905009
 10
-254.9993559447
 20
378.0309820644
 10
-250.662954654
 20
374.8782935439
 10
-246.0444016371
 20
371.8337552331
 10
-241.1538494759
 20
368.9040596878
 10
-236.0020486653
 20
366.0956470147
 10
-230.6003239817
 20
363.4146907144
 10
-224.9605495881
 20
360.8670841107
 10
-219.0951229329
 20
358.4584273957
 10
-213.0169374966
 20
356.1940153198
 10
-206.73935445
 20
354.078825552
 10
-200.2761732832
 20
352.1175077385
 10
-193.6416014708
 20
350.3143732816
 10
-186.8502232418
 20
348.6733858621
 10
-179.9169675194
 20
347.1981527265
 10
-172.8570751043
 20
345.8919167575
 10
-165.6860651724
 20
344.7575493451
 10
-158.4197011597
 20
343.7975440751
 10
-151.0739561113
 20
343.0140112474
 10
-143.6649775691
 20
342.4086732374
 10
-136.209052076
 20
341.9828607092
 10
-128.7225693742
 20
341.7375096912
 10
-121.2219863775
 20
341.6731595183
 10
-113.7237909953
 20
341.789951646
 10
-106.2444658882
 20
342.08762934
 10
-98.8004522362
 20
342.56553824
 10
-91.4081135967
 20
343.2226277986
 10
-84.0836999344
 20
344.0574535902
 10
-76.8433119003
 20
345.0681804867
 10
-69.7028654384
 20
346.252586691
 10
-62.6780568
 20
347.6080686211
 10
-55.7843280388
 20
349.1316466336
 10
-49.0368330669
 20
350.8199715734
 10
-42.4504043427
 20
352.6693321359
 10
-36.0395202659
 20
354.6756630251
 10
-29.818273351
 20
356.8345538904
 10
-23.800339249
 20
359.1412590211
 10
-17.998946685
 20
361.5907077786
 10
-12.4268483791
 20
364.177515743
 10
-7.0962930125
 20
366.8959965491
 10
-2.0189983029
 20
369.7401743859
 10
2.793874754
 20
372.7037971334
 10
7.3317464188
 20
375.7803501055
 10
11.5846414647
 20
378.9630703711
 10
15.5432111053
 20
382.2449616204
 10
19.1987535455
 20
385.6188095441
 10
22.5432331096
 20
389.0771976922
 10
25.5692979057
 20
392.612523777
 10
28.2702959866
 20
396.2170163846
 10
30.6402899724
 20
399.8827520579
 10
32.674070102
 20
403.6016727143
 10
34.1096908064
 20
406.7376158202
  0
LWPOLYLINE
  5
3C4
330
371
100
AcDbEntity
  8
0
  6
CONTINUOUS
 62
     7
100
AcDbPolyline
 90
       11
 70
   128
 43
0.0
 10
-259.1903015786
 20
461.5292646485
 10
-262.4721426514
 20
458.1326254936
 10
-265.4364671901
 20
454.659407146
 10
-268.0765600462
 20
451.1174775624
 10
-270.3864405602
 20
447.5148603525
 10
-272.3608761099
 20
443.859716603
 10
-273.9953939636
 20
440.1603263901
 10
-275.2862914127
 20
436.4250700225
 10
-276.2306441594
 20
432.6624090573
 10
-276.8263129408
 20
428.8808671316
 10
-277.0139360464
 20
426.6389058104
  0
LWPOLYLINE
  5
3C5
330
371
100
AcDbEntity
  8
0
  6
CONTINUOUS
 62
     7
100
AcDbPolyline
 90
       57
 70
   128
 43
0.0
 10
32.430106942
 20
425.9638797315
 10
32.3507021748
 20
427.3598261421
 10
31.8953957853
 20
431.1465384919
 10
31.0907687767
 20
434.9178038157
 10
29.9386438881
 20
438.6650789846
 10
28.4416310527
 20
442.3798752151
 10
26.6031214863
 20
446.0537772989
 10
24.4272800043
 20
449.6784626662
 10
21.9190355874
 20
453.2457202387
 10
19.0840702161
 20
456.7474690308
 10
15.9288059986
 20
460.1757764551
 10
12.4603906234
 20
463.5228762926
 10
8.6866811667
 20
466.7811862857
 10
4.6162262943
 20
469.9433253143
 10
0.2582468956
 20
473.0021301164
 10
-4.3773848043
 20
475.9506715153
 10
-9.2801676087
 20
478.7822701163
 10
-14.4389951376
 20
481.490511438
 10
-19.8421809874
 20
484.0692604427
 10
-25.4774852044
 20
486.5126754344
 10
-31.3321420119
 20
488.8152212924
 10
-37.3928887292
 20
490.9716820096
 10
-43.6459958157
 20
492.977172509
 10
-50.0772979727
 20
494.8271497095
 10
-56.6722262321
 20
496.5174228178
 10
-63.4158409604
 20
498.0441628216
 10
-70.2928657012
 20
499.4039111638
 10
-77.2877217815
 20
500.593587577
 10
-84.3845636027
 20
501.6104970616
 10
-91.5673145353
 20
502.4523359904
 10
-98.8197033383
 20
503.1171973275
 10
-106.1253010184
 20
503.6035749481
 10
-113.4675580472
 20
503.9103670506
 10
-120.829841851
 20
504.0368786521
 10
-128.195474489
 20
503.9828231631
 10
-135.5477704342
 20
503.7483230368
 10
-142.8700743715
 20
503.3339094913
 10
-150.1457989275
 20
502.7405213066
 10
-157.358462246
 20
501.9695026977
 10
-164.4917253246
 20
501.0226002699
 10
-171.5294290281
 20
499.9019590617
 10
-178.4556306942
 20
498.6101176859
 10
-185.2546402484
 20
497.1500025786
 10
-191.9110557471
 20
495.5249213702
 10
-198.4097982685
 20
493.7385553923
 10
-204.7361460704
 20
491.7949513385
 10
-210.8757679403
 20
489.698512097
 10
-216.81475566
 20
487.453986777
 10
-222.5396555122
 20
485.0664599503
 10
-228.0374987572
 20
482.541340133
 10
-233.2958310119
 20
479.8843475337
 10
-238.3027404625
 20
477.1015010952
 10
-243.0468848486
 20
474.1991048598
 10
-247.5175171574
 20
471.1837336884
 10
-251.7045099688
 20
468.0622183666
 10
-255.5983783973
 20
464.8416301306
 10
-259.1903015786
 20
461.5292646485
  0
LWPOLYLINE
  5
3C7
330
371
100
AcDbEntity
  8
0
  6
CONTINUOUS
 62
     7
100
AcDbPolyline
 90
       50
 70
   128
 43
0.0
 10
9.5261566113
 20
382.5901714846
 10
9.3362997103
 20
383.0712626384
 10
7.7735050583
 20
386.5149647674
 10
5.8713422313
 20
389.9130761753
 10
3.6347737551
 20
393.2567315776
 10
1.0696345815
 20
396.5372077591
 10
-1.8173831345
 20
399.7459463319
 10
-5.018747493
 20
402.8745760636
 10
-8.5261065002
 20
405.9149347162
 10
-12.3303098567
 20
408.8590903414
 10
-16.4214328305
 20
411.6993619732
 10
-20.7888021487
 20
414.4283396671
 10
-25.4210238435
 20
417.0389038321
 10
-30.3060129774
 20
419.5242438042
 10
-35.4310251715
 20
421.8778756153
 10
-40.7826898542
 20
424.0936589087
 10
-46.3470451432
 20
426.1658129587
 10
-52.1095742711
 20
428.0889317521
 10
-58.0552434573
 20
429.8579980915
 10
-64.1685411297
 20
431.4683966848
 10
-70.4335183927
 20
432.915926186
 10
-76.8338306359
 20
434.1968101558
 10
-83.3527801756
 20
435.3077069142
 10
-89.9733598166
 20
436.2457182584
 10
-96.6782972227
 20
437.008397024
 10
-103.4500999776
 20
437.5937534691
 10
-110.2711012212
 20
438.0002604656
 10
-117.1235057401
 20
438.2268574831
 10
-123.9894363932
 20
438.272953356
 10
-130.8509807515
 20
438.1384278252
 10
-137.6902378291
 20
437.8236318526
 10
-144.4893647852
 20
437.329386705
 10
-151.230623474
 20
436.6569818114
 10
-157.8964267211
 20
435.8081713995
 10
-164.469384207
 20
434.7851699188
 10
-170.9323478362
 20
433.5906462632
 10
-177.2684564744
 20
432.2277168086
 10
-183.4611799377
 20
430.6999372824
 10
-189.4943621176
 20
429.0112934869
 10
-195.3522631306
 20
427.1661909009
 10
-201.0196003819
 20
425.1694431865
 10
-206.4815884357
 20
423.0262596303
 10
-211.7239775888
 20
420.7422315537
 10
-216.7330910464
 20
418.323317725
 10
-221.4958606034
 20
415.7758288144
 10
-225.999860738
 20
413.1064109293
 10
-230.233341028
 20
410.3220282765
 10
-234.1852568067
 20
407.4299449922
 10
-237.845297977
 20
404.4377061915
 10
-241.2039159095
 20
401.3531182839
  0
LWPOLYLINE
  5
3C9
330
371
100
AcDbEntity
  8
0
  6
CONTINUOUS
 62
     7
100
AcDbPolyline
 90
       46
 70
   128
 43
0.0
 10
-9.3162013336
 20
370.0138544293
 10
-9.6222385522
 20
370.7024383328
 10
-11.2530634355
 20
373.8788725914
 10
-13.2211589543
 20
377.0042132438
 10
-15.5205480672
 20
380.0689687329
 10
-18.1442476051
 20
383.0638314972
 10
-21.0842894786
 20
385.9797062368
 10
-24.3317448773
 20
388.8077375359
 10
-27.8767513858
 20
391.5393367566
 10
-31.7085429358
 20
394.1662081217
 10
-35.8154825024
 20
396.6803739092
 10
-40.1850974452
 20
399.0741986802
 10
-44.804117387
 20
401.3404124677
 10
-49.6585145162
 20
403.4721328548
 10
-54.7335461882
 20
405.4628858767
 10
-60.0137996987
 20
407.306625682
 10
-65.4832390912
 20
408.9977528935
 10
-71.1252538582
 20
410.5311316134
 10
-76.9227093861
 20
411.902105021
 10
-82.8579989931
 20
413.106509515
 10
-88.9130973998
 20
414.1406873586
 10
-95.0696154713
 20
415.0014977877
 10
-101.3088560645
 20
415.6863265492
 10
-107.6118708108
 20
416.1930938409
 10
-113.9595176616
 20
416.5202606269
 10
-120.332519022
 20
416.6668333127
 10
-126.7115202965
 20
416.6323667616
 10
-133.0771486676
 20
416.4169656476
 10
-139.4100719314
 20
416.0212841367
 10
-145.691057208
 20
415.4465239007
 10
-151.9010293515
 20
414.6944304675
 10
-158.0211288807
 20
413.7672879202
 10
-164.0327692544
 20
412.6679119602
 10
-169.9176933183
 20
411.3996413561
 10
-175.6580287516
 20
409.9663278041
 10
-181.2363423442
 20
408.3723242303
 10
-186.635692941
 20
406.6224715713
 10
-191.8396828918
 20
404.722084072
 10
-196.8325078501
 20
402.6769331467
 10
-201.5990047705
 20
400.4932298518
 10
-206.1246979586
 20
398.1776060222
 10
-210.395843033
 20
395.7370941314
 10
-214.3994686664
 20
393.1791059339
 10
-218.1234159794
 20
390.5114099557
 10
-221.5563754663
 20
387.7421079018
 10
-224.6879213421
 20
384.8796100516
  0
LWPOLYLINE
  5
3CA
330
371
100
AcDbEntity
  8
0
  6
CONTINUOUS
 62
     7
100
AcDbPolyline
 90
       11
 70
   128
 43
0.0
 10
-164.9091175969
 20
367.4742742891
 10
-166.6839008133
 20
365.5452502681
 10
-168.1301414661
 20
363.5447883733
 10
-169.2371320956
 20
361.4876993246
 10
-169.9966769305
 20
359.3892130897
 10
-170.4031525666
 20
357.2648661265
 10
-170.4535496004
 20
355.1303863566
 10
-170.14749491
 20
353.0015767215
 10
-169.4872544173
 20
350.8941981829
 10
-168.4777163117
 20
348.8238530341
 10
-168.2313844058
 20
348.4105016233
  0
LWPOLYLINE
  5
3CB
330
371
100
AcDbEntity
  8
0
  6
CONTINUOUS
 62
     7
100
AcDbPolyline
 90
       36
 70
   128
 43
0.0
 10
-76.3831559536
 20
348.4133524716
 10
-75.8896769056
 20
349.270107145
 10
-74.955544274
 20
351.3498203618
 10
-74.3719937379
 20
353.4631937013
 10
-74.1433457012
 20
355.5945804867
 10
-74.2712929939
 20
357.7282006759
 10
-74.7548883392
 20
359.8482576916
 10
-75.5905513661
 20
361.9390553733
 10
-76.7720951181
 20
363.9851141865
 10
-78.2907718586
 20
365.9712858276
 10
-80.1353378363
 20
367.8828653767
 10
-82.2921365301
 20
369.7057001675
 10
-84.7451997571
 20
371.4262945692
 10
-87.4763658954
 20
373.0319099026
 10
-90.4654143465
 20
374.5106587536
 10
-93.6902152414
 20
375.8515929831
 10
-97.1268932825
 20
377.0447847833
 10
-100.750004508
 20
378.0814001794
 10
-104.53272467
 20
378.9537644338
 10
-108.4470478319
 20
379.6554188667
 10
-112.4639937144
 20
380.1811686743
 10
-116.5538222558
 20
380.5271213888
 10
-120.6862537964
 20
380.6907156974
 10
-124.8306932587
 20
380.6707404052
 10
-128.9564566632
 20
380.4673434021
 10
-133.032998301
 20
380.0820305684
 10
-137.0301368841
 20
379.5176546256
 10
-140.9182789969
 20
378.7783940156
 10
-144.6686381955
 20
377.8697219653
 10
-148.2534481326
 20
376.7983659648
 10
-151.6461681296
 20
375.572257959
 10
-154.8216796746
 20
374.2004756225
 10
-157.7564723912
 20
372.693175152
 10
-160.428818101
 20
371.0615160726
 10
-162.8189316911
 20
369.3175786174
 10
-164.9091175969
 20
367.4742742891
  0
LWPOLYLINE
  5
3CF
330
371
100
AcDbEntity
  8
0
  6
CONTINUOUS
 62
     7
100
AcDbPolyline
 90
       32
 70
   128
 43
0.0
 10
-77.0818272894
 20
353.1258194161
 10
-77.0793708729
 20
353.3975058258
 10
-77.2610560726
 20
355.4561727062
 10
-77.7952958274
 20
357.4985135067
 10
-78.677908987
 20
359.5085441412
 10
-79.9019879067
 20
361.4705333949
 10
-81.4579525093
 20
363.3691260416
 10
-83.3336252621
 20
365.1894630197
 10
-85.5143264826
 20
366.9172977242
 10
-87.9829892272
 20
368.5391075058
 10
-90.7202928626
 20
370.0421995042
 10
-93.7048142767
 20
371.4148099864
 10
-96.9131955427
 20
372.6461964143
 10
-100.3203267272
 20
373.7267215196
 10
-103.8995424091
 20
374.6479287284
 10
-107.6228303728
 20
375.4026083451
 10
-111.4610508418
 20
375.9848539785
 10
-115.3841645368
 20
376.3901087672
 10
-119.361467774
 20
376.6152010429
 10
-123.361832763
 20
376.6583691534
 10
-127.3539512239
 20
376.5192752497
 10
-131.3065794169
 20
376.1990079302
 10
-135.1887826673
 20
375.7000737209
 10
-138.9701774709
 20
375.0263774584
 10
-142.6211692865
 20
374.1831917295
 10
-146.1131841528
 20
373.1771156057
 10
-149.4188923189
 20
372.0160229968
 10
-152.5124221364
 20
370.7090010266
 10
-155.36956254
 20
369.2662789143
 10
-157.9679525323
 20
367.6991479165
 10
-160.2872561885
 20
366.019872958
 10
-162.3093218129
 20
364.2415966423
  0
LWPOLYLINE
  5
3D1
330
371
100
AcDbEntity
  8
0
  6
CONTINUOUS
 62
     7
100
AcDbPolyline
 90
       29
 70
   128
 43
0.0
 10
-78.0024721267
 20
348.8122518523
 10
-78.849978569
 20
350.7249066422
 10
-80.0692299479
 20
352.6791581733
 10
-81.6190581139
 20
354.5702631219
 10
-83.4873335604
 20
356.3834210277
 10
-85.6594344988
 20
358.1044414718
 10
-88.1183612943
 20
359.7198551358
 10
-90.8448695107
 20
361.2170192174
 10
-93.8176205245
 20
362.5842163778
 10
-97.0133485284
 20
363.8107464455
 10
-100.4070426179
 20
364.8870101597
 10
-103.9721425354
 20
365.8045842977
 10
-107.6807465403
 20
366.5562875976
 10
-111.5038297778
 20
367.136236962
 10
-115.4114714383
 20
367.5398935008
 10
-119.3730889275
 20
367.7640980542
 10
-123.3576772171
 20
367.8070959177
 10
-127.3340515014
 20
367.6685505746
 10
-131.2710912601
 20
367.3495463301
 10
-135.1379838191
 20
366.852579825
 10
-138.9044655013
 20
366.181540496
 10
-142.5410584807
 20
365.3416801356
 10
-146.0193014865
 20
364.3395717899
 10
-149.3119725512
 20
363.1830583153
 10
-152.3933020595
 20
361.881190998
 10
-155.23917443
 20
360.4441587148
 10
-157.8273168529
 20
358.8832081917
 10
-160.1374736046
 20
357.2105559829
 10
-162.1515645762
 20
355.4392928599
  0
LWPOLYLINE
  5
3D3
330
371
100
AcDbEntity
  8
0
  6
CONTINUOUS
 62
     7
100
AcDbPolyline
 90
       27
 70
   128
 43
0.0
 10
-81.6228369288
 20
347.680091328
 10
-82.6935725251
 20
349.4410198703
 10
-84.1804543842
 20
351.2921912603
 10
-85.992628264
 20
353.0648066987
 10
-88.1146333359
 20
354.7437428556
 10
-90.528365401
 20
356.3146756398
 10
-93.2132313483
 20
357.7642024066
 10
-96.1463248481
 20
359.0799563046
 10
-99.3026217809
 20
360.2507117857
 10
-102.6551937342
 20
361.2664803768
 10
-106.1754377462
 20
362.1185958984
 10
-109.833320336
 20
362.7997884014
 10
-113.5976337393
 20
363.3042461915
 10
-117.4362621613
 20
363.6276654127
 10
-121.3164557778
 20
363.7672867663
 10
-125.2051101449
 20
363.721919052
 10
-129.0690486347
 20
363.4919493313
 10
-132.8753054864
 20
363.0793396247
 10
-136.5914070586
 20
362.4876101727
 10
-140.1856488829
 20
361.7218094024
 10
-143.6273661554
 20
360.788470856
 10
-146.8871953578
 20
359.6955574488
 10
-149.9373247768
 20
358.4523935326
 10
-152.7517317835
 20
357.0695853437
 10
-155.3064048498
 20
355.5589305141
 10
-157.5795484058
 20
353.9333174179
 10
-159.5517687922
 20
352.2066152131
  0
LINE
  5
3D4
330
371
100
AcDbEntity
  8
0
  6
CONTINUOUS
 62
     7
100
AcDbLine
 10
37.7509701061
 20
418.4870140353
 30
0.0
 11
37.6896544085
 21
424.5094598471
 31
0.0
  0
LINE
  5
3D5
330
371
100
AcDbEntity
  8
0
  6
CONTINUOUS
 62
     7
100
AcDbLine
 10
-282.3059462544
 20
424.5094598471
 30
0.0
 11
-283.1219352521
 21
344.3627809281
 31
0.0
  0
LINE
  5
3D6
330
371
100
AcDbEntity
  8
0
  6
CONTINUOUS
 62
     7
100
AcDbLine
 10
-69.079354734
 20
506.3799810912
 30
0.0
 11
-72.6796838018
 21
502.8659495478
 31
0.0
  0
LINE
  5
3D7
330
371
100
AcDbEntity
  8
0
  6
CONTINUOUS
 62
     7
100
AcDbLine
 10
168.0394431187
 20
-45.6695199899
 30
0.0
 11
160.9640981453
 21
-36.8892544269
 31
0.0
  0
LINE
  5
3D8
330
371
100
AcDbEntity
  8
0
  6
CONTINUOUS
 62
     7
100
AcDbLine
 10
0.0
 20
0.0
 30
0.0
 11
168.0394431187
 21
-45.6695199899
 31
0.0
  0
LINE
  5
3D9
330
371
100
AcDbEntity
  8
0
  6
CONTINUOUS
 62
     7
100
AcDbLine
 10
0.0
 20
0.0
 30
0.0
 11
7.0753449734
 21
4.9344112481
 31
0.0
  0
LINE
  5
3DA
330
371
100
AcDbEntity
  8
0
  6
CONTINUOUS
 62
     7
100
AcDbLine
 10
7.0753449734
 20
4.9344112481
 30
0.0
 11
160.9640981453
 21
-36.8892544269
 31
0.0
  0
LINE
  5
3DB
330
371
100
AcDbEntity
  8
0
  6
CONTINUOUS
 62
     7
100
AcDbLine
 10
168.0394431187
 20
-45.6695199899
 30
0.0
 11
225.909671346
 21
10.8135968538
 31
0.0
  0
LINE
  5
3DC
330
371
100
AcDbEntity
  8
0
  6
CONTINUOUS
 62
     7
100
AcDbLine
 10
7.0753449734
 20
4.9344112481
 30
0.0
 11
58.8785331447
 21
55.4959110034
 31
0.0
  0
LINE
  5
3DD
330
371
100
AcDbEntity
  8
0
  6
CONTINUOUS
 62
     7
100
AcDbLine
 10
58.8785331447
 20
55.4959110034
 30
0.0
 11
160.9640981453
 21
27.7512418653
 31
0.0
  0
LINE
  5
3DE
330
371
100
AcDbEntity
  8
0
  6
CONTINUOUS
 62
     7
100
AcDbLine
 10
7.0753449734
 20
294.7384288831
 30
0.0
 11
7.0753449734
 21
4.9344112481
 31
0.0
  0
LINE
  5
3DF
330
371
100
AcDbEntity
  8
0
  6
CONTINUOUS
 62
     7
100
AcDbLine
 10
0.0
 20
290.115876179
 30
0.0
 11
0.0
 21
0.0
 31
0.0
  0
LINE
  5
3E0
330
371
100
AcDbEntity
  8
0
  6
CONTINUOUS
 62
     7
100
AcDbLine
 10
58.8785331447
 20
320.0075724641
 30
0.0
 11
58.8785331447
 21
223.500701941
 31
0.0
  0
LINE
  5
3E1
330
371
100
AcDbEntity
  8
0
  6
CONTINUOUS
 62
     7
100
AcDbLine
 10
58.8785331447
 20
153.1675608701
 30
0.0
 11
58.8785331447
 21
55.4959110034
 31
0.0
  0
LINE
  5
3E2
330
371
100
AcDbEntity
  8
0
  6
CONTINUOUS
 62
     7
100
AcDbLine
 10
225.909671346
 20
351.4732612288
 30
0.0
 11
225.909671346
 21
10.8135968538
 31
0.0
  0
LINE
  5
3E3
330
371
100
AcDbEntity
  8
0
  6
CONTINUOUS
 62
     7
100
AcDbLine
 10
168.0394431187
 20
296.1829923505
 30
0.0
 11
168.0394431187
 21
-45.6695199899
 31
0.0
  0
LINE
  5
3E4
330
371
100
AcDbEntity
  8
0
  6
CONTINUOUS
 62
     7
100
AcDbLine
 10
166.9927854073
 20
296.4674514893
 30
0.0
 11
160.9640981453
 21
292.2629890428
 31
0.0
  0
LINE
  5
3E5
330
371
100
AcDbEntity
  8
0
  6
CONTINUOUS
 62
     7
100
AcDbLine
 10
160.9640981453
 20
292.2629890428
 30
0.0
 11
160.9668669586
 21
292.2656914894
 31
0.0
  0
LINE
  5
3E6
330
371
100
AcDbEntity
  8
0
  6
CONTINUOUS
 62
     7
100
AcDbLine
 10
160.9640981453
 20
292.2629890428
 30
0.0
 11
160.9640981453
 21
-36.8892544269
 31
0.0
  0
LINE
  5
3E7
330
371
100
AcDbEntity
  8
0
  6
CONTINUOUS
 62
     7
100
AcDbLine
 10
160.9632137272
 20
292.2631436919
 30
0.0
 11
166.991989431
 21
296.4676678186
 31
0.0
  0
LINE
  5
3E8
330
371
100
AcDbEntity
  8
0
  6
CONTINUOUS
 62
     7
100
AcDbLine
 10
35.1748329206
 20
326.4497302762
 30
0.0
 11
160.9632137272
 21
292.2631436919
 31
0.0
  0
LINE
  5
3E9
330
371
100
AcDbEntity
  8
0
  6
CONTINUOUS
 62
     7
100
AcDbLine
 10
160.9640981453
 20
132.2802301376
 30
0.0
 11
8.0087357513
 21
173.8502201994
 31
0.0
  0
LINE
  5
3EA
330
371
100
AcDbEntity
  8
0
  6
CONTINUOUS
 62
     7
100
AcDbLine
 10
58.8785331447
 20
223.500701941
 30
0.0
 11
8.0087357513
 21
173.8502201994
 31
0.0
  0
LINE
  5
3EB
330
371
100
AcDbEntity
  8
0
  6
CONTINUOUS
 62
     7
100
AcDbLine
 10
160.9640981453
 20
195.7560328029
 30
0.0
 11
58.8785331447
 21
223.500701941
 31
0.0
  0
LINE
  5
3EC
330
371
100
AcDbEntity
  8
0
  6
CONTINUOUS
 62
     7
100
AcDbLine
 10
160.9640981453
 20
125.422891732
 30
0.0
 11
8.0087357513
 21
166.9928817938
 31
0.0
  0
LINE
  5
3ED
330
371
100
AcDbEntity
  8
0
  6
CONTINUOUS
 62
     7
100
AcDbLine
 10
8.0087357513
 20
173.8502201994
 30
0.0
 11
8.0087357513
 21
166.9928817938
 31
0.0
  0
LINE
  5
3EE
330
371
100
AcDbEntity
  8
0
  6
CONTINUOUS
 62
     7
100
AcDbLine
 10
-68.3808765753
 20
506.521517019
 30
0.0
 11
226.1457269889
 21
426.4754971119
 31
0.0
  0
LINE
  5
3EF
330
371
100
AcDbEntity
  8
0
  6
CONTINUOUS
 62
     7
100
AcDbLine
 10
168.2714437436
 20
369.9884224464
 30
0.0
 11
226.1457269889
 21
426.4754971119
 31
0.0
  0
LINE
  5
3F0
330
371
100
AcDbEntity
  8
0
  6
CONTINUOUS
 62
     7
100
AcDbLine
 10
48.8923700374
 20
402.4330966956
 30
0.0
 11
168.2714437436
 21
369.9884224464
 31
0.0
  0
LINE
  5
3F1
330
371
100
AcDbEntity
  8
0
  6
CONTINUOUS
 62
     7
100
AcDbLine
 10
168.111012466
 20
296.1635413355
 30
0.0
 11
167.804766125
 21
368.6832435841
 31
0.0
  0
LINE
  5
3F2
330
371
100
AcDbEntity
  8
0
  6
CONTINUOUS
 62
     7
100
AcDbLine
 10
169.1558281893
 20
368.8983785043
 30
0.0
 11
169.4620745303
 21
296.3786762556
 31
0.0
  0
LINE
  5
3F3
330
371
100
AcDbEntity
  8
0
  6
CONTINUOUS
 62
     7
100
AcDbLine
 10
48.4256924188
 20
401.1279178333
 30
0.0
 11
48.9282406771
 21
328.9897518368
 31
0.0
  0
LINE
  5
3F4
330
371
100
AcDbEntity
  8
0
  6
CONTINUOUS
 62
     7
100
AcDbLine
 10
167.804766125
 20
368.6832435841
 30
0.0
 11
48.4256924188
 21
401.1279178333
 31
0.0
  0
LINE
  5
3F5
330
371
100
AcDbEntity
  8
0
  6
CONTINUOUS
 62
     7
100
AcDbLine
 10
168.111012466
 20
296.1635413355
 30
0.0
 11
48.9201660955
 21
328.5570594281
 31
0.0
  0
LINE
  5
3F6
330
371
100
AcDbEntity
  8
0
  6
CONTINUOUS
 62
     7
100
AcDbLine
 10
227.0301114346
 20
425.3854531698
 30
0.0
 11
169.1558281893
 21
368.8983785043
 31
0.0
  0
LINE
  5
3F7
330
371
100
AcDbEntity
  8
0
  6
CONTINUOUS
 62
     7
100
AcDbLine
 10
227.0301114346
 20
425.3854531698
 30
0.0
 11
227.6785075894
 21
353.1996996285
 31
0.0
  0
LINE
  5
3F8
330
371
100
AcDbEntity
  8
0
  6
CONTINUOUS
 62
     7
100
AcDbLine
 10
227.6785075894
 20
353.1996996285
 30
0.0
 11
169.4620745303
 21
296.3786762556
 31
0.0
  0
LINE
  5
3F9
330
371
100
AcDbEntity
  8
0
  6
CONTINUOUS
 62
     7
100
AcDbLine
 10
-167.5344645564
 20
353.1258194161
 30
0.0
 11
-167.5275708246
 21
352.8957037185
 31
0.0
  0
LINE
  5
3FA
330
371
100
AcDbEntity
  8
0
  6
CONTINUOUS
 62
     7
100
AcDbLine
 10
-77.0847307511
 20
353.010477826
 30
0.0
 11
-77.0818272894
 21
353.1258194161
 31
0.0
  0
LINE
  5
3FB
330
371
100
AcDbEntity
  8
0
  6
CONTINUOUS
 62
     7
100
AcDbLine
 10
-68.3808765753
 20
506.521517019
 30
0.0
 11
-72.2056033546
 21
502.78846643
 31
0.0
  0
ARC
  5
3FC
330
371
100
AcDbEntity
  8
0
  6
CONTINUOUS
 62
     7
100
AcDbCircle
 10
-238.0214494597
 20
424.0963603119
 30
0.0
 40
44.25115533525271
100
AcDbArc
 50
154.8199537191
 51
203.0550428613
  0
ARC
  5
3FD
330
371
100
AcDbEntity
  8
0
  6
CONTINUOUS
 62
     7
100
AcDbCircle
 10
-6.6356853035
 20
424.0972758048
 30
0.0
 40
44.28931551880473
100
AcDbArc
 50
336.9234606342
 51
25.3369718782
  0
ARC
  5
3FE
330
371
100
AcDbEntity
  8
0
  6
CONTINUOUS
 62
     7
100
AcDbCircle
 10
-5.1457194344
 20
418.0715021108
 30
0.0
 40
42.8987018881888
100
AcDbArc
 50
350.1106792477
 51
0.5549690509
  0
ARC
  5
3FF
330
371
100
AcDbEntity
  8
0
  6
CONTINUOUS
 62
     7
100
AcDbCircle
 10
168.258387022
 20
370.1844219238
 30
0.0
 40
1.568218200908629
100
AcDbArc
 50
253.1864140143
 51
304.9085354925
  0
ARC
  5
400
330
371
100
AcDbEntity
  8
0
  6
CONTINUOUS
 62
     7
100
AcDbCircle
 10
168.5693929276
 20
297.634829283
 30
0.0
 40
1.541038893760265
100
AcDbArc
 50
252.6955522393
 51
305.3993972675
  0
ARC
  5
401
330
371
100
AcDbEntity
  8
0
  6
CONTINUOUS
 62
     7
100
AcDbCircle
 10
169.8489123184
 20
368.6883636896
 30
0.0
 40
2.044152605746467
100
AcDbArc
 50
140.5066178709
 51
180.1435121532
  0
ARC
  5
402
330
371
100
AcDbEntity
  8
0
  6
CONTINUOUS
 62
     7
100
AcDbCircle
 10
167.9423388284
 20
368.8176246092
 30
0.0
 40
1.216173351411035
100
AcDbArc
 50
3.807240193
 51
74.2996151607
  0
ARC
  5
403
330
371
100
AcDbEntity
  8
0
  6
CONTINUOUS
 62
     7
100
AcDbCircle
 10
50.4698386122
 20
401.1330379388
 30
0.0
 40
2.044152605746297
100
AcDbArc
 50
140.5066178709
 51
180.1435121532
  0
ARC
  5
404
330
371
100
AcDbEntity
  8
0
  6
CONTINUOUS
 62
     7
100
AcDbCircle
 10
225.8166220737
 20
425.3046992748
 30
0.0
 40
1.216173351411118
100
AcDbArc
 50
3.807240193
 51
74.2996151607
  0
ARC
  5
405
330
371
100
AcDbEntity
  8
0
  6
CONTINUOUS
 62
     7
100
AcDbCircle
 10
36.2261686717
 20
400.742675096
 30
0.0
 40
1.703847806291606
100
AcDbArc
 50
0.6647060297
 51
48.8642769962
  0
ARC
  5
406
330
371
100
AcDbEntity
  8
0
  6
CONTINUOUS
 62
     7
100
AcDbCircle
 10
-142.9067686141
 20
339.7863692282
 30
0.0
 40
14.39550960601825
100
AcDbArc
 50
133.4251733181
 51
151.1967913757
  0
ARC
  5
407
330
371
100
AcDbEntity
  8
0
  6
CONTINUOUS
 62
     7
100
AcDbCircle
 10
-122.30850497
 20
301.9863727951
 30
0.0
 40
43.56116471464199
100
AcDbArc
 50
80.9350130362
 51
98.9557174057
  0
ARC
  5
408
330
371
100
AcDbEntity
  8
0
  6
CONTINUOUS
 62
     7
100
AcDbCircle
 10
-68.6068246305
 20
505.8423092838
 30
0.0
 40
0.7158042128315976
100
AcDbArc
 50
71.5995660063
 51
131.3104560648
  0
ARC
  5
409
330
371
100
AcDbEntity
  8
0
  6
CONTINUOUS
 62
     7
100
AcDbCircle
 10
-8.8134186789
 20
418.8015549525
 30
0.0
 40
46.63737285327011
100
AcDbArc
 50
336.5658781806
 51
350.0009775524
  0
ARC
  5
40A
330
371
100
AcDbEntity
  8
0
  6
CONTINUOUS
 62
     7
100
AcDbCircle
 10
-204.5978822328
 20
362.2656747049
 30
0.0
 40
53.55212364671446
100
AcDbArc
 50
133.1223822465
 51
157.653954328
  0
ARC
  5
40B
330
371
100
AcDbEntity
  8
0
  6
CONTINUOUS
 62
     7
100
AcDbCircle
 10
-192.5717130116
 20
350.7342486611
 30
0.0
 40
46.87596977147306
100
AcDbArc
 50
133.2459578891
 51
155.764422742
  0
ARC
  5
40C
330
371
100
AcDbEntity
  8
0
  6
CONTINUOUS
 62
     7
100
AcDbCircle
 10
-4.3789816208
 20
416.3635850932
 30
0.0
 40
44.12061671605186
100
AcDbArc
 50
341.0365522628
 51
20.2278929292
  0
ARC
  5
40D
330
371
100
AcDbEntity
  8
0
  6
CONTINUOUS
 62
     7
100
AcDbCircle
 10
-152.2998033888
 20
352.7504998006
 30
0.0
 40
15.23928363498099
100
AcDbArc
 50
131.0580564922
 51
178.5887522683
  0
ARC
  5
40E
330
371
100
AcDbEntity
  8
0
  6
CONTINUOUS
 62
     7
100
AcDbCircle
 10
-150.2427152285
 20
342.603395721
 30
0.0
 40
17.50945310820965
100
AcDbArc
 50
132.8544497962
 51
159.1416583081
  0
ARC
  5
40F
330
371
100
AcDbEntity
  8
0
  6
CONTINUOUS
 62
     7
100
AcDbCircle
 10
-147.4462877178
 20
339.4314251182
 30
0.0
 40
17.59966346281983
100
AcDbArc
 50
133.4581510193
 51
152.1164388659
  0
VIEWPORT
  5
4AD
330
371
100
AcDbEntity
  8
0
100
AcDbViewport
 10
0.0
 20
0.0
 30
0.0
 40
205.6
 41
156.0
 68
     1
 69
     1
1001
ACAD
1000
MVIEW
1002
{
1070
    16
1010
0.0
1020
0.0
1030
0.0
1010
0.0
1020
0.0
1030
1.0
1040
0.0
1040
357.2134125294
1040
-38.7789015083
1040
-46.4080096273
1040
50.0
1040
0.0
1040
0.0
1070
     0
1070
   100
1070
     0
1070
     3
1070
     0
1070
     0
1070
     0
1070
     0
1040
0.0
1040
0.0
1040
0.0
1040
10.0
1040
10.0
1040
10.0
1040
10.0
1070
     0
1002
{
1002
}
1002
}
  0
ENDBLK
  5
374
330
371
100
AcDbEntity
  8
0
100
AcDbBlockEnd
  0
BLOCK
  5
412
330
410
100
AcDbEntity
  8
0
100
AcDbBlockBegin
  2
*PAPER_SPACE7
 70
     0
 10
0.0
 20
0.0
 30
0.0
  3
*PAPER_SPACE7
  1

  0
SPLINE
  5
416
330
410
100
AcDbEntity
  8
0
  6
CONTINUOUS
 62
     7
100
AcDbSpline
210
0.0
220
0.0
230
1.0
 70
     8
 71
     3
 72
    27
 73
    23
 74
     0
 42
0.00000001
 43
0.00000001
 40
0.0
 40
0.0
 40
0.0
 40
0.0
 40
0.0041056212338675
 40
0.0572520794598769
 40
0.1104036013352537
 40
0.163561024426771
 40
0.2167252817696753
 40
0.2698974180053698
 40
0.3230786068144224
 40
0.3762701690826802
 40
0.4294735905978226
 40
0.4826905369782977
 40
0.5359228616919016
 40
0.58917259994786
 40
0.6424419361820326
 40
0.6957331246132981
 40
0.749048329162459
 40
0.8023893284797906
 40
0.8557570012077726
 40
0.9091504645427689
 40
0.9625656906750267
 40
1.0
 40
1.0
 40
1.0
 40
1.0
 10
-179.3284870621088
 20
511.4788515525927
 30
0.0
 10
-179.5002955024516
 20
511.4578820587224
 30
0.0
 10
-181.8961303635061
 20
511.1654665968713
 30
0.0
 10
-186.4108328677593
 20
510.5092565581275
 30
0.0
 10
-192.8477975489874
 20
509.5048968910083
 30
0.0
 10
-199.1324026384653
 20
508.3950923219519
 30
0.0
 10
-205.2675375281912
 20
507.1955294228857
 30
0.0
 10
-211.2371119738336
 20
505.9048361096796
 30
0.0
 10
-217.0305428279012
 20
504.5264131761043
 30
0.0
 10
-222.6362217282245
 20
503.0625719671943
 30
0.0
 10
-228.0432945566044
 20
501.5160924365495
 30
0.0
 10
-233.2412111109066
 20
499.8897906042854
 30
0.0
 10
-238.219871081867
 20
498.1866176636992
 30
0.0
 10
-242.9696027200355
 20
496.4096137524101
 30
0.0
 10
-247.4811975119077
 20
494.5619008098176
 30
0.0
 10
-251.7458650852393
 20
492.6466541822252
 30
0.0
 10
-255.7554193182443
 20
490.6671119088007
 30
0.0
 10
-259.5015745062348
 20
488.6264519201404
 30
0.0
 10
-262.9785116084726
 20
486.5281702534114
 30
0.0
 10
-266.1731655680102
 20
484.3746206346623
 30
0.0
 10
-268.8090274754283
 20
482.392288035433
 30
0.0
 10
-270.2968965642032
 20
481.1160508849683
 30
0.0
 10
-270.9099690628566
 20
480.5901807633207
 30
0.0
  0
SPLINE
  5
417
330
410
100
AcDbEntity
  8
0
  6
CONTINUOUS
 62
     7
100
AcDbSpline
210
0.0
220
0.0
230
1.0
 70
     8
 71
     3
 72
    34
 73
    30
 74
     0
 42
0.00000001
 43
0.00000001
 40
0.0
 40
0.0
 40
0.0
 40
0.0
 40
0.0232794517559374
 40
0.061701123923631
 40
0.100333717425086
 40
0.1391434311349515
 40
0.1780813555166843
 40
0.2170997279260308
 40
0.2561603211156803
 40
0.2952363243124165
 40
0.3343075359191033
 40
0.3733654820004288
 40
0.4124064933657264
 40
0.4514294360623135
 40
0.4904346251073401
 40
0.5294231395948411
 40
0.5683964089954316
 40
0.6073559732121957
 40
0.6463033500943856
 40
0.685239967611595
 40
0.7241671339367237
 40
0.7630860290802297
 40
0.8019977082485966
 40
0.8409031111254596
 40
0.8798030737222586
 40
0.9186983409187006
 40
0.9575895786901264
 40
0.996477385534155
 40
1.0
 40
1.0
 40
1.0
 40
1.0
 10
36.90281666626102
 20
468.6637555693533
 30
0.0
 10
36.70631826774637
 20
469.150841555467
 30
0.0
 10
36.18550823473284
 20
470.4418407209869
 30
0.0
 10
34.99168876427082
 20
472.5086014935774
 30
0.0
 10
33.35820989506127
 20
474.865124410964
 30
0.0
 10
31.40095626908948
 20
477.1929663202899
 30
0.0
 10
29.14107143522315
 20
479.4878467279852
 30
0.0
 10
26.57923730564388
 20
481.7436991927234
 30
0.0
 10
23.72301599940045
 20
483.9554445593832
 30
0.0
 10
20.57904134356604
 20
486.1183573355987
 30
0.0
 10
17.15472126933092
 20
488.2282494669657
 30
0.0
 10
13.45760094477266
 20
490.281293565514
 30
0.0
 10
9.495392633350773
 20
492.2739652461782
 30
0.0
 10
5.276114203553256
 20
494.202875540548
 30
0.0
 10
0.8081583368135457
 20
496.0647270067904
 30
0.0
 10
-3.899681285579486
 20
497.8563014373481
 30
0.0
 10
-8.838192611766543
 20
499.5744606222808
 30
0.0
 10
-13.99773940713912
 20
501.2161541756536
 30
0.0
 10
-19.36826436645844
 20
502.7784299076393
 30
0.0
 10
-24.93929640056178
 20
504.2584480598725
 30
0.0
 10
-30.69997145288912
 20
505.6534851790264
 30
0.0
 10
-36.63902408805914
 20
506.9609757293816
 30
0.0
 10
-42.74490379783885
 20
508.1784094971067
 30
0.0
 10
-49.00543754121114
 20
509.303762563719
 30
0.0
 10
-55.40919399357953
 20
510.3339326799579
 30
0.0
 10
-61.94050483879116
 20
511.2706160551266
 30
0.0
 10
-68.59815908999359
 20
512.0984130098267
 30
0.0
 10
-73.28654456787007
 20
512.6337227054742
 30
0.0
 10
-75.77559681242415
 20
512.8632657265364
 30
0.0
 10
-75.98233777778374
 20
512.8823315962343
 30
0.0
  0
SPLINE
  5
418
330
410
100
AcDbEntity
  8
0
  6
CONTINUOUS
 62
     7
100
AcDbSpline
210
0.0
220
0.0
230
1.0
 70
     8
 71
     3
 72
    13
 73
     9
 74
     0
 42
0.00000001
 43
0.00000001
 40
0.0
 40
0.0
 40
0.0
 40
0.0
 40
0.1031089527875418
 40
0.2995531321139678
 40
0.4958307497427272
 40
0.6916977186254476
 40
0.8869035124991465
 40
1.0
 40
1.0
 40
1.0
 40
1.0
 10
-270.9099690628566
 20
480.5901807633207
 30
0.0
 10
-271.3500991874685
 20
480.1935783480113
 30
0.0
 10
-272.6287695046507
 20
479.0413651550915
 30
0.0
 10
-274.5181273363832
 20
477.1002282522817
 30
0.0
 10
-276.4775096549039
 20
474.7574725014071
 30
0.0
 10
-278.107842662539
 20
472.3794793595082
 30
0.0
 10
-279.2875910854899
 20
470.3123846129209
 30
0.0
 10
-279.7939184813854
 20
469.0284085315377
 30
0.0
 10
-279.9796577816136
 20
468.5573994160937
 30
0.0
  0
SPLINE
  5
419
330
410
100
AcDbEntity
  8
0
  6
CONTINUOUS
 62
     7
100
AcDbSpline
210
0.0
220
0.0
230
1.0
 70
     8
 71
     3
 72
    18
 73
    14
 74
     0
 42
0.00000001
 43
0.00000001
 40
0.0
 40
0.0
 40
0.0
 40
0.0
 40
0.0901127372735223
 40
0.1852444150399163
 40
0.2803311019011292
 40
0.375369405038433
 40
0.4703575453971265
 40
0.5652969006437575
 40
0.660194484983378
 40
0.7550667718522807
 40
0.8499379741849165
 40
0.9448484990177607
 40
1.0
 40
1.0
 40
1.0
 40
1.0
 10
-238.9435868489021
 20
428.0835953774536
 30
0.0
 10
-240.3619327038402
 20
428.6424546708593
 30
0.0
 10
-243.2776209425049
 20
429.791299618076
 30
0.0
 10
-247.3826076647595
 20
431.6099423681512
 30
0.0
 10
-251.3224705127303
 20
433.5141969665077
 30
0.0
 10
-254.9901977481104
 20
435.4736300056873
 30
0.0
 10
-258.384904975958
 20
437.4816300883255
 30
0.0
 10
-261.4984062661007
 20
439.5337198402784
 30
0.0
 10
-264.3239567829023
 20
441.6246887141045
 30
0.0
 10
-266.8610070518831
 20
443.7491079228894
 30
0.0
 10
-269.0877375047458
 20
445.9023280549939
 30
0.0
 10
-270.7896716316605
 20
447.7721640371379
 30
0.0
 10
-271.6252593173313
 20
448.9274353370033
 30
0.0
 10
-271.932358430626
 20
449.3520260746213
 30
0.0
  0
SPLINE
  5
41A
330
410
100
AcDbEntity
  8
0
  6
CONTINUOUS
 62
     7
100
AcDbSpline
210
0.0
220
0.0
230
1.0
 70
     8
 71
     3
 72
    17
 73
    13
 74
     0
 42
0.00000001
 43
0.00000001
 40
0.0
 40
0.0
 40
0.0
 40
0.0
 40
0.0861656864115394
 40
0.1900388307200726
 40
0.293785535706101
 40
0.3974857194192882
 40
0.5011830980357138
 40
0.6049040113610746
 40
0.7086665138167634
 40
0.812478460209742
 40
0.9163416241106173
 40
1.0
 40
1.0
 40
1.0
 40
1.0
 10
27.62157198987619
 20
447.7140570945167
 30
0.0
 10
27.10140675918397
 20
447.1106877288922
 30
0.0
 10
25.95417987179099
 20
445.7799537266357
 30
0.0
 10
23.81613235933891
 20
443.7476114429897
 30
0.0
 10
21.28550250122609
 20
441.6203704079765
 30
0.0
 10
18.45577076073057
 20
439.5289743072103
 30
0.0
 10
15.34289490300793
 20
437.4773068924557
 30
0.0
 10
11.9489535215048
 20
435.4703871906579
 30
0.0
 10
8.28360002802784
 20
433.5121333542272
 30
0.0
 10
4.344634148936058
 20
431.6095915692206
 30
0.0
 10
0.4451437382569715
 20
429.8782130329658
 30
0.0
 10
-2.253988263566875
 20
428.8130755286338
 30
0.0
 10
-3.458143262700323
 20
428.3378891910481
 30
0.0
  0
SPLINE
  5
41B
330
410
100
AcDbEntity
  8
0
  6
CONTINUOUS
 62
     7
100
AcDbSpline
210
0.0
220
0.0
230
1.0
 70
     8
 71
     3
 72
    10
 73
     6
 74
     0
 42
0.00000001
 43
0.00000001
 40
0.0
 40
0.0
 40
0.0
 40
0.0
 40
0.2465999788900456
 40
0.8653997035768485
 40
1.0
 40
1.0
 40
1.0
 40
1.0
 10
27.12734429339639
 20
352.3202247608801
 30
0.0
 10
27.49700838141275
 20
352.6137447715726
 30
0.0
 10
28.79428015585603
 20
353.6438021600211
 30
0.0
 10
30.13108322090427
 20
354.8589569961234
 30
0.0
 10
30.99981390854346
 20
355.7911844498383
 30
0.0
 10
31.15501885251978
 20
355.9577335447255
 30
0.0
  0
SPLINE
  5
41C
330
410
100
AcDbEntity
  8
0
  6
CONTINUOUS
 62
     7
100
AcDbSpline
210
0.0
220
0.0
230
1.0
 70
     8
 71
     3
 72
     9
 73
     5
 74
     0
 42
0.00000001
 43
0.00000001
 40
0.0
 40
0.0
 40
0.0
 40
0.0
 40
0.4008428687124218
 40
1.0
 40
1.0
 40
1.0
 40
1.0
 10
-272.6332107419249
 20
354.4608318133291
 30
0.0
 10
-272.1573245687482
 20
354.0142238971644
 30
0.0
 10
-270.9701107991596
 20
352.9000518586313
 30
0.0
 10
-269.5659701590069
 20
351.8170259506506
 30
0.0
 10
-268.7246692811286
 20
351.1681232545149
 30
0.0
  0
SPLINE
  5
41D
330
410
100
AcDbEntity
  8
0
  6
CONTINUOUS
 62
     7
100
AcDbSpline
210
0.0
220
0.0
230
1.0
 70
     8
 71
     3
 72
    11
 73
     7
 74
     0
 42
0.00000001
 43
0.00000001
 40
0.0
 40
0.0
 40
0.0
 40
0.0
 40
0.1561517211944872
 40
0.5175304638327347
 40
0.9675133657169052
 40
1.0
 40
1.0
 40
1.0
 40
1.0
 10
38.53264006665531
 20
367.6045379561989
 30
0.0
 10
38.55108675864696
 20
367.6640416887593
 30
0.0
 10
38.61222425357556
 20
367.8612536956213
 30
0.0
 10
38.91760788309861
 20
368.2623954978326
 30
0.0
 10
39.29925660211298
 20
368.5011678196586
 30
0.0
 10
39.39418497270811
 20
368.5264944882626
 30
0.0
 10
39.40057688562165
 20
368.5281998357692
 30
0.0
  0
LWPOLYLINE
  5
43B
330
410
100
AcDbEntity
  8
0
  6
CONTINUOUS
 62
     7
100
AcDbPolyline
 90
        3
 70
   128
 43
0.0
 10
38.5069948842
 20
367.6417936846
 10
38.3544171161
 20
386.5729981459
 10
37.8451799386
 20
449.5066074719
  0
LWPOLYLINE
  5
43C
330
410
100
AcDbEntity
  8
0
  6
CONTINUOUS
 62
     7
100
AcDbPolyline
 90
        9
 70
   128
 43
0.0
 10
-282.3328492362
 20
373.1187095508
 10
-282.2505614688
 20
371.2307302858
 10
-281.8298316612
 20
368.71356977
 10
-281.0545184006
 20
366.205786852
 10
-279.9263365483
 20
363.7129283224
 10
-278.4477814516
 20
361.2405079618
 10
-276.6221234236
 20
358.7939943449
 10
-274.4534005104
 20
356.3787987454
 10
-272.8000060619
 20
354.7708327416
  0
LWPOLYLINE
  5
43E
330
410
100
AcDbEntity
  8
0
  6
CONTINUOUS
 62
     7
100
AcDbPolyline
 90
       38
 70
   128
 43
0.0
 10
-241.6305727177
 20
427.3173219001
 10
-240.5080921454
 20
426.8905846893
 10
-235.3949427218
 20
425.0567203291
 10
-230.0276884502
 20
423.3053905156
 10
-224.4183057737
 20
421.6405031506
 10
-218.5793114185
 20
420.0657732487
 10
-212.523734464
 20
418.5847146481
 10
-206.2650872705
 20
417.2006321696
 10
-199.8173353269
 20
415.9166142425
 10
-193.1948660892
 20
414.7355260128
 10
-186.4124568757
 20
413.6600029503
 10
-179.4852418935
 20
412.6924449673
 10
-172.4286784678
 20
411.8350110642
 10
-165.2585125511
 20
411.0896145112
 10
-157.9907435871
 20
410.4579185796
 10
-150.6415888102
 20
409.9413328298
 10
-143.2274470585
 20
409.5410099668
 10
-135.7648621813
 20
409.2578432674
 10
-128.2704861234
 20
409.0924645872
 10
-120.7610417685
 20
409.0452429508
 10
-113.2532856231
 20
409.116283728
 10
-105.7639704269
 20
409.3054283991
 10
-98.3098077707
 20
409.6122549083
 10
-90.907430806
 20
410.0360786059
 10
-83.5733571305
 20
410.5759537753
 10
-76.3239519301
 20
411.230675744
 10
-69.1753914627
 20
411.9987835712
 10
-62.1436269619
 20
412.878563308
 10
-55.2443490438
 20
413.8680518219
 10
-48.4929526953
 20
414.965041177
 10
-41.9045029215
 20
416.1670835612
 10
-35.4937011302
 20
417.4714967478
 10
-29.2748523269
 20
418.8753700809
 10
-23.261833195
 20
420.3755709703
 10
-17.4680611315
 20
421.9687518812
 10
-11.9064643072
 20
423.6513578038
 10
-6.5894528195
 20
425.4196341866
 10
-1.9316355893
 20
427.115829971
  0
LWPOLYLINE
  5
440
330
410
100
AcDbEntity
  8
0
  6
CONTINUOUS
 62
     7
100
AcDbPolyline
 90
       38
 70
   128
 43
0.0
 10
-239.3047174714
 20
428.0898767681
 10
-237.2026715613
 20
427.2961748206
 10
-232.1114417629
 20
425.5006941811
 10
-226.7696813751
 20
423.7879973681
 10
-221.1894912031
 20
422.1619641906
 10
-215.3835121725
 20
420.6262781369
 10
-209.3648966932
 20
419.1844180298
 10
-203.147278865
 20
417.8396501461
 10
-196.7447435921
 20
416.5950208177
 10
-190.1717946762
 20
415.4533495302
 10
-183.4433219607
 20
414.4172225364
 10
-176.5745676003
 20
413.4889869972
 10
-169.5810915329
 20
412.6707456645
 10
-162.4787362312
 20
411.9643521182
 10
-155.2835908143
 20
411.3714065669
 10
-148.0119546006
 20
410.893252223
 10
-140.6803001852
 20
410.5309722598
 10
-133.3052361233
 20
410.2853873579
 10
-125.903469307
 20
410.1570538463
 10
-118.491767119
 20
410.1462624414
 10
-111.0869194485
 20
410.2530375895
 10
-103.7057006571
 20
410.4771374103
 10
-96.3648315794
 20
410.8180542457
 10
-89.080941645
 20
411.2750158095
 10
-81.8705312074
 20
411.8469869367
 10
-74.7499341652
 20
412.5326719287
 10
-67.7352809611
 20
413.3305174886
 10
-60.8424620406
 20
414.2387162395
 10
-54.0870918555
 20
415.255210819
 10
-47.4844734922
 20
416.3776985402
 10
-41.0495640049
 20
417.6036366072
 10
-34.7969405331
 20
418.930247876
 10
-28.7407672802
 20
420.3545271454
 10
-22.8947634263
 20
421.8732479648
 10
-17.2721720506
 20
423.482969943
 10
-11.8857301309
 20
425.180046542
 10
-6.7476396906
 20
426.9606333376
 10
-3.0752730898
 20
428.344084482
  0
LWPOLYLINE
  5
444
330
410
100
AcDbEntity
  8
0
  6
CONTINUOUS
 62
     7
100
AcDbPolyline
 90
       52
 70
   128
 43
0.0
 10
-268.3885361947
 20
351.0556938994
 10
-267.4752147323
 20
350.3729833234
 10
-264.1972274679
 20
348.1108015372
 10
-260.6039033316
 20
345.9024733596
 10
-256.7031839454
 20
343.7528794268
 10
-252.5036903074
 20
341.6667705664
 10
-248.0147037378
 20
339.6487572972
 10
-243.2461453667
 20
337.7032996396
 10
-238.2085542068
 20
335.8346972587
 10
-232.9130638618
 20
334.0470799611
 10
-227.3713779193
 20
332.3443985681
 10
-221.595744085
 20
330.7304161838
 10
-215.5989271139
 20
329.208699878
 10
-209.394180599
 20
327.782612803
 10
-202.9952176792
 20
326.4553067605
 10
-196.416180732
 20
325.2297152356
 10
-189.6716101174
 20
324.1085469139
 10
-182.7764120421
 20
323.0942796946
 10
-175.7458256152
 20
322.1891552144
 10
-168.5953891682
 20
321.3951738931
 10
-161.3409059139
 20
320.7140905125
 10
-153.9984090191
 20
320.1474103381
 10
-146.5841261702
 20
319.6963857925
 10
-139.114443708
 20
319.3620136869
 10
-131.6058704122
 20
319.1450330188
 10
-124.0750010153
 20
319.0459233382
 10
-116.5384795267
 20
319.0649036877
 10
-109.0129624473
 20
319.2019321189
 10
-101.5150819571
 20
319.4567057846
 10
-94.0614091565
 20
319.8286616082
 10
-86.6684174422
 20
320.3169775287
 10
-79.3524460994
 20
320.9205743165
 10
-72.1296641901
 20
321.6381179598
 10
-65.016034818
 20
322.468022612
 10
-58.0272798483
 20
323.4084540969
 10
-51.1788451606
 20
324.4573339627
 10
-44.4858665121
 20
325.612344075
 10
-37.9631360858
 20
326.8709317408
 10
-31.6250697984
 20
328.2303153494
 10
-25.4856754394
 20
329.6874905211
 10
-19.5585217128
 20
331.2392367461
 10
-13.8567082484
 20
332.882124503
 10
-8.3928366504
 20
334.612522838
 10
-3.1789826467
 20
336.4266073897
 10
1.7733305998
 20
338.3203688414
 10
6.4531579588
 20
340.2896217823
 10
10.8501565221
 20
342.3300139572
 10
14.954608463
 20
344.4370358861
 10
18.7574425131
 20
346.6060308299
 10
22.2502540115
 20
348.832205083
 10
25.4253234793
 20
351.1106385674
 10
26.8415458276
 20
352.2271846694
  0
SPLINE
  5
448
330
410
100
AcDbEntity
  8
0
  6
CONTINUOUS
 62
     7
100
AcDbSpline
210
0.0
220
0.0
230
1.0
 70
     8
 71
     3
 72
    20
 73
    16
 74
     0
 42
0.00000001
 43
0.00000001
 40
0.0
 40
0.0
 40
0.0
 40
0.0
 40
0.2500000000000008
 40
0.2500000000000008
 40
0.3750000000000007
 40
0.3750000000000007
 40
0.5000000000000006
 40
0.5000000000000006
 40
0.6250000000000004
 40
0.6250000000000004
 40
0.7500000000000002
 40
0.7500000000000002
 40
0.8750000000000001
 40
0.8750000000000001
 40
1.0
 40
1.0
 40
1.0
 40
1.0
 10
40.35425469831028
 20
450.0058266653278
 30
0.0
 10
41.10628731211367
 20
450.2377261810294
 30
0.0
 10
41.93611263644784
 20
450.429857900814
 30
0.0
 10
43.29461106120952
 20
450.659900907122
 30
0.0
 10
43.76894425682322
 20
450.7268271348801
 30
0.0
 10
44.72797734427367
 20
450.8366953361016
 30
0.0
 10
45.21583805892121
 20
450.8802859353354
 30
0.0
 10
46.20809841102778
 20
450.9449832590798
 30
0.0
 10
46.71495806487334
 20
450.9661302825151
 30
0.0
 10
47.73505709671944
 20
450.9846596748457
 30
0.0
 10
48.24164159477484
 20
450.9820419374366
 30
0.0
 10
49.24811404675756
 20
450.9538422979823
 30
0.0
 10
49.74800164275224
 20
450.9282591684942
 30
0.0
 10
50.74092236693758
 20
450.8535871841569
 30
0.0
 10
51.23360466983784
 20
450.8043672045632
 30
0.0
 10
51.71275835515393
 20
450.7439995145396
 30
0.0
  0
SPLINE
  5
44D
330
410
100
AcDbEntity
  8
0
  6
CONTINUOUS
 62
     7
100
AcDbSpline
210
0.0
220
0.0
230
1.0
 70
     8
 71
     3
 72
     8
 73
     4
 74
     0
 42
0.00000001
 43
0.00000001
 40
0.0
 40
0.0
 40
0.0
 40
0.0
 40
1.0
 40
1.0
 40
1.0
 40
1.0
 10
51.99280431961783
 20
370.4294497367088
 30
0.0
 10
51.99407517679084
 20
370.2702073255505
 30
0.0
 10
51.99143416774402
 20
370.1115111514447
 30
0.0
 10
51.98488059196618
 20
369.9533613122078
 30
0.0
  0
LWPOLYLINE
  5
458
330
410
100
AcDbEntity
  8
0
  6
CONTINUOUS
 62
     7
100
AcDbPolyline
 90
       10
 70
   128
 43
0.0
 10
51.9928043196
 20
370.4294497367
 10
50.0280030942
 20
370.5832961385
 10
47.9982911878
 20
370.605324806
 10
45.9875538321
 20
370.4946253243
 10
44.0788920667
 20
370.2557727525
 10
42.3511882854
 20
369.8986385422
 10
40.8758461352
 20
369.4379825647
 10
39.7138394999
 20
368.8928431047
 10
38.9131925329
 20
368.2857500344
 10
38.5069948842
 20
367.6417936846
  0
SPLINE
  5
459
330
410
100
AcDbEntity
  8
0
  6
CONTINUOUS
 62
     7
100
AcDbSpline
210
0.0
220
0.0
230
1.0
 70
     8
 71
     3
 72
    20
 73
    16
 74
     0
 42
0.00000001
 43
0.00000001
 40
0.0
 40
0.0
 40
0.0
 40
0.0
 40
0.1250000000000003
 40
0.1250000000000003
 40
0.2500000000000006
 40
0.2500000000000006
 40
0.5000000000000004
 40
0.5000000000000004
 40
0.7500000000000003
 40
0.7500000000000003
 40
0.8750000000000003
 40
0.8750000000000003
 40
0.9375000000000002
 40
0.9375000000000002
 40
1.0
 40
1.0
 40
1.0
 40
1.0
 10
41.03326481254711
 20
448.8316793000794
 30
0.0
 10
40.78656414163486
 20
448.7555197197184
 30
0.0
 10
40.55593201848021
 20
448.7078250326153
 30
0.0
 10
40.12255350919339
 20
448.6500354930088
 30
0.0
 10
39.91936744577789
 20
448.6402220229924
 30
0.0
 10
39.35196381989483
 20
448.6523200853094
 30
0.0
 10
39.04119921566235
 20
448.7133771882443
 30
0.0
 10
38.5228482378851
 20
448.8854069983355
 30
0.0
 10
38.31583271468042
 20
448.9984487122578
 30
0.0
 10
38.08361969653555
 20
449.1815708528507
 30
0.0
 10
38.01886332081359
 20
449.2451310844753
 30
0.0
 10
37.9400055024334
 20
449.3422791370936
 30
0.0
 10
37.91677389902945
 20
449.3749664746096
 30
0.0
 10
37.87639686557376
 20
449.4406468015899
 30
0.0
 10
37.85915957694736
 20
449.4738595931008
 30
0.0
 10
37.84517993858566
 20
449.5066074719405
 30
0.0
  0
SPLINE
  5
45A
330
410
100
AcDbEntity
  8
0
  6
CONTINUOUS
 62
     7
100
AcDbSpline
210
0.0
220
0.0
230
1.0
 70
     8
 71
     3
 72
    20
 73
    16
 74
     0
 42
0.00000001
 43
0.00000001
 40
0.0
 40
0.0
 40
0.0
 40
0.0
 40
0.125
 40
0.125
 40
0.25
 40
0.25
 40
0.375
 40
0.375
 40
0.5
 40
0.5
 40
0.625
 40
0.625
 40
0.75
 40
0.75
 40
1.0
 40
1.0
 40
1.0
 40
1.0
 10
51.35921842687152
 20
449.4976250199028
 30
0.0
 10
50.92362419349496
 20
449.5530086701052
 30
0.0
 10
50.47573099782179
 20
449.5982320449371
 30
0.0
 10
49.57307452562405
 20
449.6670019671004
 30
0.0
 10
49.11863027555219
 20
449.6906678901731
 30
0.0
 10
48.20365262927406
 20
449.7170531711657
 30
0.0
 10
47.74311955897343
 20
449.7197736501969
 30
0.0
 10
46.81575258374237
 20
449.7035398377645
 30
0.0
 10
46.35496820504925
 20
449.6845812534782
 30
0.0
 10
45.45290803684413
 20
449.6262126657538
 30
0.0
 10
45.00939559688661
 20
449.5867675128614
 30
0.0
 10
44.13754190983836
 20
449.4871699920825
 30
0.0
 10
43.70632697026962
 20
449.4264279571008
 30
0.0
 10
42.47132107031573
 20
449.217463101749
 30
0.0
 10
41.71693159479887
 20
449.0427357801875
 30
0.0
 10
41.0332648125471
 20
448.8316793000794
 30
0.0
  0
SPLINE
  5
45C
330
410
100
AcDbEntity
  8
0
  6
CONTINUOUS
 62
     7
100
AcDbSpline
210
0.0
220
0.0
230
1.0
 70
     8
 71
     3
 72
    18
 73
    14
 74
     0
 42
0.00000001
 43
0.00000001
 40
0.0
 40
0.0
 40
0.0
 40
0.0
 40
0.1249999999999993
 40
0.1249999999999993
 40
0.2499999999999986
 40
0.2499999999999986
 40
0.4999999999999968
 40
0.4999999999999968
 40
0.7499999999999951
 40
0.7499999999999951
 40
0.8749999999999974
 40
0.8749999999999974
 40
1.0
 40
1.0
 40
1.0
 40
1.0
 10
40.35425469831025
 20
450.0058266653278
 30
0.0
 10
40.15921902119819
 20
449.9162202849728
 30
0.0
 10
39.9791954463513
 20
449.847386195354
 30
0.0
 10
39.64396013431379
 20
449.7345813628286
 30
0.0
 10
39.48847203761075
 20
449.6907854417536
 30
0.0
 10
39.05691231944864
 20
449.5850191313615
 30
0.0
 10
38.81844401648324
 20
449.5484368022558
 30
0.0
 10
38.41657763409057
 20
449.5044146839647
 30
0.0
 10
38.25356780066294
 20
449.4978714798478
 30
0.0
 10
38.06205487819933
 20
449.4968968788877
 30
0.0
 10
38.00693164760769
 20
449.4981086194401
 30
0.0
 10
37.9134778758465
 20
449.5018061193722
 30
0.0
 10
37.87504354178997
 20
449.5043072741309
 30
0.0
 10
37.84517993858566
 20
449.5066074719406
 30
0.0
  0
SPLINE
  5
45D
330
410
100
AcDbEntity
  8
0
  6
CONTINUOUS
 62
     7
100
AcDbSpline
210
0.0
220
0.0
230
1.0
 70
     8
 71
     3
 72
    12
 73
     8
 74
     0
 42
0.00000001
 43
0.00000001
 40
0.0
 40
0.0
 40
0.0
 40
0.0
 40
0.2366838457062663
 40
0.4733285833212192
 40
0.711180030262604
 40
0.9142532650365571
 40
0.9999999999999999
 40
0.9999999999999999
 40
0.9999999999999999
 40
0.9999999999999999
 10
51.98488059196617
 20
369.9533613122078
 30
0.0
 10
50.88915055600171
 20
370.0516995126771
 30
0.0
 10
48.69787153534044
 20
370.2483596648545
 30
0.0
 10
45.26972301451029
 20
370.0622124350414
 30
0.0
 10
42.36707194691022
 20
369.5623800050089
 30
0.0
 10
40.55887843674405
 20
368.9762881079449
 30
0.0
 10
39.66626048131924
 20
368.6294750599896
 30
0.0
 10
39.40125430699889
 20
368.5265109660182
 30
0.0
  0
LWPOLYLINE
  5
45E
330
410
100
AcDbEntity
  8
0
  6
CONTINUOUS
 62
     7
100
AcDbPolyline
 90
       63
 70
   128
 43
0.0
 10
-280.1925342173
 20
454.2603388561
 10
-279.6138394049
 20
452.9072041707
 10
-278.2866132892
 20
450.4461107654
 10
-276.6147748908
 20
448.0084590659
 10
-274.6019992733
 20
445.5996075594
 10
-272.2527109543
 20
443.2248514245
 10
-269.5720741796
 20
440.8894108906
 10
-266.5659815703
 20
438.5984197626
 10
-263.2410411706
 20
436.3569141365
 10
-259.604561921
 20
434.169821328
 10
-255.6645375921
 20
432.0419490417
 10
-251.4296292125
 20
429.9779748028
 10
-246.9091460299
 20
427.9824356746
 10
-242.1130250475
 20
426.0597182851
 10
-237.05180918
 20
424.2140491845
 10
-231.7366240783
 20
422.4494855541
 10
-226.1791536729
 20
420.7699062875
 10
-220.3916144898
 20
419.1790034647
 10
-214.3867287963
 20
417.6802742353
 10
-208.1776966342
 20
416.2770131313
 10
-201.7781668039
 20
414.9723048252
 10
-195.2022068607
 20
413.7690173491
 10
-188.4642721918
 20
412.66979579
 10
-181.57917424
 20
411.6770564754
 10
-174.5620479448
 20
410.7929816618
 10
-167.4283184726
 20
410.0195147374
 10
-160.1936673092
 20
409.3583559505
 10
-152.8739977879
 20
408.8109586716
 10
-145.4854001308
 20
408.3785261987
 10
-138.0441160792
 20
408.0620091122
 10
-130.5665031904
 20
407.8621031853
 10
-123.0689988803
 20
407.7792478547
 10
-115.5680842907
 20
407.8136252543
 10
-108.0802480596
 20
407.9651598153
 10
-100.6219500763
 20
408.2335184317
 10
-93.2095852983
 20
408.618111193
 10
-85.8594477121
 20
409.1180926809
 10
-78.5876945153
 20
409.7323638276
 10
-71.4103105996
 20
410.4595743318
 10
-64.3430734126
 20
411.2981256269
 10
-57.4015182754
 20
412.2461743953
 10
-50.6009042327
 20
413.30163662
 10
-43.9561805101
 20
414.4621921659
 10
-37.4819536524
 20
415.72528988
 10
-31.1924554154
 20
417.0881531996
 10
-25.1015114811
 20
418.5477862552
 10
-19.2225110664
 20
420.1009804565
 10
-13.5683774899
 20
421.7443215457
 10
-8.1515397643
 20
423.4741971024
 10
-2.9839052748
 20
425.2868044846
 10
1.9231663968
 20
427.178159188
 10
6.5588884418
 20
429.1441036045
 10
10.913070537
 20
431.1803161615
 10
14.9761412454
 20
433.2823208219
 10
18.7391690556
 20
435.4454969233
 10
22.1938820158
 20
437.6650893351
 10
25.3326859172
 20
439.9362189116
 10
28.1486809876
 20
442.253893217
 10
30.6356770587
 20
444.6130175001
 10
32.7882071734
 20
447.0084058939
 10
34.6015396033
 20
449.4347928147
 10
36.0716882501
 20
451.8868445375
 10
37.1729117587
 20
454.3006289713
  0
LWPOLYLINE
  5
460
330
410
100
AcDbEntity
  8
0
  6
CONTINUOUS
 62
     7
100
AcDbPolyline
 90
       55
 70
   128
 43
0.0
 10
-272.8000060619
 20
354.7708327416
 10
-271.9464095597
 20
354.0002631664
 10
-269.1066956104
 20
351.6636485255
 10
-265.9405396286
 20
349.3741230183
 10
-262.4549446145
 20
347.1367506872
 10
-258.6576201137
 20
344.9564802205
 10
-254.5569651643
 20
342.838134007
 10
-250.16204972
 20
340.7863974695
 10
-245.4825945889
 20
338.8058087014
 10
-240.5289499326
 20
336.9007484294
 10
-235.3120723735
 20
335.0754303239
 10
-229.8435007606
 20
333.3338916792
 10
-224.1353306474
 20
331.6799844837
 10
-218.2001875388
 20
330.1173668996
 10
-212.0511989652
 20
328.6494951724
 10
-205.7019654473
 20
327.2796159853
 10
-199.1665304135
 20
326.0107592791
 10
-192.4593491384
 20
324.8457315497
 10
-185.5952567702
 20
323.7871096409
 10
-178.5894355177
 20
322.8372350451
 10
-171.4573810702
 20
321.9982087238
 10
-164.2148683233
 20
321.271886461
 10
-156.8779164877
 20
320.6598747584
 10
-149.4627536572
 20
320.1635272823
 10
-141.9857809154
 20
319.7839418692
 10
-134.4635360585
 20
319.5219580975
 10
-126.9126570174
 20
319.3781554311
 10
-119.3498450565
 20
319.352851937
 10
-111.7918278343
 20
319.4461035823
 10
-104.2553224037
 20
319.6577041101
 10
-96.7569982374
 20
319.987185496
 10
-89.3134403576
 20
320.433818983
 10
-81.9411126526
 20
320.9966166934
 10
-74.656321462
 20
321.6743338142
 10
-67.4751795089
 20
322.4654713499
 10
-60.4135702624
 20
323.3682794385
 10
-53.4871128053
 20
324.3807612213
 10
-46.7111272873
 20
325.5006772604
 10
-40.1006010401
 20
326.7255504912
 10
-33.6701554273
 20
328.0526717019
 10
-27.4340135047
 20
329.4791055251
 10
-21.4059685612
 20
331.0016969311
 10
-15.5993536106
 20
332.6170782056
 10
-10.027011901
 20
334.3216763993
 10
-4.7012685078
 20
336.1117212296
 10
0.3660969273
 20
337.9832534209
 10
5.1638762508
 20
339.9321334612
 10
9.681457588
 20
341.9540507581
 10
13.9088488147
 20
344.0445331733
 10
17.836699658
 20
346.198956914
 10
21.4563223775
 20
348.41255676
 10
24.7597109813
 20
350.6804366036
 10
27.7395589337
 20
352.9975802791
 10
30.3892753161
 20
355.3588626572
 10
31.3009260157
 20
356.259072392
  0
LWPOLYLINE
  5
461
330
410
100
AcDbEntity
  8
0
  6
CONTINUOUS
 62
     7
100
AcDbPolyline
 90
       24
 70
   128
 43
0.0
 10
-270.2485312351
 20
480.7829898049
 10
-272.737313949
 20
478.4208395593
 10
-274.8886663831
 20
476.0221476439
 10
-276.6977880289
 20
473.5922664782
 10
-278.1606420284
 20
471.1366180774
 10
-279.2739641826
 20
468.6606819532
 10
-280.0352702342
 20
466.1699828872
 10
-280.4428614119
 20
463.6700786029
 10
-280.4958282202
 20
461.1665473645
 10
-280.1940524696
 20
458.6649755289
 10
-279.5382075398
 20
456.1709450812
 10
-278.5297568772
 20
453.6900211784
 10
-277.1709507296
 20
451.227739732
 10
-275.4648211248
 20
448.7895950545
 10
-273.4151751052
 20
446.3810276002
 10
-271.0265862324
 20
444.0074118249
 10
-268.3043843822
 20
441.6740441935
 10
-265.2546438514
 20
439.3861313615
 10
-261.8841698037
 20
437.1487785572
 10
-258.2004830845
 20
434.9669781895
 10
-254.2118034393
 20
432.8455987081
 10
-249.9270311722
 20
430.7893737402
 10
-245.3557272854
 20
428.8028915277
 10
-241.6305727177
 20
427.3173219001
  0
LWPOLYLINE
  5
462
330
410
100
AcDbEntity
  8
0
  6
CONTINUOUS
 62
     7
100
AcDbPolyline
 90
       45
 70
   128
 43
0.0
 10
-1.9316355893
 20
427.115829971
 10
-1.5288909999
 20
427.2696353134
 10
3.2639290592
 20
429.1972331084
 10
7.7783127022
 20
431.1981263471
 10
12.004186574
 20
433.2678502543
 10
15.9321210975
 20
435.4017864666
 10
19.553351515
 20
437.5951733381
 10
22.8597974453
 20
439.8431165648
 10
25.8440809148
 20
442.1406001065
 10
28.49954282
 20
444.4824973789
 10
30.8202577872
 20
446.8635826937
 10
32.8010473937
 20
449.2785429182
 10
34.4374917234
 20
451.7219893321
 10
35.7259392292
 20
454.1884696509
 10
36.6635148808
 20
456.6724801925
 10
37.2481265803
 20
459.1684781581
 10
37.4784698305
 20
461.6708940004
 10
37.3540306455
 20
464.174143851
 10
36.8750866978
 20
466.6726419806
 10
36.0427066985
 20
469.1608132631
 10
34.858748013
 20
471.6331056152
 10
33.325852516
 20
474.0840023862
 10
31.4474406968
 20
476.5080346668
 10
29.2277040266
 20
478.8997934934
 10
26.671595606
 20
481.2539419165
 10
23.7848191123
 20
483.5652269107
 10
20.5738160727
 20
485.8284910954
 10
17.0457514905
 20
488.038684243
 10
13.2084978573
 20
490.1908745486
 10
9.0706175866
 20
492.2802596339
 10
4.6413439071
 20
494.3021772639
 10
-0.0694397397
 20
496.2521157496
 10
-5.0512217533
 20
498.125724016
 10
-10.2928858301
 20
499.9188213102
 10
-15.7827357679
 20
501.6274065311
 10
-21.508521565
 20
503.247667157
 10
-27.4574667542
 20
504.7759877528
 10
-33.6162969126
 20
506.2089580378
 10
-39.971269282
 20
507.5433804948
 10
-46.508203434
 20
508.7762775055
 10
-53.2125129125
 20
509.9048979948
 10
-60.0692377814
 20
510.9267235688
 10
-67.0630780065
 20
511.8394741353
 10
-74.1784275954
 20
512.6411129908
 10
-76.146231151
 20
512.8410352766
  0
LWPOLYLINE
  5
463
330
410
100
AcDbEntity
  8
0
  6
CONTINUOUS
 62
     7
100
AcDbPolyline
 90
       19
 70
   128
 43
0.0
 10
-178.9795938074
 20
511.4625257965
 10
-184.3587713179
 20
510.7295849683
 10
-191.1860129976
 20
509.6860549278
 10
-197.8577972383
 20
508.5362182965
 10
-204.3592366805
 20
507.2826408097
 10
-210.6758240706
 20
505.9281196888
 10
-216.7934646323
 20
504.4756774002
 10
-222.6985075172
 20
502.9285549105
 10
-228.3777762658
 20
501.2902044549
 10
-233.8185982086
 20
499.564281834
 10
-239.0088327446
 20
497.754638256
 10
-243.9368984308
 20
495.8653117433
 10
-248.5917988259
 20
493.9005181222
 10
-252.9631470268
 20
491.8646416154
 10
-257.0411888464
 20
489.7622250597
 10
-260.8168245787
 20
487.5979597683
 10
-264.2816293042
 20
485.3766750635
 10
-267.4278716887
 20
483.1033274999
 10
-270.2485312351
 20
480.7829898049
  0
LWPOLYLINE
  5
464
330
410
100
AcDbEntity
  8
0
  6
CONTINUOUS
 62
     7
100
AcDbPolyline
 90
       24
 70
   128
 43
0.0
 10
-267.1846204059
 20
480.3969733245
 10
-269.6393444045
 20
478.0658146359
 10
-271.7585250438
 20
475.6983628693
 10
-273.5373616981
 20
473.2999810642
 10
-274.9718247303
 20
470.8761023269
 10
-276.0586646202
 20
468.4322175223
 10
-276.7954193259
 20
465.9738628356
 10
-277.180419861
 20
463.5066072308
 10
-277.2127940755
 20
461.0360398353
 10
-276.8924686313
 20
458.5677572791
 10
-276.2201691687
 20
456.1073510159
 10
-275.1974186622
 20
453.6603946572
 10
-273.8265339705
 20
451.2324313464
 10
-272.1106205885
 20
448.828961201
 10
-270.0535656119
 20
446.4554288542
 10
-267.6600289317
 20
444.1172111201
 10
-264.9354326785
 20
441.8196048138
 10
-261.885948939
 20
439.5678147526
 10
-258.5184857748
 20
437.3669419654
 10
-254.8406715729
 20
435.2219721368
 10
-250.8608377656
 20
433.1377643133
 10
-246.5879999563
 20
431.1190398962
 10
-242.0318374971
 20
429.1703719454
 10
-239.3047174714
 20
428.0898767681
  0
LWPOLYLINE
  5
465
330
410
100
AcDbEntity
  8
0
  6
CONTINUOUS
 62
     7
100
AcDbPolyline
 90
       43
 70
   128
 43
0.0
 10
-3.0752730898
 20
428.344084482
 10
-1.8695401571
 20
428.8206967278
 10
2.7375180051
 20
430.7560230709
 10
7.0630983275
 20
432.7622282302
 10
11.0974019795
 20
434.8347675057
 10
14.8312899657
 20
436.9689459295
 10
18.2563038289
 20
439.159928901
 10
21.364684811
 20
441.4027531389
 10
24.1493914295
 20
443.6923379252
 10
26.604115428
 20
446.0234966138
 10
28.7232960673
 20
448.3909483804
 10
30.5021327217
 20
450.7893301855
 10
31.9365957538
 20
453.2132089228
 10
33.0234356437
 20
455.6570937274
 10
33.7601903494
 20
458.1154484141
 10
34.1451908845
 20
460.5827040189
 10
34.177565099
 20
463.0532714143
 10
33.8572396549
 20
465.5215539706
 10
33.1849401923
 20
467.9819602338
 10
32.1621896857
 20
470.4289165925
 10
30.7913049941
 20
472.8568799033
 10
29.0753916121
 20
475.2603500486
 10
27.0183366354
 20
477.6338823955
 10
24.6247999553
 20
479.9721001296
 10
21.900203702
 20
482.2697064359
 10
18.8507199626
 20
484.5214964971
 10
15.4832567983
 20
486.7223692843
 10
11.8054425965
 20
488.8673391129
 10
7.8256087891
 20
490.9515469363
 10
3.5527709799
 20
492.9702713535
 10
-1.0033914794
 20
494.9189393043
 10
-5.8325574152
 20
496.7931364291
 10
-10.9237872135
 20
498.5886170686
 10
-16.2655476014
 20
500.3013138816
 10
-21.8457377733
 20
501.9273470591
 10
-27.651716804
 20
503.4630331128
 10
-33.6703322833
 20
504.9048932199
 10
-39.8879501115
 20
506.2496611036
 10
-46.2904853843
 20
507.494290432
 10
-52.8634343002
 20
508.6359617195
 10
-59.5919070158
 20
509.6720887133
 10
-66.4606613762
 20
510.6003242525
 10
-70.6923467579
 20
511.1102996912
  0
LWPOLYLINE
  5
466
330
410
100
AcDbEntity
  8
0
  6
CONTINUOUS
 62
     7
100
AcDbPolyline
 90
       20
 70
   128
 43
0.0
 10
-172.5017491751
 20
511.0919827679
 10
-175.2999480154
 20
510.7587937611
 10
-182.1927669359
 20
509.8505950102
 10
-188.9481371209
 20
508.8341004306
 10
-195.5507554842
 20
507.7116127095
 10
-201.9856649716
 20
506.4856746425
 10
-208.2382884434
 20
505.1590633737
 10
-214.2944616963
 20
503.7347841043
 10
-220.1404655501
 20
502.2160632849
 10
-225.7630569258
 20
500.6063413067
 10
-231.1494988456
 20
498.9092647076
 10
-236.2875892859
 20
497.1286779121
 10
-241.1656888193
 20
495.2686145219
 10
-245.7727469815
 20
493.3332881788
 10
-250.098327304
 20
491.3270830195
 10
-254.132630956
 20
489.254543744
 10
-257.8665189422
 20
487.1203653202
 10
-261.2915328054
 20
484.9293823487
 10
-264.3999137875
 20
482.6865581107
 10
-267.1846204059
 20
480.3969733245
  0
LWPOLYLINE
  5
467
330
410
100
AcDbEntity
  8
0
  6
CONTINUOUS
 62
     7
100
AcDbPolyline
 90
        9
 70
   128
 43
0.0
 10
-266.2924998875
 20
479.625275809
 10
-268.7321902164
 20
477.3083940289
 10
-270.838392182
 20
474.9554414433
 10
-272.6063345596
 20
472.5717482467
 10
-274.0320123909
 20
470.1627142708
 10
-275.1121960572
 20
467.7337967526
 10
-275.844438595
 20
465.2904979712
 10
-276.2270812394
 20
462.8383527844
 10
-276.2751796385
 20
462.0616158007
  0
LWPOLYLINE
  5
468
330
410
100
AcDbEntity
  8
0
  6
CONTINUOUS
 62
     7
100
AcDbPolyline
 90
       60
 70
   128
 43
0.0
 10
33.2324678777
 20
462.2307304053
 10
33.2240282053
 20
462.3877933701
 10
32.9056645569
 20
464.8409592189
 10
32.2374825136
 20
467.2862970121
 10
31.2209957228
 20
469.7182672731
 10
29.8585068539
 20
472.131360807
 10
28.1531023824
 20
474.5201111809
 10
26.1086455981
 20
476.8791071068
 10
23.729767853
 20
479.2030047003
 10
21.0218580704
 20
481.4865395858
 10
17.991050537
 20
483.7245388225
 10
14.6442110065
 20
485.9119326221
 10
10.9889211471
 20
488.0437658342
 10
7.0334613658
 20
490.1152091709
 10
2.7867920513
 20
492.1215701468
 10
-1.7414667246
 20
494.0583037089
 10
-6.5410569992
 20
495.9210225329
 10
-11.6011061568
 20
497.7055069615
 10
-16.9101515588
 20
499.4077145634
 10
-22.4561665096
 20
501.0237892911
 10
-28.2265875015
 20
502.5500702154
 10
-34.2083426752
 20
503.9830998192
 10
-40.3878814312
 20
505.3196318295
 10
-46.7512051266
 20
506.5566385713
 10
-53.2838987866
 20
507.6913178267
 10
-59.971163759
 20
508.7210991821
 10
-66.7978512377
 20
509.6436498515
 10
-73.7484965799
 20
510.4568799609
 10
-80.8073543383
 20
511.1589472826
 10
-87.9584339298
 20
511.7482614083
 10
-95.185535859
 20
512.223487352
 10
-102.4722884156
 20
512.583548574
 10
-109.8021847614
 20
512.8276294199
 10
-117.1586203236
 20
512.955176968
 10
-124.5249304096
 20
512.9659022821
 10
-131.8844279578
 20
512.859781066
 10
-139.2204413391
 20
512.6370537183
 10
-146.5163521238
 20
512.2982247881
 10
-153.7556327273
 20
511.8440618319
 10
-160.9218838507
 20
511.2755936749
 10
-167.9988716301
 20
510.5941080803
 10
-174.9705644123
 20
509.8011488321
 10
-181.8211690705
 20
508.8985122381
 10
-188.5351667819
 20
507.8882430605
 10
-195.0973481823
 20
506.772629884
 10
-201.4928478201
 20
505.5541999311
 10
-207.7071778317
 20
504.2357133377
 10
-213.7262607608
 20
502.8201568998
 10
-219.5364614487
 20
501.3107373083
 10
-225.124617922
 20
499.7108738838
 10
-230.478071209
 20
498.0241908316
 10
-235.5846940161
 20
496.2545090314
 10
-240.4329182003
 20
494.4058373816
 10
-245.0117609743
 20
492.482363718
 10
-249.3108497866
 20
490.4884453273
 10
-253.3204458184
 20
488.4285990758
 10
-257.0314660449
 20
486.3074911778
 10
-260.4355038118
 20
484.129926625
 10
-263.5248478786
 20
481.9008383014
 10
-266.2924998875
 20
479.625275809
  0
LWPOLYLINE
  5
469
330
410
100
AcDbEntity
  8
0
  6
CONTINUOUS
 62
     7
100
AcDbPolyline
 90
       40
 70
   128
 43
0.0
 10
-10.2580068124
 20
425.7259362501
 10
-13.2685711023
 20
427.1455243394
 10
-17.4801141569
 20
428.953282898
 10
-21.963079171
 20
430.6870020423
 10
-26.7057706008
 20
432.3421586969
 10
-31.6958153058
 20
433.9144347471
 10
-36.9201948291
 20
435.3997283042
 10
-42.3652793612
 20
436.794164407
 10
-48.0168632981
 20
438.0941051308
 10
-53.8602023027
 20
439.2961590787
 10
-59.8800517706
 20
440.3971902292
 10
-66.060706602
 20
441.3943261178
 10
-72.3860421741
 20
442.2849653308
 10
-78.8395564085
 20
443.0667842921
 10
-85.4044128236
 20
443.7377433253
 10
-92.0634844585
 20
444.2960919751
 10
-98.7993985556
 20
444.7403735733
 10
-105.5945818842
 20
445.0694290402
 10
-112.4313065867
 20
445.2823999076
 10
-119.2917364291
 20
445.3787305588
 10
-126.1579733332
 20
445.358169678
 10
-133.0121040709
 20
445.2207709064
 10
-139.8362469977
 20
444.9668927016
 10
-146.6125987039
 20
444.5971974029
 10
-153.3234804615
 20
444.112649503
 10
-159.9513843464
 20
443.5145131322
 10
-166.4790189141
 20
442.80434876
 10
-172.8893543112
 20
441.984009124
 10
-179.1656667046
 20
441.0556343968
 10
-185.291581912
 20
440.0216466019
 10
-191.25111812
 20
438.8847432956
 10
-197.0287275791
 20
437.6478905287
 10
-202.6093371659
 20
436.3143151088
 10
-207.9783877071
 20
434.887496182
 10
-213.121871963
 20
433.371156156
 10
-218.0263711704
 20
431.7692509887
 10
-222.6790900508
 20
430.0859598678
 10
-227.0678901919
 20
428.3256743076
 10
-231.1813217152
 20
426.4929866922
 10
-232.7772221641
 20
425.7259362501
  0
LWPOLYLINE
  5
46A
330
410
100
AcDbEntity
  8
0
  6
CONTINUOUS
 62
     7
100
AcDbPolyline
 90
       27
 70
   128
 43
0.0
 10
-46.0263152075
 20
416.6437153224
 10
-50.132433305
 20
417.7675095673
 10
-55.2608978921
 20
419.0322004197
 10
-60.5905819498
 20
420.2007989839
 10
-66.1052994028
 20
421.2697562643
 10
-71.7883022356
 20
422.2358258729
 10
-77.6223313552
 20
423.0960738879
 10
-83.5896690071
 20
423.8478877645
 10
-89.6721925827
 20
424.4889842685
 10
-95.8514296581
 20
425.0174164111
 10
-102.1086140932
 20
425.4315793611
 10
-108.4247430246
 20
425.7302153193
 10
-114.7806345764
 20
425.912417338
 10
-121.1569861147
 20
425.9776320758
 10
-127.5344328695
 20
425.9256614776
 10
-133.8936067446
 20
425.7566633765
 10
-140.215195138
 20
425.471151014
 10
-146.4799995936
 20
425.0699914819
 10
-152.6689941059
 20
424.5544030885
 10
-158.7633829023
 20
423.9259516588
 10
-164.7446575241
 20
423.186545779
 10
-170.5946530369
 20
422.3384310007
 10
-176.2956031966
 20
421.3841830204
 10
-181.830194405
 20
420.326699858
 10
-187.1816182905
 20
419.169193055
 10
-192.3336227546
 20
417.9151779216
 10
-197.0089137689
 20
416.6437153224
  0
LINE
  5
46C
330
410
100
AcDbEntity
  8
0
  6
CONTINUOUS
 62
     7
100
AcDbLine
 10
38.5429401764
 20
454.6503468382
 30
0.0
 11
38.4816239277
 21
461.2746294369
 31
0.0
  0
LINE
  5
46D
330
410
100
AcDbEntity
  8
0
  6
CONTINUOUS
 62
     7
100
AcDbLine
 10
-281.5168529042
 20
461.2746294369
 30
0.0
 11
-282.3328492362
 21
373.1187095508
 31
0.0
  0
LINE
  5
46E
330
410
100
AcDbEntity
  8
0
  6
CONTINUOUS
 62
     7
100
AcDbLine
 10
177.7287258776
 20
-22.3917147271
 30
0.0
 11
170.2454111038
 21
-13.9064333531
 31
0.0
  0
LINE
  5
46F
330
410
100
AcDbEntity
  8
0
  6
CONTINUOUS
 62
     7
100
AcDbLine
 10
0.0
 20
0.0
 30
0.0
 11
177.7287258776
 21
-22.3917147271
 31
0.0
  0
LINE
  5
470
330
410
100
AcDbEntity
  8
0
  6
CONTINUOUS
 62
     7
100
AcDbLine
 10
46.7277411206
 20
41.2099941123
 30
0.0
 11
0.0
 21
0.0
 31
0.0
  0
LINE
  5
471
330
410
100
AcDbEntity
  8
0
  6
CONTINUOUS
 62
     7
100
AcDbLine
 10
7.4833147738
 20
6.5996632917
 30
0.0
 11
170.2454111038
 21
-13.9064333531
 31
0.0
  0
LINE
  5
472
330
410
100
AcDbEntity
  8
0
  6
CONTINUOUS
 62
     7
100
AcDbLine
 10
177.7287258776
 20
-22.3917147271
 30
0.0
 11
221.5693463011
 21
16.2720782616
 31
0.0
  0
LINE
  5
473
330
410
100
AcDbEntity
  8
0
  6
CONTINUOUS
 62
     7
100
AcDbLine
 10
46.7277411206
 20
41.2099941123
 30
0.0
 11
170.2454111038
 21
25.6482304392
 31
0.0
  0
LINE
  5
474
330
410
100
AcDbEntity
  8
0
  6
CONTINUOUS
 62
     7
100
AcDbLine
 10
7.4833147738
 20
340.7498099464
 30
0.0
 11
7.4833147738
 21
6.5996632917
 31
0.0
  0
LINE
  5
475
330
410
100
AcDbEntity
  8
0
  6
CONTINUOUS
 62
     7
100
AcDbLine
 10
0.0
 20
337.6214320474
 30
0.0
 11
0.0
 21
0.0
 31
0.0
  0
LINE
  5
476
330
410
100
AcDbEntity
  8
0
  6
CONTINUOUS
 62
     7
100
AcDbLine
 10
46.7277411206
 20
363.6939080173
 30
0.0
 11
46.7277411206
 21
226.0005662679
 31
0.0
  0
LINE
  5
477
330
410
100
AcDbEntity
  8
0
  6
CONTINUOUS
 62
     7
100
AcDbLine
 10
46.7277411206
 20
179.6161267876
 30
0.0
 11
46.7277411206
 21
41.2099941123
 31
0.0
  0
LINE
  5
478
330
410
100
AcDbEntity
  8
0
  6
CONTINUOUS
 62
     7
100
AcDbLine
 10
221.5693463011
 20
391.5099825416
 30
0.0
 11
221.5693463011
 21
16.2720782616
 31
0.0
  0
LINE
  5
479
330
410
100
AcDbEntity
  8
0
  6
CONTINUOUS
 62
     7
100
AcDbLine
 10
177.7287258776
 20
354.1111259143
 30
0.0
 11
177.7287258776
 21
-22.3917147271
 31
0.0
  0
LINE
  5
47A
330
410
100
AcDbEntity
  8
0
  6
CONTINUOUS
 62
     7
100
AcDbLine
 10
170.2454111038
 20
348.1322386252
 30
0.0
 11
170.2454111038
 21
-13.9064333531
 31
0.0
  0
LINE
  5
47B
330
410
100
AcDbEntity
  8
0
  6
CONTINUOUS
 62
     7
100
AcDbLine
 10
177.1128187815
 20
354.1887229146
 30
0.0
 11
170.2454111038
 21
348.1322386252
 31
0.0
  0
LINE
  5
47C
330
410
100
AcDbEntity
  8
0
  6
CONTINUOUS
 62
     7
100
AcDbLine
 10
170.2444756894
 20
348.1322621954
 30
0.0
 11
177.1119769086
 21
354.1888289806
 31
0.0
  0
LINE
  5
47D
330
410
100
AcDbEntity
  8
0
  6
CONTINUOUS
 62
     7
100
AcDbLine
 10
37.4558718495
 20
364.8620537444
 30
0.0
 11
170.2444756894
 21
348.1322621954
 31
0.0
  0
LINE
  5
47E
330
410
100
AcDbEntity
  8
0
  6
CONTINUOUS
 62
     7
100
AcDbLine
 10
170.2454111038
 20
164.0543631145
 30
0.0
 11
8.1904215548
 21
184.4713726788
 31
0.0
  0
LINE
  5
47F
330
410
100
AcDbEntity
  8
0
  6
CONTINUOUS
 62
     7
100
AcDbLine
 10
8.1904215548
 20
192.0138450117
 30
0.0
 11
8.1904215548
 21
184.4713726788
 31
0.0
  0
LINE
  5
480
330
410
100
AcDbEntity
  8
0
  6
CONTINUOUS
 62
     7
100
AcDbLine
 10
170.2454111038
 20
171.5968354474
 30
0.0
 11
8.1904215548
 21
192.0138450117
 31
0.0
  0
LINE
  5
481
330
410
100
AcDbEntity
  8
0
  6
CONTINUOUS
 62
     7
100
AcDbLine
 10
46.7277411206
 20
226.0005662679
 30
0.0
 11
8.1904215548
 21
192.0138450117
 31
0.0
  0
LINE
  5
482
330
410
100
AcDbEntity
  8
0
  6
CONTINUOUS
 62
     7
100
AcDbLine
 10
170.2454111038
 20
210.4388025948
 30
0.0
 11
46.7277411206
 21
226.0005662679
 31
0.0
  0
LINE
  5
483
330
410
100
AcDbEntity
  8
0
  6
CONTINUOUS
 62
     7
100
AcDbLine
 10
-27.9940550529
 20
504.9764023043
 30
0.0
 11
221.8190130927
 21
473.5029141025
 31
0.0
  0
LINE
  5
484
330
410
100
AcDbEntity
  8
0
  6
CONTINUOUS
 62
     7
100
AcDbLine
 10
177.9753207183
 20
434.8364119077
 30
0.0
 11
221.8190130927
 21
473.5029141025
 31
0.0
  0
LINE
  5
485
330
410
100
AcDbEntity
  8
0
  6
CONTINUOUS
 62
     7
100
AcDbLine
 10
51.7127583552
 20
450.7439995145
 30
0.0
 11
177.9753207183
 21
434.8364119077
 31
0.0
  0
LINE
  5
486
330
410
100
AcDbEntity
  8
0
  6
CONTINUOUS
 62
     7
100
AcDbLine
 10
178.0483622874
 20
354.0708555119
 30
0.0
 11
177.62178079
 21
433.5900374131
 31
0.0
  0
LINE
  5
487
330
410
100
AcDbEntity
  8
0
  6
CONTINUOUS
 62
     7
100
AcDbLine
 10
178.9106994473
 20
433.7839836799
 30
0.0
 11
179.3372809446
 21
354.2648017788
 31
0.0
  0
LINE
  5
488
330
410
100
AcDbEntity
  8
0
  6
CONTINUOUS
 62
     7
100
AcDbLine
 10
51.3592184269
 20
449.4976250199
 30
0.0
 11
51.9928043196
 21
370.4294497367
 31
0.0
  0
LINE
  5
489
330
410
100
AcDbEntity
  8
0
  6
CONTINUOUS
 62
     7
100
AcDbLine
 10
177.62178079
 20
433.5900374131
 30
0.0
 11
51.3592184269
 21
449.4976250199
 31
0.0
  0
LINE
  5
48A
330
410
100
AcDbEntity
  8
0
  6
CONTINUOUS
 62
     7
100
AcDbLine
 10
178.0483622874
 20
354.0708555119
 30
0.0
 11
51.984880592
 21
369.9533613122
 31
0.0
  0
LINE
  5
48B
330
410
100
AcDbEntity
  8
0
  6
CONTINUOUS
 62
     7
100
AcDbLine
 10
222.7543918218
 20
472.4504858748
 30
0.0
 11
178.9106994473
 21
433.7839836799
 31
0.0
  0
LINE
  5
48C
330
410
100
AcDbEntity
  8
0
  6
CONTINUOUS
 62
     7
100
AcDbLine
 10
222.7543918218
 20
472.4504858748
 30
0.0
 11
223.4401749945
 21
393.1598983645
 31
0.0
  0
LINE
  5
48D
330
410
100
AcDbEntity
  8
0
  6
CONTINUOUS
 62
     7
100
AcDbLine
 10
223.4401749945
 20
393.1598983645
 30
0.0
 11
179.3372809446
 21
354.2648017788
 31
0.0
  0
LINE
  5
48E
330
410
100
AcDbEntity
  8
0
  6
CONTINUOUS
 62
     7
100
AcDbLine
 10
37.8451799386
 20
449.5066074719
 30
0.0
 11
38.3258851954
 21
451.7032302702
 31
0.0
  0
ARC
  5
48F
330
410
100
AcDbEntity
  8
0
  6
CONTINUOUS
 62
     7
100
AcDbCircle
 10
-262.9134416997
 20
461.1132377561
 30
0.0
 40
18.5884174034663
100
AcDbArc
 50
157.4615617346
 51
201.6333079079
  0
ARC
  5
490
330
410
100
AcDbEntity
  8
0
  6
CONTINUOUS
 62
     7
100
AcDbCircle
 10
19.8654430718
 20
461.1148306158
 30
0.0
 40
18.60058645315451
100
AcDbArc
 50
338.5097202103
 51
22.8557273637
  0
ARC
  5
491
330
410
100
AcDbEntity
  8
0
  6
CONTINUOUS
 62
     7
100
AcDbCircle
 10
20.5917480804
 20
454.4908998683
 30
0.0
 40
17.95190020590534
100
AcDbArc
 50
351.0666459641
 51
0.5089020354
  0
ARC
  5
492
330
410
100
AcDbEntity
  8
0
  6
CONTINUOUS
 62
     7
100
AcDbCircle
 10
11.8352707551
 20
376.5545476759
 30
0.0
 40
28.12148736684205
100
AcDbArc
 50
313.8044031123
 51
341.5221812135
  0
ARC
  5
493
330
410
100
AcDbEntity
  8
0
  6
CONTINUOUS
 62
     7
100
AcDbCircle
 10
-121.4172867255
 20
53.703455713
 30
0.0
 40
461.364048708109
100
AcDbArc
 50
84.3688265629
 51
97.167212765
  0
ARC
  5
494
330
410
100
AcDbEntity
  8
0
  6
CONTINUOUS
 62
     7
100
AcDbCircle
 10
-121.5160196546
 20
60.728342204
 30
0.0
 40
453.2405027761408
100
AcDbArc
 50
83.5616537138
 51
96.4589628965
  0
ARC
  5
495
330
410
100
AcDbEntity
  8
0
  6
CONTINUOUS
 62
     7
100
AcDbCircle
 10
-255.6883962885
 20
461.8724489496
 30
0.0
 40
20.58765243525525
100
AcDbArc
 50
179.4735380956
 51
218.2797017753
  0
ARC
  5
496
330
410
100
AcDbEntity
  8
0
  6
CONTINUOUS
 62
     7
100
AcDbCircle
 10
11.8483355621
 20
462.0212006711
 30
0.0
 40
21.38515881636196
100
AcDbArc
 50
317.0125735819
 51
0.5613875325
  0
ARC
  5
497
330
410
100
AcDbEntity
  8
0
  6
CONTINUOUS
 62
     7
100
AcDbCircle
 10
177.9803268518
 20
435.5871190145
 30
0.0
 40
2.029012124465327
100
AcDbArc
 50
259.8218343204
 51
297.2925988434
  0
ARC
  5
498
330
410
100
AcDbEntity
  8
0
  6
CONTINUOUS
 62
     7
100
AcDbCircle
 10
178.4163964301
 20
356.0048816869
 30
0.0
 40
1.968732174697792
100
AcDbArc
 50
259.225759568
 51
297.8886735958
  0
ARC
  5
499
330
410
100
AcDbEntity
  8
0
  6
CONTINUOUS
 62
     7
100
AcDbCircle
 10
179.5804164279
 20
433.707790166
 30
0.0
 40
1.962172080357636
100
AcDbArc
 50
144.887061517
 51
183.4404688546
  0
ARC
  5
49A
330
410
100
AcDbEntity
  8
0
  6
CONTINUOUS
 62
     7
100
AcDbCircle
 10
177.8185478136
 20
433.7551872874
 30
0.0
 40
1.092531200053294
100
AcDbArc
 50
1.5103484933
 51
81.7498549023
  0
ARC
  5
49B
330
410
100
AcDbEntity
  8
0
  6
CONTINUOUS
 62
     7
100
AcDbCircle
 10
53.3178540648
 20
449.6153777728
 30
0.0
 40
1.962172080357718
100
AcDbArc
 50
144.887061517
 51
183.4404688546
  0
ARC
  5
49C
330
410
100
AcDbEntity
  8
0
  6
CONTINUOUS
 62
     7
100
AcDbCircle
 10
221.6622401881
 20
472.4216894823
 30
0.0
 40
1.092531200053134
100
AcDbArc
 50
1.5103484932
 51
81.7498549023
  0
ARC
  5
49D
330
410
100
AcDbEntity
  8
0
  6
CONTINUOUS
 62
     7
100
AcDbCircle
 10
39.7551229576
 20
448.8759387686
 30
0.0
 40
1.278907933303287
100
AcDbArc
 50
358.016755433
 51
62.0648850276
  0
ARC
  5
49E
330
410
100
AcDbEntity
  8
0
  6
CONTINUOUS
 62
     7
100
AcDbCircle
 10
21.2923489182
 20
452.5757556695
 30
0.0
 40
19.23436474276042
100
AcDbArc
 50
352.3216726541
 51
26.6569652226
  0
VIEWPORT
  5
4AF
330
410
100
AcDbEntity
  8
0
100
AcDbViewport
 10
0.0
 20
0.0
 30
0.0
 40
205.6
 41
156.0
 68
     1
 69
     1
1001
ACAD
1000
MVIEW
1002
{
1070
    16
1010
0.0
1020
0.0
1030
0.0
1010
0.0
1020
0.0
1030
1.0
1040
0.0
1040
357.2134125294
1040
-38.7789015083
1040
-46.4080096273
1040
50.0
1040
0.0
1040
0.0
1070
     0
1070
   100
1070
     0
1070
     3
1070
     0
1070
     0
1070
     0
1070
     0
1040
0.0
1040
0.0
1040
0.0
1040
10.0
1040
10.0
1040
10.0
1040
10.0
1070
     0
1002
{
1002
}
1002
}
  0
ENDBLK
  5
413
330
410
100
AcDbEntity
  8
0
100
AcDbBlockEnd
  0
ENDSEC
  0
SECTION
  2
ENTITIES
  0
SPLINE
  5
63
330
1F
100
AcDbEntity
  8
0
  6
CONTINUOUS
 62
     7
100
AcDbSpline
210
0.0
220
0.0
230
1.0
 70
     8
 71
     3
 72
    10
 73
     6
 74
     0
 42
0.00000001
 43
0.00000001
 40
0.0
 40
0.0
 40
0.0
 40
0.0
 40
0.3499721515330758
 40
0.7799499748318552
 40
1.0
 40
1.0
 40
1.0
 40
1.0
 10
-148.400098660361
 20
100.6615751180962
 30
0.0
 10
-148.7620272332821
 20
100.3988426961776
 30
0.0
 10
-149.5686233584429
 20
99.81331569077068
 30
0.0
 10
-150.7330132293336
 20
99.25201919994703
 30
0.0
 10
-151.5384188822023
 20
99.04701795493861
 30
0.0
 10
-151.8110680227003
 20
98.97762011416918
 30
0.0
  0
SPLINE
  5
64
330
1F
100
AcDbEntity
  8
0
  6
CONTINUOUS
 62
     7
100
AcDbSpline
210
0.0
220
0.0
230
1.0
 70
     8
 71
     3
 72
    14
 73
    10
 74
     0
 42
0.00000001
 43
0.00000001
 40
0.0
 40
0.0
 40
0.0
 40
0.0
 40
0.03893522643043
 40
0.1573985536084974
 40
0.3424062324689193
 40
0.5657558989260659
 40
0.7586650483477559
 40
0.9643449778840897
 40
1.0
 40
1.0
 40
1.0
 40
1.0
 10
-144.6348823352805
 20
106.8680014138392
 30
0.0
 10
-144.6488639017302
 20
106.7783288084999
 30
0.0
 10
-144.7053854257622
 20
106.4158206206013
 30
0.0
 10
-144.9204626802894
 20
105.5826103747089
 30
0.0
 10
-145.3713093459642
 20
104.3582840466339
 30
0.0
 10
-146.1015995946742
 20
103.0390942141881
 30
0.0
 10
-147.0673099778582
 20
101.8305045021043
 30
0.0
 10
-147.8272709563029
 20
101.0455952390726
 30
0.0
 10
-148.3263624735274
 20
100.7110073979729
 30
0.0
 10
-148.400098660361
 20
100.6615751180962
 30
0.0
  0
CIRCLE
  5
68
330
1F
100
AcDbEntity
  8
0
  6
CONTINUOUS
 62
     7
100
AcDbCircle
 10
-108.7417837622
 20
-56.0
 30
0.0
 40
155.7245796237927
  0
CIRCLE
  5
69
330
1F
100
AcDbEntity
  8
0
  6
CONTINUOUS
 62
     7
100
AcDbCircle
 10
-108.7417837622
 20
-56.0
 30
0.0
 40
159.0000380769359
  0
CIRCLE
  5
6A
330
1F
100
AcDbEntity
  8
0
  6
CONTINUOUS
 62
     7
100
AcDbCircle
 10
-108.7417837622
 20
-56.0
 30
0.0
 40
154.7708626730442
  0
CIRCLE
  5
6B
330
1F
100
AcDbEntity
  8
0
  6
CONTINUOUS
 62
     7
100
AcDbCircle
 10
-108.7417837622
 20
-56.0
 30
0.0
 40
159.9999999999995
  0
CIRCLE
  5
6C
330
1F
100
AcDbEntity
  8
0
  6
CONTINUOUS
 62
     7
100
AcDbCircle
 10
-108.7417837622
 20
-56.0
 30
0.0
 40
134.4338916994192
  0
LWPOLYLINE
  5
6D
330
1F
100
AcDbEntity
  8
0
  6
CONTINUOUS
 62
     7
100
AcDbPolyline
 90
        3
 70
   128
 43
0.0
 10
-151.0791317039
 20
98.3605325915
 10
-151.2461189241
 20
98.4956541138
 10
-151.8013216659
 20
98.9440612641
  0
LWPOLYLINE
  5
6F
330
1F
100
AcDbEntity
  8
0
  6
CONTINUOUS
 62
     7
100
AcDbPolyline
 90
        3
 70
   128
 43
0.0
 10
46.5812507006
 20
-14.3281762967
 10
46.3570426536
 20
-14.16653266
 10
45.6096157151
 20
-13.6293671033
  0
SPLINE
  5
71
330
1F
100
AcDbEntity
  8
0
  6
CONTINUOUS
 62
     7
100
AcDbSpline
210
0.0
220
0.0
230
1.0
 70
     8
 71
     3
 72
    18
 73
    14
 74
     0
 42
0.00000001
 43
0.00000001
 40
0.0
 40
0.0
 40
0.0
 40
0.0
 40
0.1249999999999955
 40
0.1249999999999955
 40
0.249999999999991
 40
0.249999999999991
 40
0.4999999999999933
 40
0.4999999999999933
 40
0.7499999999999957
 40
0.7499999999999957
 40
0.8749999999999978
 40
0.8749999999999978
 40
1.0
 40
1.0
 40
1.0
 40
1.0
 10
-144.5034675971591
 20
102.0662759887193
 30
0.0
 10
-144.7347867798217
 20
101.8272376341526
 30
0.0
 10
-144.974741772796
 20
101.6020465225042
 30
0.0
 10
-145.4700689270243
 20
101.1742579636079
 30
0.0
 10
-145.7260553355425
 20
100.9712669298174
 30
0.0
 10
-146.5112314249523
 20
100.3948438343957
 30
0.0
 10
-147.0508181367686
 20
100.0578056526514
 30
0.0
 10
-148.1606882135096
 20
99.45451913625611
 30
0.0
 10
-148.7321625213734
 20
99.1884653632829
 30
0.0
 10
-149.6008620202707
 20
98.84109995023616
 30
0.0
 10
-149.8928407989375
 20
98.73372325179677
 30
0.0
 10
-150.481997093278
 20
98.53507909715303
 30
0.0
 10
-150.7802383857298
 20
98.44351929820996
 30
0.0
 10
-151.0791317038565
 20
98.36053259154836
 30
0.0
  0
SPLINE
  5
72
330
1F
100
AcDbEntity
  8
0
  6
CONTINUOUS
 62
     7
100
AcDbSpline
210
0.0
220
0.0
230
1.0
 70
     8
 71
     3
 72
    20
 73
    16
 74
     0
 42
0.00000001
 43
0.00000001
 40
0.0
 40
0.0
 40
0.0
 40
0.0
 40
0.1250000000000049
 40
0.1250000000000049
 40
0.2500000000000097
 40
0.2500000000000097
 40
0.5000000000000099
 40
0.5000000000000099
 40
0.75000000000001
 40
0.75000000000001
 40
0.875000000000005
 40
0.875000000000005
 40
0.9375000000000026
 40
0.9375000000000026
 40
1.0
 40
1.0
 40
1.0
 40
1.0
 10
-145.3440470201139
 20
102.6078538282537
 30
0.0
 10
-145.5263539369533
 20
102.3248958649933
 30
0.0
 10
-145.7188881742237
 20
102.0565914392114
 30
0.0
 10
-146.1240778511932
 20
101.544904936528
 30
0.0
 10
-146.3373390527604
 20
101.3009465367666
 30
0.0
 10
-147.0036641390165
 20
100.6075037209069
 30
0.0
 10
-147.467944633347
 20
100.2103442385916
 30
0.0
 10
-148.44045144724
 20
99.51304044481176
 30
0.0
 10
-148.9512829360484
 20
99.21303464794515
 30
0.0
 10
-149.732675230666
 20
98.83976313703799
 30
0.0
 10
-149.9964871713971
 20
98.72757608228511
 30
0.0
 10
-150.3979711128042
 20
98.57681143845467
 30
0.0
 10
-150.5327613947577
 20
98.52948399055542
 30
0.0
 10
-150.8044121116723
 20
98.44063508223167
 30
0.0
 10
-150.9421857882828
 20
98.39885984847224
 30
0.0
 10
-151.0791317038564
 20
98.36053259154833
 30
0.0
  0
SPLINE
  5
76
330
1F
100
AcDbEntity
  8
0
  6
CONTINUOUS
 62
     7
100
AcDbSpline
210
0.0
220
0.0
230
1.0
 70
     8
 71
     3
 72
    14
 73
    10
 74
     0
 42
0.00000001
 43
0.00000001
 40
0.0
 40
0.0
 40
0.0
 40
0.0
 40
0.25
 40
0.25
 40
0.5
 40
0.5
 40
0.75
 40
0.75
 40
1.0
 40
1.0
 40
1.0
 40
1.0
 10
-145.3440470201139
 20
102.6078538282537
 30
0.0
 10
-145.084325234773
 20
103.0109671531264
 30
0.0
 10
-144.855645781036
 20
103.4292619568584
 30
0.0
 10
-144.4591557008755
 20
104.2956199086225
 30
0.0
 10
-144.2906489154334
 20
104.7466239143528
 30
0.0
 10
-144.0218514929499
 20
105.6611550137821
 30
0.0
 10
-143.920866988252
 20
106.1249577934194
 30
0.0
 10
-143.7851149228866
 20
107.065518183368
 30
0.0
 10
-143.7504316900977
 20
107.5442575244579
 30
0.0
 10
-143.7504344746837
 20
108.0237942346885
 30
0.0
  0
SPLINE
  5
78
330
1F
100
AcDbEntity
  8
0
  6
CONTINUOUS
 62
     7
100
AcDbSpline
210
0.0
220
0.0
230
1.0
 70
     8
 71
     3
 72
    20
 73
    16
 74
     0
 42
0.00000001
 43
0.00000001
 40
0.0
 40
0.0
 40
0.0
 40
0.0
 40
0.1250000000000003
 40
0.1250000000000003
 40
0.2500000000000006
 40
0.2500000000000006
 40
0.5000000000000004
 40
0.5000000000000004
 40
0.7500000000000003
 40
0.7500000000000003
 40
0.8750000000000003
 40
0.8750000000000003
 40
0.9375000000000002
 40
0.9375000000000002
 40
1.0
 40
1.0
 40
1.0
 40
1.0
 10
46.33925285674906
 20
-6.54253979231461
 30
0.0
 10
46.18917427711403
 20
-6.843244062839787
 30
0.0
 10
46.05676006465606
 20
-7.145235139651776
 30
0.0
 10
45.82346079142793
 20
-7.753762812706351
 30
0.0
 10
45.72239770726333
 20
-8.061071998474153
 30
0.0
 10
45.46558196503306
 20
-8.986461218083331
 30
0.0
 10
45.36048155737832
 20
-9.58736671288833
 30
0.0
 10
45.25614129534627
 20
-10.77742629376804
 30
0.0
 10
45.25834252515001
 20
-11.36877852161874
 30
0.0
 10
45.33546957401288
 20
-12.22963511171052
 30
0.0
 10
45.37342499982145
 20
-12.51321441896613
 30
0.0
 10
45.44838990836838
 20
-12.93459651664607
 30
0.0
 10
45.47639114030144
 20
-13.07438970999791
 30
0.0
 10
45.53845239869475
 20
-13.35279186247046
 30
0.0
 10
45.5727609224616
 20
-13.49231809895031
 30
0.0
 10
45.60961571513025
 20
-13.62936710334336
 30
0.0
  0
SPLINE
  5
79
330
1F
100
AcDbEntity
  8
0
  6
CONTINUOUS
 62
     7
100
AcDbSpline
210
0.0
220
0.0
230
1.0
 70
     8
 71
     3
 72
    18
 73
    14
 74
     0
 42
0.00000001
 43
0.00000001
 40
0.0
 40
0.0
 40
0.0
 40
0.0
 40
0.1249999999999993
 40
0.1249999999999993
 40
0.2499999999999986
 40
0.2499999999999986
 40
0.4999999999999968
 40
0.4999999999999968
 40
0.7499999999999951
 40
0.7499999999999951
 40
0.8749999999999974
 40
0.8749999999999974
 40
1.0
 40
1.0
 40
1.0
 40
1.0
 10
45.44459139788276
 20
-6.096018689464716
 30
0.0
 10
45.35719414616979
 20
-6.416431495664579
 30
0.0
 10
45.28597539016412
 20
-6.737187940848314
 30
0.0
 10
45.17070884218597
 20
-7.38040997029045
 30
0.0
 10
45.12663450039557
 20
-7.703586973074585
 30
0.0
 10
45.0310892698074
 20
-8.671433266991206
 30
0.0
 10
45.0161572095395
 20
-9.306416965604441
 30
0.0
 10
45.06286335787141
 20
-10.56663959556457
 30
0.0
 10
45.12527212626176
 20
-11.19281911097139
 30
0.0
 10
45.26929607681095
 20
-12.11555101182124
 30
0.0
 10
45.32578009068026
 20
-12.42090570625418
 30
0.0
 10
45.45528049859335
 20
-13.0278587633833
 30
0.0
 10
45.52858911601489
 20
-13.33052384708148
 30
0.0
 10
45.60961571513025
 20
-13.62936710334335
 30
0.0
  0
SPLINE
  5
7C
330
1F
100
AcDbEntity
  8
0
  6
CONTINUOUS
 62
     7
100
AcDbSpline
210
0.0
220
0.0
230
1.0
 70
     8
 71
     3
 72
    20
 73
    16
 74
     0
 42
0.00000001
 43
0.00000001
 40
0.0
 40
0.0
 40
0.0
 40
0.0
 40
0.125
 40
0.125
 40
0.25
 40
0.25
 40
0.375
 40
0.375
 40
0.5
 40
0.5
 40
0.625
 40
0.625
 40
0.75
 40
0.75
 40
1.0
 40
1.0
 40
1.0
 40
1.0
 10
55.28654813475809
 20
-1.008650712469195
 30
0.0
 10
54.82087655440823
 20
-1.008646063257963
 30
0.0
 10
54.35444920658698
 20
-1.041428559841816
 30
0.0
 10
53.4380859980956
 20
-1.170057449806236
 30
0.0
 10
52.98832213571802
 20
-1.265456564822388
 30
0.0
 10
52.10524390727358
 20
-1.51699877739353
 30
0.0
 10
51.67192866079048
 20
-1.673138623785791
 30
0.0
 10
50.82231952906333
 20
-2.048274056975906
 30
0.0
 10
50.41168440307689
 20
-2.265130669397264
 30
0.0
 10
49.63026533074627
 20
-2.749101582235382
 30
0.0
 10
49.25742804059047
 20
-3.017109448359298
 30
0.0
 10
48.54782104820205
 20
-3.605640435237728
 30
0.0
 10
48.20898871865337
 20
-3.92883438682004
 30
0.0
 10
47.27556205614486
 20
-4.952343757510532
 30
0.0
 10
46.75515662889765
 20
-5.709216071389515
 30
0.0
 10
46.33925285674903
 20
-6.542539792314596
 30
0.0
  0
SPLINE
  5
87
330
1F
100
AcDbEntity
  8
0
  6
CONTINUOUS
 62
     7
100
AcDbSpline
210
0.0
220
0.0
230
1.0
 70
     8
 71
     3
 72
    20
 73
    16
 74
     0
 42
0.00000001
 43
0.00000001
 40
0.0
 40
0.0
 40
0.0
 40
0.0
 40
0.2500000000000008
 40
0.2500000000000008
 40
0.3750000000000007
 40
0.3750000000000007
 40
0.5000000000000006
 40
0.5000000000000006
 40
0.6250000000000004
 40
0.6250000000000004
 40
0.7500000000000002
 40
0.7500000000000002
 40
0.8750000000000001
 40
0.8750000000000001
 40
1.0
 40
1.0
 40
1.0
 40
1.0
 10
45.44459139788279
 20
-6.096018689464723
 30
0.0
 10
45.90208691387715
 20
-5.179368606967036
 30
0.0
 10
46.47453096462132
 20
-4.346812748445124
 30
0.0
 10
47.5012924265561
 20
-3.220954438819486
 30
0.0
 10
47.87400451862972
 20
-2.865441068382338
 30
0.0
 10
48.65456500243215
 20
-2.218054793613089
 30
0.0
 10
49.06468210164487
 20
-1.923244168105922
 30
0.0
 10
49.92423479617397
 20
-1.390870741829322
 30
0.0
 10
50.37592878264707
 20
-1.152325105348712
 30
0.0
 10
51.3104906636627
 20
-0.7396676557023113
 30
0.0
 10
51.7871336007818
 20
-0.5679089962209449
 30
0.0
 10
52.75851260637727
 20
-0.2912022903388267
 30
0.0
 10
53.25324964193778
 20
-0.186257814988551
 30
0.0
 10
54.26124353223555
 20
-0.0447550628354249
 30
0.0
 10
54.77431129875691
 20
-0.0086887894050203
 30
0.0
 10
55.28654813475809
 20
-0.0086887894050203
 30
0.0
  0
SPLINE
  5
88
330
1F
100
AcDbEntity
  8
0
  6
CONTINUOUS
 62
     7
100
AcDbSpline
210
0.0
220
0.0
230
1.0
 70
     8
 71
     3
 72
    12
 73
     8
 74
     0
 42
0.00000001
 43
0.00000001
 40
0.0
 40
0.0
 40
0.0
 40
0.0
 40
0.5
 40
0.5
 40
0.75
 40
0.75
 40
1.0
 40
1.0
 40
1.0
 40
1.0
 10
-142.7504725516195
 20
108.0237942346885
 30
0.0
 10
-142.7504725516195
 20
106.9665918545532
 30
0.0
 10
-142.8997914627333
 20
105.9348183625645
 30
0.0
 10
-143.3427882202355
 20
104.4244567769822
 30
0.0
 10
-143.5283890361141
 20
103.9269002651703
 30
0.0
 10
-143.9651649697989
 20
102.971761781967
 30
0.0
 10
-144.2171716170429
 20
102.5106341071521
 30
0.0
 10
-144.5034675971591
 20
102.0662759887193
 30
0.0
  0
SPLINE
  5
93
330
1F
100
AcDbEntity
  8
0
  6
CONTINUOUS
 62
     7
100
AcDbSpline
210
0.0
220
0.0
230
1.0
 70
     8
 71
     3
 72
     8
 73
     4
 74
     0
 42
0.00000001
 43
0.00000001
 40
0.0
 40
0.0
 40
0.0
 40
0.0
 40
1.0
 40
1.0
 40
1.0
 40
1.0
 10
56.23931457667483
 20
-1.737382250658337
 30
0.0
 10
56.24122790464937
 20
-1.738849913756182
 30
0.0
 10
56.23895908556131
 20
-1.740317084304298
 30
0.0
 10
56.2325073704994
 20
-1.741783762214497
 30
0.0
  0
SPLINE
  5
95
330
1F
100
AcDbEntity
  8
0
  6
CONTINUOUS
 62
     7
100
AcDbSpline
210
0.0
220
0.0
230
1.0
 70
     8
 71
     3
 72
     8
 73
     4
 74
     0
 42
0.00000001
 43
0.00000001
 40
0.0
 40
0.0
 40
0.0
 40
0.0
 40
1.0
 40
1.0
 40
1.0
 40
1.0
 10
-144.483567524429
 20
108.5693294512295
 30
0.0
 10
-144.4821010233815
 20
108.5765982653397
 30
0.0
 10
-144.4806338529745
 20
108.5796759461487
 30
0.0
 10
-144.4791660128728
 20
108.5785603973746
 30
0.0
  0
CIRCLE
  5
98
330
1F
100
AcDbEntity
  8
0
  6
CONTINUOUS
 62
     7
100
AcDbCircle
 10
-108.7417837622
 20
-56.0
 30
0.0
 40
115.7594727084466
  0
CIRCLE
  5
99
330
1F
100
AcDbEntity
  8
0
  6
CONTINUOUS
 62
     7
100
AcDbCircle
 10
-108.7417837622
 20
-56.0
 30
0.0
 40
48.1683613551824
  0
CIRCLE
  5
9A
330
1F
100
AcDbEntity
  8
0
  6
CONTINUOUS
 62
     7
100
AcDbCircle
 10
-108.7417837622
 20
-56.0
 30
0.0
 40
45.22880627331183
  0
CIRCLE
  5
9B
330
1F
100
AcDbEntity
  8
0
  6
CONTINUOUS
 62
     7
100
AcDbCircle
 10
-108.7417837622
 20
-56.0
 30
0.0
 40
45.05043222968463
  0
CIRCLE
  5
9C
330
1F
100
AcDbEntity
  8
0
  6
CONTINUOUS
 62
     7
100
AcDbCircle
 10
-108.7417837622
 20
-56.0
 30
0.0
 40
42.11087714781419
  0
CIRCLE
  5
9F
330
1F
100
AcDbEntity
  8
0
  6
CONTINUOUS
 62
     7
100
AcDbCircle
 10
-108.7417837622
 20
-56.0
 30
0.0
 40
34.47938398148558
  0
CIRCLE
  5
A0
330
1F
100
AcDbEntity
  8
0
  6
CONTINUOUS
 62
     7
100
AcDbCircle
 10
-108.7417837622
 20
-56.0
 30
0.0
 40
23.0
  0
LWPOLYLINE
  5
A1
330
1F
100
AcDbEntity
  8
0
  6
CONTINUOUS
 62
     7
100
AcDbPolyline
 90
        3
 70
   128
 43
0.0
 10
56.2393145767
 20
-1.7373822507
 10
54.2170304098
 20
-1.9442183454
 10
53.5736843156
 20
-2.0995059185
  0
LINE
  5
A2
330
1F
100
AcDbEntity
  8
0
  6
CONTINUOUS
 62
     7
100
AcDbLine
 10
53.5826821459
 20
-2.109522883
 30
0.0
 11
54.0329831812
 21
-1.9876029141
 31
0.0
  0
LINE
  5
A3
330
1F
100
AcDbEntity
  8
0
  6
CONTINUOUS
 62
     7
100
AcDbLine
 10
-144.5034675972
 20
102.0662759887
 30
0.0
 11
-145.3440470201
 21
102.6078538283
 31
0.0
  0
LINE
  5
A4
330
1F
100
AcDbEntity
  8
0
  6
CONTINUOUS
 62
     7
100
AcDbLine
 10
-144.4791660129
 20
108.5785603974
 30
0.0
 11
-143.7504344747
 21
108.0237942347
 31
0.0
  0
LINE
  5
A5
330
1F
100
AcDbEntity
  8
0
  6
CONTINUOUS
 62
     7
100
AcDbLine
 10
46.3392528567
 20
-6.5425397923
 30
0.0
 11
45.4445913979
 21
-6.0960186895
 31
0.0
  0
LINE
  5
A6
330
1F
100
AcDbEntity
  8
0
  6
CONTINUOUS
 62
     7
100
AcDbLine
 10
55.2865481348
 20
-1.0086507125
 30
0.0
 11
56.2393145767
 21
-1.7373822507
 31
0.0
  0
LINE
  5
A7
330
1F
100
AcDbEntity
  8
0
  6
CONTINUOUS
 62
     7
100
AcDbLine
 10
190.2669050272
 20
-1.0086507125
 30
0.0
 11
55.2865481348
 21
-1.0086507125
 31
0.0
  0
LINE
  5
A8
330
1F
100
AcDbEntity
  8
0
  6
CONTINUOUS
 62
     7
100
AcDbLine
 10
55.2865481348
 20
-1.0086507125
 30
0.0
 11
55.2865481348
 21
-0.0086887894
 31
0.0
  0
LINE
  5
A9
330
1F
100
AcDbEntity
  8
0
  6
CONTINUOUS
 62
     7
100
AcDbLine
 10
55.2865481348
 20
-0.0086887894
 30
0.0
 11
191.2668669503
 21
-0.0086887894
 31
0.0
  0
LINE
  5
AA
330
1F
100
AcDbEntity
  8
0
  6
CONTINUOUS
 62
     7
100
AcDbLine
 10
190.2669050272
 20
-1.0086507125
 30
0.0
 11
190.2669050272
 21
124.0
 31
0.0
  0
LINE
  5
AB
330
1F
100
AcDbEntity
  8
0
  6
CONTINUOUS
 62
     7
100
AcDbLine
 10
191.2668669503
 20
124.0
 30
0.0
 11
191.2668669503
 21
-0.0086887894
 31
0.0
  0
LINE
  5
AC
330
1F
100
AcDbEntity
  8
0
  6
CONTINUOUS
 62
     7
100
AcDbLine
 10
-144.4835675244
 20
124.0
 30
0.0
 11
192.0
 21
124.0
 31
0.0
  0
LINE
  5
AD
330
1F
100
AcDbEntity
  8
0
  6
CONTINUOUS
 62
     7
100
AcDbLine
 10
-142.7504725516
 20
124.0
 30
0.0
 11
-142.7504725516
 21
108.0237942347
 31
0.0
  0
LINE
  5
AE
330
1F
100
AcDbEntity
  8
0
  6
CONTINUOUS
 62
     7
100
AcDbLine
 10
-142.7504725516
 20
108.0237942347
 30
0.0
 11
-143.7504344747
 21
108.0237942347
 31
0.0
  0
LINE
  5
AF
330
1F
100
AcDbEntity
  8
0
  6
CONTINUOUS
 62
     7
100
AcDbLine
 10
-143.7504344747
 20
108.0237942347
 30
0.0
 11
-143.7504344747
 21
124.0
 31
0.0
  0
LINE
  5
B0
330
1F
100
AcDbEntity
  8
0
  6
CONTINUOUS
 62
     7
100
AcDbLine
 10
191.0000380769
 20
-1.7417837622
 30
0.0
 11
190.2669050272
 21
-1.0086507125
 31
0.0
  0
LINE
  5
B1
330
1F
100
AcDbEntity
  8
0
  6
CONTINUOUS
 62
     7
100
AcDbLine
 10
191.2668669503
 20
-0.0086887894
 30
0.0
 11
192.0
 21
-0.7418218392
 31
0.0
  0
LINE
  5
B2
330
1F
100
AcDbEntity
  8
0
  6
CONTINUOUS
 62
     7
100
AcDbLine
 10
192.0
 20
124.0
 30
0.0
 11
192.0
 21
-0.7418218392
 31
0.0
  0
LINE
  5
B3
330
1F
100
AcDbEntity
  8
0
  6
CONTINUOUS
 62
     7
100
AcDbLine
 10
191.0000380769
 20
-1.7417837622
 30
0.0
 11
56.2325073705
 21
-1.7417837622
 31
0.0
  0
LINE
  5
B4
330
1F
100
AcDbEntity
  8
0
  6
CONTINUOUS
 62
     7
100
AcDbLine
 10
-144.4835675244
 20
108.5693294512
 30
0.0
 11
-144.4835675244
 21
124.0
 31
0.0
  0
LINE
  5
B5
330
1F
100
AcDbEntity
  8
0
  6
CONTINUOUS
 62
     7
100
AcDbLine
 10
-144.7700984524
 20
106.8910872349
 30
0.0
 11
-144.4835675244
 21
108.5693294512
 31
0.0
  0
LINE
  5
B6
330
1F
100
AcDbEntity
  8
0
  6
CONTINUOUS
 62
     7
100
AcDbLine
 10
56.2325073705
 20
-1.7417837622
 30
0.0
 11
54.0544617054
 21
-2.1134662678
 31
0.0
  0
ARC
  5
B7
330
1F
100
AcDbEntity
  8
0
  6
CONTINUOUS
 62
     7
100
AcDbCircle
 10
-108.7417837622
 20
-56.0
 30
0.0
 40
160.8160192545639
100
AcDbArc
 50
105.532034145
 51
15.0184032869
  0
ARC
  5
B8
330
1F
100
AcDbEntity
  8
0
  6
CONTINUOUS
 62
     7
100
AcDbCircle
 10
-108.7417837622
 20
-56.0
 30
0.0
 40
160.0613165405003
100
AcDbArc
 50
15.3500192968
 51
105.3376641706
  0
ARC
  5
B9
330
1F
100
AcDbEntity
  8
0
  6
CONTINUOUS
 62
     7
100
AcDbCircle
 10
-108.7417837622
 20
-56.0
 30
0.0
 40
160.8160002160958
100
AcDbArc
 50
105.5308121985
 51
15.0182883906
  0
ARC
  5
BA
330
1F
100
AcDbEntity
  8
0
  6
CONTINUOUS
 62
     7
100
AcDbCircle
 10
-154.4796275907
 20
108.5792005757
 30
0.0
 40
10.00046159829877
100
AcDbArc
 50
285.5344799805
 51
359.996332218
  0
ARC
  5
BB
330
1F
100
AcDbEntity
  8
0
  6
CONTINUOUS
 62
     7
100
AcDbCircle
 10
56.240648599
 20
-11.7379883208
 30
0.0
 40
10.00065205417819
100
AcDbArc
 50
105.4667454962
 51
195.0108472207
  0
ARC
  5
BC
330
1F
100
AcDbEntity
  8
0
  6
CONTINUOUS
 62
     7
100
AcDbCircle
 10
-108.7417837622
 20
-56.0
 30
0.0
 40
162.0612403866278
100
AcDbArc
 50
17.934699132
 51
102.7482542078
  0
ARC
  5
BD
330
1F
100
AcDbEntity
  8
0
  6
CONTINUOUS
 62
     7
100
AcDbCircle
 10
190.266815834
 20
-0.0085995962
 30
0.0
 40
1.000051120240164
100
AcDbArc
 50
270.0051101326
 51
359.9948898674
  0
ARC
  5
BE
330
1F
100
AcDbEntity
  8
0
  6
CONTINUOUS
 62
     7
100
AcDbCircle
 10
191.0000511148
 20
-0.741834877
 30
0.0
 40
0.9999488852722772
100
AcDbArc
 50
269.9992529465
 51
0.0007470535
  0
SPLINE
  5
E1
330
1B
100
AcDbEntity
 67
     1
  8
0
  6
CONTINUOUS
 62
     7
100
AcDbSpline
210
0.0
220
0.0
230
1.0
 70
     8
 71
     3
 72
     8
 73
     4
 74
     0
 42
0.00000001
 43
0.00000001
 40
0.0
 40
0.0
 40
0.0
 40
0.0
 40
1.0
 40
1.0
 40
1.0
 40
1.0
 10
56.23931457667483
 20
400.5042632677491
 30
0.0
 10
56.24122790464937
 20
400.3360857345227
 30
0.0
 10
56.23895908556131
 20
400.1679646419039
 30
0.0
 10
56.2325073704994
 20
399.9999
 30
0.0
  0
SPLINE
  5
E2
330
1B
100
AcDbEntity
 67
     1
  8
0
  6
CONTINUOUS
 62
     7
100
AcDbSpline
210
0.0
220
0.0
230
1.0
 70
    24
 71
     3
 72
     9
 73
     5
 74
     0
 42
0.00000001
 43
0.00000001
 40
0.0
 40
0.0
 40
0.0
 40
0.0
 40
0.7363099956148166
 40
1.0
 40
1.0
 40
1.0
 40
1.0
 10
56.2325073704994
 20
399.9999
 30
0.0
 10
55.07859913878313
 20
399.9999
 30
0.0
 10
53.51144910878425
 20
399.9999000000001
 30
0.0
 10
52.19849558271067
 20
399.9999000000001
 30
0.0
 10
51.85228286166279
 20
399.9999000000001
 30
0.0
  0
SPLINE
  5
E4
330
1B
100
AcDbEntity
 67
     1
  8
0
  6
CONTINUOUS
 62
     7
100
AcDbSpline
210
0.0
220
0.0
230
1.0
 70
    24
 71
     3
 72
     9
 73
     5
 74
     0
 42
0.00000001
 43
0.00000001
 40
0.0
 40
0.0
 40
0.0
 40
0.0
 40
0.7402165652853754
 40
1.0
 40
1.0
 40
1.0
 40
1.0
 10
51.33683420322377
 20
484.9999
 30
0.0
 10
52.29019155036185
 20
484.9999
 30
0.0
 10
53.57813536552157
 20
484.9999000000001
 30
0.0
 10
54.93425160118512
 20
484.9999
 30
0.0
 10
55.28654813475809
 20
484.9999
 30
0.0
  0
LWPOLYLINE
  5
F3
330
1B
100
AcDbEntity
 67
     1
  8
0
  6
CONTINUOUS
 62
     7
100
AcDbPolyline
 90
        4
 70
   128
 43
0.0
 10
56.2393145767
 20
400.5042632677
 10
54.2170304098
 20
400.4830611066
 10
52.2783244963
 20
400.4663417603
 10
52.0730015698
 20
400.464803056
  0
SPLINE
  5
F4
330
1B
100
AcDbEntity
 67
     1
  8
0
  6
CONTINUOUS
 62
     7
100
AcDbSpline
210
0.0
220
0.0
230
1.0
 70
     8
 71
     3
 72
     9
 73
     5
 74
     0
 42
0.00000001
 43
0.00000001
 40
0.0
 40
0.0
 40
0.0
 40
0.0
 40
0.2364963335232237
 40
1.0
 40
1.0
 40
1.0
 40
1.0
 10
55.28654813475809
 20
484.0086265354984
 30
0.0
 10
54.966399584428
 20
484.0089864938487
 30
0.0
 10
53.61268493879001
 20
484.0105085400678
 30
0.0
 10
52.32704379684433
 20
484.0115755081183
 30
0.0
 10
51.34545207119542
 20
484.0123901421367
 30
0.0
  0
LINE
  5
F5
330
1B
100
AcDbEntity
 67
     1
  8
0
  6
CONTINUOUS
 62
     7
100
AcDbLine
 10
52.0742164539
 20
400.5042632677
 30
0.0
 11
51.2582162378
 21
494.0086265355
 31
0.0
  0
LINE
  5
F6
330
1B
100
AcDbEntity
 67
     1
  8
0
  6
CONTINUOUS
 62
     7
100
AcDbLine
 10
-268.7417837622
 20
494.0086265355
 30
0.0
 11
-269.5577839783
 21
400.5042632677
 31
0.0
  0
LINE
  5
F7
330
1B
100
AcDbEntity
 67
     1
  8
0
  6
CONTINUOUS
 62
     7
100
AcDbLine
 10
-168.7417837622
 20
384.9999
 30
0.0
 11
-168.7417837622
 21
379.2005090272
 31
0.0
  0
LINE
  5
F8
330
1B
100
AcDbEntity
 67
     1
  8
0
  6
CONTINUOUS
 62
     7
100
AcDbLine
 10
-48.7417837622
 20
379.2005090272
 30
0.0
 11
-48.7417837622
 21
384.9999
 31
0.0
  0
LINE
  5
F9
330
1B
100
AcDbEntity
 67
     1
  8
0
  6
CONTINUOUS
 62
     7
100
AcDbLine
 10
190.0
 20
0.0
 30
0.0
 11
182.0
 21
8.0
 31
0.0
  0
LINE
  5
FA
330
1B
100
AcDbEntity
 67
     1
  8
0
  6
CONTINUOUS
 62
     7
100
AcDbLine
 10
0.0
 20
0.0
 30
0.0
 11
190.0
 21
0.0
 31
0.0
  0
LINE
  5
FB
330
1B
100
AcDbEntity
 67
     1
  8
0
  6
CONTINUOUS
 62
     7
100
AcDbLine
 10
0.0
 20
0.0
 30
0.0
 11
8.0
 21
8.0
 31
0.0
  0
LINE
  5
FC
330
1B
100
AcDbEntity
 67
     1
  8
0
  6
CONTINUOUS
 62
     7
100
AcDbLine
 10
8.0
 20
8.0
 30
0.0
 11
182.0
 21
8.0
 31
0.0
  0
LINE
  5
FD
330
1B
100
AcDbEntity
 67
     1
  8
0
  6
CONTINUOUS
 62
     7
100
AcDbLine
 10
8.0
 20
392.0
 30
0.0
 11
8.0
 21
8.0
 31
0.0
  0
LINE
  5
FE
330
1B
100
AcDbEntity
 67
     1
  8
0
  6
CONTINUOUS
 62
     7
100
AcDbLine
 10
0.0
 20
399.9999
 30
0.0
 11
0.0
 21
0.0
 31
0.0
  0
LINE
  5
FF
330
1B
100
AcDbEntity
 67
     1
  8
0
  6
CONTINUOUS
 62
     7
100
AcDbLine
 10
8.0
 20
392.0
 30
0.0
 11
0.0001
 21
399.9999
 31
0.0
  0
LINE
  5
100
330
1B
100
AcDbEntity
 67
     1
  8
0
  6
CONTINUOUS
 62
     7
100
AcDbLine
 10
189.9999
 20
399.9999
 30
0.0
 11
182.0
 21
392.0
 31
0.0
  0
LINE
  5
101
330
1B
100
AcDbEntity
 67
     1
  8
0
  6
CONTINUOUS
 62
     7
100
AcDbLine
 10
182.0
 20
392.0
 30
0.0
 11
182.0
 21
8.0
 31
0.0
  0
LINE
  5
102
330
1B
100
AcDbEntity
 67
     1
  8
0
  6
CONTINUOUS
 62
     7
100
AcDbLine
 10
190.0
 20
399.9999
 30
0.0
 11
190.0
 21
0.0
 31
0.0
  0
LINE
  5
103
330
1B
100
AcDbEntity
 67
     1
  8
0
  6
CONTINUOUS
 62
     7
100
AcDbLine
 10
0.001
 20
399.9999
 30
0.0
 11
8.001
 21
391.9999
 31
0.0
  0
LINE
  5
104
330
1B
100
AcDbEntity
 67
     1
  8
0
  6
CONTINUOUS
 62
     7
100
AcDbLine
 10
181.999
 20
391.9999
 30
0.0
 11
189.999
 21
399.9999
 31
0.0
  0
LINE
  5
105
330
1B
100
AcDbEntity
 67
     1
  8
0
  6
CONTINUOUS
 62
     7
100
AcDbLine
 10
8.001
 20
391.9999
 30
0.0
 11
181.999
 21
391.9999
 31
0.0
  0
LINE
  5
106
330
1B
100
AcDbEntity
 67
     1
  8
0
  6
CONTINUOUS
 62
     7
100
AcDbLine
 10
5.0001
 20
394.9999
 30
0.0
 11
5.001
 21
394.9999
 31
0.0
  0
LINE
  5
107
330
1B
100
AcDbEntity
 67
     1
  8
0
  6
CONTINUOUS
 62
     7
100
AcDbLine
 10
184.999
 20
394.9999
 30
0.0
 11
184.9999
 21
394.9999
 31
0.0
  0
LINE
  5
108
330
1B
100
AcDbEntity
 67
     1
  8
0
  6
CONTINUOUS
 62
     7
100
AcDbLine
 10
182.0
 20
204.0
 30
0.0
 11
8.0
 21
204.0
 31
0.0
  0
LINE
  5
109
330
1B
100
AcDbEntity
 67
     1
  8
0
  6
CONTINUOUS
 62
     7
100
AcDbLine
 10
182.0
 20
196.0
 30
0.0
 11
8.0
 21
196.0
 31
0.0
  0
LINE
  5
10A
330
1B
100
AcDbEntity
 67
     1
  8
0
  6
CONTINUOUS
 62
     7
100
AcDbLine
 10
-269.0578030168
 20
399.9999
 30
0.0
 11
51.5742354923
 21
399.9999
 31
0.0
  0
LINE
  5
10B
330
1B
100
AcDbEntity
 67
     1
  8
0
  6
CONTINUOUS
 62
     7
100
AcDbLine
 10
-267.7418218392
 20
494.9999
 30
0.0
 11
50.2582543147
 21
494.9999
 31
0.0
  0
LINE
  5
10C
330
1B
100
AcDbEntity
 67
     1
  8
0
  6
CONTINUOUS
 62
     7
100
AcDbLine
 10
-167.7417837622
 20
378.2005090272
 30
0.0
 11
-49.7417837698
 21
378.2005090272
 31
0.0
  0
LINE
  5
10D
330
1B
100
AcDbEntity
 67
     1
  8
0
  6
CONTINUOUS
 62
     7
100
AcDbLine
 10
55.2865481348
 20
484.0086265355
 30
0.0
 11
56.2393145767
 21
400.5042632677
 31
0.0
  0
LINE
  5
10E
330
1B
100
AcDbEntity
 67
     1
  8
0
  6
CONTINUOUS
 62
     7
100
AcDbLine
 10
55.2865481348
 20
484.0086265355
 30
0.0
 11
55.2865481348
 21
484.9999
 31
0.0
  0
LINE
  5
10F
330
1B
100
AcDbEntity
 67
     1
  8
0
  6
CONTINUOUS
 62
     7
100
AcDbLine
 10
190.2669050272
 20
484.0086265355
 30
0.0
 11
55.2865481348
 21
484.0086265355
 31
0.0
  0
LINE
  5
110
330
1B
100
AcDbEntity
 67
     1
  8
0
  6
CONTINUOUS
 62
     7
100
AcDbLine
 10
191.0000380769
 20
399.9999
 30
0.0
 11
190.2669050272
 21
484.0086265355
 31
0.0
  0
LINE
  5
111
330
1B
100
AcDbEntity
 67
     1
  8
0
  6
CONTINUOUS
 62
     7
100
AcDbLine
 10
192.0
 20
399.9999
 30
0.0
 11
56.2325073705
 21
399.9999
 31
0.0
  0
LINE
  5
112
330
1B
100
AcDbEntity
 67
     1
  8
0
  6
CONTINUOUS
 62
     7
100
AcDbLine
 10
191.2668669503
 20
484.0086265355
 30
0.0
 11
192.0
 21
399.9999
 31
0.0
  0
LINE
  5
113
330
1B
100
AcDbEntity
 67
     1
  8
0
  6
CONTINUOUS
 62
     7
100
AcDbLine
 10
190.2669050272
 20
484.0086265355
 30
0.0
 11
190.2669050272
 21
484.9999
 31
0.0
  0
LINE
  5
114
330
1B
100
AcDbEntity
 67
     1
  8
0
  6
CONTINUOUS
 62
     7
100
AcDbLine
 10
55.2865481348
 20
484.9999
 30
0.0
 11
190.2669050272
 21
484.9999
 31
0.0
  0
LINE
  5
115
330
1B
100
AcDbEntity
 67
     1
  8
0
  6
CONTINUOUS
 62
     7
100
AcDbLine
 10
-269.5577839783
 20
400.5042632677
 30
0.0
 11
52.0742164539
 21
400.5042632677
 31
0.0
  0
LINE
  5
116
330
1B
100
AcDbEntity
 67
     1
  8
0
  6
CONTINUOUS
 62
     7
100
AcDbLine
 10
-268.7417837622
 20
494.0086265355
 30
0.0
 11
51.2582162378
 21
494.0086265355
 31
0.0
  0
LINE
  5
117
330
1B
100
AcDbEntity
 67
     1
  8
0
  6
CONTINUOUS
 62
     7
100
AcDbLine
 10
-168.7417837622
 20
384.9999
 30
0.0
 11
-48.7417837622
 21
384.9999
 31
0.0
  0
LINE
  5
118
330
1B
100
AcDbEntity
 67
     1
  8
0
  6
CONTINUOUS
 62
     7
100
AcDbLine
 10
-168.7417837622
 20
379.2005090272
 30
0.0
 11
-48.7417837622
 21
379.2005090272
 31
0.0
  0
ARC
  5
119
330
1B
100
AcDbEntity
 67
     1
  8
0
  6
CONTINUOUS
 62
     7
100
AcDbCircle
 10
-269.0578030168
 20
400.4999
 30
0.0
 40
0.5000000000001448
100
AcDbArc
 50
179.5
 51
270.0
  0
ARC
  5
11A
330
1B
100
AcDbEntity
 67
     1
  8
0
  6
CONTINUOUS
 62
     7
100
AcDbCircle
 10
51.5742354923
 20
400.4999
 30
0.0
 40
0.5000000000000102
100
AcDbArc
 50
270.0
 51
0.5
  0
ARC
  5
11B
330
1B
100
AcDbEntity
 67
     1
  8
0
  6
CONTINUOUS
 62
     7
100
AcDbCircle
 10
-267.7418218392
 20
493.9999
 30
0.0
 40
1.000000000000006
100
AcDbArc
 50
90.0
 51
179.5
  0
ARC
  5
11C
330
1B
100
AcDbEntity
 67
     1
  8
0
  6
CONTINUOUS
 62
     7
100
AcDbCircle
 10
50.2582543147
 20
493.9999
 30
0.0
 40
0.9999999999999432
100
AcDbArc
 50
0.5
 51
90.0
  0
ARC
  5
11D
330
1B
100
AcDbEntity
 67
     1
  8
0
  6
CONTINUOUS
 62
     7
100
AcDbCircle
 10
-183.7417837622
 20
384.9999
 30
0.0
 40
15.00000000000009
100
AcDbArc
 50
0.0
 51
90.0
  0
ARC
  5
11E
330
1B
100
AcDbEntity
 67
     1
  8
0
  6
CONTINUOUS
 62
     7
100
AcDbCircle
 10
-33.7417837622
 20
384.9999
 30
0.0
 40
15.00000000000006
100
AcDbArc
 50
90.0
 51
180.0
  0
ARC
  5
11F
330
1B
100
AcDbEntity
 67
     1
  8
0
  6
CONTINUOUS
 62
     7
100
AcDbCircle
 10
-167.7417837622
 20
379.2005090272
 30
0.0
 40
1.000000000000028
100
AcDbArc
 50
180.0
 51
270.0
  0
ARC
  5
120
330
1B
100
AcDbEntity
 67
     1
  8
0
  6
CONTINUOUS
 62
     7
100
AcDbCircle
 10
-49.7417837622
 20
379.2005090272
 30
0.0
 40
1.000000000000028
100
AcDbArc
 50
270.0
 51
0.0
  0
ARC
  5
121
330
1B
100
AcDbEntity
 67
     1
  8
0
  6
CONTINUOUS
 62
     7
100
AcDbCircle
 10
190.7668859887
 20
455.3589385281
 30
0.0
 40
28.65405039222942
100
AcDbArc
 50
89.0002023313
 51
90.9997976687
  0
ARC
  5
122
330
1B
100
AcDbEntity
 67
     1
  8
0
  6
CONTINUOUS
 62
     7
100
AcDbCircle
 10
190.2669050272
 20
483.9999
 30
0.0
 40
1.000000000000063
100
AcDbArc
 50
0.5
 51
90.0
  0
VIEWPORT
  5
49F
330
1B
100
AcDbEntity
 67
     1
  8
0
100
AcDbViewport
 10
0.0
 20
0.0
 30
0.0
 40
205.6
 41
156.0
 68
     1
 69
     1
1001
ACAD
1000
MVIEW
1002
{
1070
    16
1010
0.0
1020
0.0
1030
0.0
1010
0.0
1020
0.0
1030
1.0
1040
0.0
1040
357.2134125294
1040
-38.7789015083
1040
-46.4080096273
1040
50.0
1040
0.0
1040
0.0
1070
     0
1070
   100
1070
     0
1070
     3
1070
     0
1070
     0
1070
     0
1070
     0
1040
0.0
1040
0.0
1040
0.0
1040
10.0
1040
10.0
1040
10.0
1040
10.0
1070
     0
1002
{
1002
}
1002
}
  0
ENDSEC
  0
SECTION
  2
OBJECTS
  0
DICTIONARY
  5
C
330
0
100
AcDbDictionary
  3
ACAD_GROUP
350
D
  3
ACAD_MLINESTYLE
350
17
  3
ACAD_SCALELIST
350
47
  3
DWGPROPS
350
4B1
  0
DICTIONARY
  5
D
102
{ACAD_REACTORS
330
C
102
}
330
C
100
AcDbDictionary
  0
DICTIONARY
  5
17
102
{ACAD_REACTORS
330
C
102
}
330
C
100
AcDbDictionary
  3
STANDARD
350
18
  0
DICTIONARY
  5
47
102
{ACAD_REACTORS
330
C
102
}
330
C
100
AcDbDictionary
  0
XRECORD
  5
4B1
102
{ACAD_REACTORS
330
C
102
}
330
C
100
AcDbXrecord
  1
DWGPROPS COOKIE
  2

  3

  4

  6

  7

  8
m.jentzsch
  9

300
=
301
=
302
=
303
=
304
=
305
=
306
=
307
=
308
=
309
=
 40
0.0
 41
2460389.441499526
 42
2460389.441533368
  1

 90
        0
  0
MLINESTYLE
  5
18
102
{ACAD_REACTORS
330
17
102
}
330
17
100
AcDbMlineStyle
  2
Standard
 70
     0
  3

 62
   256
 51
90.0
 52
90.0
 71
     2
 49
0.5
 62
   256
  6
BYLAYER
 49
-0.5
 62
   256
  6
BYLAYER
  0
ENDSEC
  0
EOF
