  0
SECTION
  2
HEADER
  9
$ACADVER
  1
AC1015
  9
$ACADMAINTVER
 70
     6
  9
$DWGCODEPAGE
  3
ANSI_1252
  9
$INSBASE
 10
0.0
 20
0.0
 30
0.0
  9
$EXTMIN
 10
-249.8830403578
 20
-249.8004927273
 30
0.0
  9
$EXTMAX
 10
249.6944556219
 20
249.8009605605
 30
0.0
  9
$LIMMIN
 10
0.0
 20
0.0
  9
$LIMMAX
 10
420.0
 20
297.0
  9
$ORTHOMODE
 70
     0
  9
$REGENMODE
 70
     1
  9
$FILLMODE
 70
     1
  9
$QTEXTMODE
 70
     0
  9
$MIRRTEXT
 70
     1
  9
$LTSCALE
 40
1.0
  9
$ATTMODE
 70
     1
  9
$TEXTSIZE
 40
3.5
  9
$TRACEWID
 40
1.0
  9
$TEXTSTYLE
  7
STANDARD
  9
$CLAYER
  8
0
  9
$CELTYPE
  6
ByLayer
  9
$CECOLOR
 62
   256
  9
$CELTSCALE
 40
1.0
  9
$DISPSILH
 70
     0
  9
$DIMSCALE
 40
1.0
  9
$DIMASZ
 40
7.4083333333
  9
$DIMEXO
 40
1.0
  9
$DIMDLI
 40
3.75
  9
$DIMRND
 40
0.0
  9
$DIMDLE
 40
0.0
  9
$DIMEXE
 40
1.0
  9
$DIMTP
 40
0.0
  9
$DIMTM
 40
0.0
  9
$DIMTXT
 40
9.8777777778
  9
$DIMCEN
 40
2.5
  9
$DIMTSZ
 40
0.0
  9
$DIMTOL
 70
     0
  9
$DIMLIM
 70
     0
  9
$DIMTIH
 70
     1
  9
$DIMTOH
 70
     1
  9
$DIMSE1
 70
     0
  9
$DIMSE2
 70
     0
  9
$DIMTAD
 70
     1
  9
$DIMZIN
 70
     0
  9
$DIMBLK
  1

  9
$DIMASO
 70
     1
  9
$DIMSHO
 70
     1
  9
$DIMPOST
  1

  9
$DIMAPOST
  1

  9
$DIMALT
 70
     0
  9
$DIMALTD
 70
     3
  9
$DIMALTF
 40
0.0393700787
  9
$DIMLFAC
 40
1.0
  9
$DIMTOFL
 70
     1
  9
$DIMTVP
 40
0.0
  9
$DIMTIX
 70
     0
  9
$DIMSOXD
 70
     0
  9
$DIMSAH
 70
     0
  9
$DIMBLK1
  1

  9
$DIMBLK2
  1

  9
$DIMSTYLE
  2
ISO-25
  9
$DIMCLRD
 70
     0
  9
$DIMCLRE
 70
     0
  9
$DIMCLRT
 70
     0
  9
$DIMTFAC
 40
1.0
  9
$DIMGAP
 40
1.524
  9
$DIMJUST
 70
     0
  9
$DIMSD1
 70
     0
  9
$DIMSD2
 70
     0
  9
$DIMTOLJ
 70
     0
  9
$DIMTZIN
 70
     0
  9
$DIMALTZ
 70
     0
  9
$DIMALTTZ
 70
     0
  9
$DIMUPT
 70
     0
  9
$DIMDEC
 70
     2
  9
$DIMTDEC
 70
     2
  9
$DIMALTU
 70
     2
  9
$DIMALTTD
 70
     3
  9
$DIMTXSTY
  7
STANDARD
  9
$DIMAUNIT
 70
     0
  9
$DIMADEC
 70
     2
  9
$DIMALTRND
 40
0.0
  9
$DIMAZIN
 70
     0
  9
$DIMDSEP
 70
    44
  9
$DIMATFIT
 70
     3
  9
$DIMFRAC
 70
     0
  9
$DIMLDRBLK
  1

  9
$DIMLUNIT
 70
     2
  9
$DIMLWD
 70
    -2
  9
$DIMLWE
 70
    -2
  9
$DIMTMOVE
 70
     0
  9
$LUNITS
 70
     2
  9
$LUPREC
 70
     2
  9
$SKETCHINC
 40
1.0
  9
$FILLETRAD
 40
10.0
  9
$AUNITS
 70
     0
  9
$AUPREC
 70
     2
  9
$MENU
  1
.
  9
$ELEVATION
 40
0.0
  9
$PELEVATION
 40
0.0
  9
$THICKNESS
 40
0.0
  9
$LIMCHECK
 70
     0
  9
$CHAMFERA
 40
0.0
  9
$CHAMFERB
 40
0.0
  9
$CHAMFERC
 40
0.0
  9
$CHAMFERD
 40
0.0
  9
$SKPOLY
 70
     0
  9
$TDCREATE
 40
2458369.421644213
  9
$TDUCREATE
 40
2458369.33831088
  9
$TDUPDATE
 40
2458369.421672951
  9
$TDUUPDATE
 40
2458369.338339618
  9
$TDINDWG
 40
0.0000000116
  9
$TDUSRTIMER
 40
0.0000000116
  9
$USRTIMER
 70
     1
  9
$ANGBASE
 50
0.0
  9
$ANGDIR
 70
     0
  9
$PDMODE
 70
     0
  9
$PDSIZE
 40
-1.0
  9
$PLINEWID
 40
0.0
  9
$SPLFRAME
 70
     0
  9
$SPLINETYPE
 70
     6
  9
$SPLINESEGS
 70
     8
  9
$HANDSEED
  5
B8
  9
$SURFTAB1
 70
     6
  9
$SURFTAB2
 70
     6
  9
$SURFTYPE
 70
     6
  9
$SURFU
 70
     6
  9
$SURFV
 70
     6
  9
$UCSBASE
  2

  9
$UCSNAME
  2

  9
$UCSORG
 10
0.0
 20
0.0
 30
0.0
  9
$UCSXDIR
 10
1.0
 20
0.0
 30
0.0
  9
$UCSYDIR
 10
0.0
 20
1.0
 30
0.0
  9
$UCSORTHOREF
  2

  9
$UCSORTHOVIEW
 70
     0
  9
$UCSORGTOP
 10
0.0
 20
0.0
 30
0.0
  9
$UCSORGBOTTOM
 10
0.0
 20
0.0
 30
0.0
  9
$UCSORGLEFT
 10
0.0
 20
0.0
 30
0.0
  9
$UCSORGRIGHT
 10
0.0
 20
0.0
 30
0.0
  9
$UCSORGFRONT
 10
0.0
 20
0.0
 30
0.0
  9
$UCSORGBACK
 10
0.0
 20
0.0
 30
0.0
  9
$PUCSBASE
  2

  9
$PUCSNAME
  2

  9
$PUCSORG
 10
0.0
 20
0.0
 30
0.0
  9
$PUCSXDIR
 10
1.0
 20
0.0
 30
0.0
  9
$PUCSYDIR
 10
0.0
 20
1.0
 30
0.0
  9
$PUCSORTHOREF
  2

  9
$PUCSORTHOVIEW
 70
     0
  9
$PUCSORGTOP
 10
0.0
 20
0.0
 30
0.0
  9
$PUCSORGBOTTOM
 10
0.0
 20
0.0
 30
0.0
  9
$PUCSORGLEFT
 10
0.0
 20
0.0
 30
0.0
  9
$PUCSORGRIGHT
 10
0.0
 20
0.0
 30
0.0
  9
$PUCSORGFRONT
 10
0.0
 20
0.0
 30
0.0
  9
$PUCSORGBACK
 10
0.0
 20
0.0
 30
0.0
  9
$USERI1
 70
     0
  9
$USERI2
 70
     0
  9
$USERI3
 70
     0
  9
$USERI4
 70
     0
  9
$USERI5
 70
     0
  9
$USERR1
 40
0.0
  9
$USERR2
 40
0.0
  9
$USERR3
 40
0.0
  9
$USERR4
 40
0.0
  9
$USERR5
 40
0.0
  9
$WORLDVIEW
 70
     1
  9
$SHADEDGE
 70
     3
  9
$SHADEDIF
 70
    70
  9
$TILEMODE
 70
     1
  9
$MAXACTVP
 70
    64
  9
$PINSBASE
 10
0.0
 20
0.0
 30
0.0
  9
$PLIMCHECK
 70
     0
  9
$PEXTMIN
 10
-249.9899842095
 20
-220.0002302032
 30
0.0
  9
$PEXTMAX
 10
249.3939782849
 20
-0.0931279824
 30
0.0
  9
$PLIMMIN
 10
-288.8525493842
 20
-234.5736921437
  9
$PLIMMAX
 10
288.2565434596
 20
173.4832421903
  9
$UNITMODE
 70
     0
  9
$VISRETAIN
 70
     1
  9
$PLINEGEN
 70
     0
  9
$PSLTSCALE
 70
     1
  9
$TREEDEPTH
 70
  3020
  9
$CMLSTYLE
  2
Standard
  9
$CMLJUST
 70
     0
  9
$CMLSCALE
 40
20.0
  9
$PROXYGRAPHICS
 70
     1
  9
$MEASUREMENT
 70
     1
  9
$CELWEIGHT
370
    -1
  9
$ENDCAPS
280
     0
  9
$JOINSTYLE
280
     0
  9
$LWDISPLAY
290
     1
  9
$INSUNITS
 70
     4
  9
$HYPERLINKBASE
  1

  9
$STYLESHEET
  1

  9
$XEDIT
290
     1
  9
$CEPSNTYPE
380
     0
  9
$PSTYLEMODE
290
     1
  9
$FINGERPRINTGUID
  2
{0C3766F3-EDB3-4974-8097-5133D4BFE28E}
  9
$VERSIONGUID
  2
{FAEB1C32-E019-11D5-929B-00C0DF256EC4}
  9
$EXTNAMES
290
     1
  9
$PSVPSCALE
 40
0.0
  9
$OLESTARTUP
290
     0
  0
ENDSEC
  0
SECTION
  2
CLASSES
  0
CLASS
  1
ACDBDICTIONARYWDFLT
  2
AcDbDictionaryWithDefault
  3
ObjectDBX Classes
 90
        0
280
     0
281
     0
  0
CLASS
  1
VISUALSTYLE
  2
AcDbVisualStyle
  3
ObjectDBX Classes
 90
     4095
280
     0
281
     0
  0
CLASS
  1
MATERIAL
  2
AcDbMaterial
  3
ObjectDBX Classes
 90
     1153
280
     0
281
     0
  0
CLASS
  1
SCALE
  2
AcDbScale
  3
ObjectDBX Classes
 90
     1153
280
     0
281
     0
  0
CLASS
  1
TABLESTYLE
  2
AcDbTableStyle
  3
ObjectDBX Classes
 90
     4095
280
     0
281
     0
  0
CLASS
  1
MLEADERSTYLE
  2
AcDbMLeaderStyle
  3
ACDB_MLEADERSTYLE_CLASS
 90
     4095
280
     0
281
     0
  0
CLASS
  1
SUN
  2
AcDbSun
  3
SCENEOE
 90
     1153
280
     0
281
     0
  0
CLASS
  1
ACDBPLACEHOLDER
  2
AcDbPlaceHolder
  3
ObjectDBX Classes
 90
        0
280
     0
281
     0
  0
CLASS
  1
LAYOUT
  2
AcDbLayout
  3
ObjectDBX Classes
 90
        0
280
     0
281
     0
  0
ENDSEC
  0
SECTION
  2
TABLES
  0
TABLE
  2
VPORT
  5
8
330
0
100
AcDbSymbolTable
 70
     1
  0
VPORT
  5
29
330
8
100
AcDbSymbolTableRecord
100
AcDbViewportTableRecord
  2
*Active
 70
     0
 10
0.0
 20
0.0
 11
1.0
 21
1.0
 12
-0.094292368
 22
0.0002339166
 13
0.0
 23
0.0
 14
10.0
 24
10.0
 15
10.0
 25
10.0
 16
0.0
 26
0.0
 36
1.0
 17
0.0
 27
0.0
 37
0.0
 40
509.5934823535
 41
0.9999520472
 42
50.0
 43
0.0
 44
0.0
 50
0.0
 51
0.0
 71
     0
 72
   100
 73
     1
 74
     3
 75
     0
 76
     0
 77
     0
 78
     0
281
     0
 65
     1
110
0.0
120
0.0
130
0.0
111
1.0
121
0.0
131
0.0
112
0.0
122
1.0
132
0.0
 79
     0
146
0.0
  0
ENDTAB
  0
TABLE
  2
LTYPE
  5
5
330
0
100
AcDbSymbolTable
 70
     6
  0
LTYPE
  5
14
330
5
100
AcDbSymbolTableRecord
100
AcDbLinetypeTableRecord
  2
ByBlock
 70
     0
  3

 72
    65
 73
     0
 40
0.0
  0
LTYPE
  5
15
330
5
100
AcDbSymbolTableRecord
100
AcDbLinetypeTableRecord
  2
ByLayer
 70
     0
  3

 72
    65
 73
     0
 40
0.0
  0
LTYPE
  5
16
330
5
100
AcDbSymbolTableRecord
100
AcDbLinetypeTableRecord
  2
Continuous
 70
     0
  3
Solid line
 72
    65
 73
     0
 40
0.0
  0
LTYPE
  5
6E
330
5
100
AcDbSymbolTableRecord
100
AcDbLinetypeTableRecord
  2
HIDDEN
 70
     0
  3
Hidden __ __ __ __ __ __ __ __ __ __ __ __ __ __
 72
    65
 73
     2
 40
1.905
 49
1.27
 74
     0
 49
-0.635
 74
     0
  0
LTYPE
  5
6F
330
5
100
AcDbSymbolTableRecord
100
AcDbLinetypeTableRecord
  2
PHANTOM
 70
     0
  3
Phantom ______  __  __  ______  __  __  ______
 72
    65
 73
     6
 40
12.7
 49
6.35
 74
     0
 49
-1.27
 74
     0
 49
1.27
 74
     0
 49
-1.27
 74
     0
 49
1.27
 74
     0
 49
-1.27
 74
     0
  0
LTYPE
  5
70
330
5
100
AcDbSymbolTableRecord
100
AcDbLinetypeTableRecord
  2
CENTER
 70
     0
  3
Center ____ _ ____ _ ____ _ ____ _ ____ _ ____
 72
    65
 73
     4
 40
10.16
 49
6.35
 74
     0
 49
-1.27
 74
     0
 49
1.27
 74
     0
 49
-1.27
 74
     0
  0
LTYPE
  5
71
330
5
100
AcDbSymbolTableRecord
100
AcDbLinetypeTableRecord
  2
CENTERX2
 70
     0
  3
Center (2x) ________  __  ________  __  _____
 72
    65
 73
     4
 40
20.32
 49
12.7
 74
     0
 49
-2.54
 74
     0
 49
2.54
 74
     0
 49
-2.54
 74
     0
  0
LTYPE
  5
72
330
5
100
AcDbSymbolTableRecord
100
AcDbLinetypeTableRecord
  2
DOT2
 70
     0
  3
Dot (.5x) ........................................
 72
    65
 73
     2
 40
0.635
 49
0.0
 74
     0
 49
-0.635
 74
     0
  0
ENDTAB
  0
TABLE
  2
LAYER
  5
2
330
0
100
AcDbSymbolTable
 70
     1
  0
LAYER
  5
10
330
2
100
AcDbSymbolTableRecord
100
AcDbLayerTableRecord
  2
0
 70
     0
 62
     7
  6
Continuous
370
    -3
390
F
  0
ENDTAB
  0
TABLE
  2
STYLE
  5
3
330
0
100
AcDbSymbolTable
 70
     1
  0
STYLE
  5
11
330
3
100
AcDbSymbolTableRecord
100
AcDbTextStyleTableRecord
  2
STANDARD
 70
     0
 40
0.0
 41
1.0
 50
0.0
 71
     0
 42
3.5
  3
GOTHIC.TTF
  4

1001
ACAD
1000
CENTURY GOTHIC
1071
       34
  0
ENDTAB
  0
TABLE
  2
VIEW
  5
6
330
0
100
AcDbSymbolTable
 70
     0
  0
ENDTAB
  0
TABLE
  2
UCS
  5
7
330
0
100
AcDbSymbolTable
 70
     0
  0
ENDTAB
  0
TABLE
  2
APPID
  5
9
330
0
100
AcDbSymbolTable
 70
     1
  0
APPID
  5
12
330
9
100
AcDbSymbolTableRecord
100
AcDbRegAppTableRecord
  2
ACAD
 70
     0
  0
ENDTAB
  0
TABLE
  2
DIMSTYLE
  5
A
330
0
100
AcDbSymbolTable
 70
     1
100
AcDbDimStyleTable
  0
DIMSTYLE
105
27
330
A
100
AcDbSymbolTableRecord
100
AcDbDimStyleTableRecord
  2
ISO-25
 70
     0
 41
2.5
 42
0.625
 43
3.75
 44
1.25
 73
     0
 74
     0
 77
     1
 78
     8
140
2.5
141
2.5
143
0.0393700787
147
0.625
171
     3
172
     1
178
     0
271
     2
272
     2
274
     3
278
    44
283
     0
284
     8
340
11
  0
ENDTAB
  0
TABLE
  2
BLOCK_RECORD
  5
1
330
0
100
AcDbSymbolTable
 70
     8
  0
BLOCK_RECORD
  5
1F
330
1
100
AcDbSymbolTableRecord
100
AcDbBlockTableRecord
  2
*Model_Space
340
22
  0
BLOCK_RECORD
  5
1B
330
1
100
AcDbSymbolTableRecord
100
AcDbBlockTableRecord
  2
*Paper_Space
340
1E
  0
BLOCK_RECORD
  5
23
330
1
100
AcDbSymbolTableRecord
100
AcDbBlockTableRecord
  2
*Paper_Space0
340
26
  0
BLOCK_RECORD
  5
79
330
1
100
AcDbSymbolTableRecord
100
AcDbBlockTableRecord
  2
*Paper_Space1
340
7A
  0
BLOCK_RECORD
  5
7F
330
1
100
AcDbSymbolTableRecord
100
AcDbBlockTableRecord
  2
*Paper_Space2
340
80
  0
BLOCK_RECORD
  5
85
330
1
100
AcDbSymbolTableRecord
100
AcDbBlockTableRecord
  2
*Paper_Space3
340
86
  0
BLOCK_RECORD
  5
8C
330
1
100
AcDbSymbolTableRecord
100
AcDbBlockTableRecord
  2
*Paper_Space4
340
8D
  0
BLOCK_RECORD
  5
91
330
1
100
AcDbSymbolTableRecord
100
AcDbBlockTableRecord
  2
*Paper_Space5
340
92
  0
BLOCK_RECORD
  5
9A
330
1
100
AcDbSymbolTableRecord
100
AcDbBlockTableRecord
  2
*Paper_Space6
340
9B
  0
BLOCK_RECORD
  5
A0
330
1
100
AcDbSymbolTableRecord
100
AcDbBlockTableRecord
  2
*Paper_Space7
340
A1
  0
ENDTAB
  0
ENDSEC
  0
SECTION
  2
BLOCKS
  0
BLOCK
  5
20
330
1F
100
AcDbEntity
  8
0
100
AcDbBlockBegin
  2
*Model_Space
 70
     0
 10
0.0
 20
0.0
 30
0.0
  3
*Model_Space
  1

  0
ENDBLK
  5
21
330
1F
100
AcDbEntity
  8
0
100
AcDbBlockEnd
  0
BLOCK
  5
1C
330
1B
100
AcDbEntity
 67
     1
  8
0
100
AcDbBlockBegin
  2
*Paper_Space
 70
     0
 10
0.0
 20
0.0
 30
0.0
  3
*Paper_Space
  1

  0
ENDBLK
  5
1D
330
1B
100
AcDbEntity
 67
     1
  8
0
100
AcDbBlockEnd
  0
BLOCK
  5
24
330
23
100
AcDbEntity
  8
0
100
AcDbBlockBegin
  2
*Paper_Space0
 70
     0
 10
0.0
 20
0.0
 30
0.0
  3
*Paper_Space0
  1

  0
SPLINE
  5
77
330
23
100
AcDbEntity
  8
0
  6
Continuous
 62
     7
370
    25
100
AcDbSpline
210
0.0
220
0.0
230
1.0
 70
     8
 71
     3
 72
    73
 73
    69
 74
     0
 42
0.000000001
 43
0.00000001
 40
0.0
 40
0.0
 40
0.0
 40
0.0
 40
0.0153650236324487
 40
0.0298834515242981
 40
0.0435706485600642
 40
0.0564314057083817
 40
0.0684635575274019
 40
0.0796606767123647
 40
0.090014019270602
 40
0.101013375156578
 40
0.1108356868578168
 40
0.1198602659129505
 40
0.1289985279021302
 40
0.1382877387830711
 40
0.1477272615387901
 40
0.1670504571991216
 40
0.1869569941053611
 40
0.2073969398625562
 40
0.2275233506830604
 40
0.2469556249668291
 40
0.2656691302238759
 40
0.283643995548902
 40
0.3008771900803182
 40
0.3182255159425355
 40
0.3362066970440399
 40
0.3547966730327408
 40
0.373966425869852
 40
0.3936855310820317
 40
0.4139061723581369
 40
0.434325931536322
 40
0.4497098929347467
 40
0.46515674153199
 40
0.4806769284157568
 40
0.4962878027384967
 40
0.5120149156725357
 40
0.5278913593981964
 40
0.5439321853049742
 40
0.5593817970585401
 40
0.5738170556602096
 40
0.5872335286440669
 40
0.5996217400262251
 40
0.6109698602314687
 40
0.6202442098515298
 40
0.6289692532113577
 40
0.6384260690633163
 40
0.6487639689228885
 40
0.6599887275969313
 40
0.6718808525302606
 40
0.684636645516875
 40
0.6982588229705116
 40
0.712743656168153
 40
0.7349072415137343
 40
0.7564577937468188
 40
0.7773641321802104
 40
0.7976000858697189
 40
0.817145204809364
 40
0.8359850011793168
 40
0.8472319250066161
 40
0.8595838176924064
 40
0.8731313681604386
 40
0.8878565034408115
 40
0.9037390635494258
 40
0.9178442998240284
 40
0.9327282732723299
 40
0.9483831407288336
 40
0.9648065839740074
 40
0.982005356484804
 40
1.0
 40
1.0
 40
1.0
 40
1.0
 10
245.0529298507396
 20
-0.4647762396168265
 30
0.0
 10
244.9494054435604
 20
-0.5050464796356735
 30
0.0
 10
244.7480607090826
 20
-0.5833681141649977
 30
0.0
 10
243.6325495669154
 20
-1.028433360974537
 30
0.0
 10
242.082034679042
 20
-1.640731993374056
 30
0.0
 10
240.1554580149223
 20
-2.393390310401935
 30
0.0
 10
237.9722344925774
 20
-3.236457191424708
 30
0.0
 10
235.622498286337
 20
-4.13349657872751
 30
0.0
 10
233.0729379769983
 20
-5.096047252215949
 30
0.0
 10
230.384096286
 20
-6.099719296187842
 30
0.0
 10
227.5925999143302
 20
-7.129781673079052
 30
0.0
 10
224.7982839898227
 20
-8.14992644293097
 30
0.0
 10
221.8782285354115
 20
-9.204419448271883
 30
0.0
 10
218.739917844703
 20
-10.32498353362614
 30
0.0
 10
214.2198414627963
 20
-11.91992706482444
 30
0.0
 10
207.9920165042343
 20
-14.07752660341441
 30
0.0
 10
199.660823608082
 20
-16.88624839099817
 30
0.0
 10
190.5322653239369
 20
-19.87213926161682
 30
0.0
 10
180.8551090408667
 20
-22.93523831031668
 30
0.0
 10
170.9038696764012
 20
-25.97760193092104
 30
0.0
 10
160.830797704616
 20
-28.94724676624837
 30
0.0
 10
150.7199537047164
 20
-31.81679472524491
 30
0.0
 10
140.4776766175112
 20
-34.61039346548309
 30
0.0
 10
129.864104610605
 20
-37.38465496421547
 30
0.0
 10
118.6005401986315
 20
-40.19157680755081
 30
0.0
 10
106.5698988950027
 20
-43.02965631648949
 30
0.0
 10
93.77110537956175
 20
-45.86384930639469
 30
0.0
 10
80.2153495073152
 20
-48.6516692167467
 30
0.0
 10
65.9883593481286
 20
-51.33145695292102
 30
0.0
 10
52.45341677753675
 20
-53.62507531240261
 30
0.0
 10
39.84398776349942
 20
-55.53466871946878
 30
0.0
 10
28.28665712930943
 20
-57.09510445266737
 30
0.0
 10
16.54982392914791
 20
-58.47348573239466
 30
0.0
 10
4.656060020904236
 20
-59.64721586934352
 30
0.0
 10
-7.370012473456121
 20
-60.58796512593179
 30
0.0
 10
-19.49370635943397
 20
-61.29007401322934
 30
0.0
 10
-31.48415078157894
 20
-61.75643473649501
 30
0.0
 10
-43.00692637756328
 20
-62.00126366163234
 30
0.0
 10
-53.74774187483204
 20
-62.06043723729736
 30
0.0
 10
-63.60056543311475
 20
-61.97799113847667
 30
0.0
 10
-72.57283405687322
 20
-61.79323476065543
 30
0.0
 10
-80.43364451569535
 20
-61.54688116913569
 30
0.0
 10
-87.33058865618136
 20
-61.26892102600031
 30
0.0
 10
-93.70573920987265
 20
-60.96364569817518
 30
0.0
 10
-100.2370757240837
 20
-60.60219038538026
 30
0.0
 10
-107.2307081003819
 20
-60.16013365705098
 30
0.0
 10
-114.6389455946057
 20
-59.63043854557544
 30
0.0
 10
-122.422461967579
 20
-59.00706993478236
 30
0.0
 10
-130.5375396614854
 20
-58.28544413598479
 30
0.0
 10
-138.979539004915
 20
-57.45791619383224
 30
0.0
 10
-149.062323255777
 20
-56.37556498810135
 30
0.0
 10
-160.2649274086965
 20
-55.04130885387421
 30
0.0
 10
-172.0433598008497
 20
-53.48436350254731
 30
0.0
 10
-182.8150638652555
 20
-51.93105192237648
 30
0.0
 10
-192.5931761464747
 20
-50.41292716574539
 30
0.0
 10
-201.3976149023896
 20
-48.95634410928
 30
0.0
 10
-208.2981571339708
 20
-47.7499854028805
 30
0.0
 10
-213.8047707720199
 20
-46.74920747662775
 30
0.0
 10
-218.3573550707188
 20
-45.8972914481572
 30
0.0
 10
-222.9969857792621
 20
-45.00223621895557
 30
0.0
 10
-227.6179050301042
 20
-44.08236718782335
 30
0.0
 10
-231.808925698625
 20
-43.22094781045173
 30
0.0
 10
-235.5062515342253
 20
-42.43857827956017
 30
0.0
 10
-238.6688953915189
 20
-41.7512212375547
 30
0.0
 10
-241.3980117338495
 20
-41.14208433368351
 30
0.0
 10
-243.5444818642956
 20
-40.65080167267947
 30
0.0
 10
-245.0485143109186
 20
-40.29755424137825
 30
0.0
 10
-245.2907985033188
 20
-40.24122041228014
 30
0.0
 10
-245.4146801313026
 20
-40.21241652544751
 30
0.0
  0
SPLINE
  5
78
330
23
100
AcDbEntity
  8
0
  6
Continuous
 62
     7
370
    25
100
AcDbSpline
210
0.0
220
0.0
230
1.0
 70
     8
 71
     3
 72
   123
 73
   119
 74
     0
 42
0.000000001
 43
0.00000001
 40
0.0
 40
0.0
 40
0.0
 40
0.0
 40
0.0023106023307052
 40
0.0032232760313054
 40
0.00398633229756
 40
0.0050657879568564
 40
0.0053842719778409
 40
0.0060164191944917
 40
0.0067335818028471
 40
0.0074907817147643
 40
0.0083644096793922
 40
0.0108071569269812
 40
0.0138523466229504
 40
0.0166580160208121
 40
0.0196481684751292
 40
0.0308357918862234
 40
0.0414969659781209
 40
0.0527919098204016
 40
0.0696485562703572
 40
0.0877094010165081
 40
0.1060031892869112
 40
0.1240148527239035
 40
0.1438309207041882
 40
0.163250415528205
 40
0.1822552052963219
 40
0.2009064368385532
 40
0.2127420666327467
 40
0.22472075617684
 40
0.2368353932325881
 40
0.2490781195019477
 40
0.2612089619015607
 40
0.2723528727232292
 40
0.2833436862908078
 40
0.2938029025094205
 40
0.3033655996416444
 40
0.3121191184898197
 40
0.3201094783695454
 40
0.3256109977120515
 40
0.330680555401591
 40
0.3330501924157809
 40
0.3352248719203138
 40
0.3362677539252082
 40
0.3373529815081849
 40
0.3398354080407057
 40
0.3433863065630012
 40
0.3478346885839659
 40
0.352360412762761
 40
0.3567742449153936
 40
0.3634877251796446
 40
0.369931578772497
 40
0.3792719876881612
 40
0.3889312300467243
 40
0.3991101043843679
 40
0.4098096563923629
 40
0.42102033065346
 40
0.4326474214644074
 40
0.4444433647371631
 40
0.4563240668083556
 40
0.4682299165800113
 40
0.4771619597651353
 40
0.4861009837124776
 40
0.4950661698633835
 40
0.5040229800679052
 40
0.5155651441063356
 40
0.5265876332436054
 40
0.5370840066029656
 40
0.5470724787244495
 40
0.5565731442979027
 40
0.56609194684392
 40
0.5736015620987991
 40
0.5814194984178489
 40
0.5895298401807955
 40
0.5978024915072476
 40
0.6026425457657467
 40
0.6067787978805905
 40
0.6103121493778272
 40
0.6126544425317356
 40
0.6149636537585182
 40
0.617488278290183
 40
0.6203347067520232
 40
0.6257269523750688
 40
0.6316212529489442
 40
0.637635637609239
 40
0.6437865030943997
 40
0.6500923835517388
 40
0.6609977492300227
 40
0.6717646128217383
 40
0.681984235564836
 40
0.6936033090992312
 40
0.7045770305220078
 40
0.7153911048207049
 40
0.7266725201886572
 40
0.7384015332796259
 40
0.7589526620464266
 40
0.7807623766307753
 40
0.803566903635601
 40
0.8271552550688537
 40
0.8514894467810479
 40
0.8765204117704809
 40
0.8918500286944357
 40
0.9073259190954996
 40
0.9220998739954299
 40
0.9359163899381393
 40
0.9487714206428017
 40
0.9634871821693236
 40
0.9767054240681372
 40
0.982660271701298
 40
0.9877207625348502
 40
0.9898978109169848
 40
0.991782730941001
 40
0.9925696401892949
 40
0.9930465274032702
 40
0.9938267385843477
 40
0.9948966083542568
 40
0.9962535292762618
 40
0.9970520917078728
 40
0.997940232537887
 40
0.9999999999999999
 40
0.9999999999999999
 40
0.9999999999999999
 40
0.9999999999999999
 10
-245.4146801313014
 20
-40.21241652544774
 30
0.0
 10
-246.018321829899
 20
-40.08653436362405
 30
0.0
 10
-246.8603982844797
 20
-39.91092952259049
 30
0.0
 10
-247.9035872004126
 20
-40.11278838355955
 30
0.0
 10
-248.5692923988275
 20
-40.40843599146622
 30
0.0
 10
-249.0258070364039
 20
-40.76224288036236
 30
0.0
 10
-249.3810319831634
 20
-41.16118749005216
 30
0.0
 10
-249.6301933782158
 20
-41.52489398232745
 30
0.0
 10
-249.8596629224516
 20
-42.03276767473547
 30
0.0
 10
-250.0020311989743
 20
-42.63737672349822
 30
0.0
 10
-250.0155522368486
 20
-43.72220062689183
 30
0.0
 10
-249.3252020126972
 20
-45.28862241136436
 30
0.0
 10
-248.6245146941995
 20
-47.33978896147497
 30
0.0
 10
-247.7964514276371
 20
-49.51671047543356
 30
0.0
 10
-246.2101175868771
 20
-53.69023613258795
 30
0.0
 10
-243.7791017647898
 20
-59.75602162850838
 30
0.0
 10
-240.3450411033705
 20
-67.76814957150843
 30
0.0
 10
-236.0909893945447
 20
-77.04848684811802
 30
0.0
 10
-230.6782483474029
 20
-87.93380730120973
 30
0.0
 10
-223.9543730343213
 20
-100.2116085681555
 30
0.0
 10
-216.5771848039531
 20
-112.4644968015208
 30
0.0
 10
-208.4526080696722
 20
-124.7918073037223
 30
0.0
 10
-199.6342263387888
 20
-137.0013277583165
 30
0.0
 10
-190.1221872303178
 20
-149.0131887815237
 30
0.0
 10
-180.3014351389433
 20
-160.3715076269562
 30
0.0
 10
-171.3747121109859
 20
-169.8500928157918
 30
0.0
 10
-163.4405939523768
 20
-177.71192722346
 30
0.0
 10
-156.5538844055546
 20
-184.1837544947207
 30
0.0
 10
-149.4065639620393
 20
-190.5292064082806
 30
0.0
 10
-142.0867126670429
 20
-196.7344542919649
 30
0.0
 10
-134.6913360533093
 20
-202.4587982291462
 30
0.0
 10
-127.0178334018068
 20
-207.2118809442904
 30
0.0
 10
-119.3679242978802
 20
-211.1009991182122
 30
0.0
 10
-111.7993672041039
 20
-214.1669940770651
 30
0.0
 10
-104.57631328113
 20
-216.4494342440561
 30
0.0
 10
-97.8410275745149
 20
-218.0533850444021
 30
0.0
 10
-92.06727525934087
 20
-219.0307258745075
 30
0.0
 10
-87.21956322954561
 20
-219.5880642966967
 30
0.0
 10
-83.81537446396273
 20
-219.8360369569006
 30
0.0
 10
-81.30567970817809
 20
-219.9456590879575
 30
0.0
 10
-79.79931638557328
 20
-219.9833195823601
 30
0.0
 10
-78.7934364263037
 20
-219.9962385579647
 30
0.0
 10
-77.87980166894894
 20
-220.0014266006073
 30
0.0
 10
-76.90132301286344
 20
-219.9992660987621
 30
0.0
 10
-76.07818733684084
 20
-220.0002883953415
 30
0.0
 10
-75.4761720773536
 20
-219.9999139111526
 30
0.0
 10
-74.58688567258635
 20
-220.0000222801571
 30
0.0
 10
-73.35139489026456
 20
-219.9999905816418
 30
0.0
 10
-71.68535041665065
 20
-220.0000027840999
 30
0.0
 10
-69.18060319526323
 20
-219.9999988930502
 30
0.0
 10
-65.91999346899989
 20
-220.0000003534959
 30
0.0
 10
-61.4997893294799
 20
-219.9999998983542
 30
0.0
 10
-56.22502147258838
 20
-220.0000000293759
 30
0.0
 10
-50.05604732239536
 20
-219.9999999915462
 30
0.0
 10
-43.01582466662952
 20
-220.0000000024042
 30
0.0
 10
-35.1918617097068
 20
-219.9999999993355
 30
0.0
 10
-26.70558369402103
 20
-220.0000000001808
 30
0.0
 10
-17.74900972556464
 20
-219.9999999999509
 30
0.0
 10
-9.245039906317055
 20
-220.0000000000095
 30
0.0
 10
-1.408024605446548
 20
-219.9999999999986
 30
0.0
 10
5.650460901726515
 20
-219.9999999999976
 30
0.0
 10
12.61927459569115
 20
-220.0000000000113
 30
0.0
 10
20.07023206653309
 20
-219.9999999999528
 30
0.0
 10
27.75735416099197
 20
-220.0000000002301
 30
0.0
 10
35.39366248898452
 20
-219.9999999992069
 30
0.0
 10
42.21018212608089
 20
-220.0000000027491
 30
0.0
 10
48.216566053207
 20
-219.9999999904752
 30
0.0
 10
53.54186643622867
 20
-220.000000033705
 30
0.0
 10
57.90700279438477
 20
-219.9999998849803
 30
0.0
 10
61.48901955206183
 20
-220.0000003353721
 30
0.0
 10
64.39825770873061
 20
-219.9999986594343
 30
0.0
 10
66.90259557656063
 20
-220.0000052518941
 30
0.0
 10
68.43670570059444
 20
-219.9999835056503
 30
0.0
 10
69.76156018710964
 20
-220.0000319688253
 30
0.0
 10
70.93456028626953
 20
-219.9999043987654
 30
0.0
 10
72.17740352221166
 20
-220.000258975303
 30
0.0
 10
73.50348804269164
 20
-219.9993887708772
 30
0.0
 10
74.99459888438956
 20
-220.0023660329844
 30
0.0
 10
76.83897147223843
 20
-219.9896111201305
 30
0.0
 10
79.59062940837116
 20
-219.9104077412512
 30
0.0
 10
83.32393725283659
 20
-219.6833059565369
 30
0.0
 10
87.84272889299702
 20
-219.2038817823316
 30
0.0
 10
92.54109234957492
 20
-218.4817182930143
 30
0.0
 10
97.3029816539599
 20
-217.5137566806336
 30
0.0
 10
103.2589258423957
 20
-215.9947500146254
 30
0.0
 10
110.2583988201523
 20
-213.6940153636839
 30
0.0
 10
117.9826331852461
 20
-210.3993820973786
 30
0.0
 10
125.5734264600026
 20
-206.3904830239983
 30
0.0
 10
132.8383887355026
 20
-201.7110291777208
 30
0.0
 10
139.7835376054148
 20
-196.3092100371865
 30
0.0
 10
146.1629022480214
 20
-190.391265759582
 30
0.0
 10
152.5871187762312
 20
-184.2383666691545
 30
0.0
 10
160.6345693460957
 20
-176.0815672079685
 30
0.0
 10
170.2604612515222
 20
-165.6004872224618
 30
0.0
 10
181.2394100596832
 20
-152.4313479181644
 30
0.0
 10
192.0236213680037
 20
-138.0881845949134
 30
0.0
 10
202.4142613376494
 20
-122.6491192939932
 30
0.0
 10
212.2571100857269
 20
-106.1685683900492
 30
0.0
 10
220.1594959882387
 20
-91.08940914531539
 30
0.0
 10
226.378626271308
 20
-77.78359276015244
 30
0.0
 10
231.0751215189082
 20
-66.75183963660452
 30
0.0
 10
235.2498841276283
 20
-55.93819109218752
 30
0.0
 10
238.8458002444392
 20
-45.64647736270761
 30
0.0
 10
242.1269454296876
 20
-35.26622982848227
 30
0.0
 10
245.0397231148593
 20
-24.94054455184243
 30
0.0
 10
247.1923910942759
 20
-16.28791291556907
 30
0.0
 10
248.5897488585263
 20
-10.07340524144836
 30
0.0
 10
249.3229993264524
 20
-6.674126495101754
 30
0.0
 10
249.7832628181296
 20
-4.332759566758895
 30
0.0
 10
250.0722897547971
 20
-3.063186777289117
 30
0.0
 10
249.9163154669688
 20
-2.239420321754393
 30
0.0
 10
249.7342010087909
 20
-1.733040941569064
 30
0.0
 10
249.4334451578628
 20
-1.194724850542228
 30
0.0
 10
248.8491849558709
 20
-0.5713686579216087
 30
0.0
 10
248.084868090687
 20
-0.1590263062404979
 30
0.0
 10
247.2975583972817
 20
0.0111246415700345
 30
0.0
 10
246.3012694789593
 20
-0.0069218291221113
 30
0.0
 10
245.5663994669937
 20
-0.2764506244215398
 30
0.0
 10
245.0529298507334
 20
-0.464776239618922
 30
0.0
  0
VIEWPORT
  5
A8
330
23
100
AcDbEntity
  8
0
100
AcDbViewport
 10
0.0
 20
0.0
 30
0.0
 40
205.6
 41
156.0
 68
     1
 69
     1
 12
-0.094292368
 22
0.0002339166
 13
0.0
 23
0.0
 14
10.0
 24
10.0
 15
10.0
 25
10.0
 16
0.0
 26
0.0
 36
1.0
 17
0.0
 27
0.0
 37
0.0
 42
50.0
 43
0.0
 44
0.0
 45
509.5934823535
 50
0.0
 51
0.0
 72
   100
 90
   557152
  1

281
     0
 71
     1
 74
     0
110
0.0
120
0.0
130
0.0
111
1.0
121
0.0
131
0.0
112
0.0
122
1.0
132
0.0
 79
     0
146
0.0
  0
ENDBLK
  5
25
330
23
100
AcDbEntity
  8
0
100
AcDbBlockEnd
  0
BLOCK
  5
7B
330
79
100
AcDbEntity
  8
0
100
AcDbBlockBegin
  2
*Paper_Space1
 70
     0
 10
0.0
 20
0.0
 30
0.0
  3
*Paper_Space1
  1

  0
SPLINE
  5
7D
330
79
100
AcDbEntity
  8
0
  6
Continuous
 62
     7
370
    25
100
AcDbSpline
210
0.0
220
0.0
230
1.0
 70
    11
 71
     3
 72
   186
 73
   182
 74
     0
 42
0.000000001
 43
0.00000001
 40
0.0
 40
0.0
 40
0.0
 40
0.0
 40
0.0057724459046688
 40
0.0108194939191114
 40
0.0151335447251065
 40
0.0187163946259452
 40
0.0215757508977708
 40
0.023729083828421
 40
0.024910111542321
 40
0.025380522117398
 40
0.0257890212820849
 40
0.0261599719660005
 40
0.0269360430110995
 40
0.0277226321643471
 40
0.0289768328146851
 40
0.0312706518093992
 40
0.0355328759685726
 40
0.0395074556146185
 40
0.0436654208821706
 40
0.0486333046443066
 40
0.0538568516786988
 40
0.0592838752952201
 40
0.0659714233774366
 40
0.0727556862280029
 40
0.0796728749531513
 40
0.0865322113963307
 40
0.0932722410186398
 40
0.099902284059331
 40
0.106431085619522
 40
0.1181613816971759
 40
0.1296552318017186
 40
0.1414537392941433
 40
0.1455870938091139
 40
0.1497794875785224
 40
0.1540326952244344
 40
0.1583486361117871
 40
0.1627294234088442
 40
0.1671773941889861
 40
0.1716535940350114
 40
0.1756697481968717
 40
0.1791174294685399
 40
0.1820586255363596
 40
0.1845947338642916
 40
0.1857612947244478
 40
0.1869029512710126
 40
0.1881105908287875
 40
0.1894251508230186
 40
0.1923949850785326
 40
0.1956676213322318
 40
0.1992167824991256
 40
0.2056604686518745
 40
0.2123345148372706
 40
0.2191968285235737
 40
0.2224741553147201
 40
0.2257737936302359
 40
0.2290960803773437
 40
0.2323676034419891
 40
0.235211096925836
 40
0.2378131203134248
 40
0.2398088138324219
 40
0.2414308035444064
 40
0.2432668230636304
 40
0.2453458533811999
 40
0.247668970053499
 40
0.2502373328015396
 40
0.2530521635413723
 40
0.2575889569110023
 40
0.2626536710244824
 40
0.26821172782163
 40
0.2738541639741028
 40
0.2794675101991764
 40
0.2850497106007219
 40
0.2905987252699533
 40
0.3006780901065441
 40
0.3106262890626251
 40
0.3204310856883218
 40
0.3335487858394086
 40
0.3464623924021137
 40
0.3592544931915644
 40
0.3719053153812866
 40
0.3843968592261695
 40
0.394675999347129
 40
0.4048365863055101
 40
0.4149199619818137
 40
0.4249429537728625
 40
0.4349188718262386
 40
0.444868775175592
 40
0.4548222771073221
 40
0.4648124499201338
 40
0.4748368146438501
 40
0.4848961188671591
 40
0.4950004976687744
 40
0.5051536108112803
 40
0.5153537272860365
 40
0.5255947403431197
 40
0.5359634149059052
 40
0.546630199657022
 40
0.5575911431649606
 40
0.56883481888727
 40
0.5786864113935773
 40
0.5887235710146743
 40
0.5989336323705456
 40
0.6090110299576121
 40
0.6184924138097915
 40
0.6273698111970213
 40
0.635643081621121
 40
0.6407231693671654
 40
0.6455474613837476
 40
0.6501025880946812
 40
0.6543517767696138
 40
0.6582955572099601
 40
0.6621524583890321
 40
0.6646881343147183
 40
0.667658295303192
 40
0.6710600467601272
 40
0.6747566366335295
 40
0.6780552937953681
 40
0.6816292864785152
 40
0.6843701152226669
 40
0.6870716940819991
 40
0.6913119304555552
 40
0.6963926662017731
 40
0.7016893610033467
 40
0.7036196862092442
 40
0.7055196816655231
 40
0.7073799767045739
 40
0.709072776456136
 40
0.7106016904775146
 40
0.7120577514202279
 40
0.7135635144145086
 40
0.7152033176572168
 40
0.7221718597533416
 40
0.7296530906253276
 40
0.7376742684099089
 40
0.746259797213329
 40
0.7601008359064214
 40
0.7734521204269796
 40
0.7863591892822523
 40
0.7989036654100335
 40
0.8115871813848161
 40
0.8169613004095332
 40
0.8223940413771569
 40
0.8279613625671776
 40
0.8337779345526412
 40
0.8398192406638221
 40
0.8458120828272989
 40
0.8513984508351614
 40
0.8565121682806995
 40
0.8611112240500713
 40
0.8651780488414227
 40
0.8687370890809335
 40
0.8718661777245861
 40
0.8729130728183676
 40
0.8739262533772592
 40
0.8750658967171652
 40
0.877032060307501
 40
0.8795870121233595
 40
0.882318932542247
 40
0.8884326307913166
 40
0.8935635738446295
 40
0.8985308821515263
 40
0.9033811223828566
 40
0.9084748481930012
 40
0.913792907425424
 40
0.9193119836143515
 40
0.9249653796230924
 40
0.9305461588568962
 40
0.9346634762800439
 40
0.9387201684906454
 40
0.9427208803764183
 40
0.9466767639341739
 40
0.9506064943771574
 40
0.9545337746253985
 40
0.9584856083071062
 40
0.9625459387252927
 40
0.9681658921129913
 40
0.9740304126966468
 40
0.980142239866898
 40
0.9865085187093998
 40
0.9931296728917164
 40
1.0
 40
1.0
 40
1.0
 40
1.0
 10
61.67652492722792
 20
-220.0000000000001
 30
0.0
 10
63.06156944752489
 20
-220.0000367542844
 30
0.0
 10
65.65760603453411
 20
-220.0001056441039
 30
0.0
 10
68.64902624170928
 20
-219.9996601797501
 30
0.0
 10
70.9159129246614
 20
-219.9938723491679
 30
0.0
 10
72.63950876747232
 20
-219.9807601366069
 30
0.0
 10
74.03631885473031
 20
-219.9570938403224
 30
0.0
 10
75.20955345505075
 20
-219.9221350444601
 30
0.0
 10
76.20013826517983
 20
-219.8788790527169
 30
0.0
 10
76.91950182009897
 20
-219.8404658969108
 30
0.0
 10
77.44041661173428
 20
-219.8097789858287
 30
0.0
 10
78.19350275261559
 20
-219.7611883226417
 30
0.0
 10
79.16695175062259
 20
-219.68990386356
 30
0.0
 10
80.56381507803079
 20
-219.5710182776938
 30
0.0
 10
82.71851133298301
 20
-219.3544506889479
 30
0.0
 10
86.58474224592969
 20
-218.8617071560132
 30
0.0
 10
91.7638826359985
 20
-217.942000447653
 30
0.0
 10
97.77924516374227
 20
-216.4860716731912
 30
0.0
 10
104.0320491754075
 20
-214.5631700997958
 30
0.0
 10
110.7228125418842
 20
-211.9941021590923
 30
0.0
 10
117.7718735418892
 20
-208.6512532117759
 30
0.0
 10
125.2724930466503
 20
-204.3259650743224
 30
0.0
 10
133.0121070157213
 20
-198.9078980743744
 30
0.0
 10
140.6418722136268
 20
-192.1636017949967
 30
0.0
 10
147.9386506301788
 20
-184.9624910396864
 30
0.0
 10
155.2173110748229
 20
-177.7749315061707
 30
0.0
 10
162.2864656704865
 20
-170.5819134018806
 30
0.0
 10
169.1625129790222
 20
-163.4320676217535
 30
0.0
 10
177.6582218830188
 20
-154.3903426047299
 30
0.0
 10
187.6422062025978
 20
-143.4214648769932
 30
0.0
 10
199.1286643178272
 20
-130.2725441794352
 30
0.0
 10
207.9165725961034
 20
-119.788708737334
 30
0.0
 10
214.2570365662141
 20
-112.0040341046704
 30
0.0
 10
218.1848059356638
 20
-107.1083153621283
 30
0.0
 10
222.1327827889769
 20
-102.111244459782
 30
0.0
 10
226.1009188847662
 20
-97.0096920932482
 30
0.0
 10
230.0891516029213
 20
-91.80010193886963
 30
0.0
 10
234.08455018863
 20
-86.49533898128493
 30
0.0
 10
237.9298433623812
 20
-81.30415967216929
 30
0.0
 10
241.4396958244274
 20
-76.48940201448771
 30
0.0
 10
244.4259341353128
 20
-72.3199147346331
 30
0.0
 10
246.8669151725094
 20
-68.86351868263726
 30
0.0
 10
248.462829210829
 20
-66.49070478188926
 30
0.0
 10
249.438451532736
 20
-65.06312771916924
 30
0.0
 10
249.9076483310471
 20
-64.1020071039004
 30
0.0
 10
250.0172038839083
 20
-63.20815043835717
 30
0.0
 10
249.9396009536397
 20
-62.20678034038588
 30
0.0
 10
249.7105409703809
 20
-61.50501071592566
 30
0.0
 10
249.2725473384114
 20
-60.57622006789381
 30
0.0
 10
248.5103550317375
 20
-59.49777121462157
 30
0.0
 10
247.3284866763883
 20
-58.25785657659465
 30
0.0
 10
245.5102109017423
 20
-56.76841836131383
 30
0.0
 10
243.6977643902125
 20
-55.51023089367307
 30
0.0
 10
242.0384887357872
 20
-54.45637267014396
 30
0.0
 10
240.720108853492
 20
-53.66048983128039
 30
0.0
 10
239.307597339777
 20
-52.84542190730792
 30
0.0
 10
237.8727789137525
 20
-52.05041606828131
 30
0.0
 10
236.4702831938822
 20
-51.29956343754474
 30
0.0
 10
235.2167410222655
 20
-50.64732588229785
 30
0.0
 10
234.1308696238104
 20
-50.09501018825638
 30
0.0
 10
233.1553262186935
 20
-49.60718535066127
 30
0.0
 10
232.1396157042437
 20
-49.10716233232841
 30
0.0
 10
230.9634506931054
 20
-48.53797769291882
 30
0.0
 10
229.6092366692555
 20
-47.89466887854784
 30
0.0
 10
228.0634934970161
 20
-47.17479466073522
 30
0.0
 10
226.0058194215806
 20
-46.23641633876159
 30
0.0
 10
223.3160319114433
 20
-45.04295519006637
 30
0.0
 10
219.8547437719397
 20
-43.5586695378157
 30
0.0
 10
215.9368904859062
 20
-41.93784986330655
 30
0.0
 10
211.6723033304723
 20
-40.23647426194206
 30
0.0
 10
207.1928612778397
 20
-38.51134902084612
 30
0.0
 10
202.5384842753867
 20
-36.77936338058875
 30
0.0
 10
196.3991139382698
 20
-34.57046719578262
 30
0.0
 10
188.5946724236012
 20
-31.89044065747694
 30
0.0
 10
178.9236579900137
 20
-28.76517247837893
 30
0.0
 10
167.6782759793484
 20
-25.34816422111473
 30
0.0
 10
154.703038095004
 20
-21.68843257184228
 30
0.0
 10
139.8094779960712
 20
-17.85838116290406
 30
0.0
 10
124.3142715717182
 20
-14.2602407348749
 30
0.0
 10
108.2662194803932
 20
-10.94192402289666
 30
0.0
 10
92.653306349272
 20
-8.121143019020852
 30
0.0
 10
77.65145934471882
 20
-5.784367264460716
 30
0.0
 10
63.3736411498865
 20
-3.894602538939848
 30
0.0
 10
48.89002621271906
 20
-2.332501142738391
 30
0.0
 10
34.22393809857733
 20
-1.129745634112042
 30
0.0
 10
19.41792416659818
 20
-0.3221225629948671
 30
0.0
 10
4.519789462942088
 20
0.0560286229447232
 30
0.0
 10
-10.41765518497617
 20
-0.0391352803685435
 30
0.0
 10
-25.32034870544871
 20
-0.5931952387350226
 30
0.0
 10
-40.11522144098046
 20
-1.565398598262047
 30
0.0
 10
-54.73167155768041
 20
-2.918319401763084
 30
0.0
 10
-69.11507280049054
 20
-4.613321419475971
 30
0.0
 10
-83.22009254902147
 20
-6.613561539982133
 30
0.0
 10
-97.0023312284941
 20
-8.882883330630614
 30
0.0
 10
-110.460142508648
 20
-11.39372168100707
 30
0.0
 10
-123.6640209732177
 20
-14.13809533870536
 30
0.0
 10
-136.6705855350586
 20
-17.11546789362735
 30
0.0
 10
-149.4785378514102
 20
-20.3177331030827
 30
0.0
 10
-161.3895986559587
 20
-23.54981487840432
 30
0.0
 10
-172.3975488213646
 20
-26.75817510748135
 30
0.0
 10
-182.5091521628839
 20
-29.89941376289543
 30
0.0
 10
-192.1268630212649
 20
-33.07958687174896
 30
0.0
 10
-200.9798548387259
 20
-36.19153179173028
 30
0.0
 10
-208.8664312321535
 20
-39.13207553558277
 30
0.0
 10
-215.7241540259226
 20
-41.83785704153867
 30
0.0
 10
-221.0148586614605
 20
-44.04416151509005
 30
0.0
 10
-225.0502043112137
 20
-45.80569606701524
 30
0.0
 10
-228.0831255491373
 20
-47.17847493791663
 30
0.0
 10
-230.7790349947604
 20
-48.44412411928553
 30
0.0
 10
-233.1575026472143
 20
-49.60266043663977
 30
0.0
 10
-235.2761768057496
 20
-50.67367018115844
 30
0.0
 10
-236.9864801813919
 20
-51.57212575103677
 30
0.0
 10
-238.4574987137798
 20
-52.37202190678329
 30
0.0
 10
-239.7875263077027
 20
-53.11891667726768
 30
0.0
 10
-241.1970126064511
 20
-53.94320328207209
 30
0.0
 10
-242.5401995988751
 20
-54.76918050328107
 30
0.0
 10
-243.7924682855764
 20
-55.58359325860176
 30
0.0
 10
-244.8324128581467
 20
-56.30429467073063
 30
0.0
 10
-245.7172204339772
 20
-56.96011002859412
 30
0.0
 10
-246.6263851592849
 20
-57.68161712994446
 30
0.0
 10
-247.6690316611662
 20
-58.60940101043303
 30
0.0
 10
-248.6847832545755
 20
-59.70712553007726
 30
0.0
 10
-249.3842567050168
 20
-60.75572699712731
 30
0.0
 10
-249.7629848197422
 20
-61.67517463737895
 30
0.0
 10
-249.9313317800255
 20
-62.32178766519899
 30
0.0
 10
-250.0053791691633
 20
-62.89340064811628
 30
0.0
 10
-250.0024038320096
 20
-63.87350338418546
 30
0.0
 10
-249.4609322803246
 20
-65.11462031935662
 30
0.0
 10
-248.4584678534635
 20
-66.53051941803469
 30
0.0
 10
-247.2612968885501
 20
-68.28855161140011
 30
0.0
 10
-244.3806893294141
 20
-72.37112681661296
 30
0.0
 10
-239.7532607424408
 20
-78.83512401482677
 30
0.0
 10
-233.0954643622877
 20
-87.84481061871297
 30
0.0
 10
-225.8150367263152
 20
-97.41533504930574
 30
0.0
 10
-216.4365688467981
 20
-109.3732032826537
 30
0.0
 10
-205.1487524708836
 20
-123.1918383894931
 30
0.0
 10
-192.1319741993613
 20
-138.3698460470651
 30
0.0
 10
-179.2058373955414
 20
-152.7592759981269
 30
0.0
 10
-166.192335016218
 20
-166.6102937979361
 30
0.0
 10
-155.510495946412
 20
-177.50380443472
 30
0.0
 10
-147.1671093328062
 20
-185.7252402885914
 30
0.0
 10
-141.3266305576868
 20
-191.4307103800706
 30
0.0
 10
-135.1534058294731
 20
-197.1192824722124
 30
0.0
 10
-128.2051078944644
 20
-202.3659425967099
 30
0.0
 10
-120.6562177597891
 20
-207.1120605230872
 30
0.0
 10
-112.8078851483085
 20
-211.1024374740637
 30
0.0
 10
-105.0753544561546
 20
-214.2261827243935
 30
0.0
 10
-97.78324005037611
 20
-216.5124051172922
 30
0.0
 10
-91.08266248238922
 20
-218.0889632182361
 30
0.0
 10
-85.06531922384552
 20
-219.0986703291995
 30
0.0
 10
-79.71568149560564
 20
-219.6841410625155
 30
0.0
 10
-75.88882609849318
 20
-219.911325607028
 30
0.0
 10
-73.25774320515305
 20
-219.9840851732112
 30
0.0
 10
-71.79612425124758
 20
-220.0013734945276
 30
0.0
 10
-70.42578625577872
 20
-219.9992989246105
 30
0.0
 10
-69.22872444539364
 20
-220.0003029292351
 30
0.0
 10
-68.22547936626421
 20
-219.9999055547561
 30
0.0
 10
-66.59045502335158
 20
-220.0000634719111
 30
0.0
 10
-64.31094243882235
 20
-219.9999816178684
 30
0.0
 10
-61.47246931353465
 20
-220.0000043970389
 30
0.0
 10
-58.84510820690116
 20
-219.9999988704782
 30
0.0
 10
-55.39041018308401
 20
-220.0000003159358
 30
0.0
 10
-51.18171252562709
 20
-219.9999999094752
 30
0.0
 10
-46.08412654032448
 20
-220.000000025718
 30
0.0
 10
-40.12257348743065
 20
-219.9999999928034
 30
0.0
 10
-33.41227414316687
 20
-220.0000000019397
 30
0.0
 10
-26.7823255801821
 20
-219.9999999996314
 30
0.0
 10
-20.51067457628683
 20
-220.0000000000844
 30
0.0
 10
-14.74477098220098
 20
-219.9999999999779
 30
0.0
 10
-8.887831661644773
 20
-220.0000000000058
 30
0.0
 10
-2.982204093048781
 20
-219.9999999999986
 30
0.0
 10
2.927995982484104
 20
-220.0000000000004
 30
0.0
 10
8.79607624998687
 20
-220.0
 30
0.0
 10
14.61829584242505
 20
-220.0
 30
0.0
 10
21.09089912849919
 20
-220.0000000000001
 30
0.0
 10
28.17827956267037
 20
-220.0
 30
0.0
 10
35.7212178981115
 20
-220.0
 30
0.0
 10
43.00266101090739
 20
-220.0000000000001
 30
0.0
 10
49.87561402200029
 20
-220.0000000000001
 30
0.0
 10
56.28881951485839
 20
-220.0
 30
0.0
 10
59.85864618969507
 20
-220.0000000000001
 30
0.0
 10
61.67652492722792
 20
-220.0000000000001
 30
0.0
  0
SPLINE
  5
7E
330
79
100
AcDbEntity
  8
0
  6
Continuous
 62
     7
370
    25
100
AcDbSpline
210
0.0
220
0.0
230
1.0
 70
     8
 71
     3
 72
    62
 73
    58
 74
     0
 42
0.000000001
 43
0.00000001
 40
0.0
 40
0.0
 40
0.0
 40
0.0
 40
0.0016131318178048
 40
0.0101830943775959
 40
0.0221374528204556
 40
0.0327988172351652
 40
0.0447937572850793
 40
0.0582493921094145
 40
0.0731907969381335
 40
0.0896361034963691
 40
0.1075990885419721
 40
0.1261900801525306
 40
0.1446031741851487
 40
0.1700547743255837
 40
0.1950929429564462
 40
0.2196783877362382
 40
0.243773495142244
 40
0.2674146376310939
 40
0.2909091055850649
 40
0.3142744015479076
 40
0.3374869240252021
 40
0.3605226549390774
 40
0.3833627081738281
 40
0.4060013731591698
 40
0.4284968955461701
 40
0.450877415738515
 40
0.4731673429695041
 40
0.4954073457927749
 40
0.5176560183212473
 40
0.5399757321647534
 40
0.5623608756144246
 40
0.5848208270097633
 40
0.6073713973749999
 40
0.6300153284366145
 40
0.6527445666834166
 40
0.6755456459871632
 40
0.6986759433400977
 40
0.7222947390675036
 40
0.7463793186232213
 40
0.7709009929067665
 40
0.7958260716722986
 40
0.821117312831795
 40
0.8463905883554389
 40
0.8693908786123385
 40
0.8917958261410857
 40
0.9135920385746379
 40
0.9261490822768796
 40
0.9384918436750156
 40
0.9502056931728359
 40
0.9602140045436213
 40
0.9666341896314189
 40
0.9720615139578886
 40
0.9765394399656785
 40
0.9817363554716663
 40
0.9885566030118276
 40
0.9969798567007793
 40
1.0
 40
1.0
 40
1.0
 40
1.0
 10
238.6268299524859
 20
-62.04812592051012
 30
0.0
 10
238.638461389319
 20
-62.04492438583609
 30
0.0
 10
238.7118862748194
 20
-62.02471430171349
 30
0.0
 10
238.295206705196
 20
-62.04695389260674
 30
0.0
 10
237.5144200601184
 20
-62.04312323603433
 30
0.0
 10
235.891389106289
 20
-62.0066774227767
 30
0.0
 10
233.5971946210341
 20
-61.88751189596931
 30
0.0
 10
230.6673203870837
 20
-61.66623377686944
 30
0.0
 10
226.9160078019212
 20
-61.31383134257641
 30
0.0
 10
222.2682961573654
 20
-60.80790684833388
 30
0.0
 10
216.6991000368658
 20
-60.13905659746732
 30
0.0
 10
210.3762192301402
 20
-59.32652312336377
 30
0.0
 10
202.6262385171711
 20
-58.28616870097807
 30
0.0
 10
193.3629729489589
 20
-57.00687566075754
 30
0.0
 10
182.4404615841781
 20
-55.48562037828054
 30
0.0
 10
170.9630954167581
 20
-53.90256892413841
 30
0.0
 10
159.021285297633
 20
-52.29461402878052
 30
0.0
 10
146.6358939631391
 20
-50.68695504436696
 30
0.0
 10
133.8070516322172
 20
-49.09975838733766
 30
0.0
 10
120.5210948140126
 20
-47.55370731322055
 30
0.0
 10
106.8234702468163
 20
-46.07685762666546
 30
0.0
 10
92.76915213525736
 20
-44.69745669621448
 30
0.0
 10
78.41273823392775
 20
-43.44340634898204
 30
0.0
 10
63.79559111947593
 20
-42.3413695819347
 30
0.0
 10
48.95359344083838
 20
-41.41806459411382
 30
0.0
 10
33.92187707239027
 20
-40.70115897059641
 30
0.0
 10
18.74865149242324
 20
-40.22026043605111
 30
0.0
 10
3.486268920522908
 20
-40.00367473164511
 30
0.0
 10
-11.80689123046018
 20
-40.08673436696204
 30
0.0
 10
-27.05473364668715
 20
-40.45217322204335
 30
0.0
 10
-42.1852979009136
 20
-41.0672824925719
 30
0.0
 10
-57.12876827898941
 20
-41.90191002646925
 30
0.0
 10
-71.82908945382268
 20
-42.92538482397649
 30
0.0
 10
-86.2359377091962
 20
-44.10799262154519
 30
0.0
 10
-100.3002935836005
 20
-45.42051601535958
 30
0.0
 10
-114.0303987352214
 20
-46.83996327347923
 30
0.0
 10
-127.4607380146825
 20
-48.34949144793344
 30
0.0
 10
-140.6120233138546
 20
-49.93254169659095
 30
0.0
 10
-153.4424059370179
 20
-51.56451366808984
 30
0.0
 10
-165.87049651665
 20
-53.21401968434846
 30
0.0
 10
-177.8088425299302
 20
-54.84644339820653
 30
0.0
 10
-189.1140446832998
 20
-56.41668852176676
 30
0.0
 10
-199.3386803724379
 20
-57.83575567079829
 30
0.0
 10
-208.3672063116913
 20
-59.0637602689788
 30
0.0
 10
-216.1942309528014
 20
-60.08211253491432
 30
0.0
 10
-222.1380307160999
 20
-60.79605683655104
 30
0.0
 10
-226.5696853159085
 20
-61.27447318319437
 30
0.0
 10
-229.7744962883982
 20
-61.58255667597413
 30
0.0
 10
-232.4995458718385
 20
-61.80393840018557
 30
0.0
 10
-234.4777938746455
 20
-61.93089863877
 30
0.0
 10
-235.8237004492931
 20
-61.99489212205366
 30
0.0
 10
-236.7000273861511
 20
-62.02369968138714
 30
0.0
 10
-237.3709976047216
 20
-62.03612821302053
 30
0.0
 10
-237.880148908689
 20
-62.03804323653593
 30
0.0
 10
-238.300773926151
 20
-62.03958312017993
 30
0.0
 10
-238.6271546720472
 20
-62.0291817849158
 30
0.0
 10
-238.5923838599383
 20
-62.04533345418654
 30
0.0
 10
-238.5832071412325
 20
-62.04959620551551
 30
0.0
  0
VIEWPORT
  5
AA
330
79
100
AcDbEntity
  8
0
100
AcDbViewport
 10
0.0
 20
0.0
 30
0.0
 40
205.6
 41
156.0
 68
     1
 69
     1
 12
-0.094292368
 22
0.0002339166
 13
0.0
 23
0.0
 14
10.0
 24
10.0
 15
10.0
 25
10.0
 16
0.0
 26
0.0
 36
1.0
 17
0.0
 27
0.0
 37
0.0
 42
50.0
 43
0.0
 44
0.0
 45
509.5934823535
 50
0.0
 51
0.0
 72
   100
 90
   557152
  1

281
     0
 71
     1
 74
     0
110
0.0
120
0.0
130
0.0
111
1.0
121
0.0
131
0.0
112
0.0
122
1.0
132
0.0
 79
     0
146
0.0
  0
ENDBLK
  5
7C
330
79
100
AcDbEntity
  8
0
100
AcDbBlockEnd
  0
BLOCK
  5
81
330
7F
100
AcDbEntity
  8
0
100
AcDbBlockBegin
  2
*Paper_Space2
 70
     0
 10
0.0
 20
0.0
 30
0.0
  3
*Paper_Space2
  1

  0
SPLINE
  5
83
330
7F
100
AcDbEntity
  8
0
  6
Continuous
 62
     7
370
    25
100
AcDbSpline
210
0.0
220
0.0
230
1.0
 70
     8
 71
     3
 72
   118
 73
   114
 74
     0
 42
0.000000001
 43
0.00000001
 40
0.0
 40
0.0
 40
0.0
 40
0.0
 40
0.002335172315289
 40
0.0032743654940434
 40
0.0040735664260608
 40
0.0052798539693512
 40
0.0059823173356655
 40
0.0069623129259921
 40
0.0078716276500395
 40
0.0096753872226756
 40
0.0116479314835049
 40
0.0139116557877759
 40
0.0204040743211755
 40
0.0286925757590998
 40
0.0386868174228137
 40
0.0503719675757526
 40
0.0626674238914223
 40
0.0750038177608591
 40
0.099324246288243
 40
0.1237152029247611
 40
0.144844443496374
 40
0.1659426782915218
 40
0.1866050814193781
 40
0.2063326571362793
 40
0.2251115565767217
 40
0.2429367472667882
 40
0.2598105570657294
 40
0.2712930852773541
 40
0.2830657118522841
 40
0.295108840671459
 40
0.3069322182879742
 40
0.3185229711456011
 40
0.3283787940163365
 40
0.3386796935408269
 40
0.3494982563401277
 40
0.3580111339856509
 40
0.3666946312205593
 40
0.3740641164645442
 40
0.3798229393158228
 40
0.3820854736736757
 40
0.3839610406330551
 40
0.384875281631767
 40
0.3858552574808026
 40
0.3881747570212054
 40
0.392023495466422
 40
0.3969924686040381
 40
0.4020701550295281
 40
0.4133270701637275
 40
0.4226127572053883
 40
0.4316288253337511
 40
0.441172590497752
 40
0.4511768165167742
 40
0.4616477667705233
 40
0.4725800395915471
 40
0.4837616043520879
 40
0.4950823440169224
 40
0.5036503679860816
 40
0.512279404844225
 40
0.5209723961659612
 40
0.5297628670616132
 40
0.5416546004255074
 40
0.5534828902901083
 40
0.5649168778727157
 40
0.5759128135391709
 40
0.586452027718435
 40
0.5965351094521832
 40
0.6062648614526516
 40
0.6164163486193333
 40
0.6271161881703421
 40
0.6354659452897234
 40
0.6440269135344887
 40
0.651487134551853
 40
0.6573185655201406
 40
0.6596798140822571
 40
0.6617728671651013
 40
0.663975731501715
 40
0.6665767116426571
 40
0.6708650253514888
 40
0.6753235861055976
 40
0.6796980509928447
 40
0.6924279396034068
 40
0.7053724215218216
 40
0.7145500762228719
 40
0.7242695324939681
 40
0.7346628162240172
 40
0.7454564059650443
 40
0.7570958487324838
 40
0.7688154399672952
 40
0.7804291851731341
 40
0.791930656842771
 40
0.8033140179988458
 40
0.8145739513967716
 40
0.8348764553357216
 40
0.8547106256263991
 40
0.8743361432750288
 40
0.8972646411821218
 40
0.9208723594007565
 40
0.9451173251523962
 40
0.9543651863115247
 40
0.9635521470343554
 40
0.9716999408110635
 40
0.9786254423670138
 40
0.9843328214259619
 40
0.9888262060488889
 40
0.9906188346195948
 40
0.9920876277578159
 40
0.992859872518926
 40
0.9935219132268093
 40
0.9943923748547675
 40
0.995468985916708
 40
0.9967523952961208
 40
0.9982476406647551
 40
1.0
 40
1.0
 40
1.0
 40
1.0
 10
-245.0529298507334
 20
-0.464776239618922
 30
0.0
 10
-245.6372863547592
 20
-0.2509941988216163
 30
0.0
 10
-246.4566677599232
 20
0.0487697770742007
 30
0.0
 10
-247.5380922582691
 20
-0.0216174584274226
 30
0.0
 10
-248.280759411045
 20
-0.2482238395767611
 30
0.0
 10
-248.8943886535937
 20
-0.632115471559544
 30
0.0
 10
-249.4190180400537
 20
-1.183883967598304
 30
0.0
 10
-249.7690734143711
 20
-1.773876765959123
 30
0.0
 10
-250.064006911342
 20
-2.711476631597889
 30
0.0
 10
-249.8877235788036
 20
-3.960515991918406
 30
0.0
 10
-249.5505242251317
 20
-5.497131084375995
 30
0.0
 10
-248.9882710098952
 20
-8.258653221630718
 30
0.0
 10
-248.0287755205413
 20
-12.62068762033174
 30
0.0
 10
-246.542314444429
 20
-18.94672618877985
 30
0.0
 10
-244.5827974452457
 20
-26.55689017844562
 30
0.0
 10
-242.1530709720729
 20
-35.1292848942603
 30
0.0
 10
-239.3090930645588
 20
-44.21906258923737
 30
0.0
 10
-235.138909512324
 20
-56.36053645022744
 30
0.0
 10
-229.3157997070684
 20
-71.28111341739479
 30
0.0
 10
-221.7307507760576
 20
-87.96023897672521
 30
0.0
 10
-213.6923546214067
 20
-103.4768683197629
 30
0.0
 10
-205.4172607395805
 20
-117.7485891249856
 30
0.0
 10
-196.6814053895866
 20
-131.3073025558597
 30
0.0
 10
-187.6914155163591
 20
-143.9588966851514
 30
0.0
 10
-178.6200812951932
 20
-155.6221584496994
 30
0.0
 10
-169.5606612590942
 20
-166.3309996286193
 30
0.0
 10
-161.3810739244487
 20
-175.2644783982596
 30
0.0
 10
-154.0364107592075
 20
-182.802140375883
 30
0.0
 10
-147.3854962837436
 20
-189.2390525018002
 30
0.0
 10
-140.5736685588472
 20
-195.6432777735033
 30
0.0
 10
-133.2696410084757
 20
-201.4195326098247
 30
0.0
 10
-125.9371391708865
 20
-206.1695196406518
 30
0.0
 10
-118.5885802391276
 20
-210.0982135101649
 30
0.0
 10
-111.1363993389207
 20
-213.3511633030142
 30
0.0
 10
-103.7721815511352
 20
-215.8609900815775
 30
0.0
 10
-96.65436393122991
 20
-217.6970637981879
 30
0.0
 10
-90.31567344184627
 20
-218.8816039125527
 30
0.0
 10
-84.63988358409752
 20
-219.5755656410893
 30
0.0
 10
-80.6018258514462
 20
-219.8582757524531
 30
0.0
 10
-78.02483181282203
 20
-219.9577788100786
 30
0.0
 10
-76.66888766334316
 20
-219.9874008302732
 30
0.0
 10
-75.75370547492773
 20
-219.9975994305649
 30
0.0
 10
-74.8748444372631
 20
-220.0012756913861
 30
0.0
 10
-73.77457563658193
 20
-219.9992242573692
 30
0.0
 10
-72.65157594907865
 20
-220.0003294941961
 30
0.0
 10
-71.59503039720343
 20
-219.9999025564381
 30
0.0
 10
-69.70537987715473
 20
-220.0000637305242
 30
0.0
 10
-67.0333277247864
 20
-219.9999819342902
 30
0.0
 10
-63.56955993277288
 20
-220.0000042890552
 30
0.0
 10
-59.96586606292664
 20
-219.999998792787
 30
0.0
 10
-55.53063123108996
 20
-220.0000003484574
 30
0.0
 10
-50.24682459438228
 20
-219.999999899975
 30
0.0
 10
-44.08254468181621
 20
-220.0000000286362
 30
0.0
 10
-37.09290761833108
 20
-219.9999999919874
 30
0.0
 10
-29.38184229985353
 20
-220.0000000022175
 30
0.0
 10
-21.79958637407099
 20
-219.999999999562
 30
0.0
 10
-14.58676272775496
 20
-220.0000000001044
 30
0.0
 10
-7.88964027668485
 20
-219.9999999999701
 30
0.0
 10
-1.04665580857105
 20
-220.0000000000144
 30
0.0
 10
6.66512144308957
 20
-219.9999999999678
 30
0.0
 10
15.1056455371294
 20
-220.0000000001539
 30
0.0
 10
23.97032095723361
 20
-219.999999999446
 30
0.0
 10
32.29137162694479
 20
-220.0000000019575
 30
0.0
 10
39.93414632583746
 20
-219.9999999931207
 30
0.0
 10
46.87603299592459
 20
-220.000000024076
 30
0.0
 10
53.12746100420794
 20
-219.9999999156026
 30
0.0
 10
58.89793124530568
 20
-220.0000003087148
 30
0.0
 10
64.08498008089323
 20
-219.9999987627842
 30
0.0
 10
68.23874004892711
 20
-220.0000044328548
 30
0.0
 10
71.41699961590264
 20
-219.9999873324009
 30
0.0
 10
73.44928237710639
 20
-220.0000463477676
 30
0.0
 10
74.98899538264435
 20
-219.9998651299447
 30
0.0
 10
76.23950712861067
 20
-220.00028999828
 30
0.0
 10
77.30566129183146
 20
-219.9996171415808
 30
0.0
 10
78.24662365436645
 20
-220.0013111779997
 30
0.0
 10
79.82257909602878
 20
-219.9856537365515
 30
0.0
 10
82.14443545414235
 20
-219.9197748432277
 30
0.0
 10
85.13714929907036
 20
-219.7532354252673
 30
0.0
 10
88.5579710141391
 20
-219.4437728275452
 30
0.0
 10
94.17154476527944
 20
-218.7399419133666
 30
0.0
 10
101.9186242918687
 20
-217.2326812854859
 30
0.0
 10
110.6836375751394
 20
-214.5869148914375
 30
0.0
 10
118.4432003291311
 20
-211.485969169997
 30
0.0
 10
125.3502599840114
 20
-208.1098023893564
 30
0.0
 10
132.3376007472153
 20
-203.9859742980141
 30
0.0
 10
139.3572791624076
 20
-198.9852136041998
 30
0.0
 10
146.2239325926154
 20
-193.2305900129787
 30
0.0
 10
153.1668552044288
 20
-187.2395068851679
 30
0.0
 10
159.9054986632197
 20
-181.0705635931544
 30
0.0
 10
166.4233286261772
 20
-174.7962294898009
 30
0.0
 10
172.7113471846794
 20
-168.420920352516
 30
0.0
 10
180.4129678932545
 20
-160.2036069708144
 30
0.0
 10
189.2771635790623
 20
-150.0449148686162
 30
0.0
 10
199.0425306486585
 20
-137.782245833472
 30
0.0
 10
208.6591585829663
 20
-124.541273528559
 30
0.0
 10
218.1732649145361
 20
-110.0243009617523
 30
0.0
 10
227.5296481959471
 20
-93.9852027702064
 30
0.0
 10
234.3695801042473
 20
-80.65649208328063
 30
0.0
 10
239.1010030904917
 20
-70.5137017820064
 30
0.0
 10
241.9160909480546
 20
-64.13630984352349
 30
0.0
 10
244.3742452627388
 20
-58.2686276351438
 30
0.0
 10
246.3867716412628
 20
-53.20406576144269
 30
0.0
 10
248.0076907476335
 20
-49.01732172223137
 30
0.0
 10
249.0583192741287
 20
-46.04861216352405
 30
0.0
 10
249.8095416688369
 20
-44.16477343521237
 30
0.0
 10
250.0485473413043
 20
-43.1131954670511
 30
0.0
 10
249.9467464591684
 20
-42.35077315007954
 30
0.0
 10
249.760082906979
 20
-41.77376980863444
 30
0.0
 10
249.4209744902332
 20
-41.17199883575101
 30
0.0
 10
248.8226004895021
 20
-40.55785755044981
 30
0.0
 10
247.9143564432043
 20
-40.06535965343132
 30
0.0
 10
246.7023745931487
 20
-39.94704700569309
 30
0.0
 10
245.8659840593906
 20
-40.11941130549161
 30
0.0
 10
245.4146801313014
 20
-40.21241652544774
 30
0.0
  0
SPLINE
  5
84
330
7F
100
AcDbEntity
  8
0
  6
Continuous
 62
     7
370
    25
100
AcDbSpline
210
0.0
220
0.0
230
1.0
 70
     8
 71
     3
 72
    76
 73
    72
 74
     0
 42
0.000000001
 43
0.00000001
 40
0.0
 40
0.0
 40
0.0
 40
0.0
 40
0.0153940024618461
 40
0.0298642274998334
 40
0.0434226035108586
 40
0.0560719529994147
 40
0.067809331317278
 40
0.0786284500979269
 40
0.0885213770292467
 40
0.0974796812163549
 40
0.1054951658586571
 40
0.112668672423335
 40
0.1198638933277793
 40
0.1272694634869788
 40
0.1348859864515816
 40
0.142713849916265
 40
0.1617990309471494
 40
0.1820311481425965
 40
0.2034017413797076
 40
0.2257944765503337
 40
0.2484939317987231
 40
0.2713344068002657
 40
0.2885368519085925
 40
0.305783519176775
 40
0.3230604521177758
 40
0.3403551530497232
 40
0.3575084009157609
 40
0.3735092261697884
 40
0.3881798278824494
 40
0.401536859975503
 40
0.4124036195399676
 40
0.4222423104285017
 40
0.4310642798843809
 40
0.4391219632274703
 40
0.4476582527749128
 40
0.4598207298769897
 40
0.47311061101218
 40
0.4875659122753919
 40
0.5006935173200895
 40
0.5147166354352638
 40
0.529566337146811
 40
0.5446973790516059
 40
0.5651362446796421
 40
0.5859004179494035
 40
0.6069998800893764
 40
0.6253512593608828
 40
0.6439391957788825
 40
0.6627403338189385
 40
0.6808801024761817
 40
0.6977814381814791
 40
0.7134186034827859
 40
0.727771849373576
 40
0.7392666194695002
 40
0.7497611157602141
 40
0.7601996591737651
 40
0.7716297790027851
 40
0.784044866506163
 40
0.7974347245586968
 40
0.8117859777425924
 40
0.8270819665576756
 40
0.8400864515928068
 40
0.8540783781033465
 40
0.8690597008845338
 40
0.8850078624051385
 40
0.9018990457668612
 40
0.9166794776970651
 40
0.9320880230909487
 40
0.9481179934753069
 40
0.9647698231800534
 40
0.9820548269181067
 40
1.0
 40
1.0
 40
1.0
 40
1.0
 10
245.4146801312873
 20
-40.21241652545038
 30
0.0
 10
245.3161484525151
 20
-40.23497709843103
 30
0.0
 10
245.1249978743541
 20
-40.27874440882938
 30
0.0
 10
244.0239844055461
 20
-40.53775635719826
 30
0.0
 10
242.4980211650115
 20
-40.88999319525635
 30
0.0
 10
240.6138233128522
 20
-41.31680566453205
 30
0.0
 10
238.4967267782339
 20
-41.78695571866444
 30
0.0
 10
236.2417627171212
 20
-42.27812614863549
 30
0.0
 10
233.9364155507952
 20
-42.77097022002034
 30
0.0
 10
231.6567536807012
 20
-43.2497774378738
 30
0.0
 10
229.4584246471755
 20
-43.70393976393959
 30
0.0
 10
227.3047165126888
 20
-44.14223696066232
 30
0.0
 10
225.0951670940527
 20
-44.58519487742164
 30
0.0
 10
222.7250950568058
 20
-45.05292526702654
 30
0.0
 10
220.168317688812
 20
-45.54916300607902
 30
0.0
 10
216.1243762714337
 20
-46.32027768352314
 30
0.0
 10
210.1840123589027
 20
-47.4182431483421
 30
0.0
 10
201.7984627049252
 20
-48.89139929870797
 30
0.0
 10
192.1805815049123
 20
-50.48346224667976
 30
0.0
 10
181.3967478090965
 20
-52.14751328730473
 30
0.0
 10
169.5808035231364
 20
-53.82634440756252
 30
0.0
 10
157.9689573146114
 20
-55.32432890821077
 30
0.0
 10
146.8374933539593
 20
-56.62351823689738
 30
0.0
 10
136.3920130437376
 20
-57.72767629303213
 30
0.0
 10
125.5485028596479
 20
-58.74832141281551
 30
0.0
 10
114.3626443657412
 20
-59.66470428642081
 30
0.0
 10
103.1185462713439
 20
-60.44183813015874
 30
0.0
 10
92.17753772148248
 20
-61.05580643386736
 30
0.0
 10
81.88034207889042
 20
-61.50317286332049
 30
0.0
 10
72.61574900350196
 20
-61.79290143284313
 30
0.0
 10
64.3855142108063
 20
-61.95944279311131
 30
0.0
 10
57.17159831537207
 20
-62.03467677108059
 30
0.0
 10
50.58508242965043
 20
-62.0429828596093
 30
0.0
 10
44.27408284794972
 20
-61.99685025562879
 30
0.0
 10
37.0871470377509
 20
-61.88183293307473
 30
0.0
 10
28.53243576830122
 20
-61.64937821964388
 30
0.0
 10
18.42228891204336
 20
-61.22744202054452
 30
0.0
 10
8.021782829847254
 20
-60.62712983376242
 30
0.0
 10
-2.574087803455568
 20
-59.81766103007476
 30
0.0
 10
-13.24687826773652
 20
-58.81720262657798
 30
0.0
 10
-24.36473677392842
 20
-57.57706454818847
 30
0.0
 10
-36.98715279727704
 20
-55.94981426125067
 30
0.0
 10
-50.89315588018508
 20
-53.88692221646298
 30
0.0
 10
-65.95163175628625
 20
-51.34088320713062
 30
0.0
 10
-80.14272304726519
 20
-48.6648992228461
 30
0.0
 10
-93.45415194358696
 20
-45.92819018577708
 30
0.0
 10
-105.8873057729183
 20
-43.18504324700385
 30
0.0
 10
-117.8986881216542
 20
-40.36215559825921
 30
0.0
 10
-129.168529016227
 20
-37.56166413177627
 30
0.0
 10
-139.4264171510293
 20
-34.88838805082099
 30
0.0
 10
-148.6071883690305
 20
-32.39738188943416
 30
0.0
 10
-156.4687474351475
 20
-30.18985794573732
 30
0.0
 10
-163.1531721969483
 20
-28.26042511975342
 30
0.0
 10
-168.9624264682118
 20
-26.5458685062999
 30
0.0
 10
-174.6049453304755
 20
-24.84646720326968
 30
0.0
 10
-180.3998672741616
 20
-23.06548742718016
 30
0.0
 10
-186.4745177907886
 20
-21.15890188985102
 30
0.0
 10
-192.7615982953638
 20
-19.14254251288996
 30
0.0
 10
-199.1848215467341
 20
-17.03665987735779
 30
0.0
 10
-205.2029818624063
 20
-15.01915464720724
 30
0.0
 10
-210.8265363506483
 20
-13.0959956572269
 30
0.0
 10
-216.0796748212094
 20
-11.26648740251614
 30
0.0
 10
-221.3013712658098
 20
-9.413556423360198
 30
0.0
 10
-226.3806600723813
 20
-7.57647831035127
 30
0.0
 10
-230.8999537953775
 20
-5.910151800060922
 30
0.0
 10
-234.8198637104995
 20
-4.439456773969966
 30
0.0
 10
-238.1238133015883
 20
-3.179993484740531
 30
0.0
 10
-240.9413827075238
 20
-2.088914247139612
 30
0.0
 10
-243.1361854566213
 20
-1.226504568927533
 30
0.0
 10
-244.6648328661947
 20
-0.6171087555914001
 30
0.0
 10
-244.9219581209234
 20
-0.5161841451635091
 30
0.0
 10
-245.0529298507394
 20
-0.4647762396168681
 30
0.0
  0
VIEWPORT
  5
AC
330
7F
100
AcDbEntity
  8
0
100
AcDbViewport
 10
0.0
 20
0.0
 30
0.0
 40
205.6
 41
156.0
 68
     1
 69
     1
 12
-0.094292368
 22
0.0002339166
 13
0.0
 23
0.0
 14
10.0
 24
10.0
 15
10.0
 25
10.0
 16
0.0
 26
0.0
 36
1.0
 17
0.0
 27
0.0
 37
0.0
 42
50.0
 43
0.0
 44
0.0
 45
509.5934823535
 50
0.0
 51
0.0
 72
   100
 90
   557152
  1

281
     0
 71
     1
 74
     0
110
0.0
120
0.0
130
0.0
111
1.0
121
0.0
131
0.0
112
0.0
122
1.0
132
0.0
 79
     0
146
0.0
  0
ENDBLK
  5
82
330
7F
100
AcDbEntity
  8
0
100
AcDbBlockEnd
  0
BLOCK
  5
87
330
85
100
AcDbEntity
  8
0
100
AcDbBlockBegin
  2
*Paper_Space3
 70
     0
 10
0.0
 20
0.0
 30
0.0
  3
*Paper_Space3
  1

  0
SPLINE
  5
89
330
85
100
AcDbEntity
  8
0
  6
Continuous
 62
     7
370
    25
100
AcDbSpline
210
0.0
220
0.0
230
1.0
 70
    11
 71
     3
 72
   159
 73
   155
 74
     0
 42
0.000000001
 43
0.00000001
 40
0.0
 40
0.0
 40
0.0
 40
0.0
 40
0.0078830442233295
 40
0.0153957593312702
 40
0.0225514031422217
 40
0.0293573910307817
 40
0.0358168909713784
 40
0.041930130279999
 40
0.0488062697534803
 40
0.0551762835189213
 40
0.0610340117872345
 40
0.0663730887849646
 40
0.0711874897224811
 40
0.0764594628438909
 40
0.080894530890283
 40
0.0844858445627952
 40
0.0872285459540419
 40
0.0894192581352113
 40
0.0911200960370701
 40
0.0923301437501357
 40
0.0935570958689588
 40
0.0952697645773901
 40
0.0974690836248031
 40
0.0999894514841852
 40
0.1029444231559163
 40
0.1063349937165605
 40
0.1101620558258335
 40
0.1143271764747454
 40
0.1266886897970955
 40
0.1388667299519997
 40
0.1508402848880153
 40
0.1615327648087098
 40
0.1720299888043673
 40
0.1823479773676886
 40
0.1925363579855239
 40
0.2025910028957294
 40
0.212509363184912
 40
0.2222934317982851
 40
0.2319502338884881
 40
0.2414962382720203
 40
0.2509912104377954
 40
0.2604704884745445
 40
0.2699601844823779
 40
0.2794801856820591
 40
0.2890437982257244
 40
0.2986588301536449
 40
0.3084900877682554
 40
0.3186747195878203
 40
0.3292120144283612
 40
0.3373438241017316
 40
0.3456674641069358
 40
0.3541790624380584
 40
0.3628734492244515
 40
0.371665057730689
 40
0.3799089207924589
 40
0.3874596484980172
 40
0.3943137563355931
 40
0.4004701761984851
 40
0.4059296177442789
 40
0.4106898378254193
 40
0.4147429501828863
 40
0.4172746008642594
 40
0.4203197010443879
 40
0.4239103596798658
 40
0.42804321265603
 40
0.4327088075521844
 40
0.4376143259342667
 40
0.4476395835430566
 40
0.4579440457878602
 40
0.4685224655987812
 40
0.4766380228361561
 40
0.4849118435384075
 40
0.493275950322592
 40
0.5016087962706169
 40
0.5099880276168702
 40
0.518432168469068
 40
0.5269455770781584
 40
0.5355380710485265
 40
0.5424734883761003
 40
0.5494647816528604
 40
0.5562948084356569
 40
0.5624480394811292
 40
0.5678915003208646
 40
0.5726150153258577
 40
0.5766104072026159
 40
0.5798742432819566
 40
0.5826980751968701
 40
0.585366199396236
 40
0.5881870225270213
 40
0.5917525697408316
 40
0.5960657630997569
 40
0.6011293542866851
 40
0.6069454146699864
 40
0.6135139564623492
 40
0.6224450848804349
 40
0.6306731409471278
 40
0.6381910374920946
 40
0.6449952951616629
 40
0.6510852563080344
 40
0.6553700311235222
 40
0.6592176635641818
 40
0.6630197121168975
 40
0.6670724762642827
 40
0.6713735961587437
 40
0.6779043930990352
 40
0.6849210106181912
 40
0.692412409485565
 40
0.7003666352335307
 40
0.7086448274610634
 40
0.7168353616544512
 40
0.7249116075703509
 40
0.7328805994704777
 40
0.7407523196799857
 40
0.7485397686495809
 40
0.7562589751081827
 40
0.7639278109700742
 40
0.7741177449288222
 40
0.7844535650601018
 40
0.7949926852964936
 40
0.8041979010041127
 40
0.8135645666246009
 40
0.8230919579945759
 40
0.8327509381339577
 40
0.8421192940437644
 40
0.8510351125485893
 40
0.859484216127367
 40
0.8674544665537878
 40
0.874936011897273
 40
0.882010489346877
 40
0.8892464551178565
 40
0.8967408398413015
 40
0.9044870170227671
 40
0.9124773518390389
 40
0.9157699828689893
 40
0.9183925175169996
 40
0.9203417265039566
 40
0.9216193936553492
 40
0.9221345415237943
 40
0.9229456572069922
 40
0.9242433775014645
 40
0.9260266773685929
 40
0.9282940645038347
 40
0.9310435067905682
 40
0.9349753380185023
 40
0.9395915034220237
 40
0.9448844047141096
 40
0.9508447150455532
 40
0.9574614804453324
 40
0.9634683226771118
 40
0.9699153850756532
 40
0.9767958740325361
 40
0.9841044076985868
 40
0.9918384006781943
 40
1.0
 40
1.0
 40
1.0
 40
1.0
 10
-249.8747005184923
 20
6.636294315144632
 30
0.0
 10
-249.940412682618
 20
2.542228578337089
 30
0.0
 10
-250.0687499892925
 20
-5.45357215353632
 30
0.0
 10
-249.3333320901245
 20
-17.17364060654019
 30
0.0
 10
-248.0504821747187
 20
-28.28459976520109
 30
0.0
 10
-246.2675452272796
 20
-38.77776149336084
 30
0.0
 10
-244.10277303087
 20
-48.6445901999063
 30
0.0
 10
-241.495722584322
 20
-58.44182803820265
 30
0.0
 10
-238.4732896852604
 20
-68.06986928498821
 30
0.0
 10
-235.0811983353531
 20
-77.42905044666684
 30
0.0
 10
-231.6300011854593
 20
-85.90398587631792
 30
0.0
 10
-228.2187148713876
 20
-93.51138620753926
 30
0.0
 10
-224.7087559937597
 20
-100.7327908646037
 30
0.0
 10
-221.2022980156534
 20
-107.4263501463909
 30
0.0
 10
-217.8193735181093
 20
-113.4599744402621
 30
0.0
 10
-214.9681207086737
 20
-118.2797699237277
 30
0.0
 10
-212.6427948171586
 20
-122.0528929500736
 30
0.0
 10
-210.7924476972925
 20
-124.9632909554436
 30
0.0
 10
-209.345315003373
 20
-127.185230344204
 30
0.0
 10
-208.1569892346378
 20
-128.9775878273548
 30
0.0
 10
-206.9531234624716
 20
-130.7667597096522
 30
0.0
 10
-205.4442672482642
 20
-132.9699583763441
 30
0.0
 10
-203.5259949323888
 20
-135.7066576303636
 30
0.0
 10
-201.1951404404619
 20
-138.9412828758815
 30
0.0
 10
-198.4469302890365
 20
-142.6364146146206
 30
0.0
 10
-195.2211123124806
 20
-146.8200235569907
 30
0.0
 10
-191.5209791716172
 20
-151.4287276293513
 30
0.0
 10
-184.729649368415
 20
-159.5227660955429
 30
0.0
 10
-174.6500987299574
 20
-170.504597816126
 30
0.0
 10
-160.9486517069706
 20
-183.596805589547
 30
0.0
 10
-147.0946980249919
 20
-195.2169885945143
 30
0.0
 10
-133.2547771202943
 20
-205.4430522862068
 30
0.0
 10
-119.5545100216105
 20
-214.3717617941503
 30
0.0
 10
-105.5709679094389
 20
-222.3463810035556
 30
0.0
 10
-91.33070400559805
 20
-229.3659730738309
 30
0.0
 10
-76.86574501137994
 20
-235.4157915910869
 30
0.0
 10
-62.23264716842903
 20
-240.4672080095473
 30
0.0
 10
-47.48692046814836
 20
-244.4926177069059
 30
0.0
 10
-32.67993367706128
 20
-247.4666053068657
 30
0.0
 10
-17.83964298713597
 20
-249.3666850561211
 30
0.0
 10
-2.985289295440857
 20
-250.1669550438762
 30
0.0
 10
11.85870851109147
 20
-249.8228645166128
 30
0.0
 10
26.64301199427857
 20
-248.3685787136488
 30
0.0
 10
41.32066855493409
 20
-245.8566103052026
 30
0.0
 10
55.84543200465149
 20
-242.3339887039812
 30
0.0
 10
70.25219668633513
 20
-237.823155893943
 30
0.0
 10
84.63551802761198
 20
-232.2970350285833
 30
0.0
 10
99.07252551921974
 20
-225.6898299479109
 30
0.0
 10
112.2864581218709
 20
-218.621435054317
 30
0.0
 10
124.2652964977969
 20
-211.3580664805085
 30
0.0
 10
135.018971128637
 20
-204.1343734699089
 30
0.0
 10
145.6576196101952
 20
-196.2454825458787
 30
0.0
 10
156.1030323889414
 20
-187.7140485002167
 30
0.0
 10
166.0331449548952
 20
-178.7929042886311
 30
0.0
 10
175.124948836813
 20
-169.8438632327287
 30
0.0
 10
183.1466052598624
 20
-161.2521572995748
 30
0.0
 10
190.1240427464621
 20
-153.1746849805987
 30
0.0
 10
196.1347994142179
 20
-145.7008698677957
 30
0.0
 10
201.253306573411
 20
-138.9069629633439
 30
0.0
 10
205.5473471677202
 20
-132.8607969786409
 30
0.0
 10
208.8425969437059
 20
-127.9714307542126
 30
0.0
 10
211.5628714942253
 20
-123.7695644256638
 30
0.0
 10
214.0896166380812
 20
-119.7283580510005
 30
0.0
 10
216.9680503895309
 20
-114.9248344244714
 30
0.0
 10
220.1567997409939
 20
-109.3245657835172
 30
0.0
 10
223.5249560866778
 20
-103.0392723335951
 30
0.0
 10
228.0857368932716
 20
-93.91576797281684
 30
0.0
 10
233.4293035417424
 20
-81.90167783344651
 30
0.0
 10
239.0230479129477
 20
-66.79039333090141
 30
0.0
 10
243.2850252774819
 20
-52.2775550283303
 30
0.0
 10
246.3615612062652
 20
-38.55808901447796
 30
0.0
 10
248.4364158279018
 20
-25.82318913405655
 30
0.0
 10
249.7072161380896
 20
-12.87833307262163
 30
0.0
 10
250.148359234508
 20
0.1606381404777761
 30
0.0
 10
249.6923070641169
 20
13.21790155476736
 30
0.0
 10
248.3768627309061
 20
26.28282165806674
 30
0.0
 10
246.221188602723
 20
39.31761678639978
 30
0.0
 10
243.4520965952133
 20
51.4082914684708
 30
0.0
 10
240.2672403637087
 20
62.55478257541544
 30
0.0
 10
236.8675756555338
 20
72.66634700913347
 30
0.0
 10
233.1755404662746
 20
82.22812995820962
 30
0.0
 10
229.4233086773001
 20
90.89298444472901
 30
0.0
 10
225.8378646383343
 20
98.43817401034997
 30
0.0
 10
222.5343974168594
 20
104.8840565664804
 30
0.0
 10
219.6042692864144
 20
110.262137234207
 30
0.0
 10
217.0462981562282
 20
114.7336325445354
 30
0.0
 10
214.7591360299829
 20
118.576539152479
 30
0.0
 10
212.5322476191291
 20
122.1901947277249
 30
0.0
 10
210.0472995855962
 20
126.0878214480567
 30
0.0
 10
207.0307339577428
 20
130.6398731276723
 30
0.0
 10
203.2648042192868
 20
136.0646022847902
 30
0.0
 10
198.6845442048227
 20
142.3165752891266
 30
0.0
 10
193.2177277545053
 20
149.3386333704489
 30
0.0
 10
186.2606183014882
 20
157.6918377169553
 30
0.0
 10
178.1403516108372
 20
166.6678825359117
 30
0.0
 10
169.2811496776502
 20
175.6155763148739
 30
0.0
 10
160.8502909617779
 20
183.4545404689986
 30
0.0
 10
152.9513573800857
 20
190.2614724840657
 30
0.0
 10
146.1063137204677
 20
195.76331701886
 30
0.0
 10
140.3113282649202
 20
200.1615967324325
 30
0.0
 10
135.3656917430816
 20
203.7467214344601
 30
0.0
 10
130.4410880673512
 20
207.1623159686227
 30
0.0
 10
125.2467297347035
 20
210.6012758461672
 30
0.0
 10
118.7853777665463
 20
214.6665053549584
 30
0.0
 10
110.8829527552639
 20
219.3085265858639
 30
0.0
 10
101.3482548291536
 20
224.4215355783271
 30
0.0
 10
90.92682064786091
 20
229.4496114257437
 30
0.0
 10
79.66178678913063
 20
234.2480793765094
 30
0.0
 10
67.80341391361115
 20
238.5993397930963
 30
0.0
 10
55.64325287748735
 20
242.331948964619
 30
0.0
 10
43.42724697074465
 20
245.3520661692797
 30
0.0
 10
31.20101959159759
 20
247.6440794676239
 30
0.0
 10
18.99367054573532
 20
249.1976024853572
 30
0.0
 10
6.833243064608162
 20
250.0047182758759
 30
0.0
 10
-5.252953754311734
 20
250.0527345989736
 30
0.0
 10
-18.56468998885096
 20
249.2777986883758
 30
0.0
 10
-33.13706418830398
 20
247.4125025272529
 30
0.0
 10
-48.96064574607505
 20
244.1561950896852
 30
0.0
 10
-63.97783870860511
 20
239.9063017467901
 30
0.0
 10
-78.17385596111096
 20
234.8680721419138
 30
0.0
 10
-91.53741117706993
 20
229.2224594912973
 30
0.0
 10
-104.7361550028524
 20
222.7328109588368
 30
0.0
 10
-117.5243927694281
 20
215.529741381582
 30
0.0
 10
-129.6174406569034
 20
207.8339902478638
 30
0.0
 10
-140.7828004333301
 20
199.9121349168992
 30
0.0
 10
-150.9872086532106
 20
191.9281658826613
 30
0.0
 10
-160.2663144036606
 20
183.9913424750326
 30
0.0
 10
-168.6935766940421
 20
176.1669247902311
 30
0.0
 10
-176.5472840687619
 20
168.2953568664461
 30
0.0
 10
-184.1018245769284
 20
160.1323195892348
 30
0.0
 10
-191.5559774897711
 20
151.4231818753444
 30
0.0
 10
-198.8907060203265
 20
142.1168758933888
 30
0.0
 10
-204.5735948457431
 20
134.2437924955912
 30
0.0
 10
-208.5475462534765
 20
128.3647867090067
 30
0.0
 10
-210.7411289790051
 20
125.0029128579397
 30
0.0
 10
-212.341171091513
 20
122.4814425253403
 30
0.0
 10
-213.3503376221158
 20
120.8590508859839
 30
0.0
 10
-214.0469635685318
 20
119.7264923051129
 30
0.0
 10
-214.7443226251662
 20
118.5832461011904
 30
0.0
 10
-215.7687197395488
 20
116.8812726691599
 30
0.0
 10
-217.156169068061
 20
114.5301393425541
 30
0.0
 10
-218.8861887568252
 20
111.5200944593598
 30
0.0
 10
-221.1065831704791
 20
107.525564493916
 30
0.0
 10
-223.8136334806041
 20
102.4270012804156
 30
0.0
 10
-226.9754805236379
 20
96.09537863828785
 30
0.0
 10
-230.3886416084225
 20
88.72564621471496
 30
0.0
 10
-233.9506344750575
 20
80.29095219213143
 30
0.0
 10
-237.3134061641609
 20
71.36838102880759
 30
0.0
 10
-240.394895195184
 20
62.066733568699
 30
0.0
 10
-243.1317050114355
 20
52.50047148898971
 30
0.0
 10
-245.592654761523
 20
42.14940771861929
 30
0.0
 10
-247.6421506202929
 20
31.01261792639829
 30
0.0
 10
-249.2140437211802
 20
19.1008035985716
 30
0.0
 10
-249.6505672882575
 20
10.86498119213126
 30
0.0
 10
-249.8747005184923
 20
6.636294315144633
 30
0.0
  0
CIRCLE
  5
8A
330
85
100
AcDbEntity
  8
0
  6
Continuous
 62
     7
370
    25
100
AcDbCircle
 10
0.0
 20
0.0
 30
0.0
 40
35.00000000000004
  0
CIRCLE
  5
8B
330
85
100
AcDbEntity
  8
0
  6
Continuous
 62
     7
370
    25
100
AcDbCircle
 10
0.0
 20
0.0
 30
0.0
 40
23.09999999999998
  0
VIEWPORT
  5
AE
330
85
100
AcDbEntity
  8
0
100
AcDbViewport
 10
0.0
 20
0.0
 30
0.0
 40
205.6
 41
156.0
 68
     1
 69
     1
 12
-0.094292368
 22
0.0002339166
 13
0.0
 23
0.0
 14
10.0
 24
10.0
 15
10.0
 25
10.0
 16
0.0
 26
0.0
 36
1.0
 17
0.0
 27
0.0
 37
0.0
 42
50.0
 43
0.0
 44
0.0
 45
509.5934823535
 50
0.0
 51
0.0
 72
   100
 90
   557152
  1

281
     0
 71
     1
 74
     0
110
0.0
120
0.0
130
0.0
111
1.0
121
0.0
131
0.0
112
0.0
122
1.0
132
0.0
 79
     0
146
0.0
  0
ENDBLK
  5
88
330
85
100
AcDbEntity
  8
0
100
AcDbBlockEnd
  0
BLOCK
  5
8E
330
8C
100
AcDbEntity
  8
0
100
AcDbBlockBegin
  2
*Paper_Space4
 70
     0
 10
0.0
 20
0.0
 30
0.0
  3
*Paper_Space4
  1

  0
SPLINE
  5
90
330
8C
100
AcDbEntity
  8
0
  6
Continuous
 62
     7
370
    25
100
AcDbSpline
210
0.0
220
0.0
230
1.0
 70
    11
 71
     3
 72
   179
 73
   175
 74
     0
 42
0.000000001
 43
0.00000001
 40
0.0
 40
0.0
 40
0.0
 40
0.0
 40
0.0070511580865745
 40
0.0133143600156244
 40
0.0187904017623414
 40
0.0234803976622284
 40
0.0273891806973577
 40
0.0305311377989141
 40
0.0315189372051148
 40
0.032420435216509
 40
0.0332492090109349
 40
0.033993932773414
 40
0.0352275105552519
 40
0.0362269398239694
 40
0.0371871264650523
 40
0.0381200006823396
 40
0.040210789301962
 40
0.0435663175953443
 40
0.0461521901318252
 40
0.048401610645121
 40
0.0507404066078625
 40
0.053598106494527
 40
0.0569779632104526
 40
0.0608026942004006
 40
0.0649694183243431
 40
0.0684877262587452
 40
0.0713525231751375
 40
0.0737780237136641
 40
0.0763047938510319
 40
0.0789589120741927
 40
0.0857080966890957
 40
0.093107391209739
 40
0.1010995530038069
 40
0.1096879880681321
 40
0.1188735616641259
 40
0.1286551876744502
 40
0.1389042291853241
 40
0.1507309219046511
 40
0.1623146746802453
 40
0.173637325045934
 40
0.1846836089477326
 40
0.1954415691551548
 40
0.2059027200331367
 40
0.2161718976543903
 40
0.2264016884282082
 40
0.2365863876702859
 40
0.2467229277054347
 40
0.2568131179017391
 40
0.2668646560703372
 40
0.2768863965860882
 40
0.2868666418283852
 40
0.2968306795275648
 40
0.3068101378727849
 40
0.3168287609381011
 40
0.3269024879925011
 40
0.3370411838163601
 40
0.347282749756226
 40
0.3576444247627638
 40
0.3681211037528517
 40
0.3787039847073393
 40
0.3893826889542213
 40
0.4001461725164642
 40
0.4110141121613891
 40
0.4220792642470375
 40
0.4333345859680228
 40
0.4447630644049499
 40
0.4563466639623426
 40
0.4628951113063797
 40
0.4694833678406074
 40
0.4759730551169806
 40
0.4818086627062916
 40
0.4869352900734336
 40
0.4913588854910906
 40
0.4936388346939591
 40
0.4956777854797489
 40
0.4974767699341762
 40
0.499106364420695
 40
0.5011895629404151
 40
0.5038715078068305
 40
0.5071485662616851
 40
0.510856721914577
 40
0.5175709385484977
 40
0.5241927531877714
 40
0.5306624743002663
 40
0.5369580293846902
 40
0.542873980008181
 40
0.5462167136754162
 40
0.5492824675403313
 40
0.5506605331676474
 40
0.5519251029255978
 40
0.55309299726201
 40
0.5542408422388534
 40
0.5566909385899963
 40
0.5595016495243036
 40
0.5627870390113049
 40
0.566617662698808
 40
0.576751856203319
 40
0.5867007637607978
 40
0.5963272775948137
 40
0.6056524575863343
 40
0.6146936431595273
 40
0.6236801330930645
 40
0.6328345782014486
 40
0.6437517142743565
 40
0.6549570338488647
 40
0.666474374920694
 40
0.6721624028758384
 40
0.6778016647987677
 40
0.6833505045536333
 40
0.6887492537455281
 40
0.6939353276332276
 40
0.6988600971063925
 40
0.7034785919228366
 40
0.7077339981901205
 40
0.7116061613038644
 40
0.7133974329855575
 40
0.7150875968249798
 40
0.7166254804537784
 40
0.7188253943246065
 40
0.7212395752906021
 40
0.7238045573018859
 40
0.7267608934460571
 40
0.7298839006540024
 40
0.7331632006390706
 40
0.7365993279891517
 40
0.7413353896866255
 40
0.7463369968784318
 40
0.7516053069292844
 40
0.7579252657705058
 40
0.764311454490568
 40
0.7704085198248708
 40
0.7762160049185829
 40
0.7817294681808538
 40
0.7869572535296405
 40
0.7919210326392386
 40
0.7966519245648962
 40
0.8011902744498752
 40
0.80590515074218
 40
0.8109498369395839
 40
0.8163321405895365
 40
0.8220594929008523
 40
0.8281482132127044
 40
0.8346135850214911
 40
0.8397199811142648
 40
0.8450509690386968
 40
0.8503308109532056
 40
0.8548868153001009
 40
0.85869005097437
 40
0.8617466664030322
 40
0.8640749688106126
 40
0.8657363203646519
 40
0.8663846553887519
 40
0.8672958273825088
 40
0.8684756236408163
 40
0.870589950884775
 40
0.8732919937107748
 40
0.8774106590053473
 40
0.8820546406035135
 40
0.8872054503159652
 40
0.8928205772929116
 40
0.8988335414701505
 40
0.9048465141014396
 40
0.9105820993755289
 40
0.9160226562609236
 40
0.921271041844021
 40
0.9264095317939806
 40
0.9314428880286871
 40
0.9363755744297251
 40
0.9459884953269619
 40
0.9558192215366093
 40
0.9660895103912402
 40
0.9768404929923481
 40
0.9881236756503228
 40
1.0
 40
1.0
 40
1.0
 40
1.0
 10
223.4899479683266
 20
-100.0395772694881
 30
0.0
 10
225.5486123919174
 20
-97.32153958855655
 30
0.0
 10
229.435888630871
 20
-92.18920079035831
 30
0.0
 10
234.7388724410197
 20
-84.89031044459611
 30
0.0
 10
239.2477108128099
 20
-78.49639007177001
 30
0.0
 10
242.9690133990971
 20
-73.02087103594815
 30
0.0
 10
245.9482198819672
 20
-68.50896137595655
 30
0.0
 10
247.8172538332971
 20
-65.45224407940164
 30
0.0
 10
248.9352607212045
 20
-63.67266068286118
 30
0.0
 10
249.388645746588
 20
-62.65248818379075
 30
0.0
 10
249.429353973888
 20
-61.64929143629572
 30
0.0
 10
249.212329037791
 20
-60.61727347556703
 30
0.0
 10
248.6786981439037
 20
-59.74218002309053
 30
0.0
 10
248.4561631970962
 20
-59.49570122576363
 30
0.0
 10
248.272213982152
 20
-59.27693447728465
 30
0.0
 10
247.9955556510452
 20
-58.97401585980725
 30
0.0
 10
247.523398078623
 20
-58.49002706944543
 30
0.0
 10
246.8582291891705
 20
-57.8839584325743
 30
0.0
 10
246.1169507944929
 20
-57.27339509991597
 30
0.0
 10
245.4449563542179
 20
-56.75612622469817
 30
0.0
 10
244.707373132378
 20
-56.21790972352393
 30
0.0
 10
243.7917935614896
 20
-55.5848072463813
 30
0.0
 10
242.6251039713526
 20
-54.82265680756287
 30
0.0
 10
241.1853936836485
 20
-53.93459190494444
 30
0.0
 10
239.5921797540549
 20
-53.00510132935182
 30
0.0
 10
238.0173240274408
 20
-52.12897068023334
 30
0.0
 10
236.6267763477594
 20
-51.38257169171749
 30
0.0
 10
235.3416281586309
 20
-50.71142376176478
 30
0.0
 10
234.04194906571
 20
-50.04885812666227
 30
0.0
 10
231.9245384116263
 20
-48.99492796041343
 30
0.0
 10
228.7431278603677
 20
-47.47405448562622
 30
0.0
 10
224.1642819693137
 20
-45.40258132153532
 30
0.0
 10
218.7652371554348
 20
-43.08967809306707
 30
0.0
 10
212.4808979468558
 20
-40.54004640916807
 30
0.0
 10
205.2328204525338
 20
-37.75694548546115
 30
0.0
 10
196.9814742613051
 20
-34.76358022344746
 30
0.0
 10
187.3649066359345
 20
-31.47575581682187
 30
0.0
 10
176.5168472372766
 20
-28.00336586899911
 30
0.0
 10
164.6111973494763
 20
-24.4594504784672
 30
0.0
 10
152.324346498879
 20
-21.06758843964336
 30
0.0
 10
139.7453760031564
 20
-17.8607467102619
 30
0.0
 10
126.956011739611
 20
-14.86703403470971
 30
0.0
 10
113.9861704775064
 20
-12.10059433788596
 30
0.0
 10
100.7861053473074
 20
-9.560893456447909
 30
0.0
 10
87.28794208781233
 20
-7.252668043617988
 30
0.0
 10
73.4638190430501
 20
-5.196299334632642
 30
0.0
 10
59.35551653799395
 20
-3.426142867724649
 30
0.0
 10
45.00633158246026
 20
-1.977429461123281
 30
0.0
 10
30.46317455970868
 20
-0.8862989900746548
 30
0.0
 10
15.79103064721492
 20
-0.1903874863680016
 30
0.0
 10
1.059052413194107
 20
0.075297323856513
 30
0.0
 10
-13.65932570710096
 20
-0.1246991697057415
 30
0.0
 10
-28.30663395611402
 20
-0.7586214499080562
 30
0.0
 10
-42.83661519442897
 20
-1.790581944683622
 30
0.0
 10
-57.20380611619216
 20
-3.186329066704991
 30
0.0
 10
-71.37952292326631
 20
-4.913733983130622
 30
0.0
 10
-85.34283746817395
 20
-6.943931514585736
 30
0.0
 10
-99.06966997810353
 20
-9.250084154181422
 30
0.0
 10
-112.5181527522417
 20
-11.80351627350328
 30
0.0
 10
-125.6376848783903
 20
-14.57393448812831
 30
0.0
 10
-138.3782071611713
 20
-17.53021141448681
 30
0.0
 10
-150.7032767193751
 20
-20.64322899913339
 30
0.0
 10
-162.6129595175623
 20
-23.89457121463708
 30
0.0
 10
-174.1031750315196
 20
-27.26847955384453
 30
0.0
 10
-185.1379275445165
 20
-30.74322456571369
 30
0.0
 10
-195.6374622550119
 20
-34.28312503748761
 30
0.0
 10
-204.0431891929687
 20
-37.31722534944824
 30
0.0
 10
-210.6140836609681
 20
-39.82021095791256
 30
0.0
 10
-215.5579246717492
 20
-41.78088913456436
 30
0.0
 10
-220.0496670787361
 20
-43.63792463625445
 30
0.0
 10
-223.9473515140673
 20
-45.31701180328321
 30
0.0
 10
-227.1831490925271
 20
-46.766041955138
 30
0.0
 10
-229.5327752740442
 20
-47.8567537874598
 30
0.0
 10
-231.1956514347497
 20
-48.649597020294
 30
0.0
 10
-232.325912115055
 20
-49.19830619160904
 30
0.0
 10
-233.3094112908324
 20
-49.68377397338649
 30
0.0
 10
-234.276978594584
 20
-50.16877544832688
 30
0.0
 10
-235.3720828042905
 20
-50.72729189198662
 30
0.0
 10
-236.6992640551015
 20
-51.4201481603175
 30
0.0
 10
-238.2164883052947
 20
-52.23721322696395
 30
0.0
 10
-240.2321639719706
 20
-53.366267250756
 30
0.0
 10
-242.5002407674506
 20
-54.72471385195754
 30
0.0
 10
-244.7363653921405
 20
-56.21125358072761
 30
0.0
 10
-246.6022978460562
 20
-57.63037478233208
 30
0.0
 10
-248.0782652683332
 20
-59.00386150156655
 30
0.0
 10
-249.0337501057542
 20
-60.16726902037624
 30
0.0
 10
-249.6277533823472
 20
-61.29030198617444
 30
0.0
 10
-249.8688379658953
 20
-61.96950140001896
 30
0.0
 10
-250.0035992100156
 20
-62.80905084909415
 30
0.0
 10
-249.991194460473
 20
-63.60281078126492
 30
0.0
 10
-249.7537533329238
 20
-64.54269677419664
 30
0.0
 10
-248.9120833762797
 20
-65.8281618811814
 30
0.0
 10
-247.4801691132498
 20
-67.9713895908649
 30
0.0
 10
-245.2389487760929
 20
-71.17377208146922
 30
0.0
 10
-242.4662731865471
 20
-75.06453363616681
 30
0.0
 10
-237.5004759391448
 20
-81.91356169690155
 30
0.0
 10
-230.4707307453525
 20
-91.35441365016362
 30
0.0
 10
-221.5472959005386
 20
-102.9105443932846
 30
0.0
 10
-212.6752289167962
 20
-114.0038648263681
 30
0.0
 10
-203.9088591228148
 20
-124.6005995676805
 30
0.0
 10
-195.1827362308232
 20
-134.8132522992303
 30
0.0
 10
-186.3568146634829
 20
-144.8234339842041
 30
0.0
 10
-176.7550410841026
 20
-155.374940904177
 30
0.0
 10
-166.2265766353929
 20
-166.5528150411609
 30
0.0
 10
-154.6741534157627
 20
-178.3595835862986
 30
0.0
 10
-144.7298286939242
 20
-188.1412191039933
 30
0.0
 10
-136.6024201724775
 20
-195.8866003826415
 30
0.0
 10
-130.0759352419532
 20
-201.0196687721123
 30
0.0
 10
-123.2841577639426
 20
-205.5382795121895
 30
0.0
 10
-116.339877890091
 20
-209.3812352367791
 30
0.0
 10
-109.3982503385434
 20
-212.5464783494397
 30
0.0
 10
-102.5999088477301
 20
-215.0520598315915
 30
0.0
 10
-96.0822453768354
 20
-216.9460778391378
 30
0.0
 10
-89.96119738501676
 20
-218.2985349311247
 30
0.0
 10
-85.14234125751217
 20
-219.0633041128951
 30
0.0
 10
-81.55302077192114
 20
-219.4807863818783
 30
0.0
 10
-79.09141254715364
 20
-219.7031183942145
 30
0.0
 10
-76.44735022638581
 20
-219.8777926027685
 30
0.0
 10
-73.81627761149316
 20
-219.9771699939301
 30
0.0
 10
-71.7093415576396
 20
-220.0018717180875
 30
0.0
 10
-70.15494540173549
 20
-219.9993989420579
 30
0.0
 10
-68.81638924900035
 20
-220.0001809623838
 30
0.0
 10
-67.1150391945385
 20
-219.9999477452192
 30
0.0
 10
-65.19156962605061
 20
-220.0000148936472
 30
0.0
 10
-62.72605115593556
 20
-219.9999941995708
 30
0.0
 10
-59.5783629829795
 20
-220.0000018629382
 30
0.0
 10
-55.55288111989309
 20
-219.9999994622119
 30
0.0
 10
-50.5823586451499
 20
-220.0000001801923
 30
0.0
 10
-44.58716702559767
 20
-219.9999999473745
 30
0.0
 10
-37.5720068083464
 20
-220.0000000134756
 30
0.0
 10
-30.03502315213087
 20
-219.999999996641
 30
0.0
 10
-22.32141590150835
 20
-220.0000000008328
 30
0.0
 10
-14.59372150690811
 20
-219.9999999997966
 30
0.0
 10
-6.998048640692272
 20
-220.0000000000415
 30
0.0
 10
0.3473442964273777
 20
-220.0000000000208
 30
0.0
 10
7.345355091325515
 20
-219.9999999998863
 30
0.0
 10
14.09988847379022
 20
-220.0000000004234
 30
0.0
 10
20.82175068702272
 20
-219.999999998297
 30
0.0
 10
27.67424376716695
 20
-220.0000000070403
 30
0.0
 10
34.61240647377837
 20
-219.9999999710602
 30
0.0
 10
41.5035137306574
 20
-220.0000001185602
 30
0.0
 10
48.19437840281628
 20
-219.9999995150032
 30
0.0
 10
53.93530890577622
 20
-220.0000017580919
 30
0.0
 10
58.72495709939803
 20
-219.9999948708475
 30
0.0
 10
62.54328835649783
 20
-220.0000201598305
 30
0.0
 10
65.57515748122623
 20
-219.9999299367485
 30
0.0
 10
67.95676574050663
 20
-220.0002066904093
 30
0.0
 10
69.77315979707457
 20
-219.9994178826028
 30
0.0
 10
71.26795623554132
 20
-220.0015443760126
 30
0.0
 10
72.63313987847674
 20
-219.9927612551728
 30
0.0
 10
73.9362651024682
 20
-219.9673242067365
 30
0.0
 10
75.27839635541606
 20
-219.9215176090103
 30
0.0
 10
76.6637468232126
 20
-219.8585087714303
 30
0.0
 10
78.70921159823537
 20
-219.7326489864168
 30
0.0
 10
81.6555366775002
 20
-219.4805379258151
 30
0.0
 10
86.01249839958044
 20
-218.9499283972202
 30
0.0
 10
91.5706552758148
 20
-217.9887453118156
 30
0.0
 10
98.2244540135686
 20
-216.3888052026784
 30
0.0
 10
105.4487656630049
 20
-214.0893742832459
 30
0.0
 10
113.0919530389857
 20
-210.9693713879752
 30
0.0
 10
120.8197351326214
 20
-207.0141387221597
 30
0.0
 10
128.2115789921185
 20
-202.3546023445302
 30
0.0
 10
134.9643010820029
 20
-197.2620107318281
 30
0.0
 10
140.9287686793809
 20
-191.8188823923653
 30
0.0
 10
146.4873562148503
 20
-186.3852942145221
 30
0.0
 10
151.8909623762536
 20
-181.079342130734
 30
0.0
 10
157.1282371662812
 20
-175.8276782013841
 30
0.0
 10
163.8610430522735
 20
-168.965918898578
 30
0.0
 10
172.1309679554084
 20
-160.3225928949878
 30
0.0
 10
182.0532577394977
 20
-149.6022352918696
 30
0.0
 10
192.1624378986764
 20
-138.2888215607812
 30
0.0
 10
202.4960156545224
 20
-126.2607595297931
 30
0.0
 10
213.0650075048626
 20
-113.4705452150161
 30
0.0
 10
219.9561378809495
 20
-104.5923601055615
 30
0.0
 10
223.4899479683266
 20
-100.0395772694881
 30
0.0
  0
VIEWPORT
  5
B0
330
8C
100
AcDbEntity
  8
0
100
AcDbViewport
 10
0.0
 20
0.0
 30
0.0
 40
205.6
 41
156.0
 68
     1
 69
     1
 12
-0.094292368
 22
0.0002339166
 13
0.0
 23
0.0
 14
10.0
 24
10.0
 15
10.0
 25
10.0
 16
0.0
 26
0.0
 36
1.0
 17
0.0
 27
0.0
 37
0.0
 42
50.0
 43
0.0
 44
0.0
 45
509.5934823535
 50
0.0
 51
0.0
 72
   100
 90
   557152
  1

281
     0
 71
     1
 74
     0
110
0.0
120
0.0
130
0.0
111
1.0
121
0.0
131
0.0
112
0.0
122
1.0
132
0.0
 79
     0
146
0.0
  0
ENDBLK
  5
8F
330
8C
100
AcDbEntity
  8
0
100
AcDbBlockEnd
  0
BLOCK
  5
93
330
91
100
AcDbEntity
  8
0
100
AcDbBlockBegin
  2
*Paper_Space5
 70
     0
 10
0.0
 20
0.0
 30
0.0
  3
*Paper_Space5
  1

  0
SPLINE
  5
95
330
91
100
AcDbEntity
  8
0
  6
Continuous
 62
     7
370
    25
100
AcDbSpline
210
0.0
220
0.0
230
1.0
 70
     8
 71
     3
 72
    88
 73
    84
 74
     0
 42
0.000000001
 43
0.00000001
 40
0.0
 40
0.0
 40
0.0
 40
0.0
 40
0.0116132068515585
 40
0.0218462476014941
 40
0.0306090181918839
 40
0.0379421437566691
 40
0.0438761210544138
 40
0.0484168543881967
 40
0.0523425581449393
 40
0.0549808756585624
 40
0.0582272133952474
 40
0.0620989026802469
 40
0.0665972342643694
 40
0.0717234417908255
 40
0.0808460099985383
 40
0.0901478173821968
 40
0.0994454861315267
 40
0.1243378848957098
 40
0.1492815880532042
 40
0.1591557036150912
 40
0.169106415073485
 40
0.1791343115072859
 40
0.1892397543930921
 40
0.1994228798529401
 40
0.209661330273661
 40
0.2189246972231783
 40
0.2266424219070994
 40
0.2330576810318934
 40
0.2377544779967834
 40
0.2417788554536546
 40
0.2466619190039435
 40
0.2524196371601025
 40
0.2590554667781026
 40
0.2708931525805831
 40
0.2847361454958218
 40
0.299465375642027
 40
0.3146710291057909
 40
0.330351118390497
 40
0.3515958788096435
 40
0.3736379145629178
 40
0.3964625323452552
 40
0.4194288112609242
 40
0.4430985517702651
 40
0.4665923801189075
 40
0.4886306000758278
 40
0.5091964333568669
 40
0.5282906219082322
 40
0.545917346339547
 40
0.5620834408743064
 40
0.5767987353217104
 40
0.5903604446585538
 40
0.6046643600975633
 40
0.6200429548857134
 40
0.6364790854490555
 40
0.6539561487105198
 40
0.6756418827931547
 40
0.6984428715622674
 40
0.721464650663692
 40
0.7388484462923565
 40
0.7563533496068678
 40
0.7740041434864516
 40
0.7915628196922241
 40
0.8016804660904516
 40
0.8106826126715231
 40
0.8185668765845671
 40
0.8260623426896757
 40
0.8353145616371849
 40
0.8464710417149828
 40
0.859543758538404
 40
0.8744357965132792
 40
0.8879941388048033
 40
0.9002066320222973
 40
0.9110637704222256
 40
0.9207766733740987
 40
0.9316773230414713
 40
0.9425899044056775
 40
0.9535435163769768
 40
0.9647373643109031
 40
0.9763838799178076
 40
0.9845859599214987
 40
0.9936738717544294
 40
0.9983750123971009
 40
1.0
 40
1.0
 40
1.0
 40
1.0
 10
176.5947336392395
 20
-140.4135588432155
 30
0.0
 10
175.4932797239703
 20
-141.1111973948234
 30
0.0
 10
173.421273665508
 20
-142.4235639727708
 30
0.0
 10
170.3712323367193
 20
-144.1844685552674
 30
0.0
 10
167.6778108955948
 20
-145.650271832868
 30
0.0
 10
165.3588965484167
 20
-146.839356832111
 30
0.0
 10
163.436961350897
 20
-147.7771991698352
 30
0.0
 10
161.8451495913659
 20
-148.5231768392455
 30
0.0
 10
160.5885257570133
 20
-149.0932256126996
 30
0.0
 10
159.4143884214917
 20
-149.6113368704118
 30
0.0
 10
158.2416316570905
 20
-150.1158849624706
 30
0.0
 10
156.8252119552656
 20
-150.7070213276727
 30
0.0
 10
155.1595592693821
 20
-151.3774261083805
 30
0.0
 10
152.8139966708056
 20
-152.2826366061976
 30
0.0
 10
149.8124664000455
 20
-153.370263767128
 30
0.0
 10
146.1972196922459
 20
-154.5762322523287
 30
0.0
 10
140.4014920472736
 20
-156.351043901542
 30
0.0
 10
132.2238770098637
 20
-158.473853898289
 30
0.0
 10
123.5817171856156
 20
-160.2001463329208
 30
0.0
 10
116.9454708012629
 20
-161.2804178991213
 30
0.0
 10
112.4629912835917
 20
-161.9214035145852
 30
0.0
 10
107.8914488576153
 20
-162.4881985910075
 30
0.0
 10
103.2327095970851
 20
-162.9805958099019
 30
0.0
 10
98.49235169239398
 20
-163.3980697672353
 30
0.0
 10
93.83753299551043
 20
-163.7289139004969
 30
0.0
 10
89.53277132742282
 20
-163.9678251583001
 30
0.0
 10
85.80670938706866
 20
-164.1258575385842
 30
0.0
 10
82.79092431774204
 20
-164.2218460028408
 30
0.0
 10
80.35568091448258
 20
-164.2795435593497
 30
0.0
 10
78.15762252233097
 20
-164.3177995744589
 30
0.0
 10
75.78001494819455
 20
-164.3441129443126
 30
0.0
 10
72.96854110174635
 20
-164.3542861907518
 30
0.0
 10
69.00967896016695
 20
-164.3348964542848
 30
0.0
 10
63.70079593238192
 20
-164.2429812012851
 30
0.0
 10
57.01799809419775
 20
-164.0158404227672
 30
0.0
 10
49.72910875998236
 20
-163.63811028052
 30
0.0
 10
42.08769415399788
 20
-163.104913883683
 30
0.0
 10
33.30814134403476
 20
-162.3357373438107
 30
0.0
 10
23.32433276025964
 20
-161.2558838188778
 30
0.0
 10
12.08036776156751
 20
-159.780187037555
 30
0.0
 10
0.5088116455035652
 20
-157.995117948244
 30
0.0
 10
-11.35647588877714
 20
-155.8949852156812
 30
0.0
 10
-23.33205339346284
 20
-153.5051132384504
 30
0.0
 10
-35.12350913882791
 20
-150.8879182952163
 30
0.0
 10
-46.34179604781139
 20
-148.1579853051468
 30
0.0
 10
-56.75655883561724
 20
-145.4156439698314
 30
0.0
 10
-66.36156486811777
 20
-142.7071720149744
 30
0.0
 10
-75.15928335581872
 20
-140.0726674789123
 30
0.0
 10
-83.15765780468223
 20
-137.5469870617166
 30
0.0
 10
-90.41595898165635
 20
-135.1446426909482
 30
0.0
 10
-97.29873816490608
 20
-132.7686721527946
 30
0.0
 10
-104.2092785556458
 20
-130.2838091799506
 30
0.0
 10
-111.4791779544274
 20
-127.5550125297017
 30
0.0
 10
-119.1214459852692
 20
-124.5521834596764
 30
0.0
 10
-127.5692244915573
 20
-121.0669906952191
 30
0.0
 10
-136.7355414626262
 20
-117.0646534034746
 30
0.0
 10
-146.3673832640471
 20
-112.5729857636087
 30
0.0
 10
-154.9664106022326
 20
-108.272622001297
 30
0.0
 10
-162.4595230860976
 20
-104.2762568118878
 30
0.0
 10
-168.9266259597295
 20
-100.6201095024331
 30
0.0
 10
-175.0528245431471
 20
-96.93613702904995
 30
0.0
 10
-180.0022584168244
 20
-93.76351902192076
 30
0.0
 10
-183.800315923431
 20
-91.1995189035719
 30
0.0
 10
-186.4878066836953
 20
-89.31720075106013
 30
0.0
 10
-188.8245799408397
 20
-87.62522561076935
 30
0.0
 10
-191.0943463875183
 20
-85.93036582741354
 30
0.0
 10
-193.5588728446743
 20
-84.02622290242374
 30
0.0
 10
-196.373999919388
 20
-81.75660897648423
 30
0.0
 10
-199.4735492909916
 20
-79.12344113011727
 30
0.0
 10
-202.5366353806151
 20
-76.35147678130429
 30
0.0
 10
-205.3082467700119
 20
-73.66763501782525
 30
0.0
 10
-207.6177183161426
 20
-71.28177055052204
 30
0.0
 10
-209.5325640139433
 20
-69.17894299229582
 30
0.0
 10
-211.2347495973598
 20
-67.19968524183128
 30
0.0
 10
-212.8046611828832
 20
-65.26113822999038
 30
0.0
 10
-214.2909770555383
 20
-63.29959053104037
 30
0.0
 10
-215.6487744019858
 20
-61.37628813950376
 30
0.0
 10
-216.8841074955619
 20
-59.49100398848235
 30
0.0
 10
-217.8966433226825
 20
-57.80976108927112
 30
0.0
 10
-218.6218425218104
 20
-56.52402149815168
 30
0.0
 10
-219.0330446543229
 20
-55.83193655842706
 30
0.0
 10
-219.3667475657782
 20
-55.20435481292904
 30
0.0
 10
-219.3582444659937
 20
-55.25513434241213
 30
0.0
 10
-219.3560602814183
 20
-55.26817804034045
 30
0.0
  0
SPLINE
  5
96
330
91
100
AcDbEntity
  8
0
  6
Continuous
 62
     7
370
    25
100
AcDbSpline
210
0.0
220
0.0
230
1.0
 70
     8
 71
     3
 72
    13
 73
     9
 74
     0
 42
0.000000001
 43
0.00000001
 40
0.0
 40
0.0
 40
0.0
 40
0.0
 40
0.036859857608339
 40
0.154833186785574
 40
0.3081307609176963
 40
0.4993277336541469
 40
0.7297090815628393
 40
1.0
 40
1.0
 40
1.0
 40
1.0
 10
185.2277097783636
 20
-134.2032479878514
 30
0.0
 10
185.2394204172069
 20
-134.1907036426838
 30
0.0
 10
185.2886120215442
 20
-134.1380099790489
 30
0.0
 10
184.6765725056997
 20
-134.6427277228526
 30
0.0
 10
183.6062190043598
 20
-135.4883714421542
 30
0.0
 10
181.8702546201202
 20
-136.8066405894884
 30
0.0
 10
179.5348161790053
 20
-138.4811720903147
 30
0.0
 10
177.6254931173046
 20
-139.7360860396803
 30
0.0
 10
176.5947336392395
 20
-140.4135588432155
 30
0.0
  0
SPLINE
  5
97
330
91
100
AcDbEntity
  8
0
  6
Continuous
 62
     7
370
    25
100
AcDbSpline
210
0.0
220
0.0
230
1.0
 70
    11
 71
     3
 72
   278
 73
   274
 74
     0
 42
0.000000001
 43
0.00000001
 40
0.0
 40
0.0
 40
0.0
 40
0.0
 40
0.0028916484657806
 40
0.0051683896044855
 40
0.0068336365360507
 40
0.0078894064667803
 40
0.012041369309325
 40
0.0173951871135436
 40
0.0215080160266692
 40
0.0261773747389626
 40
0.0312001296103765
 40
0.0350617491499782
 40
0.0394575630565245
 40
0.0443859636647694
 40
0.0491176308045232
 40
0.0540655393490517
 40
0.0568059301690783
 40
0.0590613636443738
 40
0.0612332994100525
 40
0.0635113816482783
 40
0.0653894744357359
 40
0.0675915407010545
 40
0.0702239644460417
 40
0.0732876576735207
 40
0.0764716692914783
 40
0.0787490594297641
 40
0.080464295449425
 40
0.082960265000445
 40
0.0858076917645832
 40
0.0888175158611994
 40
0.0909936481601022
 40
0.0928591603423325
 40
0.0944129699403403
 40
0.0950943219867084
 40
0.0957776488286
 40
0.0972837748473562
 40
0.0991568105362628
 40
0.1011280346844814
 40
0.1029655214866094
 40
0.1054812555612275
 40
0.1079635589499521
 40
0.1109216472347346
 40
0.1143765917092475
 40
0.1182136673931196
 40
0.1217185951403093
 40
0.1247689687368522
 40
0.1274418144719613
 40
0.132141541755643
 40
0.1372183230526316
 40
0.1429865311090807
 40
0.1493923868365502
 40
0.1554313117642153
 40
0.1608400514938916
 40
0.1656137191655411
 40
0.1716956480915138
 40
0.1780099605296153
 40
0.1845650380379345
 40
0.1910862549907356
 40
0.1972086666887432
 40
0.2029740808961962
 40
0.2091832203458225
 40
0.2159307802515583
 40
0.2232785416362657
 40
0.2291074172113808
 40
0.2353040342972772
 40
0.2418623873291036
 40
0.2458940299540664
 40
0.2500475516317506
 40
0.2541063750021623
 40
0.257650020591856
 40
0.2602818492354543
 40
0.2625283076622539
 40
0.2643911682261443
 40
0.2658719092013992
 40
0.266971705110806
 40
0.2680040602097393
 40
0.2697503172047339
 40
0.2721227405056043
 40
0.2751063169222941
 40
0.2782096541078586
 40
0.2811780389804074
 40
0.286619374013226
 40
0.2915506279829677
 40
0.2949092320485761
 40
0.2986654532201763
 40
0.3028629728124891
 40
0.3075025865128716
 40
0.3125868714595912
 40
0.3172529557686179
 40
0.3222460806843029
 40
0.3275051537725128
 40
0.3323797548895776
 40
0.3366997632024862
 40
0.3403996902002062
 40
0.3435583267830487
 40
0.3461726288334367
 40
0.3482528831525104
 40
0.3510584856732937
 40
0.3537428542525581
 40
0.3568942285071969
 40
0.3607131302776528
 40
0.3652042718055303
 40
0.3703728285308161
 40
0.3759768832303043
 40
0.3822144561409792
 40
0.3886750361537648
 40
0.3948968313993554
 40
0.4008754778103706
 40
0.4066075080639177
 40
0.4120898673737444
 40
0.4192155323707739
 40
0.4258589656588335
 40
0.4320163286187181
 40
0.4377095057838999
 40
0.4437222643019951
 40
0.4502623938853579
 40
0.4573244739288233
 40
0.4649015394354106
 40
0.4729851181658556
 40
0.4796856747354941
 40
0.4866780406193461
 40
0.493506732129636
 40
0.4999207426284792
 40
0.5059240786495955
 40
0.5112346155982314
 40
0.5161849802084296
 40
0.5207791506986551
 40
0.5250209767545131
 40
0.5293198634778089
 40
0.5340573006859712
 40
0.5384663507039448
 40
0.5431972342336863
 40
0.5482515290651105
 40
0.5536325947088142
 40
0.5593461914581787
 40
0.5654002632518207
 40
0.5716681673032747
 40
0.5779229071627058
 40
0.5833838357446296
 40
0.5880423036176212
 40
0.5918894565769112
 40
0.5938887834339045
 40
0.5955626427021466
 40
0.5971106941475803
 40
0.599265055547974
 40
0.6020963979815728
 40
0.604976746348502
 40
0.6083344869567798
 40
0.6119189363229034
 40
0.6153127410586415
 40
0.6185078396620509
 40
0.6215023565772536
 40
0.6257986490057629
 40
0.629589692348222
 40
0.632986548226975
 40
0.6381033527014979
 40
0.642774574308383
 40
0.6476708477196351
 40
0.6507994750765412
 40
0.6541412216428267
 40
0.6579449288735435
 40
0.6622641083770224
 40
0.666090211753757
 40
0.6701669503974933
 40
0.6744440018771587
 40
0.6788216370097008
 40
0.6826990653393603
 40
0.685920974460761
 40
0.6885619861415082
 40
0.6909310721954404
 40
0.6935681449942778
 40
0.6960600668190892
 40
0.6987560279739403
 40
0.7014102658452436
 40
0.703130561950419
 40
0.704633473490349
 40
0.7059742979832476
 40
0.7075771052739388
 40
0.7095634988667308
 40
0.7118084734935513
 40
0.7136808291493684
 40
0.7151565539888969
 40
0.716809998712723
 40
0.7190142367465179
 40
0.7217512712514539
 40
0.7237562729546345
 40
0.7254277051006274
 40
0.7267720053670579
 40
0.7284775438785294
 40
0.7302719804713241
 40
0.7325532972318535
 40
0.7356277565604812
 40
0.7384003984204703
 40
0.7405588446491385
 40
0.7422523764531815
 40
0.7438980689153486
 40
0.7455593405099963
 40
0.7475618398761255
 40
0.7499748126617104
 40
0.7524531922304462
 40
0.7554506510229987
 40
0.7581140435277142
 40
0.7603881740004547
 40
0.7626005931272001
 40
0.7649672117265566
 40
0.7679888364321252
 40
0.7714206138997706
 40
0.7755469454775901
 40
0.7790422107460705
 40
0.7822444887845018
 40
0.7856629969142265
 40
0.7897357670733895
 40
0.7941917278497966
 40
0.7983478574623396
 40
0.8020251496641786
 40
0.8054935108953579
 40
0.8090121177991112
 40
0.8124791919193596
 40
0.8167637850862085
 40
0.8216516022833935
 40
0.8267263292525753
 40
0.8314611279646223
 40
0.835841771435594
 40
0.8399591126141686
 40
0.844263022427827
 40
0.8480828029798019
 40
0.8519315694795858
 40
0.8558355959876097
 40
0.859859810246264
 40
0.8618932729594613
 40
0.863770269401897
 40
0.8651857091094679
 40
0.8665230296927467
 40
0.8683635835478096
 40
0.8706041041753089
 40
0.8725721519018632
 40
0.8741594541763122
 40
0.8769953075341238
 40
0.8803867390080832
 40
0.8838956872803101
 40
0.8875028121692404
 40
0.891169057373435
 40
0.8980295543928516
 40
0.904407112301095
 40
0.9092307505146656
 40
0.9143832185204123
 40
0.9198704966162191
 40
0.9256976411920816
 40
0.9318685411210451
 40
0.938233553879498
 40
0.9447570813218743
 40
0.9505423093748934
 40
0.9555941988578459
 40
0.9582302458277187
 40
0.9608977380140808
 40
0.9640311136800648
 40
0.9676409748348377
 40
0.9706964138949359
 40
0.973827951329943
 40
0.9765461736391474
 40
0.9788292432067875
 40
0.9806861678648116
 40
0.9823812980665856
 40
0.9842413137933489
 40
0.9863444791335102
 40
0.9879999629313421
 40
0.9893787204880112
 40
0.9903564524749134
 40
0.9914528573097537
 40
0.99293431440858
 40
0.9948507501640329
 40
0.9972060473928496
 40
1.0
 40
1.0
 40
1.0
 40
1.0
 10
108.1287735884391
 20
-209.4215041575482
 30
0.0
 10
109.1848048288089
 20
-208.8178353369709
 30
0.0
 10
111.0723028941264
 20
-207.7388675116125
 30
0.0
 10
113.58524073884
 20
-206.2712503404474
 30
0.0
 10
115.4280852588677
 20
-205.1827272929988
 30
0.0
 10
117.9633652875399
 20
-203.6719799711088
 30
0.0
 10
121.8052758257545
 20
-201.3458288286826
 30
0.0
 10
126.814223428305
 20
-198.2258409508186
 30
0.0
 10
131.9830294540307
 20
-194.9139883557052
 30
0.0
 10
136.9636185330615
 20
-191.6386279654193
 30
0.0
 10
141.8419750329478
 20
-188.3376101783139
 30
0.0
 10
146.6193958675774
 20
-185.0187734100921
 30
0.0
 10
151.3215415639855
 20
-181.6717662352582
 30
0.0
 10
156.3082134373755
 20
-178.0232575683881
 30
0.0
 10
161.4452061096489
 20
-174.1554821603918
 30
0.0
 10
165.7737579322727
 20
-170.80077896482
 30
0.0
 10
169.2176158904453
 20
-168.068668051333
 30
0.0
 10
171.6830384011927
 20
-166.0826951735473
 30
0.0
 10
173.9762862678658
 20
-164.2101672287394
 30
0.0
 10
176.1300488474179
 20
-162.4272339433122
 30
0.0
 10
178.2843836362677
 20
-160.6206468035559
 30
0.0
 10
180.5447993384782
 20
-158.7008086916943
 30
0.0
 10
183.1878073863601
 20
-156.4217276048137
 30
0.0
 10
186.1388933401971
 20
-153.8307522521346
 30
0.0
 10
188.9504416574699
 20
-151.3125664465326
 30
0.0
 10
191.3013074824468
 20
-149.1693850354507
 30
0.0
 10
193.4102713132123
 20
-147.2214777935602
 30
0.0
 10
195.6862086536723
 20
-145.0900807812483
 30
0.0
 10
198.3573224762635
 20
-142.5439562429089
 30
0.0
 10
200.9040274569817
 20
-140.068221407757
 30
0.0
 10
203.1169131090176
 20
-137.8789538483083
 30
0.0
 10
204.8693856869571
 20
-136.1208893654126
 30
0.0
 10
206.1209385230262
 20
-134.8506557835489
 30
0.0
 10
207.0524363610661
 20
-133.8979974046183
 30
0.0
 10
208.0799986183575
 20
-132.8413236329959
 30
0.0
 10
209.5775028795392
 20
-131.2825465503078
 30
0.0
 10
211.3080045432773
 20
-129.4311618377282
 30
0.0
 10
213.0291827353153
 20
-127.529791805309
 30
0.0
 10
214.8611778928378
 20
-125.4388092959411
 30
0.0
 10
216.6797017650635
 20
-123.2716741369989
 30
0.0
 10
218.5644654896
 20
-120.8978348134468
 30
0.0
 10
220.6744704874016
 20
-118.1219053997647
 30
0.0
 10
223.0063038447276
 20
-114.8708308699403
 30
0.0
 10
225.369169190412
 20
-111.3551429872916
 30
0.0
 10
227.4695868635006
 20
-107.991417744718
 30
0.0
 10
229.1527131028006
 20
-105.0059602357665
 30
0.0
 10
230.8688137742359
 20
-101.7605919780077
 30
0.0
 10
232.7875667353374
 20
-97.82618847389446
 30
0.0
 10
234.9527281882752
 20
-92.8468102729971
 30
0.0
 10
237.0798639866834
 20
-87.24053258870542
 30
0.0
 10
239.0013117138056
 20
-81.23954620456405
 30
0.0
 10
240.5651088725875
 20
-75.28208526520174
 30
0.0
 10
241.7205936401006
 20
-69.81618311889598
 30
0.0
 10
242.6439518645263
 20
-64.29521020071206
 30
0.0
 10
243.3549741269129
 20
-58.42827738419174
 30
0.0
 10
243.8083868489291
 20
-51.91818155446519
 30
0.0
 10
243.9214883623197
 20
-45.23203428894534
 30
0.0
 10
243.6809505106279
 20
-38.59937200414064
 30
0.0
 10
243.1231789640149
 20
-32.2387665165292
 30
0.0
 10
242.271713001952
 20
-25.99535476033418
 30
0.0
 10
241.0737914621356
 20
-19.55651066949617
 30
0.0
 10
239.400499232783
 20
-12.61000211104503
 30
0.0
 10
237.3562432081358
 20
-5.848572213077039
 30
0.0
 10
234.9997170737722
 20
0.658668471991003
 30
0.0
 10
232.4134998833093
 20
6.831249637466508
 30
0.0
 10
229.7623198631367
 20
12.32826465247286
 30
0.0
 10
227.2017137950802
 20
17.08855913978555
 30
0.0
 10
224.9250219678143
 20
20.99453558310123
 30
0.0
 10
222.5933109021394
 20
24.69499371103009
 30
0.0
 10
220.4450200947909
 20
27.87290139710657
 30
0.0
 10
218.5975643789693
 20
30.45674428359783
 30
0.0
 10
217.0682450496657
 20
32.50412223716544
 30
0.0
 10
215.7646231864861
 20
34.18673180632444
 30
0.0
 10
214.7054271205198
 20
35.51403299214407
 30
0.0
 10
213.8297517844216
 20
36.58669936592938
 30
0.0
 10
212.8769358070108
 20
37.73220930872372
 30
0.0
 10
211.5892658012669
 20
39.24310114222023
 30
0.0
 10
209.768246980064
 20
41.30431943567091
 30
0.0
 10
207.5284706869158
 20
43.72390240472586
 30
0.0
 10
205.0445026911484
 20
46.26855654472163
 30
0.0
 10
201.7766259853717
 20
49.4431994798701
 30
0.0
 10
197.8131672625114
 20
53.02013549143929
 30
0.0
 10
193.5099972026322
 20
56.56067255505153
 30
0.0
 10
189.5789345618248
 20
59.56022548730382
 30
0.0
 10
185.763439961397
 20
62.28633783237632
 30
0.0
 10
181.3621836704174
 20
65.20318463692597
 30
0.0
 10
176.3102252023764
 20
68.27515090423701
 30
0.0
 10
170.8794515049031
 20
71.26715731361703
 30
0.0
 10
165.1147587405931
 20
74.14464337763032
 30
0.0
 10
159.093298538412
 20
76.86961927256709
 30
0.0
 10
152.7993485176933
 20
79.43432798075722
 30
0.0
 10
146.6217208267017
 20
81.70071909597614
 30
0.0
 10
140.9881578804951
 20
83.5762748078475
 30
0.0
 10
136.0183985536527
 20
85.09358255848464
 30
0.0
 10
131.7487465920886
 20
86.30193273873986
 30
0.0
 10
128.1708346151947
 20
87.25045125754632
 30
0.0
 10
124.7260045901296
 20
88.11540286762799
 30
0.0
 10
121.2205066874699
 20
88.94604153768775
 30
0.0
 10
117.1841681384275
 20
89.84069227680281
 30
0.0
 10
112.6355015733631
 20
90.7775633531414
 30
0.0
 10
107.1826583127455
 20
91.80260335315985
 30
0.0
 10
100.7008678112183
 20
92.88847672607363
 30
0.0
 10
93.27694112242712
 20
93.96470587278415
 30
0.0
 10
84.91005275126963
 20
94.978767504293
 30
0.0
 10
75.80945865731947
 20
95.85738256374697
 30
0.0
 10
66.30746474166139
 20
96.53796056433721
 30
0.0
 10
56.85664551358651
 20
96.99240758273663
 30
0.0
 10
47.71351739843606
 20
97.23522167780229
 30
0.0
 10
38.90074097096695
 20
97.29512598837258
 30
0.0
 10
29.46164106291565
 20
97.1875305958838
 30
0.0
 10
19.51748467302286
 20
96.87765820629555
 30
0.0
 10
9.198959517360313
 20
96.3418594402682
 30
0.0
 10
-0.3890151032459738
 20
95.66462837076818
 30
0.0
 10
-9.650834003524789
 20
94.85393228454524
 30
0.0
 10
-19.10356319189751
 20
93.87168364581343
 30
0.0
 10
-29.24632941750938
 20
92.64235639795427
 30
0.0
 10
-40.16181643649158
 20
91.11734741467974
 30
0.0
 10
-51.81294806965669
 20
89.25917606469173
 30
0.0
 10
-63.19446659360356
 20
87.20344525231775
 30
0.0
 10
-74.17717725385157
 20
84.99923607511954
 30
0.0
 10
-84.42164823418977
 20
82.75017412969336
 30
0.0
 10
-94.3980443432835
 20
80.3664905524014
 30
0.0
 10
-103.7536907984492
 20
77.95255068255278
 30
0.0
 10
-112.239459730474
 20
75.60614842258089
 30
0.0
 10
-119.8999914872626
 20
73.35405218488565
 30
0.0
 10
-126.7824299761394
 20
71.21730663305723
 30
0.0
 10
-133.061544500586
 20
69.16764612051139
 30
0.0
 10
-138.9400909273121
 20
67.15816269462192
 30
0.0
 10
-144.7747981576252
 20
65.07286403553651
 30
0.0
 10
-150.5588340429475
 20
62.90570447011047
 30
0.0
 10
-156.3872341795691
 20
60.61421171779917
 30
0.0
 10
-162.1934900662011
 20
58.21767803935938
 30
0.0
 10
-168.2059836012246
 20
55.60120239759796
 30
0.0
 10
-174.3744383515057
 20
52.75759595064751
 30
0.0
 10
-180.6393250595983
 20
49.68107004902004
 30
0.0
 10
-186.8982101211145
 20
46.38944899727463
 30
0.0
 10
-192.9848163298779
 20
42.94541992282385
 30
0.0
 10
-198.5202702250362
 20
39.56501670525905
 30
0.0
 10
-203.2571723332222
 20
36.4520420240257
 30
0.0
 10
-207.0761196441158
 20
33.77297941431571
 30
0.0
 10
-209.8102854324053
 20
31.74345501045099
 30
0.0
 10
-211.7010501569346
 20
30.28303904100201
 30
0.0
 10
-212.9852470938721
 20
29.26556106294349
 30
0.0
 10
-214.283613780832
 20
28.21329241261099
 30
0.0
 10
-215.827341254717
 20
26.92862736243344
 30
0.0
 10
-217.6267199296754
 20
25.37581898871775
 30
0.0
 10
-219.6230574037309
 20
23.5780997271776
 30
0.0
 10
-221.6924603443736
 20
21.6232822188626
 30
0.0
 10
-223.7621366978474
 20
19.55770839801697
 30
0.0
 10
-225.6938197107732
 20
17.51605955081015
 30
0.0
 10
-227.4205381115841
 20
15.58528914485764
 30
0.0
 10
-229.2152220311908
 20
13.4648807429044
 30
0.0
 10
-230.9951808448554
 20
11.21393666509034
 30
0.0
 10
-232.7075454211582
 20
8.868654380677285
 30
0.0
 10
-234.4179867443717
 20
6.342187958364234
 30
0.0
 10
-236.0923470998736
 20
3.619581725227819
 30
0.0
 10
-237.757364028528
 20
0.5637963267479118
 30
0.0
 10
-239.0287741570333
 20
-2.099690098036802
 30
0.0
 10
-240.0394951293144
 20
-4.497763425242621
 30
0.0
 10
-240.8600842282577
 20
-6.674829650913303
 30
0.0
 10
-241.6610207489333
 20
-9.115182391313633
 30
0.0
 10
-242.3595496910302
 20
-11.6701495850981
 30
0.0
 10
-242.934230405402
 20
-14.29361635770283
 30
0.0
 10
-243.3723157103643
 20
-16.91997422684815
 30
0.0
 10
-243.6812399937949
 20
-19.67875859387261
 30
0.0
 10
-243.8327248380273
 20
-22.40806420052055
 30
0.0
 10
-243.8376786526993
 20
-24.91313981024323
 30
0.0
 10
-243.7443799068598
 20
-27.04317745245158
 30
0.0
 10
-243.5976475317572
 20
-28.84389624235661
 30
0.0
 10
-243.4074504806318
 20
-30.51901530720673
 30
0.0
 10
-243.1668562033389
 20
-32.17019450836664
 30
0.0
 10
-242.8574321650587
 20
-33.9047486422858
 30
0.0
 10
-242.4883130568716
 20
-35.63128288288249
 30
0.0
 10
-242.0977183321276
 20
-37.25495311622919
 30
0.0
 10
-241.6106617915578
 20
-38.86899814088123
 30
0.0
 10
-241.1440156326752
 20
-40.29103918698748
 30
0.0
 10
-240.5682684871926
 20
-41.93731578502022
 30
0.0
 10
-239.8998892814779
 20
-43.79562981781447
 30
0.0
 10
-239.0797054662983
 20
-46.01021401708087
 30
0.0
 10
-238.1948074499226
 20
-48.32219380421354
 30
0.0
 10
-237.2667891940287
 20
-50.66661897289912
 30
0.0
 10
-236.3131007364404
 20
-53.02539957882477
 30
0.0
 10
-235.2516507791048
 20
-55.61179356855686
 30
0.0
 10
-233.9301436192179
 20
-58.77429189859974
 30
0.0
 10
-232.5072084128532
 20
-62.10212785476654
 30
0.0
 10
-231.1699867071661
 20
-65.16079777723176
 30
0.0
 10
-230.1079933296895
 20
-67.5485448870545
 30
0.0
 10
-229.0975771167817
 20
-69.78847608803096
 30
0.0
 10
-228.0485633047496
 20
-72.0810097092973
 30
0.0
 10
-226.7800447649195
 20
-74.80821591577805
 30
0.0
 10
-225.1866319570439
 20
-78.16926776605068
 30
0.0
 10
-223.3387460910309
 20
-81.97075483046497
 30
0.0
 10
-221.4797269485022
 20
-85.69192382350974
 30
0.0
 10
-219.9137842475456
 20
-88.75488258685235
 30
0.0
 10
-218.595681355385
 20
-91.28691892332117
 30
0.0
 10
-217.3824511813642
 20
-93.58125782146557
 30
0.0
 10
-216.0790616882249
 20
-96.00809534096335
 30
0.0
 10
-214.5676215792427
 20
-98.7742090048784
 30
0.0
 10
-212.8266797123606
 20
-101.8948051474758
 30
0.0
 10
-210.8011806195865
 20
-105.4427713913011
 30
0.0
 10
-208.6722692452643
 20
-109.0768462598527
 30
0.0
 10
-206.5574308421715
 20
-112.591521621816
 30
0.0
 10
-204.6205672355759
 20
-115.7359022059875
 30
0.0
 10
-202.7365859907223
 20
-118.7298366318017
 30
0.0
 10
-200.616215529701
 20
-122.0265574841891
 30
0.0
 10
-198.1126859421999
 20
-125.8198117015734
 30
0.0
 10
-195.0498072573457
 20
-130.3185998340311
 30
0.0
 10
-191.7873675065839
 20
-134.9391465962475
 30
0.0
 10
-188.505364555222
 20
-139.4184564176507
 30
0.0
 10
-185.3727599600728
 20
-143.5549951882897
 30
0.0
 10
-182.0089982530255
 20
-147.8532805073135
 30
0.0
 10
-178.1705634461401
 20
-152.5781408710272
 30
0.0
 10
-173.9988580802072
 20
-157.4962933296514
 30
0.0
 10
-169.883486480095
 20
-162.1389942146492
 30
0.0
 10
-166.0101628065969
 20
-166.3347991205926
 30
0.0
 10
-162.2766086093272
 20
-170.2285281885074
 30
0.0
 10
-158.5736383042558
 20
-173.9479096502542
 30
0.0
 10
-154.5124969955646
 20
-177.8748748474573
 30
0.0
 10
-149.880651064062
 20
-182.1649569427674
 30
0.0
 10
-144.5568382732913
 20
-186.8456050902003
 30
0.0
 10
-138.9522296199485
 20
-191.4936657707636
 30
0.0
 10
-133.4395058209707
 20
-195.8017898149685
 30
0.0
 10
-128.2147539391401
 20
-199.6583188412312
 30
0.0
 10
-123.086065866542
 20
-203.2409744715615
 30
0.0
 10
-118.1130884551218
 20
-206.5235020540487
 30
0.0
 10
-113.1884764708617
 20
-209.5941909407441
 30
0.0
 10
-108.3790879639662
 20
-212.430684033992
 30
0.0
 10
-103.4083939362779
 20
-215.1940660716882
 30
0.0
 10
-99.1704260902562
 20
-217.4103459741877
 30
0.0
 10
-95.58453193237698
 20
-219.1929795551584
 30
0.0
 10
-93.12669118819746
 20
-220.3713987593104
 30
0.0
 10
-90.94196263010065
 20
-221.3868678899601
 30
0.0
 10
-88.76071875925471
 20
-222.3640030545431
 30
0.0
 10
-86.18271335193911
 20
-223.4670230632616
 30
0.0
 10
-83.28346054958656
 20
-224.6391565754162
 30
0.0
 10
-80.48572435064067
 20
-225.7049458822412
 30
0.0
 10
-77.40035733726802
 20
-226.8225984538375
 30
0.0
 10
-73.61704904848344
 20
-228.1088502618459
 30
0.0
 10
-68.8298807037704
 20
-229.5943673968097
 30
0.0
 10
-63.60509086776953
 20
-231.0529764278953
 30
0.0
 10
-58.21574285584387
 20
-232.3953348954015
 30
0.0
 10
-51.11776602634743
 20
-233.9580340474763
 30
0.0
 10
-42.51872817682617
 20
-235.5103721449153
 30
0.0
 10
-33.23853246564732
 20
-236.7565320792459
 30
0.0
 10
-24.7887358977223
 20
-237.5785598422312
 30
0.0
 10
-16.76793278141146
 20
-238.1036609441718
 30
0.0
 10
-8.20124806582309
 20
-238.3817882290827
 30
0.0
 10
0.908059034252881
 20
-238.3638713102868
 30
0.0
 10
10.4673722027289
 20
-237.9990338011275
 30
0.0
 10
20.35299120150007
 20
-237.246360045372
 30
0.0
 10
29.9674983585673
 20
-236.1320002858062
 30
0.0
 10
38.81601019309056
 20
-234.7578824239448
 30
0.0
 10
45.6126882600043
 20
-233.4560543230715
 30
0.0
 10
50.79519226234908
 20
-232.3238781828412
 30
0.0
 10
55.00562327176029
 20
-231.3230886694737
 30
0.0
 10
59.68633540430465
 20
-230.1086038944975
 30
0.0
 10
64.51981412222288
 20
-228.727066873817
 30
0.0
 10
69.30129745461602
 20
-227.229567180026
 30
0.0
 10
73.59665233190945
 20
-225.7699839504543
 30
0.0
 10
77.47971155895944
 20
-224.3477073425966
 30
0.0
 10
80.73713535851557
 20
-223.0769664312516
 30
0.0
 10
83.48793310246138
 20
-221.9471084941558
 30
0.0
 10
86.02219294938146
 20
-220.8597636919905
 30
0.0
 10
88.66751482642047
 20
-219.6743683221787
 30
0.0
 10
91.26840301686437
 20
-218.450818586295
 30
0.0
 10
93.65793613780667
 20
-217.2753327739873
 30
0.0
 10
95.5269138750208
 20
-216.3136175087732
 30
0.0
 10
97.07279986450577
 20
-215.5004346887548
 30
0.0
 10
98.59346814961725
 20
-214.6912307861838
 30
0.0
 10
100.3820937499165
 20
-213.7275263849066
 30
0.0
 10
102.5878174500398
 20
-212.5236369311545
 30
0.0
 10
105.2244007481078
 20
-211.0645521856509
 30
0.0
 10
107.1071856171528
 20
-209.9994320593818
 30
0.0
 10
108.1287735884391
 20
-209.4215041575481
 30
0.0
  0
SPLINE
  5
98
330
91
100
AcDbEntity
  8
0
  6
Continuous
 62
     7
370
    25
100
AcDbSpline
210
0.0
220
0.0
230
1.0
 70
     8
 71
     3
 72
    25
 73
    21
 74
     0
 42
0.000000001
 43
0.00000001
 40
0.0
 40
0.0
 40
0.0
 40
0.0
 40
0.0439662042872927
 40
0.1036868335804489
 40
0.1634074628736054
 40
0.2229893370512852
 40
0.2820540389114532
 40
0.3401814739381549
 40
0.3976257869146436
 40
0.4550700998911326
 40
0.5131975349178343
 40
0.5722622367780023
 40
0.631844110955682
 40
0.6915647402488382
 40
0.7512853695419948
 40
0.8108672437196746
 40
0.8699319455798425
 40
0.9280593806065442
 40
0.985503693583033
 40
1.0
 40
1.0
 40
1.0
 40
1.0
 10
-30.47910452355922
 20
-151.8744638105112
 30
0.0
 10
-29.80299775656175
 20
-151.1857973967756
 30
0.0
 10
-28.20851465371764
 20
-149.5616944979478
 30
0.0
 10
-24.84471317107686
 20
-147.3286239149904
 30
0.0
 10
-20.58404850283468
 20
-145.2377685843044
 30
0.0
 10
-15.80525762560269
 20
-143.576338090666
 30
0.0
 10
-10.69942913787952
 20
-142.3584334969436
 30
0.0
 10
-5.392873087597026
 20
-141.6157809380571
 30
0.0
 10
-0.0000203245426669
 20
-141.367904407618
 30
0.0
 10
5.392954869163012
 20
-141.615757172049
 30
0.0
 10
10.69913724846654
 20
-142.3585305296933
 30
0.0
 10
15.80636486503421
 20
-143.5759664361897
 30
0.0
 10
20.57987561503036
 20
-145.2391702178018
 30
0.0
 10
24.86032142410254
 20
-147.3233809916957
 30
0.0
 10
28.47178124741716
 20
-149.7946386066502
 30
0.0
 10
31.34879086271776
 20
-152.550134103265
 30
0.0
 10
33.47258703539553
 20
-155.4990323124966
 30
0.0
 10
34.70478438594832
 20
-158.5602260875852
 30
0.0
 10
35.17811842541727
 20
-160.9062277486377
 30
0.0
 10
34.96925459925433
 20
-162.194722474832
 30
0.0
 10
34.92716774972474
 20
-162.454359026825
 30
0.0
  0
SPLINE
  5
99
330
91
100
AcDbEntity
  8
0
  6
Continuous
 62
     7
370
    25
100
AcDbSpline
210
0.0
220
0.0
230
1.0
 70
     8
 71
     3
 72
    14
 73
    10
 74
     0
 42
0.000000001
 43
0.00000001
 40
0.0
 40
0.0
 40
0.0
 40
0.0
 40
0.0461308057128672
 40
0.2091787818628911
 40
0.3769561691719542
 40
0.539988314114745
 40
0.707745245104541
 40
0.8708104717162088
 40
1.0
 40
1.0
 40
1.0
 40
1.0
 10
-5.579345403003264
 20
-156.8734217177848
 30
0.0
 10
-5.233411479849241
 20
-156.8131377226852
 30
0.0
 10
-3.664784278737374
 20
-156.5397817197734
 30
0.0
 10
-0.6847979010364356
 20
-156.4155149147983
 30
0.0
 10
3.189660373065742
 20
-156.5093131118749
 30
0.0
 10
7.025776354045917
 20
-156.9957546117855
 30
0.0
 10
10.61089996239325
 20
-157.8469295906427
 30
0.0
 10
13.72066331147568
 20
-158.9455594737044
 30
0.0
 10
15.38448582855369
 20
-159.8621801905991
 30
0.0
 10
16.11996897306625
 20
-160.2673670902037
 30
0.0
  0
VIEWPORT
  5
B2
330
91
100
AcDbEntity
  8
0
100
AcDbViewport
 10
0.0
 20
0.0
 30
0.0
 40
205.6
 41
156.0
 68
     1
 69
     1
 12
-0.094292368
 22
0.0002339166
 13
0.0
 23
0.0
 14
10.0
 24
10.0
 15
10.0
 25
10.0
 16
0.0
 26
0.0
 36
1.0
 17
0.0
 27
0.0
 37
0.0
 42
50.0
 43
0.0
 44
0.0
 45
509.5934823535
 50
0.0
 51
0.0
 72
   100
 90
   557152
  1

281
     0
 71
     1
 74
     0
110
0.0
120
0.0
130
0.0
111
1.0
121
0.0
131
0.0
112
0.0
122
1.0
132
0.0
 79
     0
146
0.0
  0
ENDBLK
  5
94
330
91
100
AcDbEntity
  8
0
100
AcDbBlockEnd
  0
BLOCK
  5
9C
330
9A
100
AcDbEntity
  8
0
100
AcDbBlockBegin
  2
*Paper_Space6
 70
     0
 10
0.0
 20
0.0
 30
0.0
  3
*Paper_Space6
  1

  0
SPLINE
  5
9E
330
9A
100
AcDbEntity
  8
0
  6
Continuous
 62
     7
370
    25
100
AcDbSpline
210
0.0
220
0.0
230
1.0
 70
     8
 71
     3
 72
   101
 73
    97
 74
     0
 42
0.000000001
 43
0.00000001
 40
0.0
 40
0.0
 40
0.0
 40
0.0
 40
0.0034218547702269
 40
0.0082196225826818
 40
0.0127917093949175
 40
0.0174875223331263
 40
0.0355141755737765
 40
0.0547428964868512
 40
0.0743893073933133
 40
0.0942137771522518
 40
0.1138867525059324
 40
0.1230137416036576
 40
0.1298145122710103
 40
0.1345651508842522
 40
0.1397810460272703
 40
0.1463684924912582
 40
0.1541131210293308
 40
0.1630239415812461
 40
0.1767764272863877
 40
0.1920379281627237
 40
0.2085673284090184
 40
0.2263689784251857
 40
0.2386109901692572
 40
0.2513890440509037
 40
0.2647010071772317
 40
0.2785434259730535
 40
0.2928954264743342
 40
0.3065052051560784
 40
0.3185855102507269
 40
0.3307435859295369
 40
0.3408174525829972
 40
0.3488092831557104
 40
0.3534388088120392
 40
0.3569010404996089
 40
0.3591997575584134
 40
0.3599165660306631
 40
0.3603523308463057
 40
0.3609804626384707
 40
0.3620869658715932
 40
0.3641133149570813
 40
0.3669673037353854
 40
0.3720653769222672
 40
0.3786428482616361
 40
0.3866985900344788
 40
0.398311112953905
 40
0.4120349064107859
 40
0.4278519039264585
 40
0.4454281505006344
 40
0.462654560291352
 40
0.4831445518740674
 40
0.5024831764879869
 40
0.5206821795928769
 40
0.5377566360040764
 40
0.553723512411364
 40
0.5686003847501714
 40
0.5825256019796361
 40
0.5970720481673987
 40
0.6127167119773506
 40
0.6294629413901245
 40
0.6473247484109956
 40
0.6663300415885957
 40
0.6796544438285845
 40
0.6935141147996784
 40
0.7069342047581574
 40
0.718521659454307
 40
0.7282558989571706
 40
0.7361257229413967
 40
0.7408130102662268
 40
0.7445642379053619
 40
0.7489493570688361
 40
0.7544340963217654
 40
0.7610162474644857
 40
0.7751155668433843
 40
0.7897969326829981
 40
0.8080410261445593
 40
0.8274313478063839
 40
0.848146750444315
 40
0.8620158111143102
 40
0.8758329449145156
 40
0.8880797137979275
 40
0.8986724104160329
 40
0.9081051735186454
 40
0.9182546335404764
 40
0.9255945771306876
 40
0.9333619183135962
 40
0.9416167950949499
 40
0.9503610167315839
 40
0.9595927891973203
 40
0.9691347043626949
 40
0.9772893725005299
 40
0.9816972476073009
 40
0.9853112352107065
 40
0.9884248120712763
 40
0.9946174718333683
 40
0.9984337462775214
 40
1.0
 40
1.0
 40
1.0
 40
1.0
 10
201.5916833890955
 20
-113.9396646829319
 30
0.0
 10
201.560206258386
 20
-113.925146245494
 30
0.0
 10
201.4845951784917
 20
-113.8902715695526
 30
0.0
 10
200.9092845753859
 20
-114.329323748002
 30
0.0
 10
199.7383472927832
 20
-115.178845226457
 30
0.0
 10
197.5586678085538
 20
-116.6903600541026
 30
0.0
 10
193.8048840656559
 20
-119.0411327161935
 30
0.0
 10
188.1347027703839
 20
-122.0272975214129
 30
0.0
 10
181.6746401896234
 20
-124.8891662125841
 30
0.0
 10
174.6167627363091
 20
-127.5135964739447
 30
0.0
 10
168.4224358885692
 20
-129.4467713158239
 30
0.0
 10
163.6943347615538
 20
-130.7434111263188
 30
0.0
 10
160.8915688942566
 20
-131.4579176215614
 30
0.0
 10
158.5767582130273
 20
-132.0170897483906
 30
0.0
 10
156.257434288637
 20
-132.5514260079977
 30
0.0
 10
153.4797455180374
 20
-133.1558600699677
 30
0.0
 10
150.1244808854692
 20
-133.8361108816052
 30
0.0
 10
145.6590459882487
 20
-134.6679417693164
 30
0.0
 10
139.9764200136335
 20
-135.6067050679857
 30
0.0
 10
132.9400303898235
 20
-136.5931524673288
 30
0.0
 10
125.0490537564103
 20
-137.4994687056931
 30
0.0
 10
117.434056569472
 20
-138.1826816504993
 30
0.0
 10
110.2868013819354
 20
-138.6794381289715
 30
0.0
 10
103.7880587494987
 20
-139.0283487433213
 30
0.0
 10
96.91666378931382
 20
-139.2903782866619
 30
0.0
 10
89.67422696818147
 20
-139.4557408973717
 30
0.0
 10
82.27972825910331
 20
-139.5141597081315
 30
0.0
 10
75.12322446114393
 20
-139.4680936617929
 30
0.0
 10
68.30632312019284
 20
-139.3364548359283
 30
0.0
 10
62.08594982210627
 20
-139.1426545490163
 30
0.0
 10
56.58153660061739
 20
-138.9116182839721
 30
0.0
 10
52.44036657699827
 20
-138.70055042463
 30
0.0
 10
49.50929211502184
 20
-138.5310231868699
 30
0.0
 10
47.62683945740992
 20
-138.4122858217029
 30
0.0
 10
46.46416293358037
 20
-138.3327285907178
 30
0.0
 10
45.86795135065909
 20
-138.2876892741071
 30
0.0
 10
45.57782006582286
 20
-138.2624173578599
 30
0.0
 10
45.35060003267047
 20
-138.2307951114735
 30
0.0
 10
44.64604391119593
 20
-138.1837768514398
 30
0.0
 10
43.61740323436564
 20
-138.1081723643529
 30
0.0
 10
41.79753028164236
 20
-137.9819153294104
 30
0.0
 10
39.14945937551922
 20
-137.7903858758417
 30
0.0
 10
35.50605528401264
 20
-137.5135681544271
 30
0.0
 10
30.6319754337163
 20
-137.1158111966639
 30
0.0
 10
24.38581451555818
 20
-136.5591171243099
 30
0.0
 10
16.63821939439769
 20
-135.7934951287539
 30
0.0
 10
7.715325114521055
 20
-134.8129169854536
 30
0.0
 10
-1.918449901117961
 20
-133.6363515466573
 30
0.0
 10
-12.47305266824909
 20
-132.2151790464842
 30
0.0
 10
-23.38513293203953
 20
-130.6004724158887
 30
0.0
 10
-34.48187058716974
 20
-128.8044411546524
 30
0.0
 10
-44.90322064911545
 20
-126.9823440727208
 30
0.0
 10
-54.64157332673991
 20
-125.1608297489435
 30
0.0
 10
-63.69618971234468
 20
-123.3632243483552
 30
0.0
 10
-72.09254215902004
 20
-121.6053904114775
 30
0.0
 10
-80.15504577247337
 20
-119.8352640174541
 30
0.0
 10
-88.25360368706018
 20
-117.9723222602078
 30
0.0
 10
-96.72294255451993
 20
-115.9266826048069
 30
0.0
 10
-105.5922861661361
 20
-113.6715503198505
 30
0.0
 10
-114.7897631758095
 20
-111.2031505878614
 30
0.0
 10
-123.0981529143822
 20
-108.8419512107846
 30
0.0
 10
-130.4817980317304
 20
-106.6346091609272
 30
0.0
 10
-136.7715603568458
 20
-104.6716469973148
 30
0.0
 10
-142.5980248432246
 20
-102.772177170161
 30
0.0
 10
-147.6515315145791
 20
-101.056320282407
 30
0.0
 10
-151.7835212588981
 20
-99.60294079367283
 30
0.0
 10
-154.8663405142369
 20
-98.48603445587223
 30
0.0
 10
-157.0830912941291
 20
-97.6655663018118
 30
0.0
 10
-158.8059803098318
 20
-97.01857811130333
 30
0.0
 10
-160.6102476051776
 20
-96.33144080482104
 30
0.0
 10
-162.7558902045958
 20
-95.50016742035609
 30
0.0
 10
-166.1062043676635
 20
-94.17441309509134
 30
0.0
 10
-170.4865745428685
 20
-92.37590015779958
 30
0.0
 10
-176.0339210303919
 20
-89.97560010851777
 30
0.0
 10
-181.8620655567577
 20
-87.29200353501169
 30
0.0
 10
-187.8968227725289
 20
-84.29940269662531
 30
0.0
 10
-193.021045204056
 20
-81.53821229044938
 30
0.0
 10
-197.269550035991
 20
-79.06909019585177
 30
0.0
 10
-200.549353248027
 20
-77.03675204960112
 30
0.0
 10
-203.3627112706253
 20
-75.17902845258888
 30
0.0
 10
-205.6809470534029
 20
-73.55582700055439
 30
0.0
 10
-207.7053121230665
 20
-72.0602182999475
 30
0.0
 10
-209.3851384242761
 20
-70.7496129341935
 30
0.0
 10
-210.8632545003765
 20
-69.53671353367544
 30
0.0
 10
-212.1536267449405
 20
-68.42844155574724
 30
0.0
 10
-213.4335786380067
 20
-67.27231529110267
 30
0.0
 10
-214.6949358975838
 20
-66.06724414383936
 30
0.0
 10
-215.9164547006023
 20
-64.82442065617914
 30
0.0
 10
-217.0105127922475
 20
-63.63018002860381
 30
0.0
 10
-217.8336569113575
 20
-62.6650723969196
 30
0.0
 10
-218.3947351656271
 20
-61.97005861505893
 30
0.0
 10
-218.7602814496399
 20
-61.50111430312835
 30
0.0
 10
-219.1643633497184
 20
-60.96312823510517
 30
0.0
 10
-219.4509104835999
 20
-60.57506956115954
 30
0.0
 10
-219.7920949034032
 20
-60.06723568449878
 30
0.0
 10
-219.772329474954
 20
-60.11551480140199
 30
0.0
 10
-219.766577962853
 20
-60.12956346853882
 30
0.0
  0
SPLINE
  5
9F
330
9A
100
AcDbEntity
  8
0
  6
Continuous
 62
     7
370
    25
100
AcDbSpline
210
0.0
220
0.0
230
1.0
 70
    11
 71
     3
 72
   270
 73
   266
 74
     0
 42
0.000000001
 43
0.00000001
 40
0.0
 40
0.0
 40
0.0
 40
0.0
 40
0.0038275863881171
 40
0.0070560241717618
 40
0.0096863322534228
 40
0.0118852633292662
 40
0.0134590227633616
 40
0.0149152742100006
 40
0.0163291880167942
 40
0.017700803310259
 40
0.0190301535571405
 40
0.0222187250299883
 40
0.0257300161982018
 40
0.0294944425550553
 40
0.0330198001294896
 40
0.0347348948531349
 40
0.0363593841691933
 40
0.0378852450581726
 40
0.0396021186045544
 40
0.0415511337334254
 40
0.0437813344212156
 40
0.0457525820000008
 40
0.0478302670906173
 40
0.0497265194849177
 40
0.0517526711532827
 40
0.0562138516647502
 40
0.0611403973657583
 40
0.0665186100447552
 40
0.0707860015226455
 40
0.0752270913704556
 40
0.0798435984338899
 40
0.0846339326784594
 40
0.0891431508235746
 40
0.0929794090567243
 40
0.096224071628498
 40
0.0989796414391478
 40
0.101858750208508
 40
0.1063585893892712
 40
0.1113210044816276
 40
0.116819850411094
 40
0.1228801027836691
 40
0.1295036884294679
 40
0.1351754455458831
 40
0.1412039399922858
 40
0.147051395806124
 40
0.1520997490648641
 40
0.155503584470812
 40
0.1584114634083107
 40
0.1608231104939455
 40
0.1627389050225288
 40
0.1650185824447875
 40
0.168000298225638
 40
0.1716830446502054
 40
0.1760651079365249
 40
0.181136421007605
 40
0.1861600272000654
 40
0.1906492260982644
 40
0.1946055460085784
 40
0.1984061955971652
 40
0.2015432563981312
 40
0.204333722289572
 40
0.2076341529338944
 40
0.2116872480181913
 40
0.2163451076633261
 40
0.2216019808139157
 40
0.2272916834796734
 40
0.233536001703186
 40
0.2400670551187936
 40
0.2461701368893588
 40
0.2518104581105476
 40
0.256994115566654
 40
0.2617266804891369
 40
0.2655141912621936
 40
0.2689603868973796
 40
0.2720498169538402
 40
0.2744934584568605
 40
0.2761902859703729
 40
0.2773378191784082
 40
0.2788865043122131
 40
0.2809442508575517
 40
0.2835110990290116
 40
0.2866556826908438
 40
0.290332286232577
 40
0.2945433191159066
 40
0.299137692166592
 40
0.3037609840967971
 40
0.3084005498579122
 40
0.3130577493572142
 40
0.3223743659222961
 40
0.3317697947699688
 40
0.3412451490278354
 40
0.3507980924669963
 40
0.3604233429358185
 40
0.3699182766850554
 40
0.3788117647994748
 40
0.387072645666529
 40
0.3928227194551598
 40
0.3982117754670756
 40
0.4032375458913609
 40
0.4078984234731421
 40
0.4123013836029827
 40
0.4170441109430841
 40
0.4231853852746597
 40
0.4299192975331907
 40
0.4372397552971451
 40
0.4451388950764515
 40
0.4546493081749771
 40
0.4639515388218085
 40
0.4729368337989605
 40
0.4816057613869227
 40
0.4899614733464251
 40
0.4980093457023205
 40
0.5057754801251056
 40
0.5133684955868113
 40
0.5208118318404334
 40
0.5281156097375386
 40
0.5352912891665655
 40
0.5422384784506075
 40
0.5466774428241364
 40
0.5509635944075242
 40
0.5552824725921183
 40
0.5600736549888707
 40
0.5653626182832617
 40
0.5709001095050561
 40
0.577044228475598
 40
0.5830869942152083
 40
0.5884984749960954
 40
0.5913104627717903
 40
0.5940527855401873
 40
0.5971966400389361
 40
0.6007622807067997
 40
0.6040513477346975
 40
0.6071140640940725
 40
0.6098627122842081
 40
0.6122950095446104
 40
0.6144452901496515
 40
0.6169109411845872
 40
0.61971972375275
 40
0.622999714492162
 40
0.6267520323039422
 40
0.6305719790220327
 40
0.6338852130797715
 40
0.6359543431415856
 40
0.6378141674224633
 40
0.6394918878030291
 40
0.6410484115819266
 40
0.642952543262807
 40
0.645084237711485
 40
0.6475267921501715
 40
0.6500542538114155
 40
0.6525625398772864
 40
0.6548507714243589
 40
0.6568512283956622
 40
0.6586018018638771
 40
0.6608841753774707
 40
0.6635477732807227
 40
0.6659402735887736
 40
0.667986244999495
 40
0.6696955723058171
 40
0.6712206805291413
 40
0.6733410627031634
 40
0.6755809948769708
 40
0.6790093888477163
 40
0.6823630338428947
 40
0.684969609297479
 40
0.6872988618049373
 40
0.6899988949811882
 40
0.6936686759768309
 40
0.6963777768380978
 40
0.6985874982298242
 40
0.7005932926983273
 40
0.7025294914843969
 40
0.7047862744178786
 40
0.7073788516919737
 40
0.7101088583130091
 40
0.7128638429128864
 40
0.7157521410009422
 40
0.7182449262459524
 40
0.720819132833115
 40
0.7238530152516686
 40
0.7272694810574855
 40
0.7324151376852571
 40
0.7366191605468332
 40
0.740534236275783
 40
0.7444160398130306
 40
0.7486370975492673
 40
0.753793662277812
 40
0.759711777243343
 40
0.7654151570769459
 40
0.770828109675429
 40
0.7745110024007409
 40
0.7779098254487159
 40
0.7794852151858153
 40
0.7809245897623023
 40
0.7822051722638602
 40
0.7836945873728652
 40
0.7881277255517981
 40
0.7917773367775639
 40
0.7965569511498846
 40
0.8008741732512439
 40
0.804338404697262
 40
0.8086080875734731
 40
0.8126804625818164
 40
0.8181073902955665
 40
0.8233988084623282
 40
0.8285069948818456
 40
0.8341819240370237
 40
0.8405850317787812
 40
0.846486953379599
 40
0.8528116775598766
 40
0.8591241182980276
 40
0.8653777703200782
 40
0.8715801780334194
 40
0.8777381406899505
 40
0.8818546500132044
 40
0.8859233601836954
 40
0.8895761046705186
 40
0.8927053782715108
 40
0.8953084412909355
 40
0.8969834368447847
 40
0.8984288922815894
 40
0.9002735442917907
 40
0.9026150711801434
 40
0.9053108091741946
 40
0.9077397998879341
 40
0.9102043199108611
 40
0.9123038507546464
 40
0.9140218202999715
 40
0.9158060873767513
 40
0.9183125152738728
 40
0.9210466139894758
 40
0.9229719601033455
 40
0.9248616437834808
 40
0.9268979731714259
 40
0.9287108170862056
 40
0.9303104517111489
 40
0.9317832902018505
 40
0.9335889042380756
 40
0.9353570757332332
 40
0.9369053844851524
 40
0.9395273098859539
 40
0.9423130310982123
 40
0.9449716858414531
 40
0.9473671054707757
 40
0.949705614487743
 40
0.9521222045599868
 40
0.9551489752205045
 40
0.958363504158648
 40
0.9610254415815901
 40
0.9632409286780281
 40
0.9658327438802761
 40
0.9687771064689433
 40
0.9713546379917768
 40
0.9733993337220904
 40
0.9755683302957125
 40
0.9783050069967789
 40
0.9812493293351846
 40
0.9837063862170612
 40
0.9857158883263916
 40
0.9871074888048731
 40
0.9885376844061653
 40
0.9905258966039305
 40
0.9930997324905708
 40
0.9962580607090279
 40
1.0
 40
1.0
 40
1.0
 40
1.0
 10
186.7103107037844
 20
-149.906537244243
 30
0.0
 10
187.992143108085
 20
-148.7350884859876
 30
0.0
 10
190.3551571623129
 20
-146.5755628956857
 30
0.0
 10
193.57792461897
 20
-143.5694048103944
 30
0.0
 10
196.2451574080329
 20
-141.0510705743525
 30
0.0
 10
198.3535098449446
 20
-139.0379441902592
 30
0.0
 10
200.0599241539369
 20
-137.3947410497115
 30
0.0
 10
201.5047831266015
 20
-135.9938386570452
 30
0.0
 10
202.8789415989064
 20
-134.6528171777652
 30
0.0
 10
204.2070540991391
 20
-133.3485334889075
 30
0.0
 10
206.1005138698801
 20
-131.4776078516134
 30
0.0
 10
208.6657164215599
 20
-128.9167211039793
 30
0.0
 10
211.9818296461416
 20
-125.5549851257947
 30
0.0
 10
215.3775827980751
 20
-122.0539985877992
 30
0.0
 10
218.1754298518055
 20
-119.1201445219306
 30
0.0
 10
220.3082083463691
 20
-116.8557246058641
 30
0.0
 10
221.7725796813493
 20
-115.2887653328466
 30
0.0
 10
223.3766387025359
 20
-113.5602150179057
 30
0.0
 10
225.2134222959379
 20
-111.5571314034632
 30
0.0
 10
227.1073236543184
 20
-109.4380964728896
 30
0.0
 10
228.7957722440615
 20
-107.4659123942471
 30
0.0
 10
230.4819874004841
 20
-105.4230266959449
 30
0.0
 10
232.0416555608957
 20
-103.461771819234
 30
0.0
 10
233.4361717346879
 20
-101.6189754221515
 30
0.0
 10
234.9668987975268
 20
-99.35030825769168
 30
0.0
 10
236.6372943745818
 20
-96.57801734065752
 30
0.0
 10
238.6648768237706
 20
-92.74056886988068
 30
0.0
 10
240.3634677531499
 20
-88.91174187643853
 30
0.0
 10
241.7826561984389
 20
-85.11587081567784
 30
0.0
 10
242.9272209208455
 20
-81.46424534305501
 30
0.0
 10
243.9090189245022
 20
-77.60588309073793
 30
0.0
 10
244.6816947102323
 20
-73.67005760984601
 30
0.0
 10
245.2150343807791
 20
-69.90655239477908
 30
0.0
 10
245.5329111808693
 20
-66.55288377187502
 30
0.0
 10
245.6943418983739
 20
-63.68602175818496
 30
0.0
 10
245.7582774343931
 20
-61.08540519916063
 30
0.0
 10
245.7446915552289
 20
-58.10434414954027
 30
0.0
 10
245.5917567348986
 20
-54.45516845091756
 30
0.0
 10
245.1979065512982
 20
-50.00606150358912
 30
0.0
 10
244.5133485205608
 20
-45.07140329147676
 30
0.0
 10
243.4624428279369
 20
-39.62182152814699
 30
0.0
 10
242.0785650515839
 20
-34.10887499118813
 30
0.0
 10
240.3908566725545
 20
-28.60441387131851
 30
0.0
 10
238.4999131266534
 20
-23.33968610158799
 30
0.0
 10
236.4110877891491
 20
-18.27592701124975
 30
0.0
 10
234.4433506383544
 20
-14.01419292519279
 30
0.0
 10
232.7566312129888
 20
-10.64256137119762
 30
0.0
 10
231.391186686349
 20
-8.063001189495642
 30
0.0
 10
230.210019326757
 20
-5.931149162652083
 30
0.0
 10
229.0958437414474
 20
-3.991239031379143
 30
0.0
 10
227.8486637406397
 20
-1.892183590133101
 30
0.0
 10
226.2356439325696
 20
0.7125557945800026
 30
0.0
 10
224.1515948995192
 20
3.911231662801828
 30
0.0
 10
221.5413002981886
 20
7.686620602548267
 30
0.0
 10
218.4945582838099
 20
11.80694186493815
 30
0.0
 10
215.2430424122514
 20
15.90916119866277
 30
0.0
 10
212.0821703096257
 20
19.65069431101468
 30
0.0
 10
209.0812519959603
 20
23.01096373995679
 30
0.0
 10
206.3082196948565
 20
25.96359834866611
 30
0.0
 10
203.7497425319618
 20
28.56875097059905
 30
0.0
 10
201.2568325357006
 20
31.01262385818994
 30
0.0
 10
198.4411888653736
 20
33.66772124067752
 30
0.0
 10
194.9996574481412
 20
36.76445216956792
 30
0.0
 10
190.8494375575525
 20
40.29662941473805
 30
0.0
 10
186.0248181974908
 20
44.14867709599429
 30
0.0
 10
180.4813722209453
 20
48.26883401642201
 30
0.0
 10
174.2605071965316
 20
52.53746496757567
 30
0.0
 10
167.6102065671986
 20
56.71427475657215
 30
0.0
 10
160.8974823350195
 20
60.56134940882932
 30
0.0
 10
154.4455990280629
 20
63.94188434912146
 30
0.0
 10
148.3208860750719
 20
66.88231959044896
 30
0.0
 10
142.7710213878854
 20
69.32952846224893
 30
0.0
 10
137.8114755829395
 20
71.35300576040646
 30
0.0
 10
133.4516274043148
 20
73.01196107601379
 30
0.0
 10
129.5969831880535
 20
74.38422875456557
 30
0.0
 10
126.451688431005
 20
75.43940987901279
 30
0.0
 10
124.1288542331089
 20
76.18329109994765
 30
0.0
 10
122.1866534886491
 20
76.78507805925902
 30
0.0
 10
120.0727194617676
 20
77.41935645844511
 30
0.0
 10
117.3060859599187
 20
78.213433640588
 30
0.0
 10
113.7900393350403
 20
79.16402821452168
 30
0.0
 10
109.4923405372193
 20
80.23968192539179
 30
0.0
 10
104.377650291211
 20
81.40254643776343
 30
0.0
 10
98.51321089275484
 20
82.58765984674329
 30
0.0
 10
92.11968119761765
 20
83.70873437655402
 30
0.0
 10
85.4413717629962
 20
84.70301510714864
 30
0.0
 10
78.66079815289554
 20
85.54183542964755
 30
0.0
 10
69.51024789963586
 20
86.45457790890174
 30
0.0
 10
57.8825158210275
 20
87.2178702376073
 30
0.0
 10
43.70305426754069
 20
87.55737300847208
 30
0.0
 10
29.304288239319
 20
87.34684392094971
 30
0.0
 10
14.73952975836928
 20
86.60979266298358
 30
0.0
 10
0.1613531358818782
 20
85.3783961965571
 30
0.0
 10
-14.04398305646894
 20
83.72624251656796
 30
0.0
 10
-27.4891138102228
 20
81.77060595432961
 30
0.0
 10
-38.96687827969181
 20
79.80102581585474
 30
0.0
 10
-48.6195105096893
 20
77.94455307993461
 30
0.0
 10
-56.61079486087055
 20
76.27783516857578
 30
0.0
 10
-64.01319489158102
 20
74.62283886179134
 30
0.0
 10
-70.88336632296061
 20
72.99167984086382
 30
0.0
 10
-77.56790026370273
 20
71.31835194302172
 30
0.0
 10
-84.9121418549352
 20
69.38440467527727
 30
0.0
 10
-93.29210539428243
 20
67.04787783221202
 30
0.0
 10
-102.7729044324811
 20
64.22988855403882
 30
0.0
 10
-112.9155381346223
 20
61.00905872765028
 30
0.0
 10
-124.1206338871814
 20
57.19939621457945
 30
0.0
 10
-135.922197658427
 20
52.87428535063654
 30
0.0
 10
-147.8221900907285
 20
48.15621545499763
 30
0.0
 10
-158.9586841897075
 20
43.39519981467854
 30
0.0
 10
-169.2845993953112
 20
38.64632439851726
 30
0.0
 10
-178.8047540373772
 20
33.94203985853798
 30
0.0
 10
-187.5365975374296
 20
29.3068542102396
 30
0.0
 10
-195.5350904525075
 20
24.74170051829264
 30
0.0
 10
-202.8553177568069
 20
20.23850323488878
 30
0.0
 10
-209.5345384383031
 20
15.79114377704238
 30
0.0
 10
-215.5768384667022
 20
11.41115919757876
 30
0.0
 10
-220.9534476797521
 20
7.135282988996614
 30
0.0
 10
-225.1397377958066
 20
3.449506761006998
 30
0.0
 10
-228.358725580504
 20
0.3500266582766171
 30
0.0
 10
-230.8378527506179
 20
-2.221086002385408
 30
0.0
 10
-233.1840933138546
 20
-4.853845587091482
 30
0.0
 10
-235.4800590693664
 20
-7.674405362040893
 30
0.0
 10
-237.6983747977891
 20
-10.71749081951438
 30
0.0
 10
-239.7968090128877
 20
-14.00581427797337
 30
0.0
 10
-241.6445623340883
 20
-17.42466986828689
 30
0.0
 10
-243.1273800590876
 20
-20.80355585025133
 30
0.0
 10
-244.0644459123742
 20
-23.52818450930592
 30
0.0
 10
-244.6414832039385
 20
-25.61855538009664
 30
0.0
 10
-245.0229916907356
 20
-27.2766627339727
 30
0.0
 10
-245.3488027676816
 20
-29.07283874167377
 30
0.0
 10
-245.5872305475937
 20
-30.9650302189337
 30
0.0
 10
-245.7170606252515
 20
-32.83221112596156
 30
0.0
 10
-245.7464984503655
 20
-34.53719567378528
 30
0.0
 10
-245.6994268814499
 20
-36.07550610923953
 30
0.0
 10
-245.5995239517559
 20
-37.43883219604226
 30
0.0
 10
-245.4539315745914
 20
-38.74857419580326
 30
0.0
 10
-245.2493292372328
 20
-40.11843150825847
 30
0.0
 10
-244.9474922084891
 20
-41.68339333162388
 30
0.0
 10
-244.5119558025655
 20
-43.47747767290488
 30
0.0
 10
-243.9269132330922
 20
-45.40741456554889
 30
0.0
 10
-243.2045425609292
 20
-47.44884485308943
 30
0.0
 10
-242.2337625514192
 20
-49.56593255049926
 30
0.0
 10
-241.2562814360379
 20
-51.54673820981848
 30
0.0
 10
-240.3504200708974
 20
-53.30998627371571
 30
0.0
 10
-239.3746437203673
 20
-55.16310108668148
 30
0.0
 10
-238.2099942395906
 20
-57.34313443836932
 30
0.0
 10
-236.8375297661046
 20
-59.88966370028047
 30
0.0
 10
-235.2645769410218
 20
-62.77741598827451
 30
0.0
 10
-233.5117874549056
 20
-65.95580706644903
 30
0.0
 10
-231.6511607480162
 20
-69.28467227102239
 30
0.0
 10
-229.8084442643143
 20
-72.53638798371459
 30
0.0
 10
-228.0812861433236
 20
-75.54391663385998
 30
0.0
 10
-226.5326842507486
 20
-78.2083347888816
 30
0.0
 10
-224.9733672423234
 20
-80.86293437106151
 30
0.0
 10
-223.2278463756838
 20
-83.80067089966589
 30
0.0
 10
-221.2949106455214
 20
-87.0079889361475
 30
0.0
 10
-219.4042412378201
 20
-90.09944504112222
 30
0.0
 10
-217.7522595860979
 20
-92.76564625498418
 30
0.0
 10
-216.3219854456524
 20
-95.048467751424
 30
0.0
 10
-214.8615120591558
 20
-97.35705983229643
 30
0.0
 10
-213.2436924246263
 20
-99.88646898793377
 30
0.0
 10
-211.0823707590701
 20
-103.2211446243409
 30
0.0
 10
-208.5500795282263
 20
-107.0609236028906
 30
0.0
 10
-205.8778867976256
 20
-111.0282166422261
 30
0.0
 10
-203.4875879857678
 20
-114.5106871187672
 30
0.0
 10
-201.2628888065884
 20
-117.7010224796742
 30
0.0
 10
-198.7006522719043
 20
-121.3159378431472
 30
0.0
 10
-195.9911128186075
 20
-125.0595241930824
 30
0.0
 10
-193.3947574588973
 20
-128.5711478035315
 30
0.0
 10
-191.2799133464665
 20
-131.3843485072798
 30
0.0
 10
-189.3832813700658
 20
-133.8711899214246
 30
0.0
 10
-187.4542415400837
 20
-136.3662387876283
 30
0.0
 10
-185.3280294982091
 20
-139.0763231406688
 30
0.0
 10
-182.9336389294405
 20
-142.0764676516814
 30
0.0
 10
-180.3513293662588
 20
-145.2510139444982
 30
0.0
 10
-177.6435344369665
 20
-148.5141251749667
 30
0.0
 10
-174.984102657623
 20
-151.6529712083022
 30
0.0
 10
-172.3549130455129
 20
-154.6941831433729
 30
0.0
 10
-169.6501178679731
 20
-157.7631023534556
 30
0.0
 10
-166.6033029327735
 20
-161.1459197710878
 30
0.0
 10
-162.6395089834664
 20
-165.4362147367672
 30
0.0
 10
-158.2058991322245
 20
-170.0723297737235
 30
0.0
 10
-153.5180559576655
 20
-174.787245677029
 30
0.0
 10
-149.2121662572338
 20
-178.96980833282
 30
0.0
 10
-144.8381530517097
 20
-183.0746129929124
 30
0.0
 10
-139.9398456936403
 20
-187.5045965972524
 30
0.0
 10
-134.1986326407834
 20
-192.4719815520049
 30
0.0
 10
-127.7789506029059
 20
-197.7308226756721
 30
0.0
 10
-121.1319529829943
 20
-202.8547650237848
 30
0.0
 10
-115.2525030007797
 20
-207.1160907790033
 30
0.0
 10
-110.21740544064
 20
-210.5751150374139
 30
0.0
 10
-106.6868572804406
 20
-212.8977443305005
 30
0.0
 10
-103.9772281313848
 20
-214.6228934401079
 30
0.0
 10
-102.1199754212629
 20
-215.7802831006117
 30
0.0
 10
-100.28454154308
 20
-216.8994731837237
 30
0.0
 10
-97.18903128793708
 20
-218.7363995656759
 30
0.0
 10
-92.98212648419926
 20
-221.0583821515872
 30
0.0
 10
-87.39845488120214
 20
-223.8613392221003
 30
0.0
 10
-81.67505811030786
 20
-226.4530037274052
 30
0.0
 10
-75.88574518038948
 20
-228.7738961251088
 30
0.0
 10
-70.23504714898633
 20
-230.7989888570655
 30
0.0
 10
-64.59334643511123
 20
-232.5891108851347
 30
0.0
 10
-57.92700977679105
 20
-234.4152329280972
 30
0.0
 10
-50.63895773636971
 20
-236.0710160427653
 30
0.0
 10
-42.73638090727174
 20
-237.4901275375197
 30
0.0
 10
-34.66193144898036
 20
-238.5998057858006
 30
0.0
 10
-25.96416348139334
 20
-239.4444763298182
 30
0.0
 10
-16.80935842873402
 20
-239.9491159036531
 30
0.0
 10
-7.298902375400866
 20
-240.0928907969868
 30
0.0
 10
2.157040255086202
 20
-239.8772345803394
 30
0.0
 10
11.75330212609378
 20
-239.2930123528276
 30
0.0
 10
21.22355266087787
 20
-238.3639352356938
 30
0.0
 10
30.53006735897048
 20
-237.1085695759946
 30
0.0
 10
38.67462002628874
 20
-235.7091945085382
 30
0.0
 10
45.68214686234408
 20
-234.2851424489646
 30
0.0
 10
51.40801812655182
 20
-232.9742931016662
 30
0.0
 10
56.59168502815678
 20
-231.6583479790897
 30
0.0
 10
61.02567205850981
 20
-230.4324701402194
 30
0.0
 10
64.49663407778031
 20
-229.4043139699031
 30
0.0
 10
67.16762194719244
 20
-228.5726074554876
 30
0.0
 10
69.48960924144927
 20
-227.823272630571
 30
0.0
 10
72.12659069746279
 20
-226.9399947671492
 30
0.0
 10
75.327825560906
 20
-225.8164924109792
 30
0.0
 10
78.77186678053279
 20
-224.5394341446072
 30
0.0
 10
82.23503752253662
 20
-223.182749237403
 30
0.0
 10
85.38899483959663
 20
-221.8819172175898
 30
0.0
 10
88.19589128965963
 20
-220.6679309968363
 30
0.0
 10
90.68381641806143
 20
-219.5486526397767
 30
0.0
 10
93.3530862486432
 20
-218.303584341259
 30
0.0
 10
96.4437691232939
 20
-216.7966755292656
 30
0.0
 10
99.54707342774944
 20
-215.2002000808193
 30
0.0
 10
102.3581077245175
 20
-213.6833555147805
 30
0.0
 10
104.8591846303501
 20
-212.2796857876402
 30
0.0
 10
107.2804277878822
 20
-210.864286612362
 30
0.0
 10
109.6004542817301
 20
-209.4542347833278
 30
0.0
 10
111.724578586151
 20
-208.1078720591256
 30
0.0
 10
113.7722849159578
 20
-206.7683686312852
 30
0.0
 10
115.7963177836269
 20
-205.4317756511066
 30
0.0
 10
117.8141392412734
 20
-204.0826172522609
 30
0.0
 10
120.0991908977333
 20
-202.5397865022106
 30
0.0
 10
122.6262693361881
 20
-200.8139974141444
 30
0.0
 10
125.5857465439246
 20
-198.7649707603027
 30
0.0
 10
128.4516383741646
 20
-196.7527731195422
 30
0.0
 10
131.154004621471
 20
-194.8312220463594
 30
0.0
 10
133.7599992962904
 20
-192.9563197084883
 30
0.0
 10
136.5865683144765
 20
-190.8990007123886
 30
0.0
 10
139.7208121200073
 20
-188.5877069797571
 30
0.0
 10
142.9422660379365
 20
-186.1767271024407
 30
0.0
 10
145.8637048572589
 20
-183.9599715569982
 30
0.0
 10
148.5408193945685
 20
-181.9055998704202
 30
0.0
 10
151.3109897166977
 20
-179.7562846896308
 30
0.0
 10
154.2045068185807
 20
-177.4827185632485
 30
0.0
 10
156.8974089524686
 20
-175.340017311698
 30
0.0
 10
159.3043505273194
 20
-173.4046488261039
 30
0.0
 10
161.7516579694889
 20
-171.4180352572757
 30
0.0
 10
164.5066467159458
 20
-169.1569204788176
 30
0.0
 10
167.3543206164081
 20
-166.7897973173172
 30
0.0
 10
169.9356140940147
 20
-164.618000941375
 30
0.0
 10
171.9619003638731
 20
-162.8961227183441
 30
0.0
 10
173.6279752036529
 20
-161.4696201162578
 30
0.0
 10
175.2773118062284
 20
-160.0485665458329
 30
0.0
 10
177.3177645033981
 20
-158.2773392305116
 30
0.0
 10
179.9361310822931
 20
-155.9808625780249
 30
0.0
 10
183.1363695239173
 20
-153.1413282285189
 30
0.0
 10
185.4536661773819
 20
-151.0439321200583
 30
0.0
 10
186.7103107037844
 20
-149.906537244243
 30
0.0
  0
VIEWPORT
  5
B4
330
9A
100
AcDbEntity
  8
0
100
AcDbViewport
 10
0.0
 20
0.0
 30
0.0
 40
205.6
 41
156.0
 68
     1
 69
     1
 12
-0.094292368
 22
0.0002339166
 13
0.0
 23
0.0
 14
10.0
 24
10.0
 15
10.0
 25
10.0
 16
0.0
 26
0.0
 36
1.0
 17
0.0
 27
0.0
 37
0.0
 42
50.0
 43
0.0
 44
0.0
 45
509.5934823535
 50
0.0
 51
0.0
 72
   100
 90
   557152
  1

281
     0
 71
     1
 74
     0
110
0.0
120
0.0
130
0.0
111
1.0
121
0.0
131
0.0
112
0.0
122
1.0
132
0.0
 79
     0
146
0.0
  0
ENDBLK
  5
9D
330
9A
100
AcDbEntity
  8
0
100
AcDbBlockEnd
  0
BLOCK
  5
A2
330
A0
100
AcDbEntity
  8
0
100
AcDbBlockBegin
  2
*Paper_Space7
 70
     0
 10
0.0
 20
0.0
 30
0.0
  3
*Paper_Space7
  1

  0
SPLINE
  5
A4
330
A0
100
AcDbEntity
  8
0
  6
Continuous
 62
     7
370
    25
100
AcDbSpline
210
0.0
220
0.0
230
1.0
 70
     8
 71
     3
 72
    97
 73
    93
 74
     0
 42
0.000000001
 43
0.00000001
 40
0.0
 40
0.0
 40
0.0
 40
0.0
 40
0.0005236208934674
 40
0.0100125561526364
 40
0.0178199568439131
 40
0.023983995034109
 40
0.0285142099483082
 40
0.0316261801142178
 40
0.0347324941463837
 40
0.0381099865786308
 40
0.04712910789454
 40
0.0575027048040345
 40
0.068147858304232
 40
0.0788771685028199
 40
0.0896708897171496
 40
0.102917928954891
 40
0.1147519326032367
 40
0.1256986572192222
 40
0.1392259345272554
 40
0.1540952312262378
 40
0.170115800104537
 40
0.186424538761283
 40
0.2029212369735614
 40
0.2195980886626233
 40
0.2364487926278109
 40
0.2535211203731348
 40
0.2752723061603382
 40
0.2973745681004024
 40
0.3090834811161948
 40
0.3201334295149042
 40
0.3291259773007275
 40
0.3345950289513616
 40
0.3388386189856044
 40
0.3422978158468989
 40
0.3468586122007585
 40
0.3527345805055205
 40
0.3596299846710358
 40
0.3669455683694658
 40
0.3809724816475398
 40
0.3962590431355513
 40
0.4124588204372204
 40
0.4274375275991433
 40
0.4408226882931027
 40
0.4524281225086976
 40
0.4625183053170315
 40
0.4724373766172051
 40
0.483445415471279
 40
0.497259647175868
 40
0.5124427213505743
 40
0.5289742950092425
 40
0.5468371008911637
 40
0.5659527216050445
 40
0.5849324021721125
 40
0.6032606666713269
 40
0.6209778464883707
 40
0.6405204881592971
 40
0.6593411282950196
 40
0.6774539070804774
 40
0.6948607089527741
 40
0.7116749196705322
 40
0.7283468384702814
 40
0.7449165532785507
 40
0.752996843005827
 40
0.7610498692521054
 40
0.7690845594355282
 40
0.7772446940610988
 40
0.7855771278558605
 40
0.7940155663221137
 40
0.8014970416202936
 40
0.8076449800633722
 40
0.8136678250642878
 40
0.821135798303647
 40
0.8300935035088104
 40
0.8405414787468521
 40
0.852347279962061
 40
0.8638049344569433
 40
0.8771215923653296
 40
0.8890172364918647
 40
0.8994908855788732
 40
0.9091402061127104
 40
0.919933237162421
 40
0.9320114532927113
 40
0.9408608925522878
 40
0.9501509257005044
 40
0.9587605387148807
 40
0.9664343488868795
 40
0.9731799917582438
 40
0.9790136775759009
 40
0.9851491277294588
 40
0.9908573662898168
 40
0.9972872103777974
 40
1.0
 40
1.0
 40
1.0
 40
1.0
 10
217.2430364035665
 20
-88.66538406454545
 30
0.0
 10
217.2408559038854
 20
-88.6581925506697
 30
0.0
 10
217.199160899408
 20
-88.52067810576972
 30
0.0
 10
216.9445223028911
 20
-88.50897826958297
 30
0.0
 10
216.6518148458994
 20
-88.54630156641781
 30
0.0
 10
216.2608904372026
 20
-88.73717695859051
 30
0.0
 10
215.8634558894915
 20
-88.95855723645893
 30
0.0
 10
215.2725004079733
 20
-89.28029453597162
 30
0.0
 10
214.6904443055654
 20
-89.58168625035269
 30
0.0
 10
213.7054358251613
 20
-90.06889245731318
 30
0.0
 10
212.1196893169371
 20
-90.7874755765494
 30
0.0
 10
209.7932819604873
 20
-91.70845378593678
 30
0.0
 10
207.068500107345
 20
-92.64404074722846
 30
0.0
 10
204.0429145176621
 20
-93.54434152880695
 30
0.0
 10
200.4864353068514
 20
-94.4597967798624
 30
0.0
 10
196.5424877945932
 20
-95.32099701897856
 30
0.0
 10
192.3024517928887
 20
-96.09806224141917
 30
0.0
 10
187.7616371195374
 20
-96.80227214858465
 30
0.0
 10
182.5760661171921
 20
-97.4664099906731
 30
0.0
 10
176.4050932576995
 20
-98.0867400662541
 30
0.0
 10
169.5173084745383
 20
-98.59851556709312
 30
0.0
 10
162.0872764881068
 20
-98.97271148249808
 30
0.0
 10
154.2604871602529
 20
-99.20059951988614
 30
0.0
 10
146.0655346249154
 20
-99.28376961669733
 30
0.0
 10
137.5093375360346
 20
-99.22556053073376
 30
0.0
 10
127.8056151807289
 20
-99.01188169589092
 30
0.0
 10
116.8458430396547
 20
-98.60095312802733
 30
0.0
 10
106.5333402422546
 20
-98.05738997130379
 30
0.0
 10
98.0283803934887
 20
-97.52192893600395
 30
0.0
 10
91.92885449929089
 20
-97.09908722126595
 30
0.0
 10
86.97783319075499
 20
-96.72998714789655
 30
0.0
 10
83.32141875968452
 20
-96.44437541852061
 30
0.0
 10
80.73447375616556
 20
-96.23633249407723
 30
0.0
 10
78.31659915956133
 20
-96.0375805396275
 30
0.0
 10
75.56611596279717
 20
-95.8065033875513
 30
0.0
 10
72.11930762843213
 20
-95.50903282936518
 30
0.0
 10
68.10214047395533
 20
-95.15150255040811
 30
0.0
 10
62.41979585718053
 20
-94.6294618350424
 30
0.0
 10
54.98384059271992
 20
-93.91585089732114
 30
0.0
 10
45.64354768795275
 20
-92.97157064513856
 30
0.0
 10
36.00809186398397
 20
-91.94976727215526
 30
0.0
 10
26.6861463913021
 20
-90.92067480159089
 30
0.0
 10
18.26752205250924
 20
-89.96167630529756
 30
0.0
 10
10.8400942872947
 20
-89.09502275707534
 30
0.0
 10
4.121547850863341
 20
-88.29659596269695
 30
0.0
 10
-2.490851300245914
 20
-87.49888159123853
 30
0.0
 10
-9.916919079233159
 20
-86.5903703253678
 30
0.0
 10
-18.48530304082833
 20
-85.52698448548459
 30
0.0
 10
-28.24336600049254
 20
-84.29944548159803
 30
0.0
 10
-38.85475587823426
 20
-82.9497032713345
 30
0.0
 10
-50.2596037368743
 20
-81.4878921146813
 30
0.0
 10
-62.0898665010975
 20
-79.96679188142917
 30
0.0
 10
-73.86382037058658
 20
-78.45694823019521
 30
0.0
 10
-85.14074799261599
 20
-77.0231328772488
 30
0.0
 10
-96.27171225282405
 20
-75.62918989108852
 30
0.0
 10
-107.1849451355236
 20
-74.27841514169913
 30
0.0
 10
-117.8064501516073
 20
-72.97085310837747
 30
0.0
 10
-127.6567283313603
 20
-71.75681468977355
 30
0.0
 10
-136.7812093419649
 20
-70.62364657722804
 30
0.0
 10
-145.3003774192697
 20
-69.55109250578478
 30
0.0
 10
-153.3403015777619
 20
-68.51867478305115
 30
0.0
 10
-159.6936183138034
 20
-67.68116061474745
 30
0.0
 10
-164.5527285464441
 20
-67.02484072310897
 30
0.0
 10
-168.0615335647737
 20
-66.54243997409174
 30
0.0
 10
-171.5003953511375
 20
-66.06041027684239
 30
0.0
 10
-174.889524962751
 20
-65.5751680701638
 30
0.0
 10
-178.241504293447
 20
-65.08387723316942
 30
0.0
 10
-181.4104057170267
 20
-64.60731555916132
 30
0.0
 10
-184.2146889902377
 20
-64.1743583479225
 30
0.0
 10
-186.6500045784724
 20
-63.7892424181108
 30
0.0
 10
-189.016176608551
 20
-63.40654635823905
 30
0.0
 10
-191.6354988151095
 20
-62.97178876590609
 30
0.0
 10
-194.6637850602103
 20
-62.45221092706557
 30
0.0
 10
-198.0386381245685
 20
-61.84844596506206
 30
0.0
 10
-201.5132453766248
 20
-61.19378043219769
 30
0.0
 10
-205.0892390496503
 20
-60.47909693048005
 30
0.0
 10
-208.4616724403877
 20
-59.75750953578836
 30
0.0
 10
-211.5246025454781
 20
-59.05055079462792
 30
0.0
 10
-214.0922597039314
 20
-58.4131603496287
 30
0.0
 10
-216.393163186786
 20
-57.80027922579099
 30
0.0
 10
-218.5616566717024
 20
-57.17785276030101
 30
0.0
 10
-220.4490647503434
 20
-56.58628253722961
 30
0.0
 10
-222.0565492527828
 20
-56.03701958325343
 30
0.0
 10
-223.3421352344165
 20
-55.56026823462133
 30
0.0
 10
-224.4290572486771
 20
-55.12017298978545
 30
0.0
 10
-225.2794999031372
 20
-54.74466996191855
 30
0.0
 10
-225.9139824030648
 20
-54.4403171945256
 30
0.0
 10
-226.3938057283353
 20
-54.19168660560566
 30
0.0
 10
-226.7175794265741
 20
-54.00998025411632
 30
0.0
 10
-226.9359217807779
 20
-53.88170673951702
 30
0.0
 10
-227.0981609428306
 20
-53.77337876507464
 30
0.0
 10
-227.0772628680523
 20
-53.79268346001725
 30
0.0
 10
-227.0710620202246
 20
-53.7984115223853
 30
0.0
  0
SPLINE
  5
A5
330
A0
100
AcDbEntity
  8
0
  6
Continuous
 62
     7
370
    25
100
AcDbSpline
210
0.0
220
0.0
230
1.0
 70
    11
 71
     3
 72
   216
 73
   212
 74
     0
 42
0.000000001
 43
0.00000001
 40
0.0
 40
0.0
 40
0.0
 40
0.0
 40
0.0063415413164535
 40
0.0120400490733505
 40
0.0171073948120046
 40
0.0215524348912215
 40
0.0256122254781792
 40
0.0341683339057262
 40
0.0435686434977324
 40
0.0486403460125083
 40
0.0532750144169393
 40
0.0573008470215561
 40
0.0607190294890757
 40
0.0640742570408039
 40
0.0679125001347076
 40
0.0722222353267752
 40
0.0764750024508883
 40
0.0804547699071637
 40
0.0823466277031814
 40
0.0841024209299654
 40
0.0856773358369048
 40
0.0871729301347887
 40
0.0887086175244321
 40
0.0916419139997045
 40
0.094641642636846
 40
0.0977013132603937
 40
0.100901545830809
 40
0.1044821069435965
 40
0.1083787574138448
 40
0.1125940440079744
 40
0.1171240836163066
 40
0.1214446564043159
 40
0.1251584238948516
 40
0.1283434767897614
 40
0.1309966219493969
 40
0.133498660924251
 40
0.1382404978676959
 40
0.1436942825870756
 40
0.1499441707765686
 40
0.1568307371346205
 40
0.1635129859944659
 40
0.169867471841565
 40
0.1769301437252902
 40
0.1837350134579976
 40
0.1904972297594789
 40
0.1972135827931976
 40
0.202627916128383
 40
0.2072085436834864
 40
0.2109349261990048
 40
0.2145258245846004
 40
0.2189563955817933
 40
0.2242290213402736
 40
0.2289595527564454
 40
0.2342038698352829
 40
0.2399579427079017
 40
0.2462167171255606
 40
0.2526347678562788
 40
0.2587002388833426
 40
0.2659052697967133
 40
0.2725388119083516
 40
0.2786067299802943
 40
0.2841152337030448
 40
0.2890704214382445
 40
0.2934779454369475
 40
0.2984378631056802
 40
0.303825486220708
 40
0.3096472357979296
 40
0.3159027488439285
 40
0.3235404445920815
 40
0.3317503134305771
 40
0.340501113987172
 40
0.3492764866282418
 40
0.3579372593799098
 40
0.3664883858521999
 40
0.3749311607092577
 40
0.3832640984470045
 40
0.3941967096238279
 40
0.4049157579944463
 40
0.4155133598635363
 40
0.4261403378010906
 40
0.4367879317421021
 40
0.4474444063377001
 40
0.4580972233543716
 40
0.4687336198838518
 40
0.4794082917252067
 40
0.4903669308463403
 40
0.5016205759697677
 40
0.5131537551094105
 40
0.521977469064781
 40
0.5309424889883526
 40
0.5400442865218121
 40
0.5491531300147637
 40
0.5576697902321607
 40
0.5655311464161049
 40
0.5727514501520345
 40
0.5793426796119626
 40
0.5853138694974165
 40
0.5914786874749118
 40
0.598720186669832
 40
0.6070054857873343
 40
0.6143599554426188
 40
0.6201016899979944
 40
0.6273694893968683
 40
0.6349306701547257
 40
0.6382951843410629
 40
0.6414920520897219
 40
0.6451694143194776
 40
0.6494426523209594
 40
0.6517441487098662
 40
0.6537285239852085
 40
0.6554640681276389
 40
0.6570290584727315
 40
0.658608852113531
 40
0.6601794569047212
 40
0.6617409920295103
 40
0.6667739701693257
 40
0.6717200413246445
 40
0.6769763979019574
 40
0.6831843665680152
 40
0.6894478943421143
 40
0.6960286173115947
 40
0.701073872460542
 40
0.7054306093539829
 40
0.7097608155377588
 40
0.7143274288242965
 40
0.7185538163899848
 40
0.7226071354404209
 40
0.7271510541343519
 40
0.7318402881196082
 40
0.7363396821990333
 40
0.7414924653906042
 40
0.744919478510897
 40
0.748164743811723
 40
0.7508166162428344
 40
0.7528765200873718
 40
0.7547046428364962
 40
0.7570456834534852
 40
0.7598892877435736
 40
0.7628220611974972
 40
0.765628833689386
 40
0.7682359087259883
 40
0.770388911796071
 40
0.7722776857662228
 40
0.7746724016063318
 40
0.7768345669254317
 40
0.7789332494444424
 40
0.7808322731496776
 40
0.7825941393115737
 40
0.7868747058946829
 40
0.7913472800511642
 40
0.795402162398418
 40
0.7992237771850627
 40
0.8029575761348465
 40
0.8075064914617481
 40
0.8128973910160624
 40
0.8178622448779185
 40
0.8235832907757175
 40
0.8285639612569652
 40
0.8330231054955695
 40
0.8371695290394429
 40
0.8408038354105614
 40
0.8433481279430958
 40
0.8463925344338694
 40
0.8498443171099923
 40
0.8531679929037724
 40
0.8562782222857779
 40
0.8591803230659375
 40
0.8633293986668874
 40
0.8674960572689044
 40
0.872345709689021
 40
0.8765211178194465
 40
0.8811135755081387
 40
0.8860173293507061
 40
0.8903044199387309
 40
0.8937641238789042
 40
0.8955800260842026
 40
0.8970403583368404
 40
0.8981469313889818
 40
0.8989067209566297
 40
0.899787827976984
 40
0.9012491292757723
 40
0.9031980565877847
 40
0.9056922888297229
 40
0.9087251491492417
 40
0.9118210425709644
 40
0.914701947254615
 40
0.9173764946779069
 40
0.9198507402469375
 40
0.9221134003570932
 40
0.9252334151524472
 40
0.928062325106135
 40
0.9309160747693219
 40
0.9342200809673595
 40
0.9396466726461733
 40
0.9451446654211273
 40
0.9499716058223421
 40
0.9543355405909545
 40
0.958940807598689
 40
0.9637303272273776
 40
0.9661488630992863
 40
0.9688573346359102
 40
0.9717968956372093
 40
0.9738724952172637
 40
0.9758365006262402
 40
0.9792914744873374
 40
0.9812879797083572
 40
0.9837335144361394
 40
0.9868350599960956
 40
0.9905852733381895
 40
0.9949762156321736
 40
1.0
 40
1.0
 40
1.0
 40
1.0
 10
157.1131417532076
 20
-175.1180008542222
 30
0.0
 10
159.3109117924689
 20
-173.0794326591045
 30
0.0
 10
163.4835975488467
 20
-169.2090074921334
 30
0.0
 10
169.3501172991692
 20
-163.6083179408835
 30
0.0
 10
174.5227917083291
 20
-158.5767864630475
 30
0.0
 10
179.0941583238311
 20
-154.0473798650685
 30
0.0
 10
184.7811829476968
 20
-148.3210863973484
 30
0.0
 10
192.0274217772207
 20
-140.8467308019953
 30
0.0
 10
199.4625081013049
 20
-132.907318754048
 30
0.0
 10
205.5319119362688
 20
-126.2385356541677
 30
0.0
 10
209.8463306383749
 20
-121.4055102503842
 30
0.0
 10
213.6006893984987
 20
-117.1260418122963
 30
0.0
 10
216.9221245403534
 20
-113.2826928572758
 30
0.0
 10
220.1511777770575
 20
-109.4946827050985
 30
0.0
 10
223.6205584499846
 20
-105.3643495671408
 30
0.0
 10
227.308101419643
 20
-100.8999083925977
 30
0.0
 10
231.0446075466737
 20
-96.29476682810889
 30
0.0
 10
234.08402683751
 20
-92.48013316769521
 30
0.0
 10
236.3699756315225
 20
-89.57066471908402
 30
0.0
 10
237.9572183616196
 20
-87.53098454247024
 30
0.0
 10
239.4221440118331
 20
-85.62098398484682
 30
0.0
 10
240.702742667804
 20
-83.91306075345733
 30
0.0
 10
242.0340183745272
 20
-82.06514835665473
 30
0.0
 10
243.1185608334114
 20
-80.39888859513631
 30
0.0
 10
244.2853820623923
 20
-78.43572883188615
 30
0.0
 10
245.0774799995505
 20
-76.62435871895248
 30
0.0
 10
245.7069430248186
 20
-74.93314684338196
 30
0.0
 10
246.2840124888001
 20
-72.99665018180137
 30
0.0
 10
246.755321317554
 20
-70.85235758821709
 30
0.0
 10
247.0900269002166
 20
-68.48127537842137
 30
0.0
 10
247.2414747723898
 20
-65.98467197682909
 30
0.0
 10
247.2025345268645
 20
-63.54381951784781
 30
0.0
 10
247.0215253759881
 20
-61.33874208807222
 30
0.0
 10
246.7631334891647
 20
-59.44673627733592
 30
0.0
 10
246.4626579190487
 20
-57.78835018097418
 30
0.0
 10
246.0302843723166
 20
-55.81816753990047
 30
0.0
 10
245.3399844238501
 20
-53.27940081860362
 30
0.0
 10
244.2078713775857
 20
-49.97893864657011
 30
0.0
 10
242.629458440092
 20
-46.23474500049003
 30
0.0
 10
240.5983890616429
 20
-42.22722553509087
 30
0.0
 10
238.2035243809691
 20
-38.18598189414312
 30
0.0
 10
235.4567667914376
 20
-34.10845573011449
 30
0.0
 10
232.3619687742462
 20
-30.01630730999652
 30
0.0
 10
228.8639702773866
 20
-25.85983434524647
 30
0.0
 10
225.1005948288613
 20
-21.79496642449601
 30
0.0
 10
221.3024972190151
 20
-18.03859348078939
 30
0.0
 10
217.7137077215536
 20
-14.7456699460157
 30
0.0
 10
214.6130624089622
 20
-12.06486712000043
 30
0.0
 10
211.8160720343543
 20
-9.760324942430579
 30
0.0
 10
208.9625006371423
 20
-7.505018559159596
 30
0.0
 10
205.6169969647943
 20
-4.977128233299085
 30
0.0
 10
201.8321983557703
 20
-2.26697607663269
 30
0.0
 10
197.6686796678689
 20
0.554582396180503
 30
0.0
 10
193.2043680889826
 20
3.418778300411804
 30
0.0
 10
188.1026572034624
 20
6.499473325197472
 30
0.0
 10
182.417967617199
 20
9.710102425879496
 30
0.0
 10
176.3860160155981
 20
12.88055056181105
 30
0.0
 10
169.7921143354114
 20
16.10314452292082
 30
0.0
 10
162.8515714727749
 20
19.23429340723133
 30
0.0
 10
155.6279936080305
 20
22.21914453884414
 30
0.0
 10
148.7863679206402
 20
24.8147906291138
 30
0.0
 10
142.3851234989702
 20
27.05031057973521
 30
0.0
 10
136.4749554202188
 20
28.95583266204184
 30
0.0
 10
130.6547909240038
 20
30.69435637955252
 30
0.0
 10
124.5294126945006
 20
32.38041056124312
 30
0.0
 10
117.6634513243508
 20
34.09377960913341
 30
0.0
 10
110.0741856104638
 20
35.77762086795226
 30
0.0
 10
101.306464035488
 20
37.46243738217901
 30
0.0
 10
91.23394670053949
 20
39.05631447245654
 30
0.0
 10
79.74612013611967
 20
40.42414008378077
 30
0.0
 10
67.47215859616591
 20
41.40447067957716
 30
0.0
 10
54.78213173719856
 20
41.9552232683169
 30
0.0
 10
42.04833243021913
 20
42.08613035696372
 30
0.0
 10
29.39063277956103
 20
41.83695042780276
 30
0.0
 10
16.85230594822466
 20
41.24753701143482
 30
0.0
 10
3.12959016549394
 20
40.25843157619881
 30
0.0
 10
-11.68632558941317
 20
38.7912942026445
 30
0.0
 10
-27.51667388474431
 20
36.78065846670446
 30
0.0
 10
-43.04580411010679
 20
34.40798776753621
 30
0.0
 10
-58.34537088161229
 20
31.69934918243371
 30
0.0
 10
-73.43624640013704
 20
28.67875601696669
 30
0.0
 10
-88.26210281158247
 20
25.38156428872872
 30
0.0
 10
-102.766111150757
 20
21.84305098385486
 30
0.0
 10
-116.9214188802229
 20
18.09035619817466
 30
0.0
 10
-130.8082272395924
 20
14.11705679734328
 30
0.0
 10
-144.4979498851511
 20
9.90602012628182
 30
0.0
 10
-157.9992373969476
 20
5.448147014470689
 30
0.0
 10
-170.0594276860249
 20
1.174572782919353
 30
0.0
 10
-180.6978470221067
 20
-2.83893432500662
 30
0.0
 10
-189.9743546213727
 20
-6.539368476124324
 30
0.0
 10
-198.8087597311271
 20
-10.27636837139506
 30
0.0
 10
-206.908697498303
 20
-13.92389408143856
 30
0.0
 10
-214.04042206282
 20
-17.35323889207563
 30
0.0
 10
-220.091047028213
 20
-20.46572064010255
 30
0.0
 10
-225.1460208073274
 20
-23.25399295595103
 30
0.0
 10
-229.317055552745
 20
-25.72886208944997
 30
0.0
 10
-232.8587860586746
 20
-27.99696763616315
 30
0.0
 10
-236.1285891634483
 20
-30.28002801300635
 30
0.0
 10
-239.3097299503258
 20
-32.77059971918271
 30
0.0
 10
-242.0532771068752
 20
-35.30331828592185
 30
0.0
 10
-244.0548962598222
 20
-37.59445862128737
 30
0.0
 10
-245.5617040015552
 20
-39.78365973152341
 30
0.0
 10
-246.6867765786412
 20
-42.1169579412836
 30
0.0
 10
-247.1683779615712
 20
-44.17648257549337
 30
0.0
 10
-247.2240844755837
 20
-45.79458233199954
 30
0.0
 10
-247.1646623045868
 20
-46.9732941466311
 30
0.0
 10
-246.6386125493583
 20
-48.9463741647873
 30
0.0
 10
-245.5355464387007
 20
-50.94979046119457
 30
0.0
 10
-244.563304549537
 20
-52.74012663063886
 30
0.0
 10
-243.5535902004876
 20
-54.47192212322913
 30
0.0
 10
-242.3599414918615
 20
-56.48200916020566
 30
0.0
 10
-241.1036134754338
 20
-58.58101454292587
 30
0.0
 10
-239.9023100989216
 20
-60.57568256958411
 30
0.0
 10
-238.6917116683819
 20
-62.57280926254101
 30
0.0
 10
-236.5868459842052
 20
-66.02294806804852
 30
0.0
 10
-233.5830472137254
 20
-70.8801671906003
 30
0.0
 10
-229.5556740097732
 20
-77.25770560981113
 30
0.0
 10
-225.1475377543041
 20
-84.08831215676862
 30
0.0
 10
-220.2983639510584
 20
-91.41818275118183
 30
0.0
 10
-214.9837250059221
 20
-99.23267940022977
 30
0.0
 10
-209.8923574035772
 20
-106.5037337140185
 30
0.0
 10
-205.258707571041
 20
-112.9435922042672
 30
0.0
 10
-201.2182721255028
 20
-118.4343616174211
 30
0.0
 10
-197.2653242430184
 20
-123.6941864674723
 30
0.0
 10
-193.2965400971778
 20
-128.8602086261998
 30
0.0
 10
-189.3583815774479
 20
-133.873805942831
 30
0.0
 10
-185.3765483430386
 20
-138.8361328094039
 30
0.0
 10
-181.1965531053727
 20
-143.9292378073694
 30
0.0
 10
-176.8161671096886
 20
-149.1357449404552
 30
0.0
 10
-172.1787651831205
 20
-154.5101277284743
 30
0.0
 10
-167.8881449573914
 20
-159.3495813308846
 30
0.0
 10
-163.961654097741
 20
-163.6699988695477
 30
0.0
 10
-160.8374109992442
 20
-167.0408710283342
 30
0.0
 10
-158.1502888155484
 20
-169.8893407990404
 30
0.0
 10
-155.9269921623745
 20
-172.2125846727523
 30
0.0
 10
-153.7974301312643
 20
-174.4113602451346
 30
0.0
 10
-151.3874506497692
 20
-176.8675122575871
 30
0.0
 10
-148.5804975853255
 20
-179.6816877105531
 30
0.0
 10
-145.5910048574199
 20
-182.6235802415737
 30
0.0
 10
-142.66276332109
 20
-185.4513022361319
 30
0.0
 10
-139.9893646557734
 20
-187.9865278008265
 30
0.0
 10
-137.6307471060461
 20
-190.1872450819169
 30
0.0
 10
-135.3335035332623
 20
-192.3011621646318
 30
0.0
 10
-132.9853690810801
 20
-194.429181088443
 30
0.0
 10
-130.5466529724368
 20
-196.602910582435
 30
0.0
 10
-128.245674918861
 20
-198.6191352797823
 30
0.0
 10
-126.0729009402791
 20
-200.4912063249839
 30
0.0
 10
-123.1587076562934
 20
-202.8808818405619
 30
0.0
 10
-119.3893049963802
 20
-205.7732016740205
 30
0.0
 10
-114.7018790028765
 20
-209.0547247321744
 30
0.0
 10
-110.0631974944284
 20
-212.0244697947821
 30
0.0
 10
-105.6152682504112
 20
-214.6449481994201
 30
0.0
 10
-100.8865449683118
 20
-217.21471233922
 30
0.0
 10
-95.48481134133438
 20
-219.9001371867395
 30
0.0
 10
-89.39395926199833
 20
-222.6139128116659
 30
0.0
 10
-82.72072179954517
 20
-225.2541339467183
 30
0.0
 10
-76.07497699697622
 20
-227.5711343270823
 30
0.0
 10
-69.39336778527613
 20
-229.6027615879641
 30
0.0
 10
-63.30841911333012
 20
-231.2243850029759
 30
0.0
 10
-57.72375800950439
 20
-232.5308570267773
 30
0.0
 10
-52.93693332141239
 20
-233.513369724076
 30
0.0
 10
-48.63560198948959
 20
-234.3008867974103
 30
0.0
 10
-44.3680476094632
 20
-234.9982178642514
 30
0.0
 10
-39.66888960197755
 20
-235.6596805804941
 30
0.0
 10
-34.87735645009009
 20
-236.2217376351325
 30
0.0
 10
-30.31185005714854
 20
-236.6614282141336
 30
0.0
 10
-25.31279088511955
 20
-237.0502473374146
 30
0.0
 10
-19.76622337218808
 20
-237.3668917830615
 30
0.0
 10
-13.24009223516103
 20
-237.5896173363123
 30
0.0
 10
-6.689283224270318
 20
-237.6589223604228
 30
0.0
 10
0.0691584992791941
 20
-237.5791204358658
 30
0.0
 10
6.836106629303098
 20
-237.356832396781
 30
0.0
 10
13.61718753561369
 20
-236.9835800628803
 30
0.0
 10
19.79307604367825
 20
-236.5125602955564
 30
0.0
 10
24.43398092320979
 20
-236.0753717383357
 30
0.0
 10
27.70003345417066
 20
-235.7272418888732
 30
0.0
 10
29.83015449773653
 20
-235.4829248265202
 30
0.0
 10
31.4578780702984
 20
-235.2860260476595
 30
0.0
 10
32.81220257007934
 20
-235.1122761747295
 30
0.0
 10
34.34098541917719
 20
-234.9106359417605
 30
0.0
 10
36.39622610008895
 20
-234.633704444391
 30
0.0
 10
39.17406104625951
 20
-234.2386203668224
 30
0.0
 10
42.62397911906459
 20
-233.7138398992412
 30
0.0
 10
46.50487063833964
 20
-233.0734133342535
 30
0.0
 10
50.52407257259749
 20
-232.348259209524
 30
0.0
 10
54.38988952833855
 20
-231.5908496630159
 30
0.0
 10
57.98857585385687
 20
-230.832896236909
 30
0.0
 10
61.34136394554611
 20
-230.0791927157187
 30
0.0
 10
64.85960977796552
 20
-229.2407686649594
 30
0.0
 10
68.51092118238064
 20
-228.3130103915038
 30
0.0
 10
72.39677412972017
 20
-227.2545275641629
 30
0.0
 10
76.3374592406417
 20
-226.1086423412902
 30
0.0
 10
81.34079479677092
 20
-224.5497020218388
 30
0.0
 10
87.46770157112546
 20
-222.4485075998223
 30
0.0
 10
94.15562441536872
 20
-219.858410974998
 30
0.0
 10
100.2707172955139
 20
-217.2033652180727
 30
0.0
 10
105.971249026599
 20
-214.4613415320943
 30
0.0
 10
111.5859795320954
 20
-211.471340914646
 30
0.0
 10
116.3177334744597
 20
-208.6640225419511
 30
0.0
 10
120.2281829086516
 20
-206.1391854993042
 30
0.0
 10
123.3771799764394
 20
-203.9794742860635
 30
0.0
 10
126.3223078650108
 20
-201.8194967090242
 30
0.0
 10
129.0337410166298
 20
-199.7096745073204
 30
0.0
 10
131.9028182093347
 20
-197.3333442974068
 30
0.0
 10
134.721175169222
 20
-194.9458178730146
 30
0.0
 10
137.5648010351706
 20
-192.5141207333829
 30
0.0
 10
140.2361340607807
 20
-190.2098374717272
 30
0.0
 10
143.5242012606679
 20
-187.3441112020354
 30
0.0
 10
147.4784487437868
 20
-183.8516202578692
 30
0.0
 10
152.0900599421658
 20
-179.7208925257943
 30
0.0
 10
155.3653936766347
 20
-176.7195465523193
 30
0.0
 10
157.1131417532076
 20
-175.1180008542222
 30
0.0
  0
VIEWPORT
  5
B6
330
A0
100
AcDbEntity
  8
0
100
AcDbViewport
 10
0.0
 20
0.0
 30
0.0
 40
205.6
 41
156.0
 68
     1
 69
     1
 12
-0.094292368
 22
0.0002339166
 13
0.0
 23
0.0
 14
10.0
 24
10.0
 15
10.0
 25
10.0
 16
0.0
 26
0.0
 36
1.0
 17
0.0
 27
0.0
 37
0.0
 42
50.0
 43
0.0
 44
0.0
 45
509.5934823535
 50
0.0
 51
0.0
 72
   100
 90
   557152
  1

281
     0
 71
     1
 74
     0
110
0.0
120
0.0
130
0.0
111
1.0
121
0.0
131
0.0
112
0.0
122
1.0
132
0.0
 79
     0
146
0.0
  0
ENDBLK
  5
A3
330
A0
100
AcDbEntity
  8
0
100
AcDbBlockEnd
  0
ENDSEC
  0
SECTION
  2
ENTITIES
  0
SPLINE
  5
73
330
1F
100
AcDbEntity
  8
0
  6
Continuous
 62
     7
370
    25
100
AcDbSpline
210
0.0
220
0.0
230
1.0
 70
    11
 71
     3
 72
   159
 73
   155
 74
     0
 42
0.000000001
 43
0.00000001
 40
0.0
 40
0.0
 40
0.0
 40
0.0
 40
0.0085973304182508
 40
0.0168019592621579
 40
0.0246318240291756
 40
0.0321011409365352
 40
0.0392171510710213
 40
0.0459819043868216
 40
0.0523939640931646
 40
0.0584496954170764
 40
0.0659608596813824
 40
0.072817061040103
 40
0.0790054936971231
 40
0.0845145161439142
 40
0.0893341583353625
 40
0.093437347688864
 40
0.0960269745298443
 40
0.0981853830476984
 40
0.0999108225336573
 40
0.1012019824127073
 40
0.1025357419859559
 40
0.1044179510633261
 40
0.1068693355485837
 40
0.1098916799182259
 40
0.1133708695599596
 40
0.1215825497331102
 40
0.1295306305793577
 40
0.1372069337999492
 40
0.1444159253580369
 40
0.1516321315067828
 40
0.1593408039944555
 40
0.1675428852925467
 40
0.1762274638683626
 40
0.1853813267885749
 40
0.1949872725870341
 40
0.2062909067608321
 40
0.2173744731407531
 40
0.2282346410714195
 40
0.2388753229447501
 40
0.2493082242763159
 40
0.2595833175400334
 40
0.267310396415909
 40
0.2750874064139726
 40
0.2829325996938747
 40
0.2908625769163791
 40
0.2988908168115283
 40
0.3070276802734659
 40
0.315280480675098
 40
0.3236257979598123
 40
0.3325807966088365
 40
0.3409442179968247
 40
0.3486990445724651
 40
0.3558299566130021
 40
0.3609868982949896
 40
0.3657545861594498
 40
0.3707989149354512
 40
0.3765410433022929
 40
0.3811566919241507
 40
0.3861427376987913
 40
0.3914988001064227
 40
0.3972237348627172
 40
0.4033154795456864
 40
0.4097709075034477
 40
0.4162148070482262
 40
0.4225041931019249
 40
0.4279408548832174
 40
0.4325272050281216
 40
0.4362665526752685
 40
0.4391624074879983
 40
0.4416486978463828
 40
0.4443170001682449
 40
0.4473808833545836
 40
0.4510931659473095
 40
0.4554505619308069
 40
0.4604464723011075
 40
0.4657344467816158
 40
0.4715747217676041
 40
0.4777857099533697
 40
0.483968125285114
 40
0.49010681076812
 40
0.4987532906111802
 40
0.5073209427003195
 40
0.5158205640913324
 40
0.5242505192548118
 40
0.5326628927846017
 40
0.541081547562673
 40
0.5493862889834122
 40
0.5575296891127605
 40
0.5664634777660664
 40
0.5752008525905123
 40
0.5837387613829355
 40
0.5920716407602019
 40
0.596178445926976
 40
0.5998619261519891
 40
0.6031190385028732
 40
0.6059473488327416
 40
0.6083449377795395
 40
0.6105459794457677
 40
0.614369543518363
 40
0.6187697763407886
 40
0.6237393794690751
 40
0.6292775698375054
 40
0.6353849208773424
 40
0.641936681855402
 40
0.6490349355267623
 40
0.6566748346258955
 40
0.6644782495251128
 40
0.6760309628010619
 40
0.6872467923771747
 40
0.6981157798453617
 40
0.708629875186702
 40
0.7187849045004401
 40
0.7285928984514701
 40
0.7382672504092727
 40
0.7478916114396195
 40
0.7574755552164183
 40
0.7670349449966941
 40
0.776592677084496
 40
0.7861760502643502
 40
0.795836167703086
 40
0.8056184032851654
 40
0.8155333520192903
 40
0.8255861340133364
 40
0.8357768682227538
 40
0.8461012019985132
 40
0.8565700617487986
 40
0.8672375785400571
 40
0.8780989146257031
 40
0.8891414949509919
 40
0.9003503903650724
 40
0.9117089883623991
 40
0.9158386194061304
 40
0.9194788684828302
 40
0.9226202232745729
 40
0.9252638145153068
 40
0.9270210753357344
 40
0.9284610523844414
 40
0.9295842316192552
 40
0.9303910128933444
 40
0.9310904970864868
 40
0.9320228482466806
 40
0.9334155626814051
 40
0.9356932946351805
 40
0.938630647009106
 40
0.9422247211683564
 40
0.9464715720092842
 40
0.9513660867541259
 40
0.9566238852167782
 40
0.9624568702323484
 40
0.9688577185066556
 40
0.9758187232638116
 40
0.9833325766427082
 40
0.9913936560179835
 40
1.0
 40
1.0
 40
1.0
 40
1.0
 10
-247.5646014494775
 20
30.90000117079634
 30
0.0
 10
-248.1724702485329
 20
26.46263888304928
 30
0.0
 10
-249.3604421306863
 20
17.7906003823665
 30
0.0
 10
-250.0551006515837
 20
4.98419844808377
 30
0.0
 10
-249.9825275407478
 20
-7.228477864198228
 30
0.0
 10
-249.1910210024899
 20
-18.82838500749691
 30
0.0
 10
-247.8280664261392
 20
-29.79581209340067
 30
0.0
 10
-246.0022750168361
 20
-40.12014384742587
 30
0.0
 10
-243.8181232748468
 20
-49.79538543331115
 30
0.0
 10
-241.1234644014271
 20
-59.7225705792668
 30
0.0
 10
-237.9160697028273
 20
-69.7199672473173
 30
0.0
 10
-234.231904410508
 20
-79.6049948070187
 30
0.0
 10
-230.551272098478
 20
-88.3724905833053
 30
0.0
 10
-227.0033288327349
 20
-96.0480277412933
 30
0.0
 10
-223.7017029348305
 20
-102.651145031681
 30
0.0
 10
-220.9333768205657
 20
-107.8452987344911
 30
0.0
 10
-218.7297652837365
 20
-111.7949295360469
 30
0.0
 10
-217.0796533823677
 20
-114.6606529702436
 30
0.0
 10
-215.7357026685526
 20
-116.9364301927827
 30
0.0
 10
-214.5898327332177
 20
-118.8396646593697
 30
0.0
 10
-213.3882052750287
 20
-120.8026346970005
 30
0.0
 10
-211.8553289893396
 20
-123.2568813093921
 30
0.0
 10
-209.8278452832101
 20
-126.4175746559076
 30
0.0
 10
-207.3028300917462
 20
-130.2258714452591
 30
0.0
 10
-203.0433622960163
 20
-136.4079070893487
 30
0.0
 10
-197.0988131284594
 20
-144.4741537745735
 30
0.0
 10
-189.4698700331309
 20
-153.9400658306024
 30
0.0
 10
-181.7934062441427
 20
-162.6977589946584
 30
0.0
 10
-174.0355739961746
 20
-170.8789498693289
 30
0.0
 10
-165.9588551222065
 20
-178.7752732362843
 30
0.0
 10
-157.1978786215727
 20
-186.6930924316349
 30
0.0
 10
-147.5266995556003
 20
-194.7214035673424
 30
0.0
 10
-136.9021408164851
 20
-202.7603751033152
 30
0.0
 10
-125.2904112578585
 20
-210.692513714549
 30
0.0
 10
-112.1111625193454
 20
-218.7219519506814
 30
0.0
 10
-97.56477168498738
 20
-226.4332048221238
 30
0.0
 10
-81.90732224974703
 20
-233.4404878460431
 30
0.0
 10
-66.08489591657118
 20
-239.257255043654
 30
0.0
 10
-50.17207833554514
 20
-243.8598103106302
 30
0.0
 10
-34.22416230156377
 20
-247.2312048263997
 30
0.0
 10
-19.53847001949304
 20
-249.1854529844222
 30
0.0
 10
-6.126439648055146
 20
-250.0285951954601
 30
0.0
 10
6.050525219062655
 20
-250.0329863707921
 30
0.0
 10
18.3048232525048
 20
-249.2651620883025
 30
0.0
 10
30.60830943018915
 20
-247.7385216405399
 30
0.0
 10
42.93235002507586
 20
-245.4610084262829
 30
0.0
 10
55.24717565479897
 20
-242.4432635108983
 30
0.0
 10
67.50801739069061
 20
-238.7006253186457
 30
0.0
 10
79.92042910392914
 20
-234.1612722570341
 30
0.0
 10
92.09481133221797
 20
-228.9421526481981
 30
0.0
 10
103.6806929332308
 20
-223.2404661335732
 30
0.0
 10
114.142894152753
 20
-217.4643181523665
 30
0.0
 10
122.9290287556997
 20
-212.1156206808157
 30
0.0
 10
130.2359213687099
 20
-207.3168583316677
 30
0.0
 10
136.5262435186334
 20
-202.9354210775545
 30
0.0
 10
142.9338929929315
 20
-198.2134489625916
 30
0.0
 10
149.1359831333409
 20
-193.3589709825351
 30
0.0
 10
155.1743750356578
 20
-188.3578022879923
 30
0.0
 10
160.9319763704587
 20
-183.3369085048888
 30
0.0
 10
166.9643735284515
 20
-177.7797294821149
 30
0.0
 10
173.2337424130908
 20
-171.6574320666316
 30
0.0
 10
179.6972972769425
 20
-164.941618632011
 30
0.0
 10
186.1802843174575
 20
-157.7452667007261
 30
0.0
 10
192.4791331432994
 20
-150.2558121507262
 30
0.0
 10
198.200664916909
 20
-142.9656818281535
 30
0.0
 10
203.1296316223957
 20
-136.2612954857528
 30
0.0
 10
207.1337637007492
 20
-130.4925521644075
 30
0.0
 10
210.291309231261
 20
-125.7142268283154
 30
0.0
 10
212.7868146392074
 20
-121.7826371891746
 30
0.0
 10
214.9373968513761
 20
-118.2792648674
 30
0.0
 10
217.0813555967952
 20
-114.6704896506517
 30
0.0
 10
219.4781708016904
 20
-110.4827815522279
 30
0.0
 10
222.2085132689824
 20
-105.490469199291
 30
0.0
 10
225.2767072240191
 20
-99.55522357281735
 30
0.0
 10
228.5332017654707
 20
-92.80703405543115
 30
0.0
 10
231.8917746733827
 20
-85.26139687202898
 30
0.0
 10
235.2283329413654
 20
-77.01930315158606
 30
0.0
 10
238.4100053640119
 20
-68.21352685041805
 30
0.0
 10
241.2856278589419
 20
-59.12804286929143
 30
0.0
 10
244.1171335985423
 20
-48.70794649217423
 30
0.0
 10
246.6806739418608
 20
-36.93017372146361
 30
0.0
 10
248.696746224505
 20
-23.78173925864188
 30
0.0
 10
249.8552838295659
 20
-10.61266908668191
 30
0.0
 10
250.1321996342136
 20
2.55119028571049
 30
0.0
 10
249.5054652214573
 20
15.68308403850641
 30
0.0
 10
248.0403693956692
 20
28.6962600857745
 30
0.0
 10
245.779906782964
 20
41.46070371500992
 30
0.0
 10
242.7103342177934
 20
54.33367533487232
 30
0.0
 10
238.823666927704
 20
67.22077290371185
 30
0.0
 10
234.1246264045043
 20
80.04838642979718
 30
0.0
 10
228.8578734202191
 20
92.30621127304302
 30
0.0
 10
224.0348789852823
 20
102.1071049059349
 30
0.0
 10
220.0565887803401
 20
109.4927265146841
 30
0.0
 10
217.2171839958578
 20
114.488698054972
 30
0.0
 10
214.6191484769858
 20
118.8542262934052
 30
0.0
 10
212.2980474746353
 20
122.6045060688788
 30
0.0
 10
210.2178737409391
 20
125.8568522430551
 30
0.0
 10
207.8117482918666
 20
129.5136179789511
 30
0.0
 10
204.7579875306521
 20
133.9883721160431
 30
0.0
 10
200.7659820140341
 20
139.5604867570023
 30
0.0
 10
196.0957534903652
 20
145.7368319875226
 30
0.0
 10
190.6973306667399
 20
152.4667487863361
 30
0.0
 10
184.5575086093592
 20
159.6458535801966
 30
0.0
 10
177.6320487488687
 20
167.2074106976686
 30
0.0
 10
169.8786242774808
 20
175.0760107024606
 30
0.0
 10
161.3488994758757
 20
183.0764061868926
 30
0.0
 10
150.7473224886933
 20
192.2255613558022
 30
0.0
 10
138.2116723381477
 20
201.9492268829502
 30
0.0
 10
123.774983079362
 20
211.7648517191655
 30
0.0
 10
109.2130071308713
 20
220.3899167117612
 30
0.0
 10
94.62507692417661
 20
227.8441875324435
 30
0.0
 10
80.09585964518004
 20
234.1558239645604
 30
0.0
 10
65.59800545209595
 20
239.3942381930925
 30
0.0
 10
51.04696850146826
 20
243.6143100317602
 30
0.0
 10
36.34891273509047
 20
246.8286835748618
 30
0.0
 10
21.51122940867109
 20
248.9993304894903
 30
0.0
 10
6.581419653644067
 20
250.0793543863988
 30
0.0
 10
-8.390252860253696
 20
250.0089878832553
 30
0.0
 10
-23.3610176735856
 20
248.7898217442334
 30
0.0
 10
-38.3104803681861
 20
246.4648614995447
 30
0.0
 10
-53.21747547025365
 20
243.0572859417993
 30
0.0
 10
-68.04342919262967
 20
238.5910398573667
 30
0.0
 10
-82.73281128129254
 20
233.0932021458483
 30
0.0
 10
-97.22789859322285
 20
226.5927142129795
 30
0.0
 10
-111.4775333170184
 20
219.1155827009887
 30
0.0
 10
-125.4559626455135
 20
210.6695165481562
 30
0.0
 10
-139.1325661869021
 20
201.252320229881
 30
0.0
 10
-152.4616286385414
 20
190.862019601951
 30
0.0
 10
-165.3650075252798
 20
179.5162110524647
 30
0.0
 10
-177.7567082874525
 20
167.2388275224198
 30
0.0
 10
-186.9986478810205
 20
156.9054549821119
 30
0.0
 10
-193.303972930828
 20
149.2333856973929
 30
0.0
 10
-196.8083976081081
 20
144.7812806975995
 30
0.0
 10
-199.7643835166317
 20
140.8795140830835
 30
0.0
 10
-202.0803452234155
 20
137.719586801993
 30
0.0
 10
-203.8442394433455
 20
135.2506061346502
 30
0.0
 10
-205.1328910087357
 20
133.4126605927044
 30
0.0
 10
-206.1278862202163
 20
131.9718319765856
 30
0.0
 10
-206.8982506118622
 20
130.8433638819759
 30
0.0
 10
-207.6083034178309
 20
129.7937987179679
 30
0.0
 10
-208.4829592686142
 20
128.4881339640262
 30
0.0
 10
-209.8011676393392
 20
126.4923514934881
 30
0.0
 10
-211.6641621548281
 20
123.6074537347333
 30
0.0
 10
-214.0912792016597
 20
119.7244782956428
 30
0.0
 10
-216.9726577020105
 20
114.9178371977265
 30
0.0
 10
-220.2491055197551
 20
109.1611558598331
 30
0.0
 10
-223.7798791055644
 20
102.5534970807373
 30
0.0
 10
-227.4781102730001
 20
95.1003644119167
 30
0.0
 10
-231.2505090820843
 20
86.81022428815757
 30
0.0
 10
-235.0431876535613
 20
77.55842425188743
 30
0.0
 10
-238.7404759572208
 20
67.32631345261585
 30
0.0
 10
-242.1888849101595
 20
56.09739379806108
 30
0.0
 10
-245.2992935231249
 20
43.87440200704707
 30
0.0
 10
-246.7932079734817
 20
35.31810611962479
 30
0.0
 10
-247.5646014494775
 20
30.90000117079634
 30
0.0
  0
SPLINE
  5
74
330
1F
100
AcDbEntity
  8
0
  6
Continuous
 62
     7
370
    25
100
AcDbSpline
210
0.0
220
0.0
230
1.0
 70
    11
 71
     3
 72
    25
 73
    21
 74
     0
 42
0.000000001
 43
0.00000001
 40
0.0
 40
0.0
 40
0.0
 40
0.0
 40
0.0083333333333333
 40
0.0125
 40
0.0166666666666666
 40
0.0833333333333334
 40
0.1666666666666666
 40
0.25
 40
0.3333333333333334
 40
0.4166666666666666
 40
0.5
 40
0.5833333333333333
 40
0.6666666666666667
 40
0.75
 40
0.8333333333333334
 40
0.9166666666666666
 40
0.9833333333333333
 40
0.9875
 40
0.9916666666666667
 40
1.0
 40
1.0
 40
1.0
 40
1.0
 10
34.99999999999999
 20
-0.01863615740809
 30
0.0
 10
35.00000000000001
 20
-0.6206056481499188
 30
0.0
 10
34.9736287569446
 20
-1.551514120374793
 30
0.0
 10
34.88720315393575
 20
-2.789849164359765
 30
0.0
 10
34.346713914355
 20
-8.349413726875301
 30
0.0
 10
30.626123271625
 20
-19.47588043214951
 30
0.0
 10
18.61816944449754
 20
-31.48383425927696
 30
0.0
 10
-0.0000000000000121
 20
-36.75808287036152
 30
0.0
 10
-18.61816944449755
 20
-31.48383425927696
 30
0.0
 10
-31.48383425927696
 20
-18.61816944449752
 30
0.0
 10
-36.75808287036153
 20
0.0000000000000007
 30
0.0
 10
-31.48383425927696
 20
18.61816944449755
 30
0.0
 10
-18.61816944449754
 20
31.48383425927697
 30
0.0
 10
0.0000000000000052
 20
36.75808287036152
 30
0.0
 10
18.61816944449755
 20
31.48383425927697
 30
0.0
 10
30.626123271625
 20
19.47588043214951
 30
0.0
 10
34.34671391435502
 20
8.349413726875303
 30
0.0
 10
34.88720315393576
 20
2.789849164359767
 30
0.0
 10
34.97083333333327
 20
1.45833333333439
 30
0.0
 10
34.99999999999995
 20
0.5833333333337387
 30
0.0
 10
34.99999999999999
 20
-0.01863615740809
 30
0.0
  0
SPLINE
  5
75
330
1F
100
AcDbEntity
  8
0
  6
Continuous
 62
     7
370
    25
100
AcDbSpline
210
0.0
220
0.0
230
1.0
 70
    11
 71
     3
 72
   119
 73
   115
 74
     0
 42
0.000000001
 43
0.00000001
 40
0.0
 40
0.0
 40
0.0
 40
0.0
 40
0.0312500000000002
 40
0.0312500000000002
 40
0.0468750000000003
 40
0.0468750000000003
 40
0.0625000000000004
 40
0.0625000000000004
 40
0.0937500000000005
 40
0.0937500000000005
 40
0.1093750000000006
 40
0.1093750000000006
 40
0.1250000000000007
 40
0.1250000000000007
 40
0.1562500000000008
 40
0.1562500000000008
 40
0.1718750000000009
 40
0.1718750000000009
 40
0.1875000000000009
 40
0.1875000000000009
 40
0.203125000000001
 40
0.203125000000001
 40
0.2187500000000011
 40
0.2187500000000011
 40
0.2500000000000012
 40
0.2500000000000012
 40
0.2656250000000013
 40
0.2656250000000013
 40
0.2812500000000014
 40
0.2812500000000014
 40
0.3125000000000016
 40
0.3125000000000016
 40
0.3203125000000016
 40
0.3203125000000016
 40
0.3281250000000016
 40
0.3281250000000016
 40
0.3437500000000017
 40
0.3437500000000017
 40
0.3750000000000018
 40
0.3750000000000018
 40
0.3828125000000018
 40
0.3828125000000018
 40
0.3906250000000018
 40
0.3906250000000018
 40
0.4062500000000018
 40
0.4062500000000018
 40
0.4218750000000018
 40
0.4218750000000018
 40
0.4296875000000017
 40
0.4296875000000017
 40
0.4375000000000017
 40
0.4375000000000017
 40
0.4687500000000016
 40
0.4687500000000016
 40
0.4843750000000014
 40
0.4843750000000014
 40
0.5000000000000013
 40
0.5000000000000013
 40
0.5312500000000012
 40
0.5312500000000012
 40
0.5468750000000011
 40
0.5468750000000011
 40
0.5625000000000009
 40
0.5625000000000009
 40
0.5937500000000008
 40
0.5937500000000008
 40
0.6250000000000007
 40
0.6250000000000007
 40
0.6406250000000006
 40
0.6406250000000006
 40
0.6562500000000003
 40
0.6562500000000003
 40
0.6875000000000001
 40
0.6875000000000001
 40
0.6953125000000001
 40
0.6953125000000001
 40
0.703125
 40
0.703125
 40
0.71875
 40
0.71875
 40
0.7499999999999998
 40
0.7499999999999998
 40
0.7578124999999998
 40
0.7578124999999998
 40
0.7656249999999997
 40
0.7656249999999997
 40
0.7812499999999997
 40
0.7968749999999997
 40
0.7968749999999997
 40
0.8046874999999996
 40
0.8046874999999996
 40
0.8124999999999996
 40
0.8124999999999996
 40
0.8437499999999996
 40
0.8437499999999996
 40
0.8593749999999994
 40
0.8593749999999994
 40
0.8671874999999996
 40
0.8671874999999996
 40
0.8749999999999996
 40
0.8749999999999996
 40
0.9062499999999997
 40
0.9062499999999997
 40
0.9218749999999998
 40
0.9218749999999998
 40
0.9374999999999999
 40
0.9374999999999999
 40
0.9687499999999999
 40
0.9687499999999999
 40
0.984375
 40
0.984375
 40
0.9921875000000001
 40
0.9921875000000001
 40
1.0
 40
1.0
 40
1.0
 40
1.0
 10
23.09999672539785
 20
-0.0122998621456731
 30
0.0
 10
23.09918408636051
 20
-1.538492503916967
 30
0.0
 10
22.94863042097644
 20
-3.037671546407081
 30
0.0
 10
22.50854556778441
 20
-5.247823175239109
 30
0.0
 10
22.32587292719993
 20
-5.978055213595969
 30
0.0
 10
21.88713729676053
 20
-7.425292388252105
 30
0.0
 10
21.62924365512405
 20
-8.146267528822667
 30
0.0
 10
20.75732750521859
 20
-10.24923303552964
 30
0.0
 10
20.04674277558637
 20
-11.5763112045845
 30
0.0
 10
18.79073042191492
 20
-13.45684470687313
 30
0.0
 10
18.34014503488833
 20
-14.06521121617184
 30
0.0
 10
17.37296236190098
 20
-15.24372871800852
 30
0.0
 10
16.86241810984209
 20
-15.80626697914633
 30
0.0
 10
15.26142179242948
 20
-17.40620252043179
 30
0.0
 10
14.09852429515144
 20
-18.36130897884214
 30
0.0
 10
12.20900841214148
 20
-19.62457967120899
 30
0.0
 10
11.55178687210054
 20
-20.01849763723372
 30
0.0
 10
10.21521649188344
 20
-20.73242338980946
 30
0.0
 10
9.533343997403069
 20
-21.05448902591653
 30
0.0
 10
8.142979233661489
 20
-21.63025762942778
 30
0.0
 10
7.43448615339554
 20
-21.88395847782697
 30
0.0
 10
5.990661829644337
 20
-22.32243700555849
 30
0.0
 10
5.253879888420635
 20
-22.50750621793982
 30
0.0
 10
3.010936781043481
 20
-22.95361888310337
 30
0.0
 10
1.510496154136013
 20
-23.09966737810419
 30
0.0
 10
-0.7476050118889345
 20
-23.10016546799775
 30
0.0
 10
-1.50155464906574
 20
-23.06363372390067
 30
0.0
 10
-3.012012221253093
 20
-22.91535837148092
 30
0.0
 10
-3.769399185140942
 20
-22.8029392293683
 30
0.0
 10
-5.9954216534497
 20
-22.35966346030658
 30
0.0
 10
-7.435203309261563
 20
-21.92280573785465
 30
0.0
 10
-9.179926945612559
 20
-21.20097981232417
 30
0.0
 10
-9.526096778430155
 20
-21.04774792408945
 30
0.0
 10
-10.21279248764485
 20
-20.72324979611869
 30
0.0
 10
-10.55423380656703
 20
-20.55146819902613
 30
0.0
 10
-11.56064369844826
 20
-20.01350301158161
 30
0.0
 10
-12.20892399109919
 20
-19.62446408262879
 30
0.0
 10
-14.08778648632989
 20
-18.36883050493095
 30
0.0
 10
-15.25302000053433
 20
-17.41456337448038
 30
0.0
 10
-16.59734977794876
 20
-16.07116852129007
 30
0.0
 10
-16.86104009149084
 20
-15.79429508222214
 30
0.0
 10
-17.37146783567251
 20
-15.231104206372
 30
0.0
 10
-17.61882770605223
 20
-14.9442180292031
 30
0.0
 10
-18.33775735710272
 20
-14.06796446084777
 30
0.0
 10
-18.78623175911677
 20
-13.46303887968051
 30
0.0
 10
-19.62237414060189
 20
-12.2122214469471
 30
0.0
 10
-20.01004238534249
 20
-11.56632997366103
 30
0.0
 10
-20.54523200423224
 20
-10.56628545057224
 30
0.0
 10
-20.7158960738413
 20
-10.22772674310014
 30
0.0
 10
-21.04146693652433
 20
-9.539990232325858
 30
0.0
 10
-21.19638137066459
 20
-9.19062501173776
 30
0.0
 10
-21.92289081241751
 20
-7.43663899213881
 30
0.0
 10
-22.35921029272081
 20
-5.995596082245274
 30
0.0
 10
-22.80132578203557
 20
-3.778545607157182
 30
0.0
 10
-22.91305078747391
 20
-3.030214887130268
 30
0.0
 10
-23.06289094644949
 20
-1.51431827689008
 30
0.0
 10
-23.10002460371265
 20
-0.7540316788695517
 30
0.0
 10
-23.09995075572014
 20
1.510323456342055
 30
0.0
 10
-22.95334333553724
 20
3.007877246673456
 30
0.0
 10
-22.51149197396265
 20
5.236034096407522
 30
0.0
 10
-22.32561099640522
 20
5.979285979476115
 30
0.0
 10
-21.88551368148114
 20
7.430279812017219
 30
0.0
 10
-21.63119122008398
 20
8.140506888800155
 30
0.0
 10
-20.76766980040437
 20
10.22638915195084
 30
0.0
 10
-20.05861680331295
 20
11.55812417191083
 30
0.0
 10
-18.36400037824422
 20
14.09616375271314
 30
0.0
 10
-17.40625374918098
 20
15.26098686278953
 30
0.0
 10
-15.81064823075883
 20
16.85822499330757
 30
0.0
 10
-15.2520853954053
 20
17.36545259356879
 30
0.0
 10
-14.08033551184747
 20
18.32837157420231
 30
0.0
 10
-13.46518115086618
 20
18.78488597683343
 30
0.0
 10
-11.57706122409692
 20
20.04679105908502
 30
0.0
 10
-10.25018843926085
 20
20.75628032185484
 30
0.0
 10
-8.507114863822265
 20
21.47979207729255
 30
0.0
 10
-8.154238046030917
 20
21.61625327471651
 30
0.0
 10
-7.439822093001421
 20
21.87242672801805
 30
0.0
 10
-7.077281752714108
 20
21.99243077158195
 30
0.0
 10
-5.984487848340668
 20
22.32432794494746
 30
0.0
 10
-5.250662316118263
 20
22.50795998479745
 30
0.0
 10
-3.033784339164413
 20
22.94944492409416
 30
0.0
 10
-1.535477677023249
 20
23.09892494847314
 30
0.0
 10
0.363545233073673
 20
23.1002616101095
 30
0.0
 10
0.7456933323154629
 20
23.09109335686734
 30
0.0
 10
1.505449943706584
 20
23.05402939679778
 30
0.0
 10
1.883465788769755
 20
23.02619032907844
 30
0.0
 10
3.01202898020559
 20
22.91526170952551
 30
0.0
 10
4.50218105125944
 20
22.69438947221236
 30
0.0
 10
5.96357374535612
 20
22.32973285872527
 30
0.0
 10
7.048683769172885
 20
22.00156477302882
 30
0.0
 10
7.408561447831477
 20
21.88304665301249
 30
0.0
 10
8.124599431435485
 20
21.62742235272004
 30
0.0
 10
8.481388952057472
 20
21.49000761959874
 30
0.0
 10
10.23693029419704
 20
20.76356026541835
 30
0.0
 10
11.56485728594241
 20
20.05328304583952
 30
0.0
 10
13.44500034912149
 20
18.79918846259901
 30
0.0
 10
14.05295590736163
 20
18.34948418682576
 30
0.0
 10
14.93588472198513
 20
17.62595054134034
 30
0.0
 10
15.22534917674771
 20
17.37650352132774
 30
0.0
 10
15.78813627469656
 20
16.86679830768775
 30
0.0
 10
16.06230085699562
 20
16.6058737518895
 30
0.0
 10
17.39757169157884
 20
15.27138924216582
 30
0.0
 10
18.35303562372046
 20
14.1090967317764
 30
0.0
 10
19.61602738620238
 20
12.2226879769469
 30
0.0
 10
20.01025868033108
 20
11.56611864729043
 30
0.0
 10
20.72603126621422
 20
10.2282540528125
 30
0.0
 10
21.04874864296084
 20
9.546028236734504
 30
0.0
 10
21.91388196059686
 20
7.460407196751429
 30
0.0
 10
22.35428692808713
 20
6.018448414423399
 30
0.0
 10
22.80219346860345
 20
3.775107861433806
 30
0.0
 10
22.91406445323193
 20
3.022010666852334
 30
0.0
 10
23.02583178588023
 20
1.888198911054047
 30
0.0
 10
23.05377164000849
 20
1.509357081281987
 30
0.0
 10
23.0909553750161
 20
0.7498836559701468
 30
0.0
 10
23.10019988515718
 20
0.3692482982971427
 30
0.0
 10
23.09999672539785
 20
-0.0122998621456728
 30
0.0
  0
SPLINE
  5
76
330
1B
100
AcDbEntity
 67
     1
  8
0
  6
Continuous
 62
     7
370
    25
100
AcDbSpline
210
0.0
220
0.0
230
1.0
 70
    11
 71
     3
 72
   179
 73
   175
 74
     0
 42
0.000000001
 43
0.00000001
 40
0.0
 40
0.0
 40
0.0
 40
0.0
 40
0.0070511580865745
 40
0.0133143600156244
 40
0.0187904017623414
 40
0.0234803976622284
 40
0.0273891806973577
 40
0.0305311377989141
 40
0.0315189372051148
 40
0.032420435216509
 40
0.0332492090109349
 40
0.033993932773414
 40
0.0352275105552519
 40
0.0362269398239694
 40
0.0371871264650523
 40
0.0381200006823396
 40
0.040210789301962
 40
0.0435663175953443
 40
0.0461521901318252
 40
0.048401610645121
 40
0.0507404066078625
 40
0.053598106494527
 40
0.0569779632104526
 40
0.0608026942004006
 40
0.0649694183243431
 40
0.0684877262587452
 40
0.0713525231751375
 40
0.0737780237136641
 40
0.0763047938510319
 40
0.0789589120741927
 40
0.0857080966890957
 40
0.093107391209739
 40
0.1010995530038069
 40
0.1096879880681321
 40
0.1188735616641259
 40
0.1286551876744502
 40
0.1389042291853241
 40
0.1507309219046511
 40
0.1623146746802453
 40
0.173637325045934
 40
0.1846836089477326
 40
0.1954415691551548
 40
0.2059027200331367
 40
0.2161718976543903
 40
0.2264016884282082
 40
0.2365863876702859
 40
0.2467229277054347
 40
0.2568131179017391
 40
0.2668646560703372
 40
0.2768863965860882
 40
0.2868666418283852
 40
0.2968306795275648
 40
0.3068101378727849
 40
0.3168287609381011
 40
0.3269024879925011
 40
0.3370411838163601
 40
0.347282749756226
 40
0.3576444247627638
 40
0.3681211037528517
 40
0.3787039847073393
 40
0.3893826889542213
 40
0.4001461725164642
 40
0.4110141121613891
 40
0.4220792642470375
 40
0.4333345859680228
 40
0.4447630644049499
 40
0.4563466639623426
 40
0.4628951113063797
 40
0.4694833678406074
 40
0.4759730551169806
 40
0.4818086627062916
 40
0.4869352900734336
 40
0.4913588854910906
 40
0.4936388346939591
 40
0.4956777854797489
 40
0.4974767699341762
 40
0.499106364420695
 40
0.5011895629404151
 40
0.5038715078068305
 40
0.5071485662616851
 40
0.510856721914577
 40
0.5175709385484977
 40
0.5241927531877714
 40
0.5306624743002663
 40
0.5369580293846902
 40
0.542873980008181
 40
0.5462167136754162
 40
0.5492824675403313
 40
0.5506605331676474
 40
0.5519251029255978
 40
0.55309299726201
 40
0.5542408422388534
 40
0.5566909385899963
 40
0.5595016495243036
 40
0.5627870390113049
 40
0.566617662698808
 40
0.576751856203319
 40
0.5867007637607978
 40
0.5963272775948137
 40
0.6056524575863343
 40
0.6146936431595273
 40
0.6236801330930645
 40
0.6328345782014486
 40
0.6437517142743565
 40
0.6549570338488647
 40
0.666474374920694
 40
0.6721624028758384
 40
0.6778016647987677
 40
0.6833505045536333
 40
0.6887492537455281
 40
0.6939353276332276
 40
0.6988600971063925
 40
0.7034785919228366
 40
0.7077339981901205
 40
0.7116061613038644
 40
0.7133974329855575
 40
0.7150875968249798
 40
0.7166254804537784
 40
0.7188253943246065
 40
0.7212395752906021
 40
0.7238045573018859
 40
0.7267608934460571
 40
0.7298839006540024
 40
0.7331632006390706
 40
0.7365993279891517
 40
0.7413353896866255
 40
0.7463369968784318
 40
0.7516053069292844
 40
0.7579252657705058
 40
0.764311454490568
 40
0.7704085198248708
 40
0.7762160049185829
 40
0.7817294681808538
 40
0.7869572535296405
 40
0.7919210326392386
 40
0.7966519245648962
 40
0.8011902744498752
 40
0.80590515074218
 40
0.8109498369395839
 40
0.8163321405895365
 40
0.8220594929008523
 40
0.8281482132127044
 40
0.8346135850214911
 40
0.8397199811142648
 40
0.8450509690386968
 40
0.8503308109532056
 40
0.8548868153001009
 40
0.85869005097437
 40
0.8617466664030322
 40
0.8640749688106126
 40
0.8657363203646519
 40
0.8663846553887519
 40
0.8672958273825088
 40
0.8684756236408163
 40
0.870589950884775
 40
0.8732919937107748
 40
0.8774106590053473
 40
0.8820546406035135
 40
0.8872054503159652
 40
0.8928205772929116
 40
0.8988335414701505
 40
0.9048465141014396
 40
0.9105820993755289
 40
0.9160226562609236
 40
0.921271041844021
 40
0.9264095317939806
 40
0.9314428880286871
 40
0.9363755744297251
 40
0.9459884953269619
 40
0.9558192215366093
 40
0.9660895103912402
 40
0.9768404929923481
 40
0.9881236756503228
 40
1.0
 40
1.0
 40
1.0
 40
1.0
 10
223.4899479683266
 20
-100.0395772694881
 30
0.0
 10
225.5486123919174
 20
-97.32153958855655
 30
0.0
 10
229.435888630871
 20
-92.18920079035831
 30
0.0
 10
234.7388724410197
 20
-84.89031044459611
 30
0.0
 10
239.2477108128099
 20
-78.49639007177001
 30
0.0
 10
242.9690133990971
 20
-73.02087103594815
 30
0.0
 10
245.9482198819672
 20
-68.50896137595655
 30
0.0
 10
247.8172538332971
 20
-65.45224407940164
 30
0.0
 10
248.9352607212045
 20
-63.67266068286118
 30
0.0
 10
249.388645746588
 20
-62.65248818379075
 30
0.0
 10
249.429353973888
 20
-61.64929143629572
 30
0.0
 10
249.212329037791
 20
-60.61727347556703
 30
0.0
 10
248.6786981439037
 20
-59.74218002309053
 30
0.0
 10
248.4561631970962
 20
-59.49570122576363
 30
0.0
 10
248.272213982152
 20
-59.27693447728465
 30
0.0
 10
247.9955556510452
 20
-58.97401585980725
 30
0.0
 10
247.523398078623
 20
-58.49002706944543
 30
0.0
 10
246.8582291891705
 20
-57.8839584325743
 30
0.0
 10
246.1169507944929
 20
-57.27339509991597
 30
0.0
 10
245.4449563542179
 20
-56.75612622469817
 30
0.0
 10
244.707373132378
 20
-56.21790972352393
 30
0.0
 10
243.7917935614896
 20
-55.5848072463813
 30
0.0
 10
242.6251039713526
 20
-54.82265680756287
 30
0.0
 10
241.1853936836485
 20
-53.93459190494444
 30
0.0
 10
239.5921797540549
 20
-53.00510132935182
 30
0.0
 10
238.0173240274408
 20
-52.12897068023334
 30
0.0
 10
236.6267763477594
 20
-51.38257169171749
 30
0.0
 10
235.3416281586309
 20
-50.71142376176478
 30
0.0
 10
234.04194906571
 20
-50.04885812666227
 30
0.0
 10
231.9245384116263
 20
-48.99492796041343
 30
0.0
 10
228.7431278603677
 20
-47.47405448562622
 30
0.0
 10
224.1642819693137
 20
-45.40258132153532
 30
0.0
 10
218.7652371554348
 20
-43.08967809306707
 30
0.0
 10
212.4808979468558
 20
-40.54004640916807
 30
0.0
 10
205.2328204525338
 20
-37.75694548546115
 30
0.0
 10
196.9814742613051
 20
-34.76358022344746
 30
0.0
 10
187.3649066359345
 20
-31.47575581682187
 30
0.0
 10
176.5168472372766
 20
-28.00336586899911
 30
0.0
 10
164.6111973494763
 20
-24.4594504784672
 30
0.0
 10
152.324346498879
 20
-21.06758843964336
 30
0.0
 10
139.7453760031564
 20
-17.8607467102619
 30
0.0
 10
126.956011739611
 20
-14.86703403470971
 30
0.0
 10
113.9861704775064
 20
-12.10059433788596
 30
0.0
 10
100.7861053473074
 20
-9.560893456447909
 30
0.0
 10
87.28794208781233
 20
-7.252668043617988
 30
0.0
 10
73.4638190430501
 20
-5.196299334632642
 30
0.0
 10
59.35551653799395
 20
-3.426142867724649
 30
0.0
 10
45.00633158246026
 20
-1.977429461123281
 30
0.0
 10
30.46317455970868
 20
-0.8862989900746548
 30
0.0
 10
15.79103064721492
 20
-0.1903874863680016
 30
0.0
 10
1.059052413194107
 20
0.075297323856513
 30
0.0
 10
-13.65932570710096
 20
-0.1246991697057415
 30
0.0
 10
-28.30663395611402
 20
-0.7586214499080562
 30
0.0
 10
-42.83661519442897
 20
-1.790581944683622
 30
0.0
 10
-57.20380611619216
 20
-3.186329066704991
 30
0.0
 10
-71.37952292326631
 20
-4.913733983130622
 30
0.0
 10
-85.34283746817395
 20
-6.943931514585736
 30
0.0
 10
-99.06966997810353
 20
-9.250084154181422
 30
0.0
 10
-112.5181527522417
 20
-11.80351627350328
 30
0.0
 10
-125.6376848783903
 20
-14.57393448812831
 30
0.0
 10
-138.3782071611713
 20
-17.53021141448681
 30
0.0
 10
-150.7032767193751
 20
-20.64322899913339
 30
0.0
 10
-162.6129595175623
 20
-23.89457121463708
 30
0.0
 10
-174.1031750315196
 20
-27.26847955384453
 30
0.0
 10
-185.1379275445165
 20
-30.74322456571369
 30
0.0
 10
-195.6374622550119
 20
-34.28312503748761
 30
0.0
 10
-204.0431891929687
 20
-37.31722534944824
 30
0.0
 10
-210.6140836609681
 20
-39.82021095791256
 30
0.0
 10
-215.5579246717492
 20
-41.78088913456436
 30
0.0
 10
-220.0496670787361
 20
-43.63792463625445
 30
0.0
 10
-223.9473515140673
 20
-45.31701180328321
 30
0.0
 10
-227.1831490925271
 20
-46.766041955138
 30
0.0
 10
-229.5327752740442
 20
-47.8567537874598
 30
0.0
 10
-231.1956514347497
 20
-48.649597020294
 30
0.0
 10
-232.325912115055
 20
-49.19830619160904
 30
0.0
 10
-233.3094112908324
 20
-49.68377397338649
 30
0.0
 10
-234.276978594584
 20
-50.16877544832688
 30
0.0
 10
-235.3720828042905
 20
-50.72729189198662
 30
0.0
 10
-236.6992640551015
 20
-51.4201481603175
 30
0.0
 10
-238.2164883052947
 20
-52.23721322696395
 30
0.0
 10
-240.2321639719706
 20
-53.366267250756
 30
0.0
 10
-242.5002407674506
 20
-54.72471385195754
 30
0.0
 10
-244.7363653921405
 20
-56.21125358072761
 30
0.0
 10
-246.6022978460562
 20
-57.63037478233208
 30
0.0
 10
-248.0782652683332
 20
-59.00386150156655
 30
0.0
 10
-249.0337501057542
 20
-60.16726902037624
 30
0.0
 10
-249.6277533823472
 20
-61.29030198617444
 30
0.0
 10
-249.8688379658953
 20
-61.96950140001896
 30
0.0
 10
-250.0035992100156
 20
-62.80905084909415
 30
0.0
 10
-249.991194460473
 20
-63.60281078126492
 30
0.0
 10
-249.7537533329238
 20
-64.54269677419664
 30
0.0
 10
-248.9120833762797
 20
-65.8281618811814
 30
0.0
 10
-247.4801691132498
 20
-67.9713895908649
 30
0.0
 10
-245.2389487760929
 20
-71.17377208146922
 30
0.0
 10
-242.4662731865471
 20
-75.06453363616681
 30
0.0
 10
-237.5004759391448
 20
-81.91356169690155
 30
0.0
 10
-230.4707307453525
 20
-91.35441365016362
 30
0.0
 10
-221.5472959005386
 20
-102.9105443932846
 30
0.0
 10
-212.6752289167962
 20
-114.0038648263681
 30
0.0
 10
-203.9088591228148
 20
-124.6005995676805
 30
0.0
 10
-195.1827362308232
 20
-134.8132522992303
 30
0.0
 10
-186.3568146634829
 20
-144.8234339842041
 30
0.0
 10
-176.7550410841026
 20
-155.374940904177
 30
0.0
 10
-166.2265766353929
 20
-166.5528150411609
 30
0.0
 10
-154.6741534157627
 20
-178.3595835862986
 30
0.0
 10
-144.7298286939242
 20
-188.1412191039933
 30
0.0
 10
-136.6024201724775
 20
-195.8866003826415
 30
0.0
 10
-130.0759352419532
 20
-201.0196687721123
 30
0.0
 10
-123.2841577639426
 20
-205.5382795121895
 30
0.0
 10
-116.339877890091
 20
-209.3812352367791
 30
0.0
 10
-109.3982503385434
 20
-212.5464783494397
 30
0.0
 10
-102.5999088477301
 20
-215.0520598315915
 30
0.0
 10
-96.0822453768354
 20
-216.9460778391378
 30
0.0
 10
-89.96119738501676
 20
-218.2985349311247
 30
0.0
 10
-85.14234125751217
 20
-219.0633041128951
 30
0.0
 10
-81.55302077192114
 20
-219.4807863818783
 30
0.0
 10
-79.09141254715364
 20
-219.7031183942145
 30
0.0
 10
-76.44735022638581
 20
-219.8777926027685
 30
0.0
 10
-73.81627761149316
 20
-219.9771699939301
 30
0.0
 10
-71.7093415576396
 20
-220.0018717180875
 30
0.0
 10
-70.15494540173549
 20
-219.9993989420579
 30
0.0
 10
-68.81638924900035
 20
-220.0001809623838
 30
0.0
 10
-67.1150391945385
 20
-219.9999477452192
 30
0.0
 10
-65.19156962605061
 20
-220.0000148936472
 30
0.0
 10
-62.72605115593556
 20
-219.9999941995708
 30
0.0
 10
-59.5783629829795
 20
-220.0000018629382
 30
0.0
 10
-55.55288111989309
 20
-219.9999994622119
 30
0.0
 10
-50.5823586451499
 20
-220.0000001801923
 30
0.0
 10
-44.58716702559767
 20
-219.9999999473745
 30
0.0
 10
-37.5720068083464
 20
-220.0000000134756
 30
0.0
 10
-30.03502315213087
 20
-219.999999996641
 30
0.0
 10
-22.32141590150835
 20
-220.0000000008328
 30
0.0
 10
-14.59372150690811
 20
-219.9999999997966
 30
0.0
 10
-6.998048640692272
 20
-220.0000000000415
 30
0.0
 10
0.3473442964273777
 20
-220.0000000000208
 30
0.0
 10
7.345355091325515
 20
-219.9999999998863
 30
0.0
 10
14.09988847379022
 20
-220.0000000004234
 30
0.0
 10
20.82175068702272
 20
-219.999999998297
 30
0.0
 10
27.67424376716695
 20
-220.0000000070403
 30
0.0
 10
34.61240647377837
 20
-219.9999999710602
 30
0.0
 10
41.5035137306574
 20
-220.0000001185602
 30
0.0
 10
48.19437840281628
 20
-219.9999995150032
 30
0.0
 10
53.93530890577622
 20
-220.0000017580919
 30
0.0
 10
58.72495709939803
 20
-219.9999948708475
 30
0.0
 10
62.54328835649783
 20
-220.0000201598305
 30
0.0
 10
65.57515748122623
 20
-219.9999299367485
 30
0.0
 10
67.95676574050663
 20
-220.0002066904093
 30
0.0
 10
69.77315979707457
 20
-219.9994178826028
 30
0.0
 10
71.26795623554132
 20
-220.0015443760126
 30
0.0
 10
72.63313987847674
 20
-219.9927612551728
 30
0.0
 10
73.9362651024682
 20
-219.9673242067365
 30
0.0
 10
75.27839635541606
 20
-219.9215176090103
 30
0.0
 10
76.6637468232126
 20
-219.8585087714303
 30
0.0
 10
78.70921159823537
 20
-219.7326489864168
 30
0.0
 10
81.6555366775002
 20
-219.4805379258151
 30
0.0
 10
86.01249839958044
 20
-218.9499283972202
 30
0.0
 10
91.5706552758148
 20
-217.9887453118156
 30
0.0
 10
98.2244540135686
 20
-216.3888052026784
 30
0.0
 10
105.4487656630049
 20
-214.0893742832459
 30
0.0
 10
113.0919530389857
 20
-210.9693713879752
 30
0.0
 10
120.8197351326214
 20
-207.0141387221597
 30
0.0
 10
128.2115789921185
 20
-202.3546023445302
 30
0.0
 10
134.9643010820029
 20
-197.2620107318281
 30
0.0
 10
140.9287686793809
 20
-191.8188823923653
 30
0.0
 10
146.4873562148503
 20
-186.3852942145221
 30
0.0
 10
151.8909623762536
 20
-181.079342130734
 30
0.0
 10
157.1282371662812
 20
-175.8276782013841
 30
0.0
 10
163.8610430522735
 20
-168.965918898578
 30
0.0
 10
172.1309679554084
 20
-160.3225928949878
 30
0.0
 10
182.0532577394977
 20
-149.6022352918696
 30
0.0
 10
192.1624378986764
 20
-138.2888215607812
 30
0.0
 10
202.4960156545224
 20
-126.2607595297931
 30
0.0
 10
213.0650075048626
 20
-113.4705452150161
 30
0.0
 10
219.9561378809495
 20
-104.5923601055615
 30
0.0
 10
223.4899479683266
 20
-100.0395772694881
 30
0.0
  0
VIEWPORT
  5
A6
330
1B
100
AcDbEntity
 67
     1
  8
0
100
AcDbViewport
 10
0.0
 20
0.0
 30
0.0
 40
205.6
 41
156.0
 68
     1
 69
     1
 12
-0.094292368
 22
0.0002339166
 13
0.0
 23
0.0
 14
10.0
 24
10.0
 15
10.0
 25
10.0
 16
0.0
 26
0.0
 36
1.0
 17
0.0
 27
0.0
 37
0.0
 42
50.0
 43
0.0
 44
0.0
 45
509.5934823535
 50
0.0
 51
0.0
 72
   100
 90
   557152
  1

281
     0
 71
     1
 74
     0
110
0.0
120
0.0
130
0.0
111
1.0
121
0.0
131
0.0
112
0.0
122
1.0
132
0.0
 79
     0
146
0.0
  0
ENDSEC
  0
SECTION
  2
OBJECTS
  0
DICTIONARY
  5
C
330
0
100
AcDbDictionary
281
     1
  3
ACAD_GROUP
350
D
  3
ACAD_LAYOUT
350
1A
  3
ACAD_MLINESTYLE
350
17
  3
ACAD_PLOTSETTINGS
350
19
  3
ACAD_PLOTSTYLENAME
350
E
  3
ACAD_SCALELIST
350
47
  0
DICTIONARY
  5
D
102
{ACAD_REACTORS
330
C
102
}
330
C
100
AcDbDictionary
281
     1
  0
DICTIONARY
  5
1A
102
{ACAD_REACTORS
330
C
102
}
330
C
100
AcDbDictionary
281
     1
  3
_Dimetrisch
350
A1
  3
_Isometrisch
350
92
  3
_Links
350
26
  3
_Normal auf
350
8D
  3
_Rechts
350
80
  3
_Rückseite
350
7A
  3
_Trimetrisch
350
9B
  3
_Unten
350
86
  3
_Vorderseite
350
1E
  3
Model
350
22
  0
DICTIONARY
  5
17
102
{ACAD_REACTORS
330
C
102
}
330
C
100
AcDbDictionary
281
     1
  3
Standard
350
18
  0
DICTIONARY
  5
19
102
{ACAD_REACTORS
330
C
102
}
330
C
100
AcDbDictionary
281
     1
  0
ACDBDICTIONARYWDFLT
  5
E
102
{ACAD_REACTORS
330
C
102
}
330
C
100
AcDbDictionary
281
     1
  3
Normal
350
F
100
AcDbDictionaryWithDefault
340
F
  0
DICTIONARY
  5
47
102
{ACAD_REACTORS
330
C
102
}
330
C
100
AcDbDictionary
281
     1
  3
A0
350
48
  3
A1
350
49
  3
A2
350
4A
  3
A3
350
4B
  3
A4
350
4C
  3
A5
350
4D
  3
A6
350
4E
  3
A7
350
4F
  3
A8
350
50
  3
A9
350
51
  3
B0
350
52
  3
B1
350
53
  3
B2
350
54
  3
B3
350
55
  3
B4
350
56
  3
B5
350
57
  3
B6
350
58
  3
B7
350
59
  3
B8
350
5A
  3
B9
350
5B
  3
C0
350
5C
  3
C1
350
5D
  3
C2
350
5E
  3
C3
350
5F
  3
C4
350
60
  3
C5
350
61
  3
C6
350
62
  3
C7
350
63
  3
C8
350
64
  3
C9
350
65
  3
D0
350
66
  3
D1
350
67
  3
D2
350
68
  0
LAYOUT
  5
A1
102
{ACAD_REACTORS
330
1A
102
}
330
1A
100
AcDbPlotSettings
  1

  2
none_device
  4
ISO_A4_(210.00_x_297.00_MM)
  6

 40
7.5
 41
20.0
 42
7.5
 43
20.0
 44
210.0
 45
297.0
 46
0.0
 47
0.0
 48
0.0
 49
0.0
140
0.0
141
0.0
142
1.0
143
1.9431282587
 70
   688
 72
     1
 73
     1
 74
     1
  7

 75
     0
147
0.5146340678
148
249.9899842095
149
220.0002302032
100
AcDbLayout
  1
_Dimetrisch
 70
     1
 71
     9
 10
0.0
 20
0.0
 11
0.0
 21
0.0
 12
0.0
 22
0.0
 32
0.0
 14
0.0
 24
0.0
 34
0.0
 15
0.0
 25
0.0
 35
0.0
146
0.0
 13
0.0
 23
0.0
 33
0.0
 16
1.0
 26
0.0
 36
0.0
 17
0.0
 27
1.0
 37
0.0
 76
     0
330
A0
331
B6
  0
LAYOUT
  5
92
102
{ACAD_REACTORS
330
1A
102
}
330
1A
100
AcDbPlotSettings
  1

  2
none_device
  4
ISO_A4_(210.00_x_297.00_MM)
  6

 40
7.5
 41
20.0
 42
7.5
 43
20.0
 44
210.0
 45
297.0
 46
0.0
 47
0.0
 48
0.0
 49
0.0
140
0.0
141
0.0
142
1.0
143
1.9431282587
 70
   688
 72
     1
 73
     1
 74
     1
  7

 75
     0
147
0.5146340678
148
249.9899842095
149
220.0002302032
100
AcDbLayout
  1
_Isometrisch
 70
     1
 71
     7
 10
0.0
 20
0.0
 11
0.0
 21
0.0
 12
0.0
 22
0.0
 32
0.0
 14
0.0
 24
0.0
 34
0.0
 15
0.0
 25
0.0
 35
0.0
146
0.0
 13
0.0
 23
0.0
 33
0.0
 16
1.0
 26
0.0
 36
0.0
 17
0.0
 27
1.0
 37
0.0
 76
     0
330
91
331
B2
  0
LAYOUT
  5
26
102
{ACAD_REACTORS
330
1A
102
}
330
1A
100
AcDbPlotSettings
  1

  2
none_device
  4
ISO_A4_(210.00_x_297.00_MM)
  6

 40
7.5
 41
20.0
 42
7.5
 43
20.0
 44
210.0
 45
297.0
 46
0.0
 47
0.0
 48
0.0
 49
0.0
140
0.0
141
0.0
142
1.0
143
1.9431282587
 70
   688
 72
     1
 73
     1
 74
     1
  7

 75
     0
147
0.5146340678
148
249.9899842095
149
220.0002302032
100
AcDbLayout
  1
_Links
 70
     1
 71
     2
 10
0.0
 20
0.0
 11
0.0
 21
0.0
 12
0.0
 22
0.0
 32
0.0
 14
0.0
 24
0.0
 34
0.0
 15
0.0
 25
0.0
 35
0.0
146
0.0
 13
0.0
 23
0.0
 33
0.0
 16
1.0
 26
0.0
 36
0.0
 17
0.0
 27
1.0
 37
0.0
 76
     0
330
23
331
A8
  0
LAYOUT
  5
8D
102
{ACAD_REACTORS
330
1A
102
}
330
1A
100
AcDbPlotSettings
  1

  2
none_device
  4
ISO_A4_(210.00_x_297.00_MM)
  6

 40
7.5
 41
20.0
 42
7.5
 43
20.0
 44
210.0
 45
297.0
 46
0.0
 47
0.0
 48
0.0
 49
0.0
140
0.0
141
0.0
142
1.0
143
1.9431282587
 70
   688
 72
     1
 73
     1
 74
     1
  7

 75
     0
147
0.5146340678
148
249.9899842095
149
220.0002302032
100
AcDbLayout
  1
_Normal auf
 70
     1
 71
     6
 10
0.0
 20
0.0
 11
0.0
 21
0.0
 12
0.0
 22
0.0
 32
0.0
 14
0.0
 24
0.0
 34
0.0
 15
0.0
 25
0.0
 35
0.0
146
0.0
 13
0.0
 23
0.0
 33
0.0
 16
1.0
 26
0.0
 36
0.0
 17
0.0
 27
1.0
 37
0.0
 76
     0
330
8C
331
B0
  0
LAYOUT
  5
80
102
{ACAD_REACTORS
330
1A
102
}
330
1A
100
AcDbPlotSettings
  1

  2
none_device
  4
ISO_A4_(210.00_x_297.00_MM)
  6

 40
7.5
 41
20.0
 42
7.5
 43
20.0
 44
210.0
 45
297.0
 46
0.0
 47
0.0
 48
0.0
 49
0.0
140
0.0
141
0.0
142
1.0
143
1.9431282587
 70
   688
 72
     1
 73
     1
 74
     1
  7

 75
     0
147
0.5146340678
148
249.9899842095
149
220.0002302032
100
AcDbLayout
  1
_Rechts
 70
     1
 71
     4
 10
0.0
 20
0.0
 11
0.0
 21
0.0
 12
0.0
 22
0.0
 32
0.0
 14
0.0
 24
0.0
 34
0.0
 15
0.0
 25
0.0
 35
0.0
146
0.0
 13
0.0
 23
0.0
 33
0.0
 16
1.0
 26
0.0
 36
0.0
 17
0.0
 27
1.0
 37
0.0
 76
     0
330
7F
331
AC
  0
LAYOUT
  5
7A
102
{ACAD_REACTORS
330
1A
102
}
330
1A
100
AcDbPlotSettings
  1

  2
none_device
  4
ISO_A4_(210.00_x_297.00_MM)
  6

 40
7.5
 41
20.0
 42
7.5
 43
20.0
 44
210.0
 45
297.0
 46
0.0
 47
0.0
 48
0.0
 49
0.0
140
0.0
141
0.0
142
1.0
143
1.9431282587
 70
   688
 72
     1
 73
     1
 74
     1
  7

 75
     0
147
0.5146340678
148
249.9899842095
149
220.0002302032
100
AcDbLayout
  1
_Rückseite
 70
     1
 71
     3
 10
0.0
 20
0.0
 11
0.0
 21
0.0
 12
0.0
 22
0.0
 32
0.0
 14
0.0
 24
0.0
 34
0.0
 15
0.0
 25
0.0
 35
0.0
146
0.0
 13
0.0
 23
0.0
 33
0.0
 16
1.0
 26
0.0
 36
0.0
 17
0.0
 27
1.0
 37
0.0
 76
     0
330
79
331
AA
  0
LAYOUT
  5
9B
102
{ACAD_REACTORS
330
1A
102
}
330
1A
100
AcDbPlotSettings
  1

  2
none_device
  4
ISO_A4_(210.00_x_297.00_MM)
  6

 40
7.5
 41
20.0
 42
7.5
 43
20.0
 44
210.0
 45
297.0
 46
0.0
 47
0.0
 48
0.0
 49
0.0
140
0.0
141
0.0
142
1.0
143
1.9431282587
 70
   688
 72
     1
 73
     1
 74
     1
  7

 75
     0
147
0.5146340678
148
249.9899842095
149
220.0002302032
100
AcDbLayout
  1
_Trimetrisch
 70
     1
 71
     8
 10
0.0
 20
0.0
 11
0.0
 21
0.0
 12
0.0
 22
0.0
 32
0.0
 14
0.0
 24
0.0
 34
0.0
 15
0.0
 25
0.0
 35
0.0
146
0.0
 13
0.0
 23
0.0
 33
0.0
 16
1.0
 26
0.0
 36
0.0
 17
0.0
 27
1.0
 37
0.0
 76
     0
330
9A
331
B4
  0
LAYOUT
  5
86
102
{ACAD_REACTORS
330
1A
102
}
330
1A
100
AcDbPlotSettings
  1

  2
none_device
  4
ISO_A4_(210.00_x_297.00_MM)
  6

 40
7.5
 41
20.0
 42
7.5
 43
20.0
 44
210.0
 45
297.0
 46
0.0
 47
0.0
 48
0.0
 49
0.0
140
0.0
141
0.0
142
1.0
143
1.9431282587
 70
   688
 72
     1
 73
     1
 74
     1
  7

 75
     0
147
0.5146340678
148
249.9899842095
149
220.0002302032
100
AcDbLayout
  1
_Unten
 70
     1
 71
     5
 10
0.0
 20
0.0
 11
0.0
 21
0.0
 12
0.0
 22
0.0
 32
0.0
 14
0.0
 24
0.0
 34
0.0
 15
0.0
 25
0.0
 35
0.0
146
0.0
 13
0.0
 23
0.0
 33
0.0
 16
1.0
 26
0.0
 36
0.0
 17
0.0
 27
1.0
 37
0.0
 76
     0
330
85
331
AE
  0
LAYOUT
  5
1E
102
{ACAD_REACTORS
330
1A
102
}
330
1A
100
AcDbPlotSettings
  1

  2
none_device
  4
ISO_A4_(210.00_x_297.00_MM)
  6

 40
7.5
 41
20.0
 42
7.5
 43
20.0
 44
210.0
 45
297.0
 46
0.0
 47
0.0
 48
0.0
 49
0.0
140
0.0
141
0.0
142
1.0
143
1.9431282587
 70
   688
 72
     1
 73
     1
 74
     1
  7

 75
     0
147
0.5146340678
148
249.9899842095
149
220.0002302032
100
AcDbLayout
  1
_Vorderseite
 70
     1
 71
     1
 10
-288.8525493842
 20
-234.5736921437
 11
288.2565434596
 21
173.4832421903
 12
0.0
 22
0.0
 32
0.0
 14
-249.9899842095
 24
-220.0002302032
 34
0.0
 15
249.3939782849
 25
-0.0931279824
 35
0.0
146
0.0
 13
0.0
 23
0.0
 33
0.0
 16
1.0
 26
0.0
 36
0.0
 17
0.0
 27
1.0
 37
0.0
 76
     0
330
1B
331
A6
  0
LAYOUT
  5
22
102
{ACAD_REACTORS
330
1A
102
}
330
1A
100
AcDbPlotSettings
  1

  2
none_device
  4
ANSI_A_(11.00_x_8.50_Inches)
  6

 40
6.35
 41
19.05
 42
6.35000508
 43
19.05000254
 44
279.4
 45
215.9
 46
133.3903379051
 47
88.8998986551
 48
0.0
 49
0.0
140
0.0
141
0.0
142
0.0168434258
143
1.0
 70
  1696
 72
     0
 73
     0
 74
     0
  7

 75
     0
147
0.0179189148
148
-1300.4909072572
149
0.0
100
AcDbLayout
  1
Model
 70
     1
 71
     0
 10
0.0
 20
0.0
 11
420.0
 21
297.0
 12
0.0
 22
0.0
 32
0.0
 14
-249.8830403578
 24
-249.8004927273
 34
0.0
 15
249.6944556219
 25
249.8009605605
 35
0.0
146
0.0
 13
0.0
 23
0.0
 33
0.0
 16
1.0
 26
0.0
 36
0.0
 17
0.0
 27
1.0
 37
0.0
 76
     0
330
1F
331
29
  0
MLINESTYLE
  5
18
102
{ACAD_REACTORS
330
17
102
}
330
17
100
AcDbMlineStyle
  2
Standard
 70
     0
  3

 62
   256
 51
90.0
 52
90.0
 71
     2
 49
0.5
 62
   256
  6
BYLAYER
 49
-0.5
 62
   256
  6
BYLAYER
  0
ACDBPLACEHOLDER
  5
F
102
{ACAD_REACTORS
330
E
102
}
330
E
  0
SCALE
  5
48
102
{ACAD_REACTORS
330
47
102
}
330
47
100
AcDbScale
 70
     0
300
1:1
140
1.0
141
1.0
290
     1
  0
SCALE
  5
49
102
{ACAD_REACTORS
330
47
102
}
330
47
100
AcDbScale
 70
     0
300
1:2
140
1.0
141
2.0
290
     0
  0
SCALE
  5
4A
102
{ACAD_REACTORS
330
47
102
}
330
47
100
AcDbScale
 70
     0
300
1:4
140
1.0
141
4.0
290
     0
  0
SCALE
  5
4B
102
{ACAD_REACTORS
330
47
102
}
330
47
100
AcDbScale
 70
     0
300
1:5
140
1.0
141
5.0
290
     0
  0
SCALE
  5
4C
102
{ACAD_REACTORS
330
47
102
}
330
47
100
AcDbScale
 70
     0
300
1:8
140
1.0
141
8.0
290
     0
  0
SCALE
  5
4D
102
{ACAD_REACTORS
330
47
102
}
330
47
100
AcDbScale
 70
     0
300
1:10
140
1.0
141
10.0
290
     0
  0
SCALE
  5
4E
102
{ACAD_REACTORS
330
47
102
}
330
47
100
AcDbScale
 70
     0
300
1:16
140
1.0
141
16.0
290
     0
  0
SCALE
  5
4F
102
{ACAD_REACTORS
330
47
102
}
330
47
100
AcDbScale
 70
     0
300
1:20
140
1.0
141
20.0
290
     0
  0
SCALE
  5
50
102
{ACAD_REACTORS
330
47
102
}
330
47
100
AcDbScale
 70
     0
300
1:30
140
1.0
141
30.0
290
     0
  0
SCALE
  5
51
102
{ACAD_REACTORS
330
47
102
}
330
47
100
AcDbScale
 70
     0
300
1:40
140
1.0
141
40.0
290
     0
  0
SCALE
  5
52
102
{ACAD_REACTORS
330
47
102
}
330
47
100
AcDbScale
 70
     0
300
1:50
140
1.0
141
50.0
290
     0
  0
SCALE
  5
53
102
{ACAD_REACTORS
330
47
102
}
330
47
100
AcDbScale
 70
     0
300
1:100
140
1.0
141
100.0
290
     0
  0
SCALE
  5
54
102
{ACAD_REACTORS
330
47
102
}
330
47
100
AcDbScale
 70
     0
300
2:1
140
2.0
141
1.0
290
     0
  0
SCALE
  5
55
102
{ACAD_REACTORS
330
47
102
}
330
47
100
AcDbScale
 70
     0
300
4:1
140
4.0
141
1.0
290
     0
  0
SCALE
  5
56
102
{ACAD_REACTORS
330
47
102
}
330
47
100
AcDbScale
 70
     0
300
8:1
140
8.0
141
1.0
290
     0
  0
SCALE
  5
57
102
{ACAD_REACTORS
330
47
102
}
330
47
100
AcDbScale
 70
     0
300
10:1
140
10.0
141
1.0
290
     0
  0
SCALE
  5
58
102
{ACAD_REACTORS
330
47
102
}
330
47
100
AcDbScale
 70
     0
300
100:1
140
100.0
141
1.0
290
     0
  0
SCALE
  5
59
102
{ACAD_REACTORS
330
47
102
}
330
47
100
AcDbScale
 70
     0
300
1/128" = 1'-0"
140
0.0078125
141
12.0
290
     0
  0
SCALE
  5
5A
102
{ACAD_REACTORS
330
47
102
}
330
47
100
AcDbScale
 70
     0
300
1/64" = 1'-0"
140
0.015625
141
12.0
290
     0
  0
SCALE
  5
5B
102
{ACAD_REACTORS
330
47
102
}
330
47
100
AcDbScale
 70
     0
300
1/32" = 1'-0"
140
0.03125
141
12.0
290
     0
  0
SCALE
  5
5C
102
{ACAD_REACTORS
330
47
102
}
330
47
100
AcDbScale
 70
     0
300
1/16" = 1'-0"
140
0.0625
141
12.0
290
     0
  0
SCALE
  5
5D
102
{ACAD_REACTORS
330
47
102
}
330
47
100
AcDbScale
 70
     0
300
3/32" = 1'-0"
140
0.09375
141
12.0
290
     0
  0
SCALE
  5
5E
102
{ACAD_REACTORS
330
47
102
}
330
47
100
AcDbScale
 70
     0
300
1/8" = 1'-0"
140
0.125
141
12.0
290
     0
  0
SCALE
  5
5F
102
{ACAD_REACTORS
330
47
102
}
330
47
100
AcDbScale
 70
     0
300
3/16" = 1'-0"
140
0.1875
141
12.0
290
     0
  0
SCALE
  5
60
102
{ACAD_REACTORS
330
47
102
}
330
47
100
AcDbScale
 70
     0
300
1/4" = 1'-0"
140
0.25
141
12.0
290
     0
  0
SCALE
  5
61
102
{ACAD_REACTORS
330
47
102
}
330
47
100
AcDbScale
 70
     0
300
3/8" = 1'-0"
140
0.375
141
12.0
290
     0
  0
SCALE
  5
62
102
{ACAD_REACTORS
330
47
102
}
330
47
100
AcDbScale
 70
     0
300
1/2" = 1'-0"
140
0.5
141
12.0
290
     0
  0
SCALE
  5
63
102
{ACAD_REACTORS
330
47
102
}
330
47
100
AcDbScale
 70
     0
300
3/4" = 1'-0"
140
0.75
141
12.0
290
     0
  0
SCALE
  5
64
102
{ACAD_REACTORS
330
47
102
}
330
47
100
AcDbScale
 70
     0
300
1" = 1'-0"
140
1.0
141
12.0
290
     0
  0
SCALE
  5
65
102
{ACAD_REACTORS
330
47
102
}
330
47
100
AcDbScale
 70
     0
300
1-1/2" = 1'-0"
140
1.5
141
12.0
290
     0
  0
SCALE
  5
66
102
{ACAD_REACTORS
330
47
102
}
330
47
100
AcDbScale
 70
     0
300
3" = 1'-0"
140
3.0
141
12.0
290
     0
  0
SCALE
  5
67
102
{ACAD_REACTORS
330
47
102
}
330
47
100
AcDbScale
 70
     0
300
6" = 1'-0"
140
6.0
141
12.0
290
     0
  0
SCALE
  5
68
102
{ACAD_REACTORS
330
47
102
}
330
47
100
AcDbScale
 70
     0
300
1'-0" = 1'-0"
140
12.0
141
12.0
290
     0
  0
ENDSEC
  0
EOF
