  0
SECTION
  2
HEADER
  9
$ACADVER
  1
AC1027
  9
$ACADMAINTVER
 70
   105
  9
$DWGCODEPAGE
  3
ANSI_1252
  9
$REQUIREDVERSIONS
160
                 0
  9
$INSBASE
 10
0.0
 20
0.0
 30
0.0
  9
$EXTMIN
 10
-322.518738371
 20
-155.0186089623
 30
0.0
  9
$EXTMAX
 10
322.5187221471
 20
155.018621216
 30
0.0
  9
$LIMMIN
 10
0.0
 20
0.0
  9
$LIMMAX
 10
420.0
 20
297.0
  9
$ORTHOMODE
 70
     0
  9
$REGENMODE
 70
     1
  9
$FILLMODE
 70
     1
  9
$QTEXTMODE
 70
     0
  9
$MIRRTEXT
 70
     1
  9
$LTSCALE
 40
1.0
  9
$ATTMODE
 70
     1
  9
$TEXTSIZE
 40
3.5
  9
$TRACEWID
 40
1.0
  9
$TEXTSTYLE
  7
STANDARD
  9
$CLAYER
  8
0
  9
$CELTYPE
  6
ByLayer
  9
$CECOLOR
 62
   256
  9
$CELTSCALE
 40
1.0
  9
$DISPSILH
 70
     0
  9
$DIMSCALE
 40
1.0
  9
$DIMASZ
 40
6.0
  9
$DIMEXO
 40
1.0
  9
$DIMDLI
 40
3.75
  9
$DIMRND
 40
0.0
  9
$DIMDLE
 40
0.0
  9
$DIMEXE
 40
1.0
  9
$DIMTP
 40
0.0
  9
$DIMTM
 40
0.0
  9
$DIMTXT
 40
3.5
  9
$DIMCEN
 40
2.5
  9
$DIMTSZ
 40
0.0
  9
$DIMTOL
 70
     0
  9
$DIMLIM
 70
     0
  9
$DIMTIH
 70
     1
  9
$DIMTOH
 70
     1
  9
$DIMSE1
 70
     0
  9
$DIMSE2
 70
     0
  9
$DIMTAD
 70
     1
  9
$DIMZIN
 70
     0
  9
$DIMBLK
  1

  9
$DIMASO
 70
     1
  9
$DIMSHO
 70
     1
  9
$DIMPOST
  1

  9
$DIMAPOST
  1

  9
$DIMALT
 70
     0
  9
$DIMALTD
 70
     3
  9
$DIMALTF
 40
0.0393700787
  9
$DIMLFAC
 40
1.0
  9
$DIMTOFL
 70
     1
  9
$DIMTVP
 40
0.0
  9
$DIMTIX
 70
     0
  9
$DIMSOXD
 70
     0
  9
$DIMSAH
 70
     0
  9
$DIMBLK1
  1

  9
$DIMBLK2
  1

  9
$DIMSTYLE
  2
ISO-25
  9
$DIMCLRD
 70
     0
  9
$DIMCLRE
 70
     0
  9
$DIMCLRT
 70
     0
  9
$DIMTFAC
 40
1.0
  9
$DIMGAP
 40
1.524
  9
$DIMJUST
 70
     0
  9
$DIMSD1
 70
     0
  9
$DIMSD2
 70
     0
  9
$DIMTOLJ
 70
     0
  9
$DIMTZIN
 70
     0
  9
$DIMALTZ
 70
     0
  9
$DIMALTTZ
 70
     0
  9
$DIMUPT
 70
     0
  9
$DIMDEC
 70
     2
  9
$DIMTDEC
 70
     2
  9
$DIMALTU
 70
     2
  9
$DIMALTTD
 70
     3
  9
$DIMTXSTY
  7
STANDARD
  9
$DIMAUNIT
 70
     0
  9
$DIMADEC
 70
     2
  9
$DIMALTRND
 40
0.0
  9
$DIMAZIN
 70
     0
  9
$DIMDSEP
 70
    44
  9
$DIMATFIT
 70
     3
  9
$DIMFRAC
 70
     0
  9
$DIMLDRBLK
  1

  9
$DIMLUNIT
 70
     2
  9
$DIMLWD
 70
    -2
  9
$DIMLWE
 70
    -2
  9
$DIMTMOVE
 70
     0
  9
$DIMFXL
 40
1.0
  9
$DIMFXLON
 70
     0
  9
$DIMJOGANG
 40
0.7853981634
  9
$DIMTFILL
 70
     0
  9
$DIMTFILLCLR
 70
     0
  9
$DIMARCSYM
 70
     0
  9
$DIMLTYPE
  6

  9
$DIMLTEX1
  6

  9
$DIMLTEX2
  6

  9
$DIMTXTDIRECTION
 70
     0
  9
$LUNITS
 70
     2
  9
$LUPREC
 70
     2
  9
$SKETCHINC
 40
1.0
  9
$FILLETRAD
 40
10.0
  9
$AUNITS
 70
     0
  9
$AUPREC
 70
     2
  9
$MENU
  1
.
  9
$ELEVATION
 40
0.0
  9
$PELEVATION
 40
0.0
  9
$THICKNESS
 40
0.0
  9
$LIMCHECK
 70
     0
  9
$CHAMFERA
 40
0.0
  9
$CHAMFERB
 40
0.0
  9
$CHAMFERC
 40
0.0
  9
$CHAMFERD
 40
0.0
  9
$SKPOLY
 70
     0
  9
$TDCREATE
 40
2458299.387616493
  9
$TDUCREATE
 40
2458299.30428316
  9
$TDUPDATE
 40
2458299.387645081
  9
$TDUUPDATE
 40
2458299.304311748
  9
$TDINDWG
 40
0.0000000116
  9
$TDUSRTIMER
 40
0.0000000116
  9
$USRTIMER
 70
     1
  9
$ANGBASE
 50
0.0
  9
$ANGDIR
 70
     0
  9
$PDMODE
 70
     0
  9
$PDSIZE
 40
-1.0
  9
$PLINEWID
 40
0.0
  9
$SPLFRAME
 70
     0
  9
$SPLINETYPE
 70
     6
  9
$SPLINESEGS
 70
     8
  9
$HANDSEED
  5
119
  9
$SURFTAB1
 70
     6
  9
$SURFTAB2
 70
     6
  9
$SURFTYPE
 70
     6
  9
$SURFU
 70
     6
  9
$SURFV
 70
     6
  9
$UCSBASE
  2

  9
$UCSNAME
  2

  9
$UCSORG
 10
0.0
 20
0.0
 30
0.0
  9
$UCSXDIR
 10
1.0
 20
0.0
 30
0.0
  9
$UCSYDIR
 10
0.0
 20
1.0
 30
0.0
  9
$UCSORTHOREF
  2

  9
$UCSORTHOVIEW
 70
     0
  9
$UCSORGTOP
 10
0.0
 20
0.0
 30
0.0
  9
$UCSORGBOTTOM
 10
0.0
 20
0.0
 30
0.0
  9
$UCSORGLEFT
 10
0.0
 20
0.0
 30
0.0
  9
$UCSORGRIGHT
 10
0.0
 20
0.0
 30
0.0
  9
$UCSORGFRONT
 10
0.0
 20
0.0
 30
0.0
  9
$UCSORGBACK
 10
0.0
 20
0.0
 30
0.0
  9
$PUCSBASE
  2

  9
$PUCSNAME
  2

  9
$PUCSORG
 10
0.0
 20
0.0
 30
0.0
  9
$PUCSXDIR
 10
1.0
 20
0.0
 30
0.0
  9
$PUCSYDIR
 10
0.0
 20
1.0
 30
0.0
  9
$PUCSORTHOREF
  2

  9
$PUCSORTHOVIEW
 70
     0
  9
$PUCSORGTOP
 10
0.0
 20
0.0
 30
0.0
  9
$PUCSORGBOTTOM
 10
0.0
 20
0.0
 30
0.0
  9
$PUCSORGLEFT
 10
0.0
 20
0.0
 30
0.0
  9
$PUCSORGRIGHT
 10
0.0
 20
0.0
 30
0.0
  9
$PUCSORGFRONT
 10
0.0
 20
0.0
 30
0.0
  9
$PUCSORGBACK
 10
0.0
 20
0.0
 30
0.0
  9
$USERI1
 70
     0
  9
$USERI2
 70
     0
  9
$USERI3
 70
     0
  9
$USERI4
 70
     0
  9
$USERI5
 70
     0
  9
$USERR1
 40
0.0
  9
$USERR2
 40
0.0
  9
$USERR3
 40
0.0
  9
$USERR4
 40
0.0
  9
$USERR5
 40
0.0
  9
$WORLDVIEW
 70
     1
  9
$SHADEDGE
 70
     3
  9
$SHADEDIF
 70
    70
  9
$TILEMODE
 70
     1
  9
$MAXACTVP
 70
    64
  9
$PINSBASE
 10
0.0
 20
0.0
 30
0.0
  9
$PLIMCHECK
 70
     0
  9
$PEXTMIN
 10
-323.1432271219
 20
-110.0
 30
0.0
  9
$PEXTMAX
 10
322.716141543
 20
0.0
 30
0.0
  9
$PLIMMIN
 10
-373.40465659
 20
-128.8480360505
  9
$PLIMMAX
 10
372.9775710111
 20
398.8969733644
  9
$UNITMODE
 70
     0
  9
$VISRETAIN
 70
     1
  9
$PLINEGEN
 70
     0
  9
$PSLTSCALE
 70
     1
  9
$TREEDEPTH
 70
  3020
  9
$CMLSTYLE
  2
Standard
  9
$CMLJUST
 70
     0
  9
$CMLSCALE
 40
20.0
  9
$PROXYGRAPHICS
 70
     1
  9
$MEASUREMENT
 70
     1
  9
$CELWEIGHT
370
    -1
  9
$ENDCAPS
280
     0
  9
$JOINSTYLE
280
     0
  9
$LWDISPLAY
290
     1
  9
$INSUNITS
 70
     4
  9
$HYPERLINKBASE
  1

  9
$STYLESHEET
  1

  9
$XEDIT
290
     1
  9
$CEPSNTYPE
380
     0
  9
$PSTYLEMODE
290
     1
  9
$FINGERPRINTGUID
  2
{A701D5D1-B380-4878-9450-F436864B2E19}
  9
$VERSIONGUID
  2
{FAEB1C32-E019-11D5-929B-00C0DF256EC4}
  9
$EXTNAMES
290
     1
  9
$PSVPSCALE
 40
0.0
  9
$OLESTARTUP
290
     0
  9
$SORTENTS
280
   127
  9
$INDEXCTL
280
     0
  9
$HIDETEXT
280
     1
  9
$XCLIPFRAME
280
     2
  9
$HALOGAP
280
     0
  9
$OBSCOLOR
 70
   257
  9
$OBSLTYPE
280
     0
  9
$INTERSECTIONDISPLAY
280
     0
  9
$INTERSECTIONCOLOR
 70
   257
  9
$DIMASSOC
280
     2
  9
$PROJECTNAME
  1

  9
$CAMERADISPLAY
290
     0
  9
$LENSLENGTH
 40
50.0
  9
$CAMERAHEIGHT
 40
0.0
  9
$STEPSPERSEC
 40
2.0
  9
$STEPSIZE
 40
6.0
  9
$3DDWFPREC
 40
2.0
  9
$PSOLWIDTH
 40
5.0
  9
$PSOLHEIGHT
 40
80.0
  9
$LOFTANG1
 40
1.5707963268
  9
$LOFTANG2
 40
1.5707963268
  9
$LOFTMAG1
 40
0.0
  9
$LOFTMAG2
 40
0.0
  9
$LOFTPARAM
 70
     7
  9
$LOFTNORMALS
280
     1
  9
$LATITUDE
 40
37.795
  9
$LONGITUDE
 40
-122.394
  9
$NORTHDIRECTION
 40
0.0
  9
$TIMEZONE
 70
 -8000
  9
$LIGHTGLYPHDISPLAY
280
     1
  9
$TILEMODELIGHTSYNCH
280
     1
  9
$CMATERIAL
347
44
  9
$SOLIDHIST
280
     0
  9
$SHOWHIST
280
     1
  9
$DWFFRAME
280
     2
  9
$DGNFRAME
280
     2
  9
$REALWORLDSCALE
290
     1
  9
$INTERFERECOLOR
 62
   256
  9
$CSHADOW
280
     0
  9
$SHADOWPLANELOCATION
 40
0.0
  0
ENDSEC
  0
SECTION
  2
CLASSES
  0
CLASS
  1
ACDBDICTIONARYWDFLT
  2
AcDbDictionaryWithDefault
  3
ObjectDBX Classes
 90
        0
 91
        4
280
     0
281
     0
  0
CLASS
  1
VISUALSTYLE
  2
AcDbVisualStyle
  3
ObjectDBX Classes
 90
     4095
 91
        4
280
     0
281
     0
  0
CLASS
  1
MATERIAL
  2
AcDbMaterial
  3
ObjectDBX Classes
 90
     1153
 91
        4
280
     0
281
     0
  0
CLASS
  1
SCALE
  2
AcDbScale
  3
ObjectDBX Classes
 90
     1153
 91
        4
280
     0
281
     0
  0
CLASS
  1
TABLESTYLE
  2
AcDbTableStyle
  3
ObjectDBX Classes
 90
     4095
 91
        4
280
     0
281
     0
  0
CLASS
  1
MLEADERSTYLE
  2
AcDbMLeaderStyle
  3
ACDB_MLEADERSTYLE_CLASS
 90
     4095
 91
        4
280
     0
281
     0
  0
CLASS
  1
SUN
  2
AcDbSun
  3
SCENEOE
 90
     1153
 91
        4
280
     0
281
     0
  0
CLASS
  1
DICTIONARYVAR
  2
AcDbDictionaryVar
  3
ObjectDBX Classes
 90
        0
 91
        4
280
     0
281
     0
  0
CLASS
  1
CELLSTYLEMAP
  2
AcDbCellStyleMap
  3
ObjectDBX Classes
 90
     1152
 91
        4
280
     0
281
     0
  0
ENDSEC
  0
SECTION
  2
TABLES
  0
TABLE
  2
VPORT
  5
8
330
0
100
AcDbSymbolTable
 70
     1
  0
VPORT
  5
29
330
8
100
AcDbSymbolTableRecord
100
AcDbViewportTableRecord
  2
*Active
 70
     0
 10
0.0
 20
0.0
 11
1.0
 21
1.0
 12
-0.0000081119
 22
0.0000061269
 13
0.0
 23
0.0
 14
10.0
 24
10.0
 15
10.0
 25
10.0
 16
0.0
 26
0.0
 36
1.0
 17
0.0
 27
0.0
 37
0.0
 40
316.2379747819
 41
2.0805161372
 42
50.0
 43
0.0
 44
0.0
 50
0.0
 51
0.0
 71
     0
 72
   100
 73
     1
 74
     3
 75
     0
 76
     0
 77
     0
 78
     0
281
     0
 65
     1
110
0.0
120
0.0
130
0.0
111
1.0
121
0.0
131
0.0
112
0.0
122
1.0
132
0.0
 79
     0
146
0.0
348
2F
 60
     3
 61
     5
292
     1
282
     1
141
0.0
142
0.0
 63
   250
361
6D
  0
ENDTAB
  0
TABLE
  2
LTYPE
  5
5
330
0
100
AcDbSymbolTable
 70
     6
  0
LTYPE
  5
14
330
5
100
AcDbSymbolTableRecord
100
AcDbLinetypeTableRecord
  2
ByBlock
 70
     0
  3

 72
    65
 73
     0
 40
0.0
  0
LTYPE
  5
15
330
5
100
AcDbSymbolTableRecord
100
AcDbLinetypeTableRecord
  2
ByLayer
 70
     0
  3

 72
    65
 73
     0
 40
0.0
  0
LTYPE
  5
16
330
5
100
AcDbSymbolTableRecord
100
AcDbLinetypeTableRecord
  2
Continuous
 70
     0
  3
Solid line
 72
    65
 73
     0
 40
0.0
  0
LTYPE
  5
6E
330
5
100
AcDbSymbolTableRecord
100
AcDbLinetypeTableRecord
  2
HIDDEN
 70
     0
  3
Hidden __ __ __ __ __ __ __ __ __ __ __ __ __ __
 72
    65
 73
     2
 40
1.905
 49
1.27
 74
     0
 49
-0.635
 74
     0
  0
LTYPE
  5
6F
330
5
100
AcDbSymbolTableRecord
100
AcDbLinetypeTableRecord
  2
PHANTOM
 70
     0
  3
Phantom ______  __  __  ______  __  __  ______
 72
    65
 73
     6
 40
12.7
 49
6.35
 74
     0
 49
-1.27
 74
     0
 49
1.27
 74
     0
 49
-1.27
 74
     0
 49
1.27
 74
     0
 49
-1.27
 74
     0
  0
LTYPE
  5
70
330
5
100
AcDbSymbolTableRecord
100
AcDbLinetypeTableRecord
  2
CENTER
 70
     0
  3
Center ____ _ ____ _ ____ _ ____ _ ____ _ ____
 72
    65
 73
     4
 40
10.16
 49
6.35
 74
     0
 49
-1.27
 74
     0
 49
1.27
 74
     0
 49
-1.27
 74
     0
  0
LTYPE
  5
71
330
5
100
AcDbSymbolTableRecord
100
AcDbLinetypeTableRecord
  2
CENTERX2
 70
     0
  3
Center (2x) ________  __  ________  __  _____
 72
    65
 73
     4
 40
20.32
 49
12.7
 74
     0
 49
-2.54
 74
     0
 49
2.54
 74
     0
 49
-2.54
 74
     0
  0
LTYPE
  5
72
330
5
100
AcDbSymbolTableRecord
100
AcDbLinetypeTableRecord
  2
DOT2
 70
     0
  3
Dot (.5x) ........................................
 72
    65
 73
     2
 40
0.635
 49
0.0
 74
     0
 49
-0.635
 74
     0
  0
ENDTAB
  0
TABLE
  2
LAYER
  5
2
330
0
100
AcDbSymbolTable
 70
     1
  0
LAYER
  5
10
330
2
100
AcDbSymbolTableRecord
100
AcDbLayerTableRecord
  2
0
 70
     0
 62
     7
  6
Continuous
370
    -3
390
F
347
46
348
0
  0
ENDTAB
  0
TABLE
  2
STYLE
  5
3
330
0
100
AcDbSymbolTable
 70
     1
  0
STYLE
  5
11
330
3
100
AcDbSymbolTableRecord
100
AcDbTextStyleTableRecord
  2
STANDARD
 70
     0
 40
0.0
 41
1.0
 50
0.0
 71
     0
 42
3.5
  3
GOTHIC.TTF
  4

1001
ACAD
1000
CENTURY GOTHIC
1071
       34
  0
ENDTAB
  0
TABLE
  2
VIEW
  5
6
330
0
100
AcDbSymbolTable
 70
     0
  0
ENDTAB
  0
TABLE
  2
UCS
  5
7
330
0
100
AcDbSymbolTable
 70
     0
  0
ENDTAB
  0
TABLE
  2
APPID
  5
9
330
0
100
AcDbSymbolTable
 70
     1
  0
APPID
  5
12
330
9
100
AcDbSymbolTableRecord
100
AcDbRegAppTableRecord
  2
ACAD
 70
     0
  0
ENDTAB
  0
TABLE
  2
DIMSTYLE
  5
A
330
0
100
AcDbSymbolTable
 70
     1
100
AcDbDimStyleTable
  0
DIMSTYLE
105
27
330
A
100
AcDbSymbolTableRecord
100
AcDbDimStyleTableRecord
  2
ISO-25
 70
     0
 41
2.5
 42
0.625
 43
3.75
 44
1.25
 73
     0
 74
     0
 77
     1
 78
     8
140
2.5
141
2.5
143
0.0393700787
147
0.625
171
     3
172
     1
178
     0
271
     2
272
     2
274
     3
278
    44
283
     0
284
     8
340
11
  0
ENDTAB
  0
TABLE
  2
BLOCK_RECORD
  5
1
330
0
100
AcDbSymbolTable
 70
     8
  0
BLOCK_RECORD
  5
1F
330
1
100
AcDbSymbolTableRecord
100
AcDbBlockTableRecord
  2
*Model_Space
340
22
 70
     0
280
     1
281
     0
  0
BLOCK_RECORD
  5
1B
330
1
100
AcDbSymbolTableRecord
100
AcDbBlockTableRecord
  2
*Paper_Space
340
1E
 70
     0
280
     1
281
     0
  0
BLOCK_RECORD
  5
23
330
1
100
AcDbSymbolTableRecord
100
AcDbBlockTableRecord
  2
*Paper_Space0
340
26
 70
     0
280
     1
281
     0
  0
BLOCK_RECORD
  5
9B
330
1
100
AcDbSymbolTableRecord
100
AcDbBlockTableRecord
  2
*Paper_Space1
340
9C
 70
     0
280
     1
281
     0
  0
BLOCK_RECORD
  5
AE
330
1
100
AcDbSymbolTableRecord
100
AcDbBlockTableRecord
  2
*Paper_Space2
340
AF
 70
     0
280
     1
281
     0
  0
BLOCK_RECORD
  5
C1
330
1
100
AcDbSymbolTableRecord
100
AcDbBlockTableRecord
  2
*Paper_Space3
340
C2
 70
     0
280
     1
281
     0
  0
BLOCK_RECORD
  5
D9
330
1
100
AcDbSymbolTableRecord
100
AcDbBlockTableRecord
  2
*Paper_Space4
340
DA
 70
     0
280
     1
281
     0
  0
BLOCK_RECORD
  5
E1
330
1
100
AcDbSymbolTableRecord
100
AcDbBlockTableRecord
  2
*Paper_Space5
340
E2
 70
     0
280
     1
281
     0
  0
BLOCK_RECORD
  5
EC
330
1
100
AcDbSymbolTableRecord
100
AcDbBlockTableRecord
  2
*Paper_Space6
340
ED
 70
     0
280
     1
281
     0
  0
BLOCK_RECORD
  5
F7
330
1
100
AcDbSymbolTableRecord
100
AcDbBlockTableRecord
  2
*Paper_Space7
340
F8
 70
     0
280
     1
281
     0
  0
ENDTAB
  0
ENDSEC
  0
SECTION
  2
BLOCKS
  0
BLOCK
  5
20
330
1F
100
AcDbEntity
  8
0
100
AcDbBlockBegin
  2
*Model_Space
 70
     0
 10
0.0
 20
0.0
 30
0.0
  3
*Model_Space
  1

  0
ENDBLK
  5
21
330
1F
100
AcDbEntity
  8
0
100
AcDbBlockEnd
  0
BLOCK
  5
1C
330
1B
100
AcDbEntity
 67
     1
  8
0
100
AcDbBlockBegin
  2
*Paper_Space
 70
     0
 10
0.0
 20
0.0
 30
0.0
  3
*Paper_Space
  1

  0
ENDBLK
  5
1D
330
1B
100
AcDbEntity
 67
     1
  8
0
100
AcDbBlockEnd
  0
BLOCK
  5
24
330
23
100
AcDbEntity
  8
0
100
AcDbBlockBegin
  2
*Paper_Space0
 70
     0
 10
0.0
 20
0.0
 30
0.0
  3
*Paper_Space0
  1

  0
LWPOLYLINE
  5
86
330
23
100
AcDbEntity
  8
0
  6
Continuous
 62
     7
370
    25
100
AcDbPolyline
 90
       19
 70
   128
 43
0.0
 10
152.8410688801
 20
-43.2086527505
 10
152.8410703267
 20
-43.2086354337
 10
152.8410746555
 20
-43.2085836158
 10
152.8410903777
 20
-43.2083954053
 10
152.8411500755
 20
-43.2076806842
 10
152.8413823987
 20
-43.2048980315
 10
152.8422974144
 20
-43.1939197168
 10
152.8459077009
 20
-43.1503084068
 10
152.8599115834
 20
-42.9764254446
 10
152.9096587225
 20
-42.2814321517
 10
152.9491433644
 20
-41.5932073667
 10
152.9574926023
 20
-41.4212978194
 10
152.9594790345
 20
-41.3784626158
 10
152.9599663502
 20
-41.3678290018
 10
152.9600860902
 20
-41.3652084432
 10
152.9601151387
 20
-41.3645722415
 10
152.9601219673
 20
-41.364422661
 10
152.9601236669
 20
-41.3643854276
 10
152.9601233802
 20
-41.3643917079
  0
LWPOLYLINE
  5
87
330
23
100
AcDbEntity
  8
0
  6
Continuous
 62
     7
370
    25
100
AcDbPolyline
 90
       13
 70
   128
 43
0.0
 10
152.830076813
 20
-43.2565655147
 10
152.8758663557
 20
-42.6559776836
 10
152.8871661831
 20
-42.4935317075
 10
152.8903687767
 20
-42.4462815723
 10
152.8920280671
 20
-42.4215801343
 10
152.8922059324
 20
-42.4189232146
 10
152.8922595268
 20
-42.4181222845
 10
152.892289585
 20
-42.4176730148
 10
152.892295791
 20
-42.4175802492
 10
152.8922964236
 20
-42.417570794
 10
152.892296602
 20
-42.4175681269
 10
152.8922966886
 20
-42.4175668334
 10
152.8922966659
 20
-42.4175671721
  0
SPLINE
  5
88
330
23
100
AcDbEntity
  8
0
  6
Continuous
 62
     7
370
    25
100
AcDbSpline
210
0.0
220
0.0
230
1.0
 70
     8
 71
     3
 72
    15
 73
    11
 74
     0
 42
0.000000001
 43
0.00000001
 40
0.0
 40
0.0
 40
0.0
 40
0.0
 40
0.000000699551395
 40
0.0000386412857162
 40
0.0002244320946043
 40
0.0016610654368556
 40
0.0119401147435979
 40
0.0315986346530093
 40
0.2040572040893852
 40
1.0
 40
1.0
 40
1.0
 40
1.0
 10
152.7383545304525
 20
-44.26170653782278
 30
0.0
 10
152.7383545544416
 20
-44.26170630079852
 30
0.0
 10
152.7383558795307
 20
-44.26169320823276
 30
0.0
 10
152.738363575732
 20
-44.26161716547143
 30
0.0
 10
152.7384205113818
 20
-44.26105459663575
 30
0.0
 10
152.7388285484704
 20
-44.25702218796479
 30
0.0
 10
152.7399027977302
 20
-44.24639346837826
 30
0.0
 10
152.7468077057737
 20
-44.17785188123454
 30
0.0
 10
152.779899201067
 20
-43.84383104302107
 30
0.0
 10
152.8074403514708
 20
-43.52149668676166
 30
0.0
 10
152.8300768130036
 20
-43.2565655147086
 30
0.0
  0
LWPOLYLINE
  5
89
330
23
100
AcDbEntity
  8
0
  6
Continuous
 62
     7
370
    25
100
AcDbPolyline
 90
       21
 70
   128
 43
0.0
 10
-152.9795391299
 20
-40.8593218809
 10
-152.9795391153
 20
-40.8593223002
 10
-152.9795390829
 20
-40.8593232306
 10
-152.9795388063
 20
-40.8593311782
 10
-152.9795365648
 20
-40.8593955918
 10
-152.9795302816
 20
-40.8595761441
 10
-152.9795064168
 20
-40.8602618542
 10
-152.97941345
 20
-40.8629321605
 10
-152.9784338123
 20
-40.8909801415
 10
-152.971817767
 20
-41.0758094321
 10
-152.9690773134
 20
-41.1498704507
 10
-152.9684888985
 20
-41.1655729732
 10
-152.9684256601
 20
-41.1672563209
 10
-152.9684066927
 20
-41.1677610556
 10
-152.9683961678
 20
-41.1680410982
 10
-152.9683948561
 20
-41.1680759975
 10
-152.9683940723
 20
-41.1680968516
 10
-152.9683938783
 20
-41.1681020117
 10
-152.9683938309
 20
-41.168103275
 10
-152.9683938164
 20
-41.1681036605
 10
-152.9683938172
 20
-41.1681036371
  0
LWPOLYLINE
  5
8A
330
23
100
AcDbEntity
  8
0
  6
Continuous
 62
     7
370
    25
100
AcDbPolyline
 90
       19
 70
   128
 43
0.0
 10
-152.7317610437
 20
-44.3506049594
 10
-152.7317609549
 20
-44.3506057772
 10
-152.7317607831
 20
-44.3506073607
 10
-152.7317593623
 20
-44.350620455
 10
-152.7317480582
 20
-44.3507246356
 10
-152.7316662709
 20
-44.3514783541
 10
-152.7312772604
 20
-44.355062149
 10
-152.7295959439
 20
-44.3705293935
 10
-152.6931463447
 20
-44.6976631156
 10
-152.6788939658
 20
-44.8217098681
 10
-152.6758050081
 20
-44.8483342005
 10
-152.6754580694
 20
-44.8513189009
 10
-152.6752816357
 20
-44.8528363205
 10
-152.6752641785
 20
-44.8529864452
 10
-152.675259448
 20
-44.8530271246
 10
-152.6752580824
 20
-44.8530388687
 10
-152.6752573831
 20
-44.8530448822
 10
-152.6752573502
 20
-44.8530451653
 10
-152.675257365
 20
-44.8530450377
  0
SPLINE
  5
8B
330
23
100
AcDbEntity
  8
0
  6
Continuous
 62
     7
370
    25
100
AcDbSpline
210
0.0
220
0.0
230
1.0
 70
     8
 71
     3
 72
    41
 73
    37
 74
     0
 42
0.000000001
 43
0.00000001
 40
0.0
 40
0.0
 40
0.0
 40
0.0
 40
0.0817528635686605
 40
0.1597950746278023
 40
0.2341270564765999
 40
0.3047492094417276
 40
0.3716619310116648
 40
0.4348656302561994
 40
0.4943607392767143
 40
0.5555224932247258
 40
0.6121981043427723
 40
0.6643883593142168
 40
0.7120941924995327
 40
0.7553167651205825
 40
0.7921156695646369
 40
0.8248973364090253
 40
0.8536642756823346
 40
0.8784203138213059
 40
0.8991716995730145
 40
0.9159294863668079
 40
0.9258900219241902
 40
0.9336350096936993
 40
0.9392060360138641
 40
0.9412106117619088
 40
0.9427364272067685
 40
0.9433452112892133
 40
0.943874291772139
 40
0.9443532890728477
 40
0.9449834816046487
 40
0.9478346406595
 40
0.95285003941925
 40
0.9600526658561196
 40
0.9697098497408345
 40
0.9778419789134619
 40
0.9877406304441559
 40
1.0
 40
1.0
 40
1.0
 40
1.0
 10
153.8204089761839
 20
-23.95574248223688
 30
0.0
 10
153.8239270025486
 20
-23.88695674300111
 30
0.0
 10
153.8308033767937
 20
-23.75250735670805
 30
0.0
 10
153.8408759005095
 20
-23.57502940009661
 30
0.0
 10
153.8509714091171
 20
-23.40991546050803
 30
0.0
 10
153.8614155897314
 20
-23.2513982436612
 30
0.0
 10
153.8725324961688
 20
-23.09244691485148
 30
0.0
 10
153.8846040994873
 20
-22.92751503268337
 30
0.0
 10
153.8982842373111
 20
-22.74634757748766
 30
0.0
 10
153.9139813024863
 20
-22.54260900115784
 30
0.0
 10
153.9322059069607
 20
-22.30847701919576
 30
0.0
 10
153.9526258964403
 20
-22.04672770570171
 30
0.0
 10
153.9754091011881
 20
-21.75366045111214
 30
0.0
 10
154.0002956570897
 20
-21.43105041390284
 30
0.0
 10
154.0271775600764
 20
-21.07874981522415
 30
0.0
 10
154.0557948964687
 20
-20.69871985874224
 30
0.0
 10
154.0866702931121
 20
-20.28224338377342
 30
0.0
 10
154.1197022617923
 20
-19.82864829838735
 30
0.0
 10
154.1547445744162
 20
-19.33756619597756
 30
0.0
 10
154.1893876533454
 20
-18.84099094950311
 30
0.0
 10
154.2226597340544
 20
-18.35258454312188
 30
0.0
 10
154.2522860718583
 20
-17.90814347832074
 30
0.0
 10
154.2790770137073
 20
-17.49767467227765
 30
0.0
 10
154.3026237672253
 20
-17.12850439680685
 30
0.0
 10
154.31680535579
 20
-16.90323385126182
 30
0.0
 10
154.3286509813455
 20
-16.71277641824376
 30
0.0
 10
154.3370199315381
 20
-16.57725354651084
 30
0.0
 10
154.3465815371845
 20
-16.42118553208007
 30
0.0
 10
154.3700505306102
 20
-16.03520304217215
 30
0.0
 10
154.4195206939113
 20
-15.21196965246627
 30
0.0
 10
154.5047290844316
 20
-13.74773072406445
 30
0.0
 10
154.6210170768827
 20
-11.62378306515643
 30
0.0
 10
154.7404437136267
 20
-9.195469057721624
 30
0.0
 10
154.8491006953399
 20
-6.504408793937329
 30
0.0
 10
154.9412136560073
 20
-3.559475331234435
 30
0.0
 10
154.9780894254528
 20
-1.404820094181088
 30
0.0
 10
154.9984916844598
 20
-0.2127138716394028
 30
0.0
  0
SPLINE
  5
8C
330
23
100
AcDbEntity
  8
0
  6
Continuous
 62
     7
370
    25
100
AcDbSpline
210
0.0
220
0.0
230
1.0
 70
     8
 71
     3
 72
    71
 73
    67
 74
     0
 42
0.000000001
 43
0.00000001
 40
0.0
 40
0.0
 40
0.0
 40
0.0
 40
0.0066595908250832
 40
0.0117561220734054
 40
0.0156293330947197
 40
0.0196693678278401
 40
0.0223401456803041
 40
0.0237896841332402
 40
0.0240993144888449
 40
0.0243817918370285
 40
0.0250559664442229
 40
0.0259570738951506
 40
0.028585723344531
 40
0.0324097380049933
 40
0.0374664277312012
 40
0.0437711319566131
 40
0.0541312751305115
 40
0.0667330552437338
 40
0.0815814931008156
 40
0.0986794815100371
 40
0.1180287967948714
 40
0.1396305883569699
 40
0.1624881692511193
 40
0.1874228585110884
 40
0.2144350504763609
 40
0.2435250765582243
 40
0.2746932272028783
 40
0.3079397769512722
 40
0.3432649878537491
 40
0.3845238702331623
 40
0.4282985422020125
 40
0.4745892755490947
 40
0.5233962839907669
 40
0.5747196942270498
 40
0.5826739921990823
 40
0.5914852167346343
 40
0.6008002490025107
 40
0.6106541757744367
 40
0.6228876218042245
 40
0.6391010901216461
 40
0.6560497633216252
 40
0.6734512334768374
 40
0.6909289839209313
 40
0.702426566619932
 40
0.7136892088763007
 40
0.7240482245268163
 40
0.7333630531384059
 40
0.741698137254512
 40
0.7490972368356108
 40
0.758559751472915
 40
0.7662116349954888
 40
0.7725828288785703
 40
0.7786291053995108
 40
0.784931167463433
 40
0.7919690565474587
 40
0.8000679457327309
 40
0.8094387923183358
 40
0.8216177606161922
 40
0.8357061712393561
 40
0.8507115226532073
 40
0.8659584861399758
 40
0.8814530403588228
 40
0.8971977701877919
 40
0.9353408925146327
 40
0.9750252086817435
 40
1.0
 40
1.0
 40
1.0
 40
1.0
 10
-154.9984916844599
 20
-0.2127138716395138
 30
0.0
 10
-154.979700885545
 20
-1.324355810506744
 30
0.0
 10
-154.9465296394876
 20
-3.286728376403369
 30
0.0
 10
-154.8689454059092
 20
-5.895150038389148
 30
0.0
 10
-154.787612029086
 20
-8.066163152272418
 30
0.0
 10
-154.7088489381671
 20
-9.830898123558564
 30
0.0
 10
-154.6412270136533
 20
-11.19339828885162
 30
0.0
 10
-154.6028561867403
 20
-11.92959338953316
 30
0.0
 10
-154.5846604469692
 20
-12.27230032426294
 30
0.0
 10
-154.5737516261825
 20
-12.47527255064967
 30
0.0
 10
-154.5605873912981
 20
-12.71572192839922
 30
0.0
 10
-154.5387332682187
 20
-13.10657534977701
 30
0.0
 10
-154.5135153569753
 20
-13.54146190518669
 30
0.0
 10
-154.4848324086341
 20
-14.01971583550374
 30
0.0
 10
-154.4557269406471
 20
-14.48795082471732
 30
0.0
 10
-154.4219299803325
 20
-15.01434739503252
 30
0.0
 10
-154.3852586575496
 20
-15.56406886234681
 30
0.0
 10
-154.3463323464982
 20
-16.12675885148743
 30
0.0
 10
-154.307832823285
 20
-16.66527050607716
 30
0.0
 10
-154.2699746216147
 20
-17.1801980667718
 30
0.0
 10
-154.2329560295367
 20
-17.67239760946374
 30
0.0
 10
-154.1974655904993
 20
-18.13662975351344
 30
0.0
 10
-154.1634418923531
 20
-18.57785372286638
 30
0.0
 10
-154.1308320173507
 20
-19.00058880735493
 30
0.0
 10
-154.0992139771832
 20
-19.41418493969667
 30
0.0
 10
-154.0685349522504
 20
-19.82323221360585
 30
0.0
 10
-154.0386394990101
 20
-20.23419635723281
 30
0.0
 10
-154.0096338814507
 20
-20.64803675765537
 30
0.0
 10
-153.9792973341238
 20
-21.10641657365926
 30
0.0
 10
-153.951924171134
 20
-21.5293132318083
 30
0.0
 10
-153.9085998944746
 20
-22.29840933438821
 30
0.0
 10
-153.9261966083082
 20
-21.88429203070524
 30
0.0
 10
-153.6946601682673
 20
-26.46754554182225
 30
0.0
 10
-154.2326450045726
 20
-15.73488173917579
 30
0.0
 10
-153.6091263203331
 20
-28.16910464530882
 30
0.0
 10
-153.4004108822307
 20
-32.40253397181311
 30
0.0
 10
-153.1534212403987
 20
-37.10337062363429
 30
0.0
 10
-152.9447700995854
 20
-42.33382171749815
 30
0.0
 10
-152.2707559166035
 20
-48.70626928862306
 30
0.0
 10
-150.6696001145861
 20
-56.13528652211306
 30
0.0
 10
-147.8546380090351
 20
-64.12380200345689
 30
0.0
 10
-143.8544399967103
 20
-71.83246154146306
 30
0.0
 10
-139.315854583867
 20
-78.14566533479895
 30
0.0
 10
-134.7372587558612
 20
-83.07820340193392
 30
0.0
 10
-130.5909924070272
 20
-86.75268725219146
 30
0.0
 10
-126.4115733832173
 20
-89.80212264287714
 30
0.0
 10
-122.40775075272
 20
-92.23037611032514
 30
0.0
 10
-118.6727072655511
 20
-94.12295726708938
 30
0.0
 10
-114.7981727993804
 20
-95.76948383701412
 30
0.0
 10
-110.9194352471497
 20
-97.102479184264
 30
0.0
 10
-107.1379986736621
 20
-98.11728758329907
 30
0.0
 10
-103.8294696392058
 20
-98.81077397881769
 30
0.0
 10
-100.9645716679992
 20
-99.2726401236411
 30
0.0
 10
-98.53583159014664
 20
-99.56961774057396
 30
0.0
 10
-96.5181818380658
 20
-99.75421149847618
 30
0.0
 10
-94.86551263580996
 20
-99.8652603553591
 30
0.0
 10
-93.48834746588747
 20
-99.93194563546335
 30
0.0
 10
-92.42580475069994
 20
-99.96684101634729
 30
0.0
 10
-91.80476838598888
 20
-99.98107621710507
 30
0.0
 10
-91.28516667215592
 20
-99.99046824166675
 30
0.0
 10
-90.76560794784679
 20
-99.99680135500729
 30
0.0
 10
-90.27683795790024
 20
-99.99998885681474
 30
0.0
 10
-89.65799038631096
 20
-100.0000079822488
 30
0.0
 10
-89.12423672959265
 20
-99.99999699801673
 30
0.0
 10
-88.63328513427913
 20
-100.00000044401
 30
0.0
 10
-88.46068022734228
 20
-100.0000001237149
 30
0.0
 10
-88.39401101864293
 20
-99.99999999999993
 30
0.0
  0
SPLINE
  5
8D
330
23
100
AcDbEntity
  8
0
  6
Continuous
 62
     7
370
    25
100
AcDbSpline
210
0.0
220
0.0
230
1.0
 70
    24
 71
     3
 72
    38
 73
    34
 74
     0
 42
0.000000001
 43
0.00000001
 40
0.0
 40
0.0
 40
0.0
 40
0.0
 40
0.0065360952016904
 40
0.0232897430710297
 40
0.0395310373485053
 40
0.0553589386913893
 40
0.0708495960404324
 40
0.0860599495037813
 40
0.1010315576941209
 40
0.1303451160153835
 40
0.1590620872360096
 40
0.1874411740495014
 40
0.2139425625141343
 40
0.2404923992909991
 40
0.2671903204217683
 40
0.2944301285874122
 40
0.3222012272265979
 40
0.3504915693867564
 40
0.4191493928288254
 40
0.4904614739085321
 40
0.5795416185771646
 40
0.6694140678433163
 40
0.7539872270933268
 40
0.784275690651743
 40
0.8129900165973211
 40
0.8401399500765675
 40
0.8661420512011351
 40
0.8912541609130721
 40
0.9156490863857877
 40
0.939560264646507
 40
0.9645401066536327
 40
0.9868622388613073
 40
1.0
 40
1.0
 40
1.0
 40
1.0
 10
-88.42831739670852
 20
-100.0
 30
0.0
 10
-88.43637421659271
 20
-100.0
 30
0.0
 10
-88.46508268231756
 20
-100.0
 30
0.0
 10
-88.12612151291943
 20
-100.0
 30
0.0
 10
-87.37938130067258
 20
-100.0
 30
0.0
 10
-86.25907043250223
 20
-100.0000000000001
 30
0.0
 10
-84.82547768799267
 20
-100.0
 30
0.0
 10
-83.10799142200266
 20
-100.0
 30
0.0
 10
-80.50397763977261
 20
-100.0
 30
0.0
 10
-76.69170470098213
 20
-100.0
 30
0.0
 10
-71.42916954102603
 20
-100.0
 30
0.0
 10
-65.83035665203201
 20
-100.0
 30
0.0
 10
-60.12280709649068
 20
-100.0
 30
0.0
 10
-54.5341960477427
 20
-99.99999999999997
 30
0.0
 10
-48.8936313170024
 20
-100.0
 30
0.0
 10
-43.16746520121975
 20
-100.0
 30
0.0
 10
-37.3296510303507
 20
-100.0
 30
0.0
 10
-28.5891930621357
 20
-100.0000000000001
 30
0.0
 10
-16.79725828588541
 20
-99.99999999999996
 30
0.0
 10
-0.7450977206465853
 20
-100.0
 30
0.0
 10
16.79402662122758
 20
-100.0
 30
0.0
 10
35.26159453683015
 20
-100.0
 30
0.0
 10
49.61116444683072
 20
-100.0000000000001
 30
0.0
 10
59.67021445314446
 20
-100.0
 30
0.0
 10
65.71470108572473
 20
-100.0
 30
0.0
 10
71.19267405135568
 20
-100.0
 30
0.0
 10
75.9957677626392
 20
-99.99999999999994
 30
0.0
 10
80.06975411150904
 20
-100.0
 30
0.0
 10
83.37671593451401
 20
-99.99999999999996
 30
0.0
 10
85.94904810775687
 20
-100.0
 30
0.0
 10
87.61821356202775
 20
-100.0
 30
0.0
 10
88.41922122420895
 20
-100.0
 30
0.0
 10
88.41394834451468
 20
-100.0
 30
0.0
 10
88.41199476182172
 20
-100.0
 30
0.0
  0
SPLINE
  5
8E
330
23
100
AcDbEntity
  8
0
  6
Continuous
 62
     7
370
    25
100
AcDbSpline
210
0.0
220
0.0
230
1.0
 70
     8
 71
     3
 72
    46
 73
    42
 74
     0
 42
0.000000001
 43
0.00000001
 40
0.0
 40
0.0
 40
0.0
 40
0.0
 40
0.0274377018755313
 40
0.0855301775102608
 40
0.1468630395426717
 40
0.2114607755064272
 40
0.2551678012655274
 40
0.300269153151245
 40
0.3442510351563755
 40
0.384755919788624
 40
0.421824105204172
 40
0.4554880169150567
 40
0.4857927288080107
 40
0.5169156472039539
 40
0.5435040153089324
 40
0.5655866828494879
 40
0.5792205112215081
 40
0.5903866506924514
 40
0.599171651822782
 40
0.6057805106097799
 40
0.6084264578866304
 40
0.6107805964564871
 40
0.6130325858126694
 40
0.6161556967126945
 40
0.6225470614239382
 40
0.6315810599775803
 40
0.6433976219251945
 40
0.6581786063196843
 40
0.6758811956400258
 40
0.6946269110404715
 40
0.7239352334724781
 40
0.7546369318408629
 40
0.786378083708582
 40
0.8188176645206909
 40
0.8512691236420579
 40
0.8832690973843439
 40
0.9085022385461499
 40
0.9329340426092234
 40
0.9538441137340782
 40
0.9762388675582809
 40
1.0
 40
1.0
 40
1.0
 40
1.0
 10
88.41522586571438
 20
-100.0000000000002
 30
0.0
 10
88.42210469562495
 20
-99.99999999973393
 30
0.0
 10
88.44354772849934
 20
-99.99999999890395
 30
0.0
 10
88.50601063206979
 20
-100.0000000108065
 30
0.0
 10
88.6017482966199
 20
-99.9999999570583
 30
0.0
 10
88.70840385549795
 20
-100.0000001459613
 30
0.0
 10
88.81943304744335
 20
-99.99999964300945
 30
0.0
 10
88.91252118704193
 20
-100.0000013832406
 30
0.0
 10
89.0470425671713
 20
-99.99999514806721
 30
0.0
 10
89.2638805774682
 20
-100.0000159465661
 30
0.0
 10
89.5676356469842
 20
-99.99994801572315
 30
0.0
 10
89.90152158033024
 20
-100.0001675010868
 30
0.0
 10
90.48182484829104
 20
-99.99943582446114
 30
0.0
 10
91.16755453865404
 20
-99.99317456515115
 30
0.0
 10
92.01641950154989
 20
-99.97802551380084
 30
0.0
 10
92.92201136684626
 20
-99.95243926523948
 30
0.0
 10
93.85291970174387
 20
-99.91524338923675
 30
0.0
 10
94.73528434623822
 20
-99.87063686030561
 30
0.0
 10
95.68441734203124
 20
-99.81149386774466
 30
0.0
 10
96.60691398887248
 20
-99.74224104886437
 30
0.0
 10
97.41840356747726
 20
-99.6708564669874
 30
0.0
 10
98.01630407069554
 20
-99.61349642514736
 30
0.0
 10
98.71308788763925
 20
-99.5407252461712
 30
0.0
 10
99.76109209446787
 20
-99.42055617921571
 30
0.0
 10
101.4153718404164
 20
-99.201065115274
 30
0.0
 10
103.831524859735
 20
-98.80665783816782
 30
0.0
 10
106.9691582191957
 20
-98.1583011597828
 30
0.0
 10
110.8195853686113
 20
-97.1355722281482
 30
0.0
 10
115.1796269077
 20
-95.64072097236766
 30
0.0
 10
120.5997648657799
 20
-93.26897593213772
 30
0.0
 10
126.7503999636833
 20
-89.71930722587122
 30
0.0
 10
133.2658874145621
 20
-84.61924747501358
 30
0.0
 10
139.1691851077928
 20
-78.42222513315714
 30
0.0
 10
144.1826478016284
 20
-71.29212044242618
 30
0.0
 10
148.1265882158686
 20
-63.49495177845543
 30
0.0
 10
150.7274210008574
 20
-55.83909157456178
 30
0.0
 10
152.2651544324523
 20
-48.64956878353352
 30
0.0
 10
152.9557829013939
 20
-42.33483116203774
 30
0.0
 10
153.1913076914724
 20
-36.25086841309843
 30
0.0
 10
153.5104613659534
 20
-30.23187023801147
 30
0.0
 10
153.7150740183572
 20
-26.08866956619614
 30
0.0
 10
153.8204089761784
 20
-23.95574248234746
 30
0.0
  0
SPLINE
  5
93
330
23
100
AcDbEntity
  8
0
  6
Continuous
 62
     7
370
    25
100
AcDbSpline
210
0.0
220
0.0
230
1.0
 70
    24
 71
     3
 72
    55
 73
    51
 74
     0
 42
0.000000001
 43
0.00000001
 40
0.0
 40
0.0
 40
0.0
 40
0.0
 40
0.0061574223195898
 40
0.0123219406885779
 40
0.018503619796822
 40
0.0246915578807225
 40
0.0308686511121933
 40
0.1532770901779434
 40
0.2857634342900779
 40
0.3520066058488142
 40
0.363051049606535
 40
0.3740954183260646
 40
0.3851324946600165
 40
0.3890382341112641
 40
0.3929438141316581
 40
0.3968493563174966
 40
0.400755040439883
 40
0.4046632086859233
 40
0.4085712789286023
 40
0.4124880175744282
 40
0.4164047055747399
 40
0.4224814435533832
 40
0.4285692440893149
 40
0.4346839149112067
 40
0.4408086029517225
 40
0.4469163499420427
 40
0.5672769047986
 40
0.5736678881008754
 40
0.5800573036429393
 40
0.5839552504997771
 40
0.587853002285864
 40
0.5917508479725964
 40
0.5956488525772716
 40
0.5995527604578512
 40
0.6034566012560345
 40
0.6073752015349507
 40
0.6112937371084834
 40
0.6161220153875274
 40
0.62096055235018
 40
0.6258241901701318
 40
0.6306975598196406
 40
0.6355551312033517
 40
0.7309952782259915
 40
0.8753664836983707
 40
0.9231783950489708
 40
0.970990306400864
 40
0.987491501702404
 40
0.9916623409454565
 40
0.9958516104019668
 40
1.0
 40
1.0
 40
1.0
 40
1.0
 10
154.7026133059471
 20
0.0000000000000763
 30
0.0
 10
155.0202983288767
 20
0.0000000000000763
 30
0.0
 10
155.6560344871283
 20
0.0000000000000763
 30
0.0
 10
155.7305326453722
 20
0.0000000000000694
 30
0.0
 10
155.5042056436834
 20
0.0000000000000625
 30
0.0
 10
155.1216762697869
 20
0.0000000000000625
 30
0.0
 10
154.230987116048
 20
0.0000000000000486
 30
0.0
 10
155.3121697501535
 20
0.0000000000000139
 30
0.0
 10
155.2494021282739
 20
0.0000000000000069
 30
0.0
 10
154.6662665460926
 20
0.0000000000000416
 30
0.0
 10
155.1825905406039
 20
0.0000000000000139
 30
0.0
 10
155.3678829284718
 20
-0.0000000000000416
 30
0.0
 10
155.426490322733
 20
-0.0000000000000208
 30
0.0
 10
154.3395515849033
 20
-0.0000000000000763
 30
0.0
 10
152.5342380097475
 20
-0.0000000000001804
 30
0.0
 10
149.8286679881484
 20
0.0000000000000347
 30
0.0
 10
146.2819361012392
 20
0.0000000000002776
 30
0.0
 10
141.9796994118171
 20
0.0000000000000833
 30
0.0
 10
137.0602232750871
 20
0.0000000000000486
 30
0.0
 10
131.6441980337086
 20
-0.0000000000002012
 30
0.0
 10
124.8201890613409
 20
-0.0000000000005274
 30
0.0
 10
116.7430495712949
 20
-0.0000000000003608
 30
0.0
 10
107.5436661949118
 20
-0.0000000000002845
 30
0.0
 10
98.32157650964047
 20
-0.0000000000001388
 30
0.0
 10
89.09866727115103
 20
-0.0000000000000208
 30
0.0
 10
22.37147842193077
 20
0.0000000000001943
 30
0.0
 10
-44.50173617497509
 20
0.0000000000006106
 30
0.0
 10
-111.4993969196941
 20
0.0000000000000902
 30
0.0
 10
-119.8966190049678
 20
0.0000000000000625
 30
0.0
 10
-127.0257401551819
 20
-0.0000000000000555
 30
0.0
 10
-132.7018748476192
 20
-0.0000000000002567
 30
0.0
 10
-138.0108532230986
 20
0.0000000000000208
 30
0.0
 10
-142.8218491248706
 20
0.0000000000002706
 30
0.0
 10
-146.9793244758
 20
0.0000000000001388
 30
0.0
 10
-150.3923898569866
 20
0.0000000000000833
 30
0.0
 10
-152.9422155955855
 20
0.0000000000000763
 30
0.0
 10
-154.6339773786632
 20
0.0000000000000555
 30
0.0
 10
-155.4246770684084
 20
0.0000000000000555
 30
0.0
 10
-155.6558953060411
 20
0.0000000000000416
 30
0.0
 10
-155.4674677611049
 20
0.0000000000000278
 30
0.0
 10
-155.1185557373379
 20
0.0000000000000139
 30
0.0
 10
-154.255236121957
 20
-0.0000000000000069
 30
0.0
 10
-155.535047397824
 20
-0.0000000000001041
 30
0.0
 10
-155.0053854345728
 20
0.0000000000002359
 30
0.0
 10
-154.9700320715248
 20
0.0000000000000416
 30
0.0
 10
-155.1198272003204
 20
-0.0000000000008674
 30
0.0
 10
-154.9041285966961
 20
0.0000000000003331
 30
0.0
 10
-155.0829952434665
 20
0.0000000000002429
 30
0.0
 10
-155.209054583069
 20
0.0000000000001735
 30
0.0
 10
-154.7841015314947
 20
0.0000000000001249
 30
0.0
 10
-154.5726667861698
 20
0.0000000000001041
 30
0.0
  0
SPLINE
  5
94
330
23
100
AcDbEntity
  8
0
  6
Continuous
 62
     7
370
    25
100
AcDbSpline
210
0.0
220
0.0
230
1.0
 70
     8
 71
     3
 72
    26
 73
    22
 74
     0
 42
0.000000001
 43
0.00000001
 40
0.0
 40
0.0
 40
0.0
 40
0.0
 40
0.0529256031246947
 40
0.1073860521848777
 40
0.1603116559227843
 40
0.2147721056532498
 40
0.2676977103159687
 40
0.3221581610602235
 40
0.3750837660423592
 40
0.429544217139362
 40
0.4824698222900601
 40
0.5369302735697115
 40
0.5898558787584669
 40
0.6443163300821637
 40
0.697241935221412
 40
0.7517023864898816
 40
0.8046279916747536
 40
0.8590884429914246
 40
0.9120140482153746
 40
0.9664744995755016
 40
0.9999999999999999
 40
0.9999999999999999
 40
0.9999999999999999
 40
0.9999999999999999
 10
-2.000000004318199
 20
-101.2132009255319
 30
0.0
 10
-2.101522928173906
 20
-101.2132032269412
 30
0.0
 10
-2.307512947285159
 20
-101.2132078965009
 30
0.0
 10
-3.964479359716975
 20
-101.2131368775053
 30
0.0
 10
-6.586328853408838
 20
-101.2132271225504
 30
0.0
 10
-10.14914013743257
 20
-101.2131983119165
 30
0.0
 10
-14.59002360975186
 20
-101.2132334043759
 30
0.0
 10
-19.71034997526993
 20
-101.213204882036
 30
0.0
 10
-25.45546691891519
 20
-101.2132073342453
 30
0.0
 10
-31.55986031671006
 20
-101.2131859304511
 30
0.0
 10
-37.96047764905497
 20
-101.2132381146162
 30
0.0
 10
-44.36099197327836
 20
-101.2132007434067
 30
0.0
 10
-50.69540465329096
 20
-101.2131996903619
 30
0.0
 10
-56.67049248216017
 20
-101.2132312165394
 30
0.0
 10
-62.22438231232477
 20
-101.2132048610949
 30
0.0
 10
-67.10098839983864
 20
-101.2132083967885
 30
0.0
 10
-71.24602311065225
 20
-101.2131857309821
 30
0.0
 10
-74.48255469125291
 20
-101.2132390921247
 30
0.0
 10
-76.72114235934676
 20
-101.2131997841748
 30
0.0
 10
-77.9041668141902
 20
-101.2132044307531
 30
0.0
 10
-77.8853100090328
 20
-101.2132024059269
 30
0.0
 10
-77.87812495486804
 20
-101.2132016344025
 30
0.0
  0
LINE
  5
96
330
23
100
AcDbEntity
  8
0
  6
Continuous
 62
     7
370
    25
100
AcDbLine
 10
-79.2205087907
 20
-99.9926946687
 30
0.0
 11
-78.0
 21
-101.2132034584
 31
0.0
  0
LINE
  5
97
330
23
100
AcDbEntity
  8
0
  6
Continuous
 62
     7
370
    25
100
AcDbLine
 10
-2.0
 20
-101.2132010125
 30
0.0
 11
-0.7794932849
 21
-99.9926941896
 31
0.0
  0
LINE
  5
98
330
23
100
AcDbEntity
  8
0
  6
Continuous
 62
     7
370
    25
100
AcDbLine
 10
-2.0
 20
-109.9999999998
 30
0.0
 11
-2.0
 21
-101.2132009243
 31
0.0
  0
LINE
  5
99
330
23
100
AcDbEntity
  8
0
  6
Continuous
 62
     7
370
    25
100
AcDbLine
 10
-78.0
 20
-101.2132016351
 30
0.0
 11
-78.0
 21
-109.9999999998
 31
0.0
  0
LINE
  5
9A
330
23
100
AcDbEntity
  8
0
  6
Continuous
 62
     7
370
    25
100
AcDbLine
 10
-78.0
 20
-110.0
 30
0.0
 11
-2.0
 21
-110.0
 31
0.0
  0
VIEWPORT
  5
100
330
23
100
AcDbEntity
  8
0
100
AcDbViewport
 10
0.0
 20
0.0
 30
0.0
 40
205.6
 41
156.0
 68
     1
 69
     1
 12
-0.0000081119
 22
0.0000061269
 13
0.0
 23
0.0
 14
10.0
 24
10.0
 15
10.0
 25
10.0
 16
0.0
 26
0.0
 36
1.0
 17
0.0
 27
0.0
 37
0.0
 42
50.0
 43
0.0
 44
0.0
 45
499.21381672
 50
0.0
 51
0.0
 72
   100
 90
   557152
  1

281
     0
 71
     1
 74
     0
110
0.0
120
0.0
130
0.0
111
1.0
121
0.0
131
0.0
112
0.0
122
1.0
132
0.0
 79
     0
146
0.0
170
     0
 61
     5
348
2F
292
     1
282
     1
141
0.0
142
0.0
 63
   256
361
101
  0
ENDBLK
  5
25
330
23
100
AcDbEntity
  8
0
100
AcDbBlockEnd
  0
BLOCK
  5
9D
330
9B
100
AcDbEntity
  8
0
100
AcDbBlockBegin
  2
*Paper_Space1
 70
     0
 10
0.0
 20
0.0
 30
0.0
  3
*Paper_Space1
  1

  0
SPLINE
  5
9F
330
9B
100
AcDbEntity
  8
0
  6
Continuous
 62
     7
370
    25
100
AcDbSpline
210
0.0
220
0.0
230
1.0
 70
     8
 71
     3
 72
   144
 73
   140
 74
     0
 42
0.000000001
 43
0.00000001
 40
0.0
 40
0.0
 40
0.0
 40
0.0
 40
0.0051073790958819
 40
0.0092616038267692
 40
0.0128571121872918
 40
0.0161872117076707
 40
0.0193226194194456
 40
0.0222761356974898
 40
0.0286098930666055
 40
0.0343235125892985
 40
0.0403433923886485
 40
0.0467037780152207
 40
0.0528715625907446
 40
0.0579385450879955
 40
0.062011198706681
 40
0.0651352119098454
 40
0.0679050123645969
 40
0.0708200995775985
 40
0.0738847836920769
 40
0.0770994244948975
 40
0.0804655832618488
 40
0.0839928315916341
 40
0.0912589735219816
 40
0.0987727012534125
 40
0.1066195383007238
 40
0.1143410932279328
 40
0.1192703984487175
 40
0.1240258010291337
 40
0.1284554111253588
 40
0.1322095950893035
 40
0.135210714447686
 40
0.137629421212142
 40
0.1394665229673023
 40
0.1414751267514942
 40
0.1437510614930995
 40
0.1463634616871143
 40
0.1504871430077541
 40
0.1553915481733847
 40
0.1611395370137517
 40
0.1675194166991259
 40
0.1738121388319045
 40
0.1857961893518937
 40
0.19729346414866
 40
0.2029190773756854
 40
0.2083773532233122
 40
0.2135724934337358
 40
0.2173296552207411
 40
0.220986303711535
 40
0.2245577353226555
 40
0.2280729319664011
 40
0.2315448493435315
 40
0.2349814509286874
 40
0.2417706141743349
 40
0.2485206621269279
 40
0.255089864402364
 40
0.261670973501466
 40
0.2680971081524375
 40
0.2743666360222292
 40
0.2805562863346227
 40
0.2868246591463946
 40
0.3019310575657872
 40
0.3175038388916468
 40
0.3366540342758224
 40
0.3564724052566716
 40
0.3769610641182649
 40
0.4053024943508055
 40
0.4346126602740787
 40
0.4649046609937002
 40
0.4961920672634055
 40
0.5160016435229181
 40
0.5361990273114181
 40
0.556787545127591
 40
0.5769352146946629
 40
0.5958668464500505
 40
0.6135943238058709
 40
0.6301280410572203
 40
0.645476827716643
 40
0.6567100630026129
 40
0.6672189869893151
 40
0.6770056511120509
 40
0.6864578935018034
 40
0.696918262867393
 40
0.7084980540115535
 40
0.72119192543073
 40
0.7349925510228382
 40
0.7405071509971352
 40
0.7461786160917061
 40
0.7518478231193844
 40
0.7559789017753539
 40
0.7600325900026207
 40
0.7640301829369817
 40
0.7679878784922448
 40
0.7719184644249265
 40
0.775832860813628
 40
0.7797417554502707
 40
0.7836571190878161
 40
0.7875935556973002
 40
0.7915694220849113
 40
0.7956076399690403
 40
0.7997142697606343
 40
0.8106014614792385
 40
0.8213073234223215
 40
0.8313142453025221
 40
0.8383415008632277
 40
0.8450109576960444
 40
0.8492786143513807
 40
0.8534160434001496
 40
0.8573299973983082
 40
0.8599447696451524
 40
0.8623942873353853
 40
0.864827117263963
 40
0.8673884843650439
 40
0.8711858450418568
 40
0.8754748376313859
 40
0.8802022104086706
 40
0.8879412418809841
 40
0.8955826462377332
 40
0.9030536072554051
 40
0.9102796164691518
 40
0.9140394033967543
 40
0.9175145299203336
 40
0.9207103819612232
 40
0.9236374853213625
 40
0.9269289507837918
 40
0.9313290756320364
 40
0.936873891515563
 40
0.9411513276845695
 40
0.9459745876402129
 40
0.9514143838787701
 40
0.9573292635530388
 40
0.9622695355777193
 40
0.9673780695681374
 40
0.9745806651863439
 40
0.9827613037588941
 40
0.9855986463810228
 40
0.9885815479836695
 40
0.9918219772048178
 40
0.995542813904718
 40
1.0
 40
1.0
 40
1.0
 40
1.0
 10
-322.4813816877434
 20
-0.7471296581891342
 30
0.0
 10
-322.402927666963
 20
-2.31994061220938
 30
0.0
 10
-322.2606609494462
 20
-5.172039835132495
 30
0.0
 10
-322.0629175339228
 20
-9.131359088885786
 30
0.0
 10
-321.8923364976226
 20
-12.54336022306499
 30
0.0
 10
-321.7373316872452
 20
-15.6416149010194
 30
0.0
 10
-321.592126236922
 20
-18.54216360646866
 30
0.0
 10
-321.4006317123395
 20
-22.36768730025074
 30
0.0
 10
-321.16874753815
 20
-26.98705685342889
 30
0.0
 10
-320.8921818952999
 20
-32.5511405298505
 30
0.0
 10
-320.6061867469159
 20
-38.12176812977943
 30
0.0
 10
-320.3509727718851
 20
-43.83887843070077
 30
0.0
 10
-319.5520378752038
 20
-49.21502907955209
 30
0.0
 10
-318.483017516491
 20
-53.81594186172367
 30
0.0
 10
-317.376652853713
 20
-57.43435524594703
 30
0.0
 10
-316.3208126983456
 20
-60.32139208089719
 30
0.0
 10
-315.2757393793734
 20
-62.82918345095423
 30
0.0
 10
-314.1327010519206
 20
-65.27378192619554
 30
0.0
 10
-312.8172193111488
 20
-67.78616337462793
 30
0.0
 10
-311.3140864455459
 20
-70.35367551629388
 30
0.0
 10
-309.6078034045541
 20
-72.96339341453469
 30
0.0
 10
-307.0325299878158
 20
-76.49087425652475
 30
0.0
 10
-303.3375928773203
 20
-80.77417631601199
 30
0.0
 10
-298.217344558194
 20
-85.5337268069599
 30
0.0
 10
-292.4751263101851
 20
-89.7650682125117
 30
0.0
 10
-286.9805281235598
 20
-92.91679689858047
 30
0.0
 10
-282.0954442334863
 20
-95.14894423553636
 30
0.0
 10
-278.0162995665072
 20
-96.6768512386192
 30
0.0
 10
-274.1946552114889
 20
-97.82601535798061
 30
0.0
 10
-270.8327118126874
 20
-98.62304183328983
 30
0.0
 10
-268.0640903518572
 20
-99.13973436899114
 30
0.0
 10
-265.8147183385975
 20
-99.46682781385334
 30
0.0
 10
-264.1008348328509
 20
-99.66462651933409
 30
0.0
 10
-262.7168517825264
 20
-99.79225631856616
 30
0.0
 10
-261.4969675351149
 20
-99.8792823194331
 30
0.0
 10
-260.2938865609079
 20
-99.94326877374847
 30
0.0
 10
-259.2387068880572
 20
-99.97902573137638
 30
0.0
 10
-258.4323859043325
 20
-99.99430353941224
 30
0.0
 10
-257.9791868929651
 20
-99.9983717981544
 30
0.0
 10
-257.8248087867295
 20
-99.99926000936121
 30
0.0
 10
-257.5443535023096
 20
-100.0002148236413
 30
0.0
 10
-257.3416121487051
 20
-99.99992945524065
 30
0.0
 10
-257.1875519117254
 20
-100.000008403124
 30
0.0
 10
-257.1157818180695
 20
-99.99999848713996
 30
0.0
 10
-257.0350034721811
 20
-100.0000003829493
 30
0.0
 10
-256.1155322139887
 20
-99.999999929922
 30
0.0
 10
-254.8266877482558
 20
-100.0000000156892
 30
0.0
 10
-253.3438776133952
 20
-99.99999999594988
 30
0.0
 10
-251.5786434765265
 20
-100.0000000010559
 30
0.0
 10
-249.548616039672
 20
-99.99999999972319
 30
0.0
 10
-247.2830842938756
 20
-100.0000000000713
 30
0.0
 10
-244.0030010035823
 20
-99.9999999999595
 30
0.0
 10
-239.4353624147799
 20
-100.0000000000136
 30
0.0
 10
-233.4939439020622
 20
-99.99999999999642
 30
0.0
 10
-227.3462303365175
 20
-100.000000000001
 30
0.0
 10
-221.3135421502064
 20
-99.99999999999976
 30
0.0
 10
-215.369359446331
 20
-100.0
 30
0.0
 10
-209.5470163816347
 20
-100.0000000000001
 30
0.0
 10
-203.7731620918392
 20
-100.0
 30
0.0
 10
-195.2748766008679
 20
-100.0000000000001
 30
0.0
 10
-183.8836471466766
 20
-100.0000000000001
 30
0.0
 10
-168.5207455259656
 20
-100.0000000000002
 30
0.0
 10
-151.7049276742728
 20
-100.0000000000002
 30
0.0
 10
-133.3732711779713
 20
-100.0000000000003
 30
0.0
 10
-112.2075638219757
 20
-100.0000000000003
 30
0.0
 10
-88.11505998251725
 20
-100.0000000000004
 30
0.0
 10
-60.9996639085829
 20
-100.0000000000005
 30
0.0
 10
-32.97573536129628
 20
-100.0000000000005
 30
0.0
 10
-7.881007181514399
 20
-100.0000000000004
 30
0.0
 10
14.10127570535886
 20
-100.0000000000005
 30
0.0
 10
32.78477346567207
 20
-100.0000000000005
 30
0.0
 10
51.57252161633846
 20
-100.0000000000006
 30
0.0
 10
69.96999330614543
 20
-100.0000000000005
 30
0.0
 10
87.48518932883539
 20
-100.0000000000005
 30
0.0
 10
103.8858453665948
 20
-100.0000000000005
 30
0.0
 10
119.1814227365961
 20
-100.0000000000004
 30
0.0
 10
132.4742023606576
 20
-100.0000000000005
 30
0.0
 10
143.9089328228041
 20
-100.0000000000003
 30
0.0
 10
153.6283927118891
 20
-100.0000000000004
 30
0.0
 10
162.7981255307892
 20
-100.0000000000003
 30
0.0
 10
171.9522079028724
 20
-100.0000000000003
 30
0.0
 10
181.660967169387
 20
-100.0000000000003
 30
0.0
 10
192.3697035431369
 20
-100.0000000000001
 30
0.0
 10
204.1090940515211
 20
-100.0000000000002
 30
0.0
 10
213.9777353628395
 20
-100.0000000000001
 30
0.0
 10
221.6831298025961
 20
-100.0
 30
0.0
 10
226.8765928726056
 20
-100.0000000000001
 30
0.0
 10
231.6591862574088
 20
-99.99999999999977
 30
0.0
 10
235.8280335412798
 20
-100.0000000000007
 30
0.0
 10
239.3546385161191
 20
-99.99999999999757
 30
0.0
 10
242.6399967972226
 20
-100.000000000009
 30
0.0
 10
245.6569031762708
 20
-99.99999999996687
 30
0.0
 10
248.3779551799751
 20
-100.0000000001226
 30
0.0
 10
250.7767967133496
 20
-99.99999999954477
 30
0.0
 10
252.8274393646009
 20
-100.0000000016978
 30
0.0
 10
254.5044196710654
 20
-99.99999999363727
 30
0.0
 10
255.7824199308455
 20
-100.0000000239882
 30
0.0
 10
256.6375266131136
 20
-99.99999990889191
 30
0.0
 10
257.0419839354674
 20
-100.0000003483212
 30
0.0
 10
256.9565624825858
 20
-99.99999775082053
 30
0.0
 10
257.0039603606921
 20
-100.0000244901623
 30
0.0
 10
256.9431035792768
 20
-99.99991530136215
 30
0.0
 10
257.2322383800008
 20
-100.0002561556214
 30
0.0
 10
258.1604306884746
 20
-99.99936693215442
 30
0.0
 10
259.2135805699712
 20
-99.98040938327755
 30
0.0
 10
260.3468281184583
 20
-99.93974405602047
 30
0.0
 10
261.4473488506355
 20
-99.8804896240688
 30
0.0
 10
262.5041435197481
 20
-99.80836965401006
 30
0.0
 10
264.0917445151134
 20
-99.6636969157273
 30
0.0
 10
265.8423409660221
 20
-99.45860647867799
 30
0.0
 10
267.9177222016182
 20
-99.15275439661224
 30
0.0
 10
270.5668169440759
 20
-98.66575370841623
 30
0.0
 10
273.7728865060501
 20
-97.92031410687837
 30
0.0
 10
277.5624457014677
 20
-96.80193900641426
 30
0.0
 10
282.4156040859916
 20
-95.01800174886219
 30
0.0
 10
288.0305559709391
 20
-92.35722831336311
 30
0.0
 10
294.0329556454965
 20
-88.6397709610309
 30
0.0
 10
299.4636703389159
 20
-84.38131470117986
 30
0.0
 10
303.543875019959
 20
-80.39752187334031
 30
0.0
 10
306.4717334321889
 20
-77.03214851148405
 30
0.0
 10
308.4495519390838
 20
-74.49413915205058
 30
0.0
 10
310.1507167474139
 20
-72.07120455949386
 30
0.0
 10
311.7091098857169
 20
-69.62116098235408
 30
0.0
 10
313.3362578973245
 20
-66.77852027056294
 30
0.0
 10
315.1568060940741
 20
-63.1226223550841
 30
0.0
 10
316.815607110808
 20
-59.05744285365365
 30
0.0
 10
318.2099320679489
 20
-54.75920007213751
 30
0.0
 10
319.2971095293877
 20
-50.40633705826934
 30
0.0
 10
320.1513590401029
 20
-45.48449161153557
 30
0.0
 10
320.5164676301887
 20
-40.46861269950035
 30
0.0
 10
320.7352543667176
 20
-35.55213069838949
 30
0.0
 10
321.0084759923884
 20
-30.23975777771911
 30
0.0
 10
321.3215728683359
 20
-23.9293514455374
 30
0.0
 10
321.6034355682986
 20
-18.31842014920101
 30
0.0
 10
321.8191114565553
 20
-14.00689885012851
 30
0.0
 10
321.9586790847292
 20
-11.21669479002944
 30
0.0
 10
322.1117185929891
 20
-8.15441543962088
 30
0.0
 10
322.2872988581867
 20
-4.638126584745689
 30
0.0
 10
322.4129171853573
 20
-2.11971459510471
 30
0.0
 10
322.4813816877437
 20
-0.7471296581891342
 30
0.0
  0
SPLINE
  5
A4
330
9B
100
AcDbEntity
  8
0
  6
Continuous
 62
     7
370
    25
100
AcDbSpline
210
0.0
220
0.0
230
1.0
 70
    24
 71
     3
 72
    46
 73
    42
 74
     0
 42
0.000000001
 43
0.00000001
 40
0.0
 40
0.0
 40
0.0
 40
0.0
 40
0.019296248444366
 40
0.0964812422218145
 40
0.1039328338230978
 40
0.1113839416466807
 40
0.1188222375861352
 40
0.1245052314135886
 40
0.1301881156425292
 40
0.1358702811291099
 40
0.1415526556139439
 40
0.1472474657581838
 40
0.1529421189575783
 40
0.1586458059339169
 40
0.1643495120741774
 40
0.1733189054679136
 40
0.1822986355342525
 40
0.1913033633047158
 40
0.2003172083992786
 40
0.2093152560151741
 40
0.3876251700843844
 40
0.5806153659751219
 40
0.6771104631960386
 40
0.6931986825411414
 40
0.7092867925796184
 40
0.7253642799465242
 40
0.7310536921410103
 40
0.7367428720957749
 40
0.7424319969377023
 40
0.7481213285357479
 40
0.7538142787068154
 40
0.7595070861183553
 40
0.7652125206186158
 40
0.7709178813445733
 40
0.7797697434797565
 40
0.7886377202199011
 40
0.7975448383657944
 40
0.8064665483928172
 40
0.815363580732356
 40
0.9906903830148969
 40
1.0
 40
1.0
 40
1.0
 40
1.0
 10
322.5186414504132
 20
0.0
 30
0.0
 10
322.5240087889607
 20
-0.0000000000000069
 30
0.0
 10
322.5508454816982
 20
-0.0000000000000416
 30
0.0
 10
322.1464548731039
 20
0.0000000000005274
 30
0.0
 10
322.6301682749335
 20
0.0000000000001804
 30
0.0
 10
322.7784690095766
 20
-0.0000000000000486
 30
0.0
 10
322.5963234863564
 20
-0.0000000000001874
 30
0.0
 10
321.5283855248179
 20
-0.0000000000000416
 30
0.0
 10
319.531247504631
 20
0.0000000000000486
 30
0.0
 10
316.6272568859279
 20
0.000000000000111
 30
0.0
 10
312.9091319573783
 20
0.0000000000001943
 30
0.0
 10
308.4580607219759
 20
0.0000000000002082
 30
0.0
 10
303.4172650444432
 20
0.0000000000002914
 30
0.0
 10
297.9142075883757
 20
0.0000000000001596
 30
0.0
 10
290.9912658010836
 20
0.0000000000000416
 30
0.0
 10
282.8242741908707
 20
0.0000000000000902
 30
0.0
 10
273.5126574501912
 20
0.0000000000000694
 30
0.0
 10
264.1862411413872
 20
0.0000000000000694
 30
0.0
 10
254.8597845125474
 20
0.0000000000000625
 30
0.0
 10
187.0339882732362
 20
0.0000000000000555
 30
0.0
 10
55.64271236803939
 20
0.0000000000000139
 30
0.0
 10
-105.9751637102179
 20
0.0000000000000069
 30
0.0
 10
-211.5481012260603
 20
0.0000000000000416
 30
0.0
 10
-256.0026947055886
 20
0.0000000000000139
 30
0.0
 10
-272.6684077441548
 20
-0.0000000000000416
 30
0.0
 10
-285.7602829902726
 20
-0.0000000000000208
 30
0.0
 10
-295.2142974058415
 20
-0.0000000000000763
 30
0.0
 10
-300.8669720923568
 20
-0.0000000000001804
 30
0.0
 10
-306.1336604866615
 20
0.0000000000000347
 30
0.0
 10
-310.8823766991485
 20
0.0000000000002776
 30
0.0
 10
-314.9597038090286
 20
0.0000000000000833
 30
0.0
 10
-318.2726146058278
 20
0.0000000000000486
 30
0.0
 10
-320.7170406226319
 20
-0.0000000000002012
 30
0.0
 10
-322.4023905458876
 20
-0.0000000000005274
 30
0.0
 10
-323.170667291111
 20
-0.0000000000003608
 30
0.0
 10
-323.388148211442
 20
-0.0000000000002845
 30
0.0
 10
-323.1106175054746
 20
-0.0000000000001388
 30
0.0
 10
-322.6638499866248
 20
-0.0000000000000208
 30
0.0
 10
-321.5891106999534
 20
0.0000000000001943
 30
0.0
 10
-322.1113659813058
 20
0.0000000000005621
 30
0.0
 10
-322.5645598592809
 20
0.000000000000118
 30
0.0
 10
-322.5874105051107
 20
0.0000000000000971
 30
0.0
  0
SPLINE
  5
A5
330
9B
100
AcDbEntity
  8
0
  6
Continuous
 62
     7
370
    25
100
AcDbSpline
210
0.0
220
0.0
230
1.0
 70
     8
 71
     3
 72
    17
 73
    13
 74
     0
 42
0.000000001
 43
0.00000001
 40
0.0
 40
0.0
 40
0.0
 40
0.0
 40
0.1058571141683629
 40
0.2147840915377371
 40
0.320641206932592
 40
0.429568185642606
 40
0.5354253028871888
 40
0.6443522836248947
 40
0.7502094015083468
 40
0.8591363829515878
 40
0.9649935011721836
 40
1.0
 40
1.0
 40
1.0
 40
1.0
 10
-0.0005728719639006
 20
-101.2132009255319
 30
0.0
 10
-2.106575226428878
 20
-101.2132032269898
 30
0.0
 10
-6.379654140715807
 20
-101.2132078966481
 30
0.0
 10
-12.58106540013611
 20
-101.2131368769034
 30
0.0
 10
-18.48037720821483
 20
-101.213227124761
 30
0.0
 10
-23.80381303902927
 20
-101.2131983034907
 30
0.0
 10
-28.49843013561039
 20
-101.2132334351829
 30
0.0
 10
-32.33979035093488
 20
-101.2132047646553
 30
0.0
 10
-35.31468664986476
 20
-101.2132077634089
 30
0.0
 10
-37.18709656316007
 20
-101.2131842952588
 30
0.0
 10
-38.04991500380882
 20
-101.2132304381079
 30
0.0
 10
-37.91285239445294
 20
-101.2132203403786
 30
0.0
 10
-37.87879049703547
 20
-101.2132178309573
 30
0.0
  0
SPLINE
  5
A6
330
9B
100
AcDbEntity
  8
0
  6
Continuous
 62
     7
370
    25
100
AcDbSpline
210
0.0
220
0.0
230
1.0
 70
     8
 71
     3
 72
    18
 73
    14
 74
     0
 42
0.000000001
 43
0.00000001
 40
0.0
 40
0.0
 40
0.0
 40
0.0
 40
0.0067892614505522
 40
0.1126395990506641
 40
0.2215596035928347
 40
0.3274099412887037
 40
0.4363299459387329
 40
0.5421802837904864
 40
0.6511002886105985
 40
0.7569506264645351
 40
0.8658706312848106
 40
0.9325630297462536
 40
1.0
 40
1.0
 40
1.0
 40
1.0
 10
37.96755434277105
 20
-101.2132035265749
 30
0.0
 10
37.9782528896633
 20
-101.2132046691309
 30
0.0
 10
38.15575084597933
 20
-101.2132236251035
 30
0.0
 10
37.49616331681887
 20
-101.2131935374187
 30
0.0
 10
35.93074281860585
 20
-101.2132354601234
 30
0.0
 10
33.2035636335686
 20
-101.213202244137
 30
0.0
 10
29.59493525383538
 20
-101.2132086036894
 30
0.0
 10
25.10075650677732
 20
-101.2131843628336
 30
0.0
 10
19.93995192583485
 20
-101.2132392140321
 30
0.0
 10
14.16359723726956
 20
-101.2131969950639
 30
0.0
 10
8.785049807972786
 20
-101.2132120627278
 30
0.0
 10
4.00732947069589
 20
-101.2131866456338
 30
0.0
 10
1.340329544800849
 20
-101.2131961479829
 30
0.0
 10
-0.0005728719639006
 20
-101.2132009255319
 30
0.0
  0
LINE
  5
A9
330
9B
100
AcDbEntity
  8
0
  6
Continuous
 62
     7
370
    25
100
AcDbLine
 10
-39.2205087724
 20
-99.9926946643
 30
0.0
 11
-37.9926020639
 21
-101.2206013727
 31
0.0
  0
LINE
  5
AA
330
9B
100
AcDbEntity
  8
0
  6
Continuous
 62
     7
370
    25
100
AcDbLine
 10
37.9926020803
 20
-101.2206013769
 30
0.0
 11
39.2205087897
 21
-99.9926946685
 31
0.0
  0
LINE
  5
AB
330
9B
100
AcDbEntity
  8
0
  6
Continuous
 62
     7
370
    25
100
AcDbLine
 10
38.0
 20
-109.9999999998
 30
0.0
 11
38.0
 21
-101.2132034938
 31
0.0
  0
LINE
  5
AC
330
9B
100
AcDbEntity
  8
0
  6
Continuous
 62
     7
370
    25
100
AcDbLine
 10
-38.0
 20
-101.2132178293
 30
0.0
 11
-38.0
 21
-109.9999999998
 31
0.0
  0
LINE
  5
AD
330
9B
100
AcDbEntity
  8
0
  6
Continuous
 62
     7
370
    25
100
AcDbLine
 10
-38.0
 20
-110.0
 30
0.0
 11
38.0
 21
-110.0
 31
0.0
  0
VIEWPORT
  5
102
330
9B
100
AcDbEntity
  8
0
100
AcDbViewport
 10
0.0
 20
0.0
 30
0.0
 40
205.6
 41
156.0
 68
     1
 69
     1
 12
-0.0000081119
 22
0.0000061269
 13
0.0
 23
0.0
 14
10.0
 24
10.0
 15
10.0
 25
10.0
 16
0.0
 26
0.0
 36
1.0
 17
0.0
 27
0.0
 37
0.0
 42
50.0
 43
0.0
 44
0.0
 45
499.21381672
 50
0.0
 51
0.0
 72
   100
 90
   557152
  1

281
     0
 71
     1
 74
     0
110
0.0
120
0.0
130
0.0
111
1.0
121
0.0
131
0.0
112
0.0
122
1.0
132
0.0
 79
     0
146
0.0
170
     0
 61
     5
348
2F
292
     1
282
     1
141
0.0
142
0.0
 63
   256
361
103
  0
ENDBLK
  5
9E
330
9B
100
AcDbEntity
  8
0
100
AcDbBlockEnd
  0
BLOCK
  5
B0
330
AE
100
AcDbEntity
  8
0
100
AcDbBlockBegin
  2
*Paper_Space2
 70
     0
 10
0.0
 20
0.0
 30
0.0
  3
*Paper_Space2
  1

  0
SPLINE
  5
B2
330
AE
100
AcDbEntity
  8
0
  6
Continuous
 62
     7
370
    25
100
AcDbSpline
210
0.0
220
0.0
230
1.0
 70
     8
 71
     3
 72
   108
 73
   104
 74
     0
 42
0.000000001
 43
0.00000001
 40
0.0
 40
0.0
 40
0.0
 40
0.0
 40
0.0064032552794313
 40
0.0116121279772212
 40
0.0161204261885977
 40
0.0202957831782464
 40
0.0242272023153553
 40
0.0279307117357678
 40
0.0358730762626311
 40
0.0430375722685809
 40
0.0505859574357315
 40
0.0585655816549251
 40
0.0663240216875522
 40
0.0726977427719859
 40
0.077821156519613
 40
0.0817523125191899
 40
0.0852285143010565
 40
0.0888865457369478
 40
0.0927317444207177
 40
0.0967644002777481
 40
0.1009862403925773
 40
0.1054094848572164
 40
0.1145234484693113
 40
0.1239463080055768
 40
0.1337864125318487
 40
0.1434718309131033
 40
0.1496539752589748
 40
0.1556180005451742
 40
0.1611727185108656
 40
0.1658762581606968
 40
0.1696309075180135
 40
0.1726581152572705
 40
0.174960966825625
 40
0.1774814791938956
 40
0.1803396427699876
 40
0.1836218914874101
 40
0.1888044460271165
 40
0.1949689872572467
 40
0.2021937730404959
 40
0.2102021094416461
 40
0.2180968725334391
 40
0.2331313704474
 40
0.2475544280418288
 40
0.2546113236221326
 40
0.2614562480428456
 40
0.2679710837271486
 40
0.2726829377905917
 40
0.2772688813429963
 40
0.2817315931598379
 40
0.2859905995756511
 40
0.2913415678825308
 40
0.2963370414724059
 40
0.3009899120813615
 40
0.307341480284384
 40
0.3129569964863813
 40
0.3183820710152314
 40
0.3228240807293977
 40
0.3262554359920712
 40
0.3300867486159749
 40
0.3348285016656118
 40
0.342412621941946
 40
0.3515534919563663
 40
0.3622491016501599
 40
0.3731111841548145
 40
0.3852104156620366
 40
0.3985460678617853
 40
0.4131176254996441
 40
0.4289247760267568
 40
0.4456333123505193
 40
0.5047117515964831
 40
0.5625834482880447
 40
0.6192992300040914
 40
0.6459744709577099
 40
0.6724021147069282
 40
0.6985867704143129
 40
0.7238586117317397
 40
0.7476048807035826
 40
0.7698404802188151
 40
0.7905784445970967
 40
0.8098298445926355
 40
0.8239190155966857
 40
0.8370994881676561
 40
0.8493738322596879
 40
0.8612354366986922
 40
0.874365725798843
 40
0.8889006900211555
 40
0.9048336165150729
 40
0.9221553016141709
 40
0.9290767824157995
 40
0.936195103837508
 40
0.9433053014121164
 40
0.9484865598100608
 40
0.9535712084833186
 40
0.9585858457857821
 40
0.9635506340774903
 40
0.9684812949147877
 40
0.9733912455040808
 40
0.9782936225725494
 40
0.9832031995693948
 40
0.9881380995182216
 40
0.9931212181849721
 40
0.9981812595861016
 40
1.0
 40
1.0
 40
1.0
 40
1.0
 10
-322.4813816877437
 20
-0.7471296581891342
 30
0.0
 10
-322.4029814595536
 20
-2.318862391057913
 30
0.0
 10
-322.2608047941766
 20
-5.169156631034053
 30
0.0
 10
-322.0631833799954
 20
-9.126038276006318
 30
0.0
 10
-321.8927017331943
 20
-12.5360564805231
 30
0.0
 10
-321.7377874512082
 20
-15.63250996609034
 30
0.0
 10
-321.5926638956285
 20
-18.5314159176863
 30
0.0
 10
-321.4012709889943
 20
-22.35496805540155
 30
0.0
 10
-321.1694832475043
 20
-26.97199308593874
 30
0.0
 10
-320.8931410624165
 20
-32.53321386624143
 30
0.0
 10
-320.606924649426
 20
-38.10189495656845
 30
0.0
 10
-320.3527944988434
 20
-43.82310979986767
 30
0.0
 10
-319.5494775379123
 20
-49.20804780623046
 30
0.0
 10
-318.4713161676682
 20
-53.81980258045292
 30
0.0
 10
-317.3551137744871
 20
-57.4461601529344
 30
0.0
 10
-316.290640402997
 20
-60.33710714661839
 30
0.0
 10
-315.2383326817759
 20
-62.84556997136475
 30
0.0
 10
-314.0891778216497
 20
-65.2879353740518
 30
0.0
 10
-312.7676285277377
 20
-67.79732306595827
 30
0.0
 10
-311.2587693068657
 20
-70.36106936439278
 30
0.0
 10
-309.5473921216034
 20
-72.96635417965096
 30
0.0
 10
-306.9661693924713
 20
-76.48784024816231
 30
0.0
 10
-303.2663096815624
 20
-80.76416013800805
 30
0.0
 10
-298.1446775728875
 20
-85.51821697844345
 30
0.0
 10
-292.4050264973492
 20
-89.74847633379002
 30
0.0
 10
-286.9146468505477
 20
-92.9031331068127
 30
0.0
 10
-282.0331781566933
 20
-95.13956375042982
 30
0.0
 10
-277.9572292195874
 20
-96.6712578868177
 30
0.0
 10
-274.1393136584816
 20
-97.82345485605468
 30
0.0
 10
-270.7827405420099
 20
-98.62218717670646
 30
0.0
 10
-268.0201946724459
 20
-99.13971654858099
 30
0.0
 10
-265.7761064394165
 20
-99.46726192459168
 30
0.0
 10
-264.067815888525
 20
-99.66511053775275
 30
0.0
 10
-262.6883400123693
 20
-99.79274494886434
 30
0.0
 10
-261.4729011738592
 20
-99.87970594284539
 30
0.0
 10
-260.2746884488663
 20
-99.94358615530322
 30
0.0
 10
-259.224864221107
 20
-99.9792066954864
 30
0.0
 10
-258.4236206386626
 20
-99.99437503222586
 30
0.0
 10
-257.9759088838675
 20
-99.9983811057572
 30
0.0
 10
-257.8223329830557
 20
-99.99927000902996
 30
0.0
 10
-257.5423977567462
 20
-100.0002149127111
 30
0.0
 10
-257.3413159172499
 20
-99.99992943053483
 30
0.0
 10
-257.1859461031095
 20
-100.0000084055952
 30
0.0
 10
-257.1169772816914
 20
-99.99999848725301
 30
0.0
 10
-257.0287699943117
 20
-100.0000003828635
 30
0.0
 10
-256.1014495028389
 20
-99.99999992993271
 30
0.0
 10
-254.8068691376218
 20
-100.0000000156902
 30
0.0
 10
-253.3212832923813
 20
-99.99999999596417
 30
0.0
 10
-251.5743928608069
 20
-100.000000001007
 30
0.0
 10
-249.4198474896686
 20
-99.99999999965829
 30
0.0
 10
-246.8614172353648
 20
-100.0000000000931
 30
0.0
 10
-243.9233848729929
 20
-99.99999999997783
 30
0.0
 10
-240.5271791383137
 20
-100.0000000000082
 30
0.0
 10
-236.7382921451804
 20
-99.99999999999783
 30
0.0
 10
-232.5772275303667
 20
-100.0000000000006
 30
0.0
 10
-228.780203521793
 20
-99.99999999999993
 30
0.0
 10
-225.5098135470525
 20
-100.0
 30
0.0
 10
-222.6351254770824
 20
-100.0
 30
0.0
 10
-219.685809695207
 20
-99.99999999999994
 30
0.0
 10
-215.715852574505
 20
-100.0000000000002
 30
0.0
 10
-210.4409051294811
 20
-99.99999999999994
 30
0.0
 10
-203.7026736802948
 20
-100.0000000000001
 30
0.0
 10
-196.1587255210366
 20
-100.0
 30
0.0
 10
-187.8876415803618
 20
-100.0
 30
0.0
 10
-178.9676626814613
 20
-99.99999999999997
 30
0.0
 10
-169.1359811493421
 20
-100.0000000000001
 30
0.0
 10
-158.3929794021997
 20
-99.99999999999997
 30
0.0
 10
-146.8209920882006
 20
-100.0
 30
0.0
 10
-124.3110328092915
 20
-100.0
 30
0.0
 10
-91.46316020957602
 20
-99.99999999999997
 30
0.0
 10
-48.78273519357091
 20
-99.99999999999997
 30
0.0
 10
-14.06559203152175
 20
-99.99999999999994
 30
0.0
 10
12.92380906111518
 20
-99.99999999999993
 30
0.0
 10
32.40979427427099
 20
-99.99999999999997
 30
0.0
 10
51.55088061338315
 20
-99.9999999999999
 30
0.0
 10
70.03297736516177
 20
-99.99999999999996
 30
0.0
 10
87.54441308480357
 20
-99.99999999999997
 30
0.0
 10
103.9413423632174
 20
-99.99999999999989
 30
0.0
 10
119.2332218340459
 20
-99.99999999999996
 30
0.0
 10
132.5225881400795
 20
-99.99999999999991
 30
0.0
 10
143.9541827677814
 20
-99.99999999999997
 30
0.0
 10
153.6707798708408
 20
-99.99999999999997
 30
0.0
 10
162.8393271669874
 20
-100.0
 30
0.0
 10
171.994872958335
 20
-99.99999999999997
 30
0.0
 10
181.7077947537576
 20
-99.99999999999994
 30
0.0
 10
192.4217799530262
 20
-100.0
 30
0.0
 10
204.1665922894832
 20
-100.0
 30
0.0
 10
214.0396695384975
 20
-100.0
 30
0.0
 10
221.7483315495077
 20
-100.0
 30
0.0
 10
226.9428452145644
 20
-100.0
 30
0.0
 10
231.7246520787263
 20
-100.0
 30
0.0
 10
235.8900975867759
 20
-100.0
 30
0.0
 10
239.4130793452659
 20
-100.0
 30
0.0
 10
242.6942530438324
 20
-100.0
 30
0.0
 10
245.7063775915325
 20
-100.0000000000001
 30
0.0
 10
248.4221114970248
 20
-100.0
 30
0.0
 10
250.8149845890945
 20
-100.0
 30
0.0
 10
252.8593650741608
 20
-100.0
 30
0.0
 10
254.5284442062348
 20
-100.0
 30
0.0
 10
255.8019246259479
 20
-100.0
 30
0.0
 10
256.6368689244396
 20
-100.0
 30
0.0
 10
256.9812977018533
 20
-100.0
 30
0.0
 10
256.9747548032468
 20
-100.0
 30
0.0
 10
256.9730248698895
 20
-100.0
 30
0.0
  0
SPLINE
  5
B3
330
AE
100
AcDbEntity
  8
0
  6
Continuous
 62
     7
370
    25
100
AcDbSpline
210
0.0
220
0.0
230
1.0
 70
     8
 71
     3
 72
    45
 73
    41
 74
     0
 42
0.000000001
 43
0.00000001
 40
0.0
 40
0.0
 40
0.0
 40
0.0
 40
0.0217530911581463
 40
0.0766777274122799
 40
0.1153042046178884
 40
0.151924876333589
 40
0.1753064925989035
 40
0.1979057641453275
 40
0.2191771173116633
 40
0.2333995847693933
 40
0.246769625640437
 40
0.2600911526781761
 40
0.2741334433435149
 40
0.2949515538920532
 40
0.3184551348838268
 40
0.3443511326762591
 40
0.3867317974894014
 40
0.4285797630214097
 40
0.4694901615331955
 40
0.5090661373231725
 40
0.5296591746547011
 40
0.5486913310885032
 40
0.5661932846111489
 40
0.5822235527249241
 40
0.6001956934983128
 40
0.6242301851704072
 40
0.6545196741903929
 40
0.6778842973896433
 40
0.7042268688712258
 40
0.7339323678702834
 40
0.7662814933866535
 40
0.7933415112441017
 40
0.8213224647343136
 40
0.8607709736013706
 40
0.9055761349970177
 40
0.9211172320029822
 40
0.9374558502527063
 40
0.9552040744531811
 40
0.9755841168796411
 40
1.0
 40
1.0
 40
1.0
 40
1.0
 10
256.9955516502554
 20
-100.0
 30
0.0
 10
256.9944819729987
 20
-99.99999370950262
 30
0.0
 10
256.9907114550288
 20
-99.99997153605422
 30
0.0
 10
257.2396454420195
 20
-100.0002907897477
 30
0.0
 10
258.1708779193671
 20
-99.9992952010635
 30
0.0
 10
259.2292343368745
 20
-99.98026567983139
 30
0.0
 10
260.3673082363864
 20
-99.93946136377355
 30
0.0
 10
261.4683766059748
 20
-99.88034805559737
 30
0.0
 10
262.5364371649435
 20
-99.8076489521936
 30
0.0
 10
264.1348722364252
 20
-99.66221822863369
 30
0.0
 10
265.8921017888616
 20
-99.45674009234239
 30
0.0
 10
267.9714824240916
 20
-99.15106709072293
 30
0.0
 10
270.6246259820792
 20
-98.6647713287983
 30
0.0
 10
273.835158787832
 20
-97.92071463371592
 30
0.0
 10
277.6297153130447
 20
-96.80440525557891
 30
0.0
 10
282.4875590789661
 20
-95.02379370671848
 30
0.0
 10
288.1074044658563
 20
-92.36644031922081
 30
0.0
 10
294.1136026597668
 20
-88.64982505021945
 30
0.0
 10
299.5454117489352
 20
-84.3878592298118
 30
0.0
 10
303.6231945431645
 20
-80.39779332712801
 30
0.0
 10
306.5469971694152
 20
-77.02590580194207
 30
0.0
 10
308.5207596372545
 20
-74.4827657891623
 30
0.0
 10
310.2172478036358
 20
-72.05497067321528
 30
0.0
 10
311.7687379676623
 20
-69.60265927408243
 30
0.0
 10
313.3862251468282
 20
-66.76045100296604
 30
0.0
 10
315.1937635462193
 20
-63.10830987704823
 30
0.0
 10
316.8398316655793
 20
-59.04816627133437
 30
0.0
 10
318.2229577267917
 20
-54.7567292696929
 30
0.0
 10
319.3013943840591
 20
-50.41244533393002
 30
0.0
 10
320.1499960618702
 20
-45.49914046506049
 30
0.0
 10
320.5156805736897
 20
-40.48827062988262
 30
0.0
 10
320.7342268754288
 20
-35.57163354240559
 30
0.0
 10
321.0076676130536
 20
-30.25632246397505
 30
0.0
 10
321.3209025809198
 20
-23.94258111121099
 30
0.0
 10
321.602921006851
 20
-18.32871157420717
 30
0.0
 10
321.8187137925538
 20
-14.01484564312446
 30
0.0
 10
321.9583613546653
 20
-11.22305064987996
 30
0.0
 10
322.1114877534786
 20
-8.159036921219268
 30
0.0
 10
322.287173859501
 20
-4.640632147207106
 30
0.0
 10
322.4128708985192
 20
-2.1206424088503
 30
0.0
 10
322.4813816877435
 20
-0.7471296581891342
 30
0.0
  0
SPLINE
  5
B9
330
AE
100
AcDbEntity
  8
0
  6
Continuous
 62
     7
370
    25
100
AcDbSpline
210
0.0
220
0.0
230
1.0
 70
     8
 71
     3
 72
    26
 73
    22
 74
     0
 42
0.000000001
 43
0.00000001
 40
0.0
 40
0.0
 40
0.0
 40
0.0
 40
0.0369567733291771
 40
0.0898803659305778
 40
0.1443387463017501
 40
0.1972623388536454
 40
0.2517207191695928
 40
0.3046443117671101
 40
0.3591026921312568
 40
0.4120262847678506
 40
0.4664846651754518
 40
0.519408257811695
 40
0.57386663821916
 40
0.6267902308271502
 40
0.6812486112018107
 40
0.7341722037719662
 40
0.788630584108006
 40
0.8415541766392123
 40
0.8960125569287964
 40
0.9489361493923456
 40
1.0
 40
1.0
 40
1.0
 40
1.0
 10
37.87879049703547
 20
-101.2132178309573
 30
0.0
 10
37.87764801910262
 20
-101.2132137123102
 30
0.0
 10
37.87486946660946
 20
-101.2132036955939
 30
0.0
 10
36.62588440634098
 20
-101.2131987175994
 30
0.0
 10
34.35591970402268
 20
-101.2132314726791
 30
0.0
 10
31.04377847605275
 20
-101.2132047880094
 30
0.0
 10
26.89524249128021
 20
-101.2132084275838
 30
0.0
 10
21.9389971441158
 20
-101.2131856803682
 30
0.0
 10
16.40829498248602
 20
-101.2132392671938
 30
0.0
 10
10.35912892790521
 20
-101.213199148542
 30
0.0
 10
4.071865170146067
 20
-101.213207491076
 30
0.0
 10
-2.388770890727633
 20
-101.2131904981086
 30
0.0
 10
-8.723600890409658
 20
-101.2132354298149
 30
0.0
 10
-14.86738133354869
 20
-101.2131941180039
 30
0.0
 10
-20.53547625899025
 20
-101.2132114474012
 30
0.0
 10
-25.67005892583363
 20
-101.2131957676705
 30
0.0
 10
-30.03117587927388
 20
-101.2132258682551
 30
0.0
 10
-33.58212896453718
 20
-101.2131863905377
 30
0.0
 10
-36.12776470108154
 20
-101.2132496045386
 30
0.0
 10
-37.72261383211841
 20
-101.2131182264343
 30
0.0
 10
-37.88688680787364
 20
-101.2131754342351
 30
0.0
 10
-37.96755434277105
 20
-101.2132035265749
 30
0.0
  0
LINE
  5
BB
330
AE
100
AcDbEntity
  8
0
  6
Continuous
 62
     7
370
    25
100
AcDbLine
 10
-39.2205087897
 20
-99.9926946685
 30
0.0
 11
-38.0
 21
-101.2132034572
 31
0.0
  0
LINE
  5
BC
330
AE
100
AcDbEntity
  8
0
  6
Continuous
 62
     7
370
    25
100
AcDbLine
 10
37.9999799114
 20
-101.2132235252
 30
0.0
 11
39.2205087724
 21
-99.9926946643
 31
0.0
  0
LINE
  5
BD
330
AE
100
AcDbEntity
  8
0
  6
Continuous
 62
     7
370
    25
100
AcDbLine
 10
38.0
 20
-109.9999999998
 30
0.0
 11
38.0
 21
-101.2132178293
 31
0.0
  0
LINE
  5
BE
330
AE
100
AcDbEntity
  8
0
  6
Continuous
 62
     7
370
    25
100
AcDbLine
 10
-38.0
 20
-101.2132034938
 30
0.0
 11
-38.0
 21
-109.9999999998
 31
0.0
  0
LINE
  5
BF
330
AE
100
AcDbEntity
  8
0
  6
Continuous
 62
     7
370
    25
100
AcDbLine
 10
-323.1007765802
 20
0.0
 30
0.0
 11
323.305700089
 21
0.0
 31
0.0
  0
LINE
  5
C0
330
AE
100
AcDbEntity
  8
0
  6
Continuous
 62
     7
370
    25
100
AcDbLine
 10
-38.0
 20
-110.0
 30
0.0
 11
38.0
 21
-110.0
 31
0.0
  0
VIEWPORT
  5
104
330
AE
100
AcDbEntity
  8
0
100
AcDbViewport
 10
0.0
 20
0.0
 30
0.0
 40
205.6
 41
156.0
 68
     1
 69
     1
 12
-0.0000081119
 22
0.0000061269
 13
0.0
 23
0.0
 14
10.0
 24
10.0
 15
10.0
 25
10.0
 16
0.0
 26
0.0
 36
1.0
 17
0.0
 27
0.0
 37
0.0
 42
50.0
 43
0.0
 44
0.0
 45
499.21381672
 50
0.0
 51
0.0
 72
   100
 90
   557152
  1

281
     0
 71
     1
 74
     0
110
0.0
120
0.0
130
0.0
111
1.0
121
0.0
131
0.0
112
0.0
122
1.0
132
0.0
 79
     0
146
0.0
170
     0
 61
     5
348
2F
292
     1
282
     1
141
0.0
142
0.0
 63
   256
361
105
  0
ENDBLK
  5
B1
330
AE
100
AcDbEntity
  8
0
100
AcDbBlockEnd
  0
BLOCK
  5
C3
330
C1
100
AcDbEntity
  8
0
100
AcDbBlockBegin
  2
*Paper_Space3
 70
     0
 10
0.0
 20
0.0
 30
0.0
  3
*Paper_Space3
  1

  0
LWPOLYLINE
  5
C5
330
C1
100
AcDbEntity
  8
0
  6
Continuous
 62
     7
370
    25
100
AcDbPolyline
 90
       21
 70
   128
 43
0.0
 10
-152.9795391298
 20
-40.859321881
 10
-152.9795391153
 20
-40.8593223003
 10
-152.9795390829
 20
-40.8593232307
 10
-152.9795388063
 20
-40.8593311783
 10
-152.9795365648
 20
-40.859395592
 10
-152.9795302816
 20
-40.8595761443
 10
-152.9795064168
 20
-40.8602618544
 10
-152.97941345
 20
-40.8629321607
 10
-152.9784338123
 20
-40.8909801417
 10
-152.971817767
 20
-41.0758094321
 10
-152.9690773134
 20
-41.1498704507
 10
-152.9684888985
 20
-41.1655729732
 10
-152.9684256601
 20
-41.1672563209
 10
-152.9684066927
 20
-41.1677610556
 10
-152.9683961678
 20
-41.1680410983
 10
-152.9683948561
 20
-41.1680759975
 10
-152.9683940723
 20
-41.1680968516
 10
-152.9683938783
 20
-41.1681020118
 10
-152.9683938309
 20
-41.1681032751
 10
-152.9683938164
 20
-41.1681036606
 10
-152.9683938172
 20
-41.1681036371
  0
LWPOLYLINE
  5
C6
330
C1
100
AcDbEntity
  8
0
  6
Continuous
 62
     7
370
    25
100
AcDbPolyline
 90
       19
 70
   128
 43
0.0
 10
-152.7317610437
 20
-44.3506049595
 10
-152.7317609549
 20
-44.3506057772
 10
-152.7317607831
 20
-44.3506073608
 10
-152.7317593623
 20
-44.350620455
 10
-152.7317480582
 20
-44.3507246356
 10
-152.7316662709
 20
-44.3514783542
 10
-152.7312772604
 20
-44.355062149
 10
-152.7295959439
 20
-44.3705293935
 10
-152.6931463447
 20
-44.6976631157
 10
-152.6788939658
 20
-44.8217098681
 10
-152.6758050081
 20
-44.8483342005
 10
-152.6754580694
 20
-44.8513189009
 10
-152.6752816357
 20
-44.8528363205
 10
-152.6752641785
 20
-44.8529864452
 10
-152.675259448
 20
-44.8530271246
 10
-152.6752580824
 20
-44.8530388687
 10
-152.6752573831
 20
-44.8530448822
 10
-152.6752573502
 20
-44.8530451653
 10
-152.675257365
 20
-44.8530450377
  0
LWPOLYLINE
  5
C7
330
C1
100
AcDbEntity
  8
0
  6
Continuous
 62
     7
370
    25
100
AcDbPolyline
 90
       19
 70
   128
 43
0.0
 10
152.8410688801
 20
-43.2086527507
 10
152.8410703267
 20
-43.2086354339
 10
152.8410746554
 20
-43.208583616
 10
152.8410903777
 20
-43.2083954055
 10
152.8411500755
 20
-43.2076806844
 10
152.8413823986
 20
-43.2048980318
 10
152.8422974144
 20
-43.193919717
 10
152.8459077009
 20
-43.150308407
 10
152.8599115834
 20
-42.9764254449
 10
152.9096587225
 20
-42.2814321518
 10
152.9491433644
 20
-41.5932073668
 10
152.9574926023
 20
-41.4212978195
 10
152.9594790345
 20
-41.3784626159
 10
152.9599663502
 20
-41.3678290019
 10
152.9600860902
 20
-41.3652084433
 10
152.9601151387
 20
-41.3645722416
 10
152.9601219673
 20
-41.3644226611
 10
152.9601236669
 20
-41.3643854276
 10
152.9601233802
 20
-41.364391708
  0
LWPOLYLINE
  5
C8
330
C1
100
AcDbEntity
  8
0
  6
Continuous
 62
     7
370
    25
100
AcDbPolyline
 90
       13
 70
   128
 43
0.0
 10
152.830076813
 20
-43.2565655147
 10
152.8758663557
 20
-42.6559776837
 10
152.8871661831
 20
-42.4935317075
 10
152.8903687767
 20
-42.4462815723
 10
152.8920280671
 20
-42.4215801343
 10
152.8922059324
 20
-42.4189232146
 10
152.8922595268
 20
-42.4181222845
 10
152.892289585
 20
-42.4176730148
 10
152.892295791
 20
-42.4175802492
 10
152.8922964236
 20
-42.417570794
 10
152.892296602
 20
-42.4175681269
 10
152.8922966886
 20
-42.4175668334
 10
152.8922966659
 20
-42.4175671721
  0
SPLINE
  5
C9
330
C1
100
AcDbEntity
  8
0
  6
Continuous
 62
     7
370
    25
100
AcDbSpline
210
0.0
220
0.0
230
1.0
 70
     8
 71
     3
 72
    15
 73
    11
 74
     0
 42
0.000000001
 43
0.00000001
 40
0.0
 40
0.0
 40
0.0
 40
0.0
 40
0.0000006995514128
 40
0.0000386412857168
 40
0.00022443209461
 40
0.0016610654368515
 40
0.0119401147435959
 40
0.0315986346530161
 40
0.2040572040894005
 40
1.0
 40
1.0
 40
1.0
 40
1.0
 10
152.7383545304502
 20
-44.26170653784378
 30
0.0
 10
152.7383545544393
 20
-44.26170630081958
 30
0.0
 10
152.7383558795282
 20
-44.26169320825752
 30
0.0
 10
152.7383635757304
 20
-44.2616171654851
 30
0.0
 10
152.738420511377
 20
-44.26105459667978
 30
0.0
 10
152.7388285484761
 20
-44.25702218790887
 30
0.0
 10
152.7399027977216
 20
-44.24639346846082
 30
0.0
 10
152.7468077057928
 20
-44.17785188104884
 30
0.0
 10
152.7798992010212
 20
-43.84383104346403
 30
0.0
 10
152.8074403514494
 20
-43.52149668696884
 30
0.0
 10
152.8300768130023
 20
-43.25656551472198
 30
0.0
  0
SPLINE
  5
CA
330
C1
100
AcDbEntity
  8
0
  6
Continuous
 62
     7
370
    25
100
AcDbSpline
210
0.0
220
0.0
230
1.0
 70
     8
 71
     3
 72
    71
 73
    67
 74
     0
 42
0.000000001
 43
0.00000001
 40
0.0
 40
0.0
 40
0.0
 40
0.0
 40
0.0066596907857848
 40
0.0117562985332271
 40
0.0156295676915804
 40
0.0196696630657706
 40
0.0223404810067096
 40
0.0237900412172701
 40
0.0240996762204376
 40
0.0243821578086166
 40
0.0250563425351967
 40
0.02595746351178
 40
0.0285861524172862
 40
0.0324102244763487
 40
0.0374669901036562
 40
0.0437717889629099
 40
0.0541320876429374
 40
0.0667340569093421
 40
0.0815827176420198
 40
0.0986809626926748
 40
0.1180305684114412
 40
0.1396326842172222
 40
0.1624906082044987
 40
0.1874256717350669
 40
0.2144382691543305
 40
0.2435287318785509
 40
0.2746973503582877
 40
0.3079443991386116
 40
0.3432701402737967
 40
0.3845296419505456
 40
0.4283049709788255
 40
0.4745963991515102
 40
0.5234041401881662
 40
0.5747283207907161
 40
0.5826827853144618
 40
0.5914941970176342
 40
0.6008094250521655
 40
0.6106636075733028
 40
0.622897322924834
 40
0.6391111473839196
 40
0.6560601904738763
 40
0.6734620243728713
 40
0.6909401316881906
 40
0.7024379379703787
 40
0.7137007740359557
 40
0.7240599152892643
 40
0.7333748485215617
 40
0.7417100158362715
 40
0.74910917905428
 40
0.7585717563010397
 40
0.7662236667772232
 40
0.772594936566116
 40
0.7786413338953523
 40
0.7849435702128456
 40
0.7919816882869419
 40
0.8000808578860593
 40
0.8094520339765321
 40
0.8216314287848163
 40
0.8357203006589116
 40
0.8507257536520653
 40
0.8659724798327239
 40
0.8814664599663588
 40
0.8972102793257642
 40
0.9353499404294728
 40
0.9750289572667162
 40
1.0
 40
1.0
 40
1.0
 40
1.0
 10
-154.99849168446
 20
-0.2127138716392224
 30
0.0
 10
-154.9797008855452
 20
-1.32435581050646
 30
0.0
 10
-154.9465296394879
 20
-3.286728376403085
 30
0.0
 10
-154.8689454059093
 20
-5.895150038388773
 30
0.0
 10
-154.7876120290863
 20
-8.066163152272113
 30
0.0
 10
-154.7088489381671
 20
-9.830898123558487
 30
0.0
 10
-154.6412270136536
 20
-11.19339828885185
 30
0.0
 10
-154.6028561867406
 20
-11.92959338953336
 30
0.0
 10
-154.5846604469694
 20
-12.27230032426311
 30
0.0
 10
-154.5737516261829
 20
-12.47527255064947
 30
0.0
 10
-154.5605873912982
 20
-12.71572192839962
 30
0.0
 10
-154.5387332682189
 20
-13.10657534977724
 30
0.0
 10
-154.5135153569754
 20
-13.54146190518883
 30
0.0
 10
-154.4848324086342
 20
-14.01971583550579
 30
0.0
 10
-154.4557269406471
 20
-14.48795082472387
 30
0.0
 10
-154.4219299803323
 20
-15.01434739503975
 30
0.0
 10
-154.3852586575493
 20
-15.5640688623589
 30
0.0
 10
-154.3463323464977
 20
-16.1267588515037
 30
0.0
 10
-154.3078328232841
 20
-16.66527050609994
 30
0.0
 10
-154.2699746216136
 20
-17.18019806680062
 30
0.0
 10
-154.2329560295351
 20
-17.67239760950125
 30
0.0
 10
-154.1974655904975
 20
-18.13662975355938
 30
0.0
 10
-154.1634418923507
 20
-18.57785372292057
 30
0.0
 10
-154.1308320173474
 20
-19.00058880742794
 30
0.0
 10
-154.0992139771814
 20
-19.41418493974648
 30
0.0
 10
-154.0685349522402
 20
-19.82323221381404
 30
0.0
 10
-154.0386394990302
 20
-20.23419635685402
 30
0.0
 10
-154.0096338813437
 20
-20.64803675976967
 30
0.0
 10
-153.9792973345501
 20
-21.10641656529837
 30
0.0
 10
-153.9519241691627
 20
-21.52931327057819
 30
0.0
 10
-153.9085999024431
 20
-22.29840917777269
 30
0.0
 10
-153.9261965759652
 20
-21.88429266650758
 30
0.0
 10
-153.6946602987819
 20
-26.46754297626927
 30
0.0
 10
-154.2326449097328
 20
-15.73488353489278
 30
0.0
 10
-153.6091250231901
 20
-28.16913056119166
 30
0.0
 10
-153.4004083399275
 20
-32.40258492727364
 30
0.0
 10
-153.1534168163784
 20
-37.1034584539572
 30
0.0
 10
-152.9447639662683
 20
-42.33395113115073
 30
0.0
 10
-152.2707279729587
 20
-48.70644823600232
 30
0.0
 10
-150.6695391289869
 20
-56.13551227898851
 30
0.0
 10
-147.8545254133607
 20
-64.12406884814015
 30
0.0
 10
-143.8542632112779
 20
-71.83275454976001
 30
0.0
 10
-139.315613987604
 20
-78.14596415884417
 30
0.0
 10
-134.7369648968518
 20
-83.07849177751216
 30
0.0
 10
-130.5906658413504
 20
-86.75295039443616
 30
0.0
 10
-126.4112299966984
 20
-89.80235118850004
 30
0.0
 10
-122.4074057929762
 20
-92.23056750359879
 30
0.0
 10
-118.6723684216649
 20
-94.12311452690304
 30
0.0
 10
-114.7978497781272
 20
-95.7696063575357
 30
0.0
 10
-110.9191394372198
 20
-97.10256881576555
 30
0.0
 10
-107.1377272122142
 20
-98.1173521343201
 30
0.0
 10
-103.8292115245977
 20
-98.81082159219456
 30
0.0
 10
-100.9643340067431
 20
-99.27267350104702
 30
0.0
 10
-98.53561963870153
 20
-99.56964017284346
 30
0.0
 10
-96.51799652701261
 20
-99.75422602380047
 30
0.0
 10
-94.86535462188148
 20
-99.8652693468298
 30
0.0
 10
-93.48822032078263
 20
-99.93195066785755
 30
0.0
 10
-92.4257114974463
 20
-99.96684348686478
 30
0.0
 10
-91.80472631655208
 20
-99.98107704806677
 30
0.0
 10
-91.28511005863507
 20
-99.99046912733992
 30
0.0
 10
-90.7655577960749
 20
-99.99680183254296
 30
0.0
 10
-90.27678335187491
 20
-99.9999890324352
 30
0.0
 10
-89.65797079378358
 20
-100.0000078561078
 30
0.0
 10
-89.12420866772456
 20
-99.99999704561357
 30
0.0
 10
-88.63325791139876
 20
-100.0000004369544
 30
0.0
 10
-88.46064445688852
 20
-100.0000001217485
 30
0.0
 10
-88.39397262429392
 20
-100.0000000000004
 30
0.0
  0
SPLINE
  5
CB
330
C1
100
AcDbEntity
  8
0
  6
Continuous
 62
     7
370
    25
100
AcDbSpline
210
0.0
220
0.0
230
1.0
 70
    24
 71
     3
 72
    39
 73
    35
 74
     0
 42
0.000000001
 43
0.00000001
 40
0.0
 40
0.0
 40
0.0
 40
0.0
 40
0.0063684063252553
 40
0.0231227719868905
 40
0.0393639925349606
 40
0.0551911918924228
 40
0.0706806642974109
 40
0.0858898759523126
 40
0.1008642105275088
 40
0.1302099524671317
 40
0.1590200935776993
 40
0.1875791249565691
 40
0.2143401235027197
 40
0.2411685430741662
 40
0.2680278742112589
 40
0.2953322507649822
 40
0.3230821187739116
 40
0.3512779939793153
 40
0.4195079084244305
 40
0.4902287437220818
 40
0.5566919970775098
 40
0.6248530575273843
 40
0.6908958034972102
 40
0.7538388930687977
 40
0.7841405758623247
 40
0.8128714508058263
 40
0.8400349572442891
 40
0.8660484628309213
 40
0.8911702319604202
 40
0.9155732746952836
 40
0.9394910729820849
 40
0.9644763903289689
 40
0.9868023915823357
 40
1.0
 40
1.0
 40
1.0
 40
1.0
 10
-88.42979219138344
 20
-100.0
 30
0.0
 10
-88.4375454408823
 20
-100.0
 30
0.0
 10
-88.46569638024819
 20
-100.0
 30
0.0
 10
-88.13186310767671
 20
-100.0
 30
0.0
 10
-87.38895767208157
 20
-99.99999999999996
 30
0.0
 10
-86.27251021198298
 20
-99.99999999999994
 30
0.0
 10
-84.8425224742579
 20
-99.99999999999997
 30
0.0
 10
-83.12833314752169
 20
-100.0
 30
0.0
 10
-80.5260968327474
 20
-100.0
 30
0.0
 10
-76.70844791900613
 20
-100.0000000000001
 30
0.0
 10
-71.42662109283285
 20
-99.99999999999997
 30
0.0
 10
-65.79240622002338
 20
-100.0
 30
0.0
 10
-60.03634185841646
 20
-100.0
 30
0.0
 10
-54.3982265380189
 20
-100.0
 30
0.0
 10
-48.72245403387661
 20
-100.0
 30
0.0
 10
-42.98195775143143
 20
-100.0
 30
0.0
 10
-37.14780563327226
 20
-100.0000000000001
 30
0.0
 10
-28.4455543343504
 20
-100.0
 30
0.0
 10
-16.73183298558475
 20
-100.0000000000001
 30
0.0
 10
-2.336241164059823
 20
-99.99999999999996
 30
0.0
 10
12.05448762879811
 20
-100.0000000000001
 30
0.0
 10
26.11749444156497
 20
-100.0
 30
0.0
 10
39.93313670462121
 20
-100.0
 30
0.0
 10
51.09727698268006
 20
-100.0
 30
0.0
 10
59.64261543976801
 20
-100.0
 30
0.0
 10
65.69063070994812
 20
-100.0
 30
0.0
 10
71.17273361849716
 20
-99.99999999999994
 30
0.0
 10
75.9797549551993
 20
-100.0
 30
0.0
 10
80.05739554563745
 20
-100.0
 30
0.0
 10
83.36768119177297
 20
-100.0
 30
0.0
 10
85.94300651755499
 20
-100.0
 30
0.0
 10
87.61482131042615
 20
-100.0
 30
0.0
 10
88.41855223472513
 20
-100.0
 30
0.0
 10
88.41363311762181
 20
-100.0
 30
0.0
 10
88.4118055842745
 20
-100.0
 30
0.0
  0
SPLINE
  5
CC
330
C1
100
AcDbEntity
  8
0
  6
Continuous
 62
     7
370
    25
100
AcDbSpline
210
0.0
220
0.0
230
1.0
 70
     8
 71
     3
 72
    46
 73
    42
 74
     0
 42
0.000000001
 43
0.00000001
 40
0.0
 40
0.0
 40
0.0
 40
0.0
 40
0.0274393447698655
 40
0.0855341640751279
 40
0.1468684258596653
 40
0.2114666153822949
 40
0.2551734277050055
 40
0.300274174756518
 40
0.3442559735043716
 40
0.3847607950820195
 40
0.4218289387416231
 40
0.4554928310108604
 40
0.4857975429435638
 40
0.5169204944096325
 40
0.543508928297045
 40
0.5655916939478782
 40
0.5792256157060504
 40
0.5903918626712036
 40
0.599176978739085
 40
0.6057859426140995
 40
0.608431925025252
 40
0.6107860756585755
 40
0.6130380185398642
 40
0.6161608748347871
 40
0.6225518830075647
 40
0.6315855012171089
 40
0.6434016550722413
 40
0.6581821992403741
 40
0.6758844273993948
 40
0.6946299083670716
 40
0.7239378790628407
 40
0.7546392256314961
 40
0.7863800375980764
 40
0.818819302573275
 40
0.8512704598256786
 40
0.8832701421679889
 40
0.9085030590907784
 40
0.9329346496040639
 40
0.9538445700260054
 40
0.9762390947516406
 40
1.0
 40
1.0
 40
1.0
 40
1.0
 10
88.41523168387778
 20
-100.0
 30
0.0
 10
88.42210911923222
 20
-99.9999999997339
 30
0.0
 10
88.44354752051174
 20
-99.99999999890439
 30
0.0
 10
88.50600600172388
 20
-100.0000000107995
 30
0.0
 10
88.60173951009091
 20
-99.99999995708589
 30
0.0
 10
88.70839336001592
 20
-100.0000001458631
 30
0.0
 10
88.81941999867112
 20
-99.99999964325437
 30
0.0
 10
88.9125116773492
 20
-100.000001382284
 30
0.0
 10
89.04701863032037
 20
-99.99999515135647
 30
0.0
 10
89.26384868526036
 20
-100.0000159357564
 30
0.0
 10
89.56759304065737
 20
-99.99994805092521
 30
0.0
 10
89.90147742844222
 20
-100.000167387796
 30
0.0
 10
90.48175291489929
 20
-99.99943620543651
 30
0.0
 10
91.1674805829099
 20
-99.99317555405749
 30
0.0
 10
92.01633781210425
 20
-99.97802738291054
 30
0.0
 10
92.92192467782336
 20
-99.95244218672036
 30
0.0
 10
93.85282901830315
 20
-99.91524748556876
 30
0.0
 10
94.73519105111775
 20
-99.87064212519603
 30
0.0
 10
95.68432254172997
 20
-99.81150036830613
 30
0.0
 10
96.60681509127208
 20
-99.74224905698009
 30
0.0
 10
97.41830307092302
 20
-99.6708657030088
 30
0.0
 10
98.0161984871031
 20
-99.61350699408402
 30
0.0
 10
98.71296464013838
 20
-99.54073868025874
 30
0.0
 10
99.76092734492275
 20
-99.42057633616429
 30
0.0
 10
101.4151435169736
 20
-99.20109835553106
 30
0.0
 10
103.8312331214715
 20
-98.80671105429685
 30
0.0
 10
106.9688085752053
 20
-98.15838274030094
 30
0.0
 10
110.8191947943418
 20
-97.13569013734664
 30
0.0
 10
115.1792242795879
 20
-95.64087755814278
 30
0.0
 10
120.5993833751314
 20
-93.2691713392872
 30
0.0
 10
126.7500634904143
 20
-89.71953590424802
 30
0.0
 10
133.2656100852873
 20
-84.61950203669038
 30
0.0
 10
139.1689720632291
 20
-78.42248815906059
 30
0.0
 10
144.182499004603
 20
-71.29237345496888
 30
0.0
 10
148.1264961746952
 20
-63.49517758669844
 30
0.0
 10
150.7273706298664
 20
-55.83928045587543
 30
0.0
 10
152.2651313801634
 20
-48.64971744469356
 30
0.0
 10
152.9557781060578
 20
-42.33493867412582
 30
0.0
 10
153.191304124738
 20
-36.25093755080282
 30
0.0
 10
153.510459740782
 20
-30.23190332250536
 30
0.0
 10
153.7150734434923
 20
-26.0886812665705
 30
0.0
 10
153.8204089761773
 20
-23.95574248234838
 30
0.0
  0
SPLINE
  5
CD
330
C1
100
AcDbEntity
  8
0
  6
Continuous
 62
     7
370
    25
100
AcDbSpline
210
0.0
220
0.0
230
1.0
 70
     8
 71
     3
 72
    41
 73
    37
 74
     0
 42
0.000000001
 43
0.00000001
 40
0.0
 40
0.0
 40
0.0
 40
0.0
 40
0.0817528635686589
 40
0.1597950746277993
 40
0.234127056476595
 40
0.3047492094417218
 40
0.3716619310116587
 40
0.434865630256192
 40
0.494360739276706
 40
0.5555224932247179
 40
0.612198104342764
 40
0.6643883593142075
 40
0.7120941924995243
 40
0.7553167651205743
 40
0.7921156695646294
 40
0.8248973364090175
 40
0.853664275682327
 40
0.8784203138212991
 40
0.899171699573009
 40
0.9159294863668029
 40
0.9258900219241853
 40
0.9336350096936951
 40
0.9392060360138609
 40
0.9412106117619042
 40
0.9427364272067649
 40
0.9433452112892107
 40
0.9438742917721353
 40
0.9443532890728457
 40
0.9449834816046478
 40
0.9478346406594985
 40
0.9528500394192475
 40
0.9600526658561181
 40
0.9697098497408347
 40
0.9778419789134613
 40
0.9877406304441562
 40
1.0
 40
1.0
 40
1.0
 40
1.0
 10
153.8204089761697
 20
-23.95574248249888
 30
0.0
 10
153.8239270025349
 20
-23.88695674325549
 30
0.0
 10
153.8308033767808
 20
-23.75250735694748
 30
0.0
 10
153.8408759004978
 20
-23.57502940031195
 30
0.0
 10
153.8509714091067
 20
-23.40991546070181
 30
0.0
 10
153.8614155897222
 20
-23.25139824383355
 30
0.0
 10
153.8725324961605
 20
-23.09244691500329
 30
0.0
 10
153.8846040994801
 20
-22.92751503281772
 30
0.0
 10
153.8982842373047
 20
-22.74634757760301
 30
0.0
 10
153.9139813024807
 20
-22.54260900125642
 30
0.0
 10
153.9322059069561
 20
-22.30847701927913
 30
0.0
 10
153.9526258964363
 20
-22.04672770577112
 30
0.0
 10
153.975409101185
 20
-21.75366045116878
 30
0.0
 10
154.0002956570871
 20
-21.43105041394885
 30
0.0
 10
154.0271775600744
 20
-21.07874981526012
 30
0.0
 10
154.0557948964671
 20
-20.69871985877081
 30
0.0
 10
154.0866702931108
 20
-20.2822433837944
 30
0.0
 10
154.1197022617915
 20
-19.82864829840352
 30
0.0
 10
154.1547445744159
 20
-19.33756619598676
 30
0.0
 10
154.1893876533449
 20
-18.84099094951163
 30
0.0
 10
154.2226597340543
 20
-18.35258454312486
 30
0.0
 10
154.2522860718582
 20
-17.90814347832445
 30
0.0
 10
154.2790770137072
 20
-17.49767467227866
 30
0.0
 10
154.3026237672255
 20
-17.12850439680796
 30
0.0
 10
154.3168053557899
 20
-16.90323385126282
 30
0.0
 10
154.3286509813456
 20
-16.71277641824408
 30
0.0
 10
154.337019931538
 20
-16.57725354651102
 30
0.0
 10
154.3465815371847
 20
-16.42118553208
 30
0.0
 10
154.3700505306101
 20
-16.03520304217201
 30
0.0
 10
154.4195206939116
 20
-15.21196965246611
 30
0.0
 10
154.5047290844316
 20
-13.74773072406449
 30
0.0
 10
154.621017076883
 20
-11.62378306515646
 30
0.0
 10
154.7404437136267
 20
-9.195469057721526
 30
0.0
 10
154.8491006953402
 20
-6.50440879393719
 30
0.0
 10
154.9412136560074
 20
-3.559475331234428
 30
0.0
 10
154.978089425453
 20
-1.404820094180983
 30
0.0
 10
154.99849168446
 20
-0.2127138716393126
 30
0.0
  0
SPLINE
  5
D2
330
C1
100
AcDbEntity
  8
0
  6
Continuous
 62
     7
370
    25
100
AcDbSpline
210
0.0
220
0.0
230
1.0
 70
     8
 71
     3
 72
    27
 73
    23
 74
     0
 42
0.000000001
 43
0.00000001
 40
0.0
 40
0.0
 40
0.0
 40
0.0
 40
0.019399828451285
 40
0.0738595040408739
 40
0.1267843553291732
 40
0.1812440308859569
 40
0.2341688821364207
 40
0.2886285576545827
 40
0.3415534088660962
 40
0.3960130843378014
 40
0.4489379354816562
 40
0.5033976108932575
 40
0.5563224620852021
 40
0.6107821375375192
 40
0.6637069887773419
 40
0.7181666642835881
 40
0.7710915156013528
 40
0.8255511911926398
 40
0.8784760425114959
 40
0.9329357181028646
 40
0.966281717220415
 40
1.0
 40
1.0
 40
1.0
 40
1.0
 10
77.87812495486803
 20
-101.2132016344025
 30
0.0
 10
77.91009848196235
 20
-101.2132007218269
 30
0.0
 10
78.03182888074168
 20
-101.2131972474465
 30
0.0
 10
77.1273547518707
 20
-101.2132363743847
 30
0.0
 10
75.17893684278404
 20
-101.2131938575944
 30
0.0
 10
72.18466658479866
 20
-101.2132115236452
 30
0.0
 10
68.26434276763591
 20
-101.213195718123
 30
0.0
 10
63.57570709774122
 20
-101.2132259912885
 30
0.0
 10
58.1734682553811
 20
-101.2131859571605
 30
0.0
 10
52.30605965786084
 20
-101.2132512510652
 30
0.0
 10
46.03441309655537
 20
-101.2131093930061
 30
0.0
 10
39.64880335129619
 20
-101.2132337527767
 30
0.0
 10
33.21507593310399
 20
-101.2131945607941
 30
0.0
 10
27.03113103512055
 20
-101.2132351915339
 30
0.0
 10
21.16067965178813
 20
-101.213202317599
 30
0.0
 10
15.8756436349576
 20
-101.2132085844088
 30
0.0
 10
11.23011197765194
 20
-101.2131843681075
 30
0.0
 10
7.440611976575546
 20
-101.2132392126464
 30
0.0
 10
4.540872709822405
 20
-101.2131969954483
 30
0.0
 10
2.911668402489788
 20
-101.2132120626678
 30
0.0
 10
2.122800971521568
 20
-101.2131866456458
 30
0.0
 10
2.041084866080266
 20
-101.2131961479869
 30
0.0
 10
2.000000004318199
 20
-101.2132009255319
 30
0.0
  0
LINE
  5
D4
330
C1
100
AcDbEntity
  8
0
  6
Continuous
 62
     7
370
    25
100
AcDbLine
 10
0.7794932849
 20
-99.9926941896
 30
0.0
 11
2.0073998848
 21
-101.220600898
 31
0.0
  0
LINE
  5
D5
330
C1
100
AcDbEntity
  8
0
  6
Continuous
 62
     7
370
    25
100
AcDbLine
 10
77.9926020813
 20
-101.2206013771
 30
0.0
 11
79.2205087907
 21
-99.9926946687
 31
0.0
  0
LINE
  5
D6
330
C1
100
AcDbEntity
  8
0
  6
Continuous
 62
     7
370
    25
100
AcDbLine
 10
78.0
 20
-109.9999999998
 30
0.0
 11
78.0
 21
-101.2132016351
 31
0.0
  0
LINE
  5
D7
330
C1
100
AcDbEntity
  8
0
  6
Continuous
 62
     7
370
    25
100
AcDbLine
 10
2.0
 20
-101.2132009261
 30
0.0
 11
2.0
 21
-109.9999999998
 31
0.0
  0
LINE
  5
D8
330
C1
100
AcDbEntity
  8
0
  6
Continuous
 62
     7
370
    25
100
AcDbLine
 10
2.0
 20
-110.0
 30
0.0
 11
78.0
 21
-110.0
 31
0.0
  0
VIEWPORT
  5
106
330
C1
100
AcDbEntity
  8
0
100
AcDbViewport
 10
0.0
 20
0.0
 30
0.0
 40
205.6
 41
156.0
 68
     1
 69
     1
 12
-0.0000081119
 22
0.0000061269
 13
0.0
 23
0.0
 14
10.0
 24
10.0
 15
10.0
 25
10.0
 16
0.0
 26
0.0
 36
1.0
 17
0.0
 27
0.0
 37
0.0
 42
50.0
 43
0.0
 44
0.0
 45
499.21381672
 50
0.0
 51
0.0
 72
   100
 90
   557152
  1

281
     0
 71
     1
 74
     0
110
0.0
120
0.0
130
0.0
111
1.0
121
0.0
131
0.0
112
0.0
122
1.0
132
0.0
 79
     0
146
0.0
170
     0
 61
     5
348
2F
292
     1
282
     1
141
0.0
142
0.0
 63
   256
361
107
  0
ENDBLK
  5
C4
330
C1
100
AcDbEntity
  8
0
100
AcDbBlockEnd
  0
BLOCK
  5
DB
330
D9
100
AcDbEntity
  8
0
100
AcDbBlockBegin
  2
*Paper_Space4
 70
     0
 10
0.0
 20
0.0
 30
0.0
  3
*Paper_Space4
  1

  0
CIRCLE
  5
DD
330
D9
100
AcDbEntity
  8
0
  6
Continuous
 62
     7
370
    25
100
AcDbCircle
 10
0.0
 20
-40.0
 30
0.0
 40
23.0
  0
CIRCLE
  5
DE
330
D9
100
AcDbEntity
  8
0
  6
Continuous
 62
     7
370
    25
100
AcDbCircle
 10
0.0
 20
-40.0
 30
0.0
 40
38.00000000000001
  0
SPLINE
  5
DF
330
D9
100
AcDbEntity
  8
0
  6
Continuous
 62
     7
370
    25
100
AcDbSpline
210
0.0
220
0.0
230
1.0
 70
    11
 71
     3
 72
   141
 73
   137
 74
     0
 42
0.000000001
 43
0.00000001
 40
0.0
 40
0.0
 40
0.0
 40
0.0
 40
0.0156250000000001
 40
0.0156250000000001
 40
0.0234375000000002
 40
0.0234375000000002
 40
0.0312500000000003
 40
0.0312500000000003
 40
0.0625000000000006
 40
0.0625000000000006
 40
0.0781250000000007
 40
0.0781250000000007
 40
0.0859375000000007
 40
0.0859375000000007
 40
0.0937500000000008
 40
0.0937500000000008
 40
0.125000000000001
 40
0.125000000000001
 40
0.1328125000000011
 40
0.1328125000000011
 40
0.1406250000000012
 40
0.1406250000000012
 40
0.1562500000000013
 40
0.1562500000000013
 40
0.1875000000000015
 40
0.1875000000000015
 40
0.1953125000000016
 40
0.1953125000000016
 40
0.2031250000000017
 40
0.2031250000000017
 40
0.2187500000000019
 40
0.2187500000000019
 40
0.2343750000000021
 40
0.2343750000000021
 40
0.2500000000000023
 40
0.2500000000000023
 40
0.2656250000000024
 40
0.2656250000000024
 40
0.2734375000000025
 40
0.2734375000000025
 40
0.2812500000000026
 40
0.2812500000000026
 40
0.3125000000000027
 40
0.3125000000000027
 40
0.3203125000000029
 40
0.3203125000000029
 40
0.328125000000003
 40
0.328125000000003
 40
0.3437500000000032
 40
0.3437500000000032
 40
0.3750000000000037
 40
0.3750000000000037
 40
0.3828125000000038
 40
0.3828125000000038
 40
0.390625000000004
 40
0.390625000000004
 40
0.4062500000000042
 40
0.4062500000000042
 40
0.4218750000000044
 40
0.4218750000000044
 40
0.4375000000000046
 40
0.4375000000000046
 40
0.4687500000000049
 40
0.4687500000000049
 40
0.4843750000000051
 40
0.4843750000000051
 40
0.5000000000000052
 40
0.5000000000000052
 40
0.5312500000000056
 40
0.5312500000000056
 40
0.5390625000000056
 40
0.5390625000000056
 40
0.5468750000000057
 40
0.5468750000000057
 40
0.5625000000000058
 40
0.5625000000000058
 40
0.5781250000000059
 40
0.5781250000000059
 40
0.585937500000006
 40
0.585937500000006
 40
0.5937500000000061
 40
0.5937500000000061
 40
0.6250000000000062
 40
0.6250000000000062
 40
0.6406250000000063
 40
0.6406250000000063
 40
0.6484375000000062
 40
0.6484375000000062
 40
0.6562500000000062
 40
0.6562500000000062
 40
0.6875000000000059
 40
0.6875000000000059
 40
0.6953125000000058
 40
0.6953125000000058
 40
0.7031250000000057
 40
0.7031250000000057
 40
0.7187500000000054
 40
0.7187500000000054
 40
0.7265625000000054
 40
0.7265625000000054
 40
0.7343750000000053
 40
0.7343750000000053
 40
0.750000000000005
 40
0.750000000000005
 40
0.7656250000000048
 40
0.7656250000000048
 40
0.7734375000000046
 40
0.7734375000000046
 40
0.7812500000000044
 40
0.7812500000000044
 40
0.8125000000000038
 40
0.8125000000000038
 40
0.8281250000000034
 40
0.8281250000000034
 40
0.8359375000000033
 40
0.8359375000000033
 40
0.8437500000000031
 40
0.8437500000000031
 40
0.8750000000000024
 40
0.8750000000000024
 40
0.8828125000000022
 40
0.8828125000000022
 40
0.8906250000000021
 40
0.8906250000000021
 40
0.9062500000000018
 40
0.9062500000000018
 40
0.9375000000000012
 40
0.9375000000000012
 40
0.9453125000000011
 40
0.9453125000000011
 40
0.9531250000000009
 40
0.9531250000000009
 40
0.9687500000000006
 40
0.9843750000000003
 40
0.9843750000000003
 40
1.0
 40
1.0
 40
1.0
 40
1.0
 10
0.0445940951106681
 20
-0.786821921456542
 30
0.0
 10
1.339260553646637
 20
-0.7882172746448067
 30
0.0
 10
2.633598772026187
 20
-0.8539332502062538
 30
0.0
 10
4.561819314681833
 20
-1.047728942473929
 30
0.0
 10
5.202814461947718
 20
-1.128133177986187
 30
0.0
 10
6.481294714936918
 20
-1.320733909453178
 30
0.0
 10
7.119773692245092
 20
-1.433174099178531
 30
0.0
 10
10.28076024320614
 20
-2.070641956383234
 30
0.0
 10
12.72362621668657
 20
-2.820367702558579
 30
0.0
 10
16.26242874432112
 20
-4.295128678374183
 30
0.0
 10
17.42101400468388
 20
-4.845355392457738
 30
0.0
 10
19.12634745719841
 20
-5.761504121029419
 30
0.0
 10
19.68989324138568
 20
-6.082448096350619
 30
0.0
 10
20.79365069918046
 20
-6.747688065442538
 30
0.0
 10
21.33542021918543
 20
-7.092770848242026
 30
0.0
 10
23.99469801524001
 20
-8.879295228243361
 30
0.0
 10
25.96473376911506
 20
-10.50254336553722
 30
0.0
 10
28.22953521422718
 20
-12.77538465024333
 30
0.0
 10
28.67253990483285
 20
-13.24222633192836
 30
0.0
 10
29.53819625186058
 20
-14.20100124910615
 30
0.0
 10
29.96033629240628
 20
-14.6925284269169
 30
0.0
 10
31.18233398449921
 20
-16.18833433282999
 30
0.0
 10
31.94259251471447
 20
-17.21903983850469
 30
0.0
 10
34.06462090288723
 20
-20.40890700475889
 30
0.0
 10
35.26853563988568
 20
-22.66527000380339
 30
0.0
 10
36.50042185962103
 20
-25.65383147845496
 30
0.0
 10
36.73203554561744
 20
-26.25778637601804
 30
0.0
 10
37.16304885944657
 20
-27.47009220425172
 30
0.0
 10
37.36295044042102
 20
-28.07964577214171
 30
0.0
 10
37.91667517472819
 20
-29.91832642639652
 30
0.0
 10
38.2245264440559
 20
-31.15747169283321
 30
0.0
 10
38.71870142655388
 20
-33.66224547666768
 30
0.0
 10
38.90501963283276
 20
-34.9278751941258
 30
0.0
 10
39.15364057136729
 20
-37.48616004636704
 30
0.0
 10
39.21557775616493
 20
-38.7832197001241
 30
0.0
 10
39.21068860877818
 20
-41.36520183539641
 30
0.0
 10
39.14458603422116
 20
-42.6538196200565
 30
0.0
 10
38.94985020203679
 20
-44.5831828319677
 30
0.0
 10
38.86865366725743
 20
-45.22615763341662
 30
0.0
 10
38.67597109850466
 20
-46.50040470312495
 30
0.0
 10
38.56435969262354
 20
-47.13298698534595
 30
0.0
 10
37.93004738576008
 20
-50.27322048394016
 30
0.0
 10
37.18347403197568
 20
-52.71429322774424
 30
0.0
 10
35.94922700920753
 20
-55.67610934391333
 30
0.0
 10
35.68719777043855
 20
-56.26395816547205
 30
0.0
 10
35.13220535282757
 20
-57.43045621991851
 30
0.0
 10
34.83942741436974
 20
-58.00844762152605
 30
0.0
 10
33.92446632448776
 20
-59.70948627270754
 30
0.0
 10
33.26278031870655
 20
-60.80608794685475
 30
0.0
 10
31.12640698757285
 20
-63.98638561412173
 30
0.0
 10
29.50176016558295
 20
-65.9615554610848
 30
0.0
 10
27.21125415268909
 20
-68.24257390568032
 30
0.0
 10
26.74170157834984
 20
-68.68746817835235
 30
0.0
 10
25.78626554850303
 20
-69.54923625766143
 30
0.0
 10
25.29946954730518
 20
-69.96704644814793
 30
0.0
 10
23.81209924939532
 20
-71.18161791193474
 30
0.0
 10
22.78480782953033
 20
-71.93990196928168
 30
0.0
 10
20.65920761667341
 20
-73.35419294932385
 30
0.0
 10
19.56091943313374
 20
-74.01022955314714
 30
0.0
 10
17.29200103683546
 20
-75.21811789534867
 30
0.0
 10
16.11573139324704
 20
-75.77167827831725
 30
0.0
 10
12.54899467724926
 20
-77.23985712056738
 30
0.0
 10
10.10398831125226
 20
-77.97548058583904
 30
0.0
 10
6.33702049442135
 20
-78.71893016072741
 30
0.0
 10
5.062844316067989
 20
-78.90650420905139
 30
0.0
 10
2.48744625495141
 20
-79.15561690152867
 30
0.0
 10
1.20413273636634
 20
-79.21560673998454
 30
0.0
 10
-2.633079132302163
 20
-79.20817581526305
 30
0.0
 10
-5.174385025665284
 20
-78.95536028864394
 30
0.0
 10
-8.329581702918249
 20
-78.32374999425629
 30
0.0
 10
-8.961062335930531
 20
-78.18104261983883
 30
0.0
 10
-10.21427945356361
 20
-77.86504758988256
 30
0.0
 10
-10.83452096775033
 20
-77.69220563621077
 30
0.0
 10
-12.67645266347099
 20
-77.1298652145968
 30
0.0
 10
-13.87950508304902
 20
-76.69691375852275
 30
0.0
 10
-16.23655810513185
 20
-75.71664904530931
 30
0.0
 10
-17.39057328328332
 20
-75.16936977054479
 30
0.0
 10
-19.08442598009489
 20
-74.26179074156379
 30
0.0
 10
-19.6428369221398
 20
-73.94479397339349
 30
0.0
 10
-20.74704164469601
 20
-73.28138417067561
 30
0.0
 10
-21.2943295813607
 20
-72.93392891238993
 30
0.0
 10
-23.97586838582925
 20
-71.13682795530626
 30
0.0
 10
-25.94828653041245
 20
-69.51084871264086
 30
0.0
 10
-28.65584760912626
 20
-66.79831594387946
 30
0.0
 10
-29.51618140153174
 20
-65.84817149421723
 30
0.0
 10
-30.74182513549908
 20
-64.3522861031356
 30
0.0
 10
-31.1403628733729
 20
-63.84049157343363
 30
0.0
 10
-31.90762103110426
 20
-62.8034049100753
 30
0.0
 10
-32.27709194273007
 20
-62.27729354848876
 30
0.0
 10
-34.05458314108884
 20
-59.60939235923892
 30
0.0
 10
-35.25597717493545
 20
-57.35715365532086
 30
0.0
 10
-36.48142835301125
 20
-54.39416798848792
 30
0.0
 10
-36.71260088208228
 20
-53.79413135976969
 30
0.0
 10
-37.14653390408434
 20
-52.57887088667275
 30
0.0
 10
-37.34941030155532
 20
-51.9630346216079
 30
0.0
 10
-37.91014652201483
 20
-50.10771550403484
 30
0.0
 10
-38.22194156473093
 20
-48.85571715045386
 30
0.0
 10
-38.59689582025908
 20
-46.95511563260796
 30
0.0
 10
-38.70649828009496
 20
-46.3166211459547
 30
0.0
 10
-38.89361964294708
 20
-45.03781412775064
 30
0.0
 10
-38.97102613905047
 20
-44.39861648341639
 30
0.0
 10
-39.15561323788198
 20
-42.48163056529093
 30
0.0
 10
-39.21547494380611
 20
-41.20444531130659
 30
0.0
 10
-39.21080022032575
 20
-38.65166010106437
 30
0.0
 10
-39.14628491220255
 20
-37.37605987564211
 30
0.0
 10
-38.95521896561122
 20
-35.46386118296359
 30
0.0
 10
-38.8757852703465
 20
-34.82666226954527
 30
0.0
 10
-38.68491003160771
 20
-33.55267234246305
 30
0.0
 10
-38.57307612512264
 20
-32.91410242970534
 30
0.0
 10
-37.93766272970204
 20
-29.74924719222301
 30
0.0
 10
-37.18926746135261
 20
-27.30502448966207
 30
0.0
 10
-35.71787396486108
 20
-23.76605775692446
 30
0.0
 10
-35.16880113940399
 20
-22.60780347764002
 30
0.0
 10
-34.25508309706865
 20
-20.90332600782008
 30
0.0
 10
-33.93452104770738
 20
-20.33939190185565
 30
0.0
 10
-33.2695433675975
 20
-19.23394510025209
 30
0.0
 10
-32.92464749706306
 20
-18.69140915039777
 30
0.0
 10
-31.13894670107915
 20
-16.02899851682835
 30
0.0
 10
-29.51707042653675
 20
-14.05780207565963
 30
0.0
 10
-27.24758510934069
 20
-11.79262840279754
 30
0.0
 10
-26.7814896795733
 20
-11.34960978439528
 30
0.0
 10
-25.82440033361131
 20
-10.4840167714982
 30
0.0
 10
-25.33272998565125
 20
-10.0610082262693
 30
0.0
 10
-23.83648837041278
 20
-8.836576762447216
 30
0.0
 10
-22.80574607347578
 20
-8.075013500519665
 30
0.0
 10
-19.61646647131586
 20
-5.950067687387183
 30
0.0
 10
-17.36171814169219
 20
-4.745043733658196
 30
0.0
 10
-14.37737458291632
 20
-3.511840412312889
 30
0.0
 10
-13.77245491320236
 20
-3.279358783053375
 30
0.0
 10
-12.55934947568032
 20
-2.846942546963593
 30
0.0
 10
-11.94949872045651
 20
-2.646315206322543
 30
0.0
 10
-10.11009801752466
 20
-2.09095974966284
 30
0.0
 10
-7.631593321273358
 20
-1.47317681650939
 30
0.0
 10
-5.101562438353153
 20
-1.098816918244775
 30
0.0
 10
-2.545282708896746
 20
-0.8484633612084583
 30
0.0
 10
-1.250072363425261
 20
-0.7854265682682772
 30
0.0
 10
0.0445940951106648
 20
-0.786821921456542
 30
0.0
  0
SPLINE
  5
E0
330
D9
100
AcDbEntity
  8
0
  6
Continuous
 62
     7
370
    25
100
AcDbSpline
210
0.0
220
0.0
230
1.0
 70
    11
 71
     3
 72
   215
 73
   211
 74
     0
 42
0.000000001
 43
0.00000001
 40
0.0
 40
0.0
 40
0.0
 40
0.0
 40
0.0624999999999975
 40
0.0624999999999975
 40
0.0634765624999974
 40
0.0634765624999974
 40
0.0644531249999974
 40
0.0644531249999974
 40
0.0664062499999973
 40
0.0664062499999973
 40
0.0703124999999972
 40
0.0703124999999972
 40
0.0712890624999972
 40
0.0712890624999972
 40
0.0722656249999972
 40
0.0722656249999972
 40
0.0742187499999973
 40
0.0742187499999973
 40
0.0781249999999973
 40
0.0781249999999973
 40
0.0800781249999974
 40
0.0800781249999974
 40
0.0820312499999975
 40
0.0820312499999975
 40
0.0839843749999975
 40
0.0839843749999975
 40
0.0849609374999976
 40
0.0849609374999976
 40
0.0859374999999976
 40
0.0859374999999976
 40
0.0898437499999977
 40
0.0898437499999977
 40
0.0917968749999978
 40
0.0917968749999978
 40
0.0927734374999979
 40
0.0927734374999979
 40
0.093749999999998
 40
0.093749999999998
 40
0.1249999999999995
 40
0.1249999999999995
 40
0.1875000000000025
 40
0.1875000000000025
 40
0.2500000000000055
 40
0.2500000000000055
 40
0.3125000000000085
 40
0.3125000000000085
 40
0.3750000000000115
 40
0.3750000000000115
 40
0.3906250000000122
 40
0.3984375000000125
 40
0.4003906250000127
 40
0.4003906250000127
 40
0.4008789062500127
 40
0.4008789062500127
 40
0.4013671875000127
 40
0.4013671875000127
 40
0.4023437500000127
 40
0.4023437500000127
 40
0.4062500000000128
 40
0.4062500000000128
 40
0.4072265625000129
 40
0.4072265625000129
 40
0.4082031250000129
 40
0.4082031250000129
 40
0.410156250000013
 40
0.410156250000013
 40
0.4140625000000133
 40
0.4140625000000133
 40
0.4150390625000133
 40
0.4150390625000133
 40
0.4160156250000133
 40
0.4160156250000133
 40
0.4179687500000134
 40
0.4179687500000134
 40
0.4199218750000135
 40
0.4199218750000135
 40
0.4208984375000135
 40
0.4208984375000135
 40
0.4218750000000135
 40
0.4218750000000135
 40
0.4257812500000135
 40
0.4257812500000135
 40
0.4267578125000136
 40
0.4267578125000136
 40
0.4277343750000136
 40
0.4277343750000136
 40
0.4296875000000136
 40
0.4296875000000136
 40
0.4301757812500136
 40
0.4301757812500136
 40
0.4306640625000136
 40
0.4306640625000136
 40
0.4316406250000136
 40
0.4335937500000137
 40
0.4375000000000138
 40
0.5000000000000154
 40
0.5000000000000154
 40
0.5312500000000163
 40
0.5468750000000167
 40
0.5546875000000169
 40
0.558593750000017
 40
0.559570312500017
 40
0.559570312500017
 40
0.5605468750000171
 40
0.5605468750000171
 40
0.5625000000000171
 40
0.5625000000000171
 40
0.5664062500000173
 40
0.5664062500000173
 40
0.5673828125000172
 40
0.5673828125000172
 40
0.5683593750000172
 40
0.5683593750000172
 40
0.5703125000000172
 40
0.5703125000000172
 40
0.5722656250000173
 40
0.5722656250000173
 40
0.5732421875000172
 40
0.5732421875000172
 40
0.5742187500000172
 40
0.5742187500000172
 40
0.5781250000000171
 40
0.5781250000000171
 40
0.5791015625000171
 40
0.5791015625000171
 40
0.5800781250000171
 40
0.5800781250000171
 40
0.582031250000017
 40
0.582031250000017
 40
0.5859375000000168
 40
0.5859375000000168
 40
0.5869140625000167
 40
0.5869140625000167
 40
0.5878906250000167
 40
0.5878906250000167
 40
0.5898437500000165
 40
0.5898437500000165
 40
0.5903320312500165
 40
0.5903320312500165
 40
0.5908203125000165
 40
0.5917968750000163
 40
0.5937500000000162
 40
0.6250000000000125
 40
0.6250000000000125
 40
0.6875000000000052
 40
0.6875000000000052
 40
0.7499999999999979
 40
0.7499999999999979
 40
0.8124999999999907
 40
0.8124999999999907
 40
0.8749999999999833
 40
0.8749999999999833
 40
0.8906249999999815
 40
0.8984374999999806
 40
0.9023437499999801
 40
0.9042968749999799
 40
0.9047851562499799
 40
0.9047851562499799
 40
0.9052734374999799
 40
0.9052734374999799
 40
0.9062499999999799
 40
0.9062499999999799
 40
0.9101562499999805
 40
0.9101562499999805
 40
0.9111328124999807
 40
0.9111328124999807
 40
0.9121093749999808
 40
0.9121093749999808
 40
0.914062499999981
 40
0.914062499999981
 40
0.9160156249999813
 40
0.9160156249999813
 40
0.9169921874999813
 40
0.9169921874999813
 40
0.9179687499999815
 40
0.9179687499999815
 40
0.9218749999999822
 40
0.9218749999999822
 40
0.9238281249999826
 40
0.9238281249999826
 40
0.9248046874999828
 40
0.9248046874999828
 40
0.9257812499999829
 40
0.9257812499999829
 40
0.9296874999999838
 40
0.9296874999999838
 40
0.9306640624999839
 40
0.9306640624999839
 40
0.9316406249999841
 40
0.9316406249999841
 40
0.9335937499999846
 40
0.9335937499999846
 40
0.9345703124999848
 40
0.9345703124999848
 40
0.9350585937499849
 40
0.9350585937499849
 40
0.935546874999985
 40
0.9374999999999855
 40
0.9687499999999927
 40
0.9687499999999927
 40
0.9843749999999964
 40
0.9921874999999982
 40
0.9960937499999991
 40
0.9980468749999997
 40
0.9990234374999998
 40
0.9995117187499999
 40
0.999755859375
 40
0.9998779296875
 40
0.9998779296875
 40
1.0
 40
1.0
 40
1.0
 40
1.0
 10
322.5186414504133
 20
-0.0000000000000979
 30
0.0
 10
322.5186414504132
 20
39.13903119498443
 30
0.0
 10
322.5188255742282
 20
78.2780627785905
 30
0.0
 10
322.5187141442139
 20
118.0286408366418
 30
0.0
 10
322.5187123510358
 20
118.6401881909035
 30
0.0
 10
322.5187086015858
 20
119.86328289844
 30
0.0
 10
322.5209193507503
 20
120.4748436449904
 30
0.0
 10
322.4648401072838
 20
122.3091462985273
 30
0.0
 10
322.3629068396321
 20
123.53645405114
 30
0.0
 10
321.8698324878118
 20
127.1602328950565
 30
0.0
 10
321.2949682336554
 20
129.5110503830652
 30
0.0
 10
320.2713003823936
 20
132.3689646861389
 30
0.0
 10
320.0511722947591
 20
132.936480142157
 30
0.0
 10
319.5796070474605
 20
134.0632388453068
 30
0.0
 10
319.3273674959153
 20
134.6240379999887
 30
0.0
 10
318.5309112352677
 20
136.2769318600019
 30
0.0
 10
317.9463065971785
 20
137.3424773627587
 30
0.0
 10
316.0367819440125
 20
140.4334838604976
 30
0.0
 10
314.5579013107756
 20
142.3545020801598
 30
0.0
 10
312.0199923687771
 20
145.0192294431605
 30
0.0
 10
311.1334768738025
 20
145.857020032258
 30
0.0
 10
309.2873833503446
 20
147.4300392571668
 30
0.0
 10
308.326942914422
 20
148.166153639687
 30
0.0
 10
306.3315031074772
 20
149.5378997760751
 30
0.0
 10
305.2965075659372
 20
150.1735366909129
 30
0.0
 10
303.6863812996142
 20
151.0493204774829
 30
0.0
 10
303.1385929123028
 20
151.3289028979724
 30
0.0
 10
302.0353366362056
 20
151.85587442669
 30
0.0
 10
301.4789171696874
 20
152.1038767951133
 30
0.0
 10
298.6732830843414
 20
153.2678285498671
 30
0.0
 10
296.3541585749714
 20
153.9578609442818
 30
0.0
 10
292.7628248408431
 20
154.6288857271076
 30
0.0
 10
291.5416366979258
 20
154.7913941031074
 30
0.0
 10
289.7156814002974
 20
154.9376106180497
 30
0.0
 10
289.1069269455041
 20
154.9703967606976
 30
0.0
 10
287.8892151989198
 20
155.0044583726813
 30
0.0
 10
287.280229056678
 20
155.0012519322614
 30
0.0
 10
267.1843701107658
 20
155.0016594790219
 30
0.0
 10
247.6974778775707
 20
155.0021861748408
 30
0.0
 10
189.2368017490781
 20
155.0044270390714
 30
0.0
 10
150.2630177408813
 20
155.0070076685106
 30
0.0
 10
72.31544987895377
 20
155.0143358729929
 30
0.0
 10
33.34166590134404
 20
155.0190564559769
 30
0.0
 10
-44.60590170546838
 20
155.018161468616
 30
0.0
 10
-83.57968534170661
 20
155.013138116355
 30
0.0
 10
-161.5272527252543
 20
155.0061317540121
 30
0.0
 10
-200.5010364737414
 20
155.0038552537768
 30
0.0
 10
-249.2182662369384
 20
155.0021929657947
 30
0.0
 10
-263.8334352395558
 20
155.0017702891734
 30
0.0
 10
-279.6665350854697
 20
155.0014084414775
 30
0.0
 10
-285.7561888854385
 20
155.0012827640602
 30
0.0
 10
-287.2786023360629
 20
155.0012519977233
 30
0.0
 10
-287.5830862223163
 20
155.0024801657824
 30
0.0
 10
-288.19204530736
 20
154.9959716459504
 30
0.0
 10
-288.4965210408475
 20
154.9887867280657
 30
0.0
 10
-289.4099367602119
 20
154.9553842844946
 30
0.0
 10
-290.0185510280112
 20
154.9172625724957
 30
0.0
 10
-293.0385413874635
 20
154.6495121770673
 30
0.0
 10
-295.3995973046535
 20
154.1901673556322
 30
0.0
 10
-298.2829850202644
 20
153.3128501596886
 30
0.0
 10
-298.8562358586593
 20
153.1220956150099
 30
0.0
 10
-299.9957772860661
 20
152.709527559096
 30
0.0
 10
-300.5634322075218
 20
152.4871275272111
 30
0.0
 10
-302.2458826609778
 20
151.7764591383474
 30
0.0
 10
-303.3334147470143
 20
151.2481001935433
 30
0.0
 10
-306.4973236978572
 20
149.505072909409
 30
0.0
 10
-308.4760829126057
 20
148.134166122057
 30
0.0
 10
-310.7821663794006
 20
146.1526616736992
 30
0.0
 10
-311.2347877580527
 20
145.7427867682741
 30
0.0
 10
-312.1125666264492
 20
144.9055339280078
 30
0.0
 10
-312.539106471409
 20
144.4770063775956
 30
0.0
 10
-313.7822878363115
 20
143.1622098746998
 30
0.0
 10
-314.5625900791978
 20
142.2468063567318
 30
0.0
 10
-316.026994821253
 20
140.3388723672621
 30
0.0
 10
-316.7111001897541
 20
139.3463441962126
 30
0.0
 10
-317.6632748932696
 20
137.7982367053324
 30
0.0
 10
-317.9689205982743
 20
137.2711623826692
 30
0.0
 10
-318.5520619633574
 20
136.201898864746
 30
0.0
 10
-318.8284293917736
 20
135.6619314225706
 30
0.0
 10
-320.1357473190278
 20
132.9359411973189
 30
0.0
 10
-320.945378285975
 20
130.6722448516287
 30
0.0
 10
-321.6625377383835
 20
127.7391345820848
 30
0.0
 10
-321.7910874791096
 20
127.1472895386765
 30
0.0
 10
-322.0178743685564
 20
125.9529610459652
 30
0.0
 10
-322.1160737646852
 20
125.349979383223
 30
0.0
 10
-322.3618120508013
 20
123.5455720281713
 30
0.0
 10
-322.4620407287235
 20
122.3419552567958
 30
0.0
 10
-322.5102613449315
 20
120.8366120594931
 30
0.0
 10
-322.5160437319846
 20
120.5355022179644
 30
0.0
 10
-322.519913140512
 20
119.933200430632
 30
0.0
 10
-322.5187093066235
 20
119.6320160509185
 30
0.0
 10
-322.518712086794
 20
118.7285014736851
 30
0.0
 10
-322.5187174096305
 20
116.9214723166847
 30
0.0
 10
-322.5187283714728
 20
112.7050709398064
 30
0.0
 10
-322.5188046048575
 20
70.54105670620073
 30
0.0
 10
-322.5186211597855
 20
29.58172681216099
 30
0.0
 10
-322.5186557663182
 20
-28.24320854140487
 30
0.0
 10
-322.5187233667075
 20
-57.1556762181874
 30
0.0
 10
-322.5187555529118
 20
-90.88688850636662
 30
0.0
 10
-322.5187392452404
 20
-107.752494653141
 30
0.0
 10
-322.5187212990009
 20
-115.5829546386275
 30
0.0
 10
-322.5187124855672
 20
-118.5946700158347
 30
0.0
 10
-322.5187088021278
 20
-119.7993561665663
 30
0.0
 10
-322.5216523837669
 20
-120.4017020569229
 30
0.0
 10
-322.4706294970102
 20
-122.2086825248417
 30
0.0
 10
-322.375146612257
 20
-123.4027571834195
 30
0.0
 10
-321.9097800896903
 20
-126.945770439768
 30
0.0
 10
-321.3625564973918
 20
-129.2595582210789
 30
0.0
 10
-320.3752155220833
 20
-132.0900744615944
 30
0.0
 10
-320.1617464300737
 20
-132.6546980016683
 30
0.0
 10
-319.7076553588054
 20
-133.767604943383
 30
0.0
 10
-319.4671208528112
 20
-134.3160015827622
 30
0.0
 10
-318.7058783801259
 20
-135.9375155368018
 30
0.0
 10
-318.1456331089274
 20
-136.9870176020403
 30
0.0
 10
-316.9214990286666
 20
-139.0241164501991
 30
0.0
 10
-316.2576122046076
 20
-140.011714418743
 30
0.0
 10
-315.1829711910442
 20
-141.4460384567423
 30
0.0
 10
-314.8115966310281
 20
-141.9162855978554
 30
0.0
 10
-314.042015697823
 20
-142.8407534976965
 30
0.0
 10
-313.6444474071915
 20
-143.2940541937562
 30
0.0
 10
-311.6122136074235
 20
-145.4950603819577
 30
0.0
 10
-309.8295954722414
 20
-147.0682403514407
 30
0.0
 10
-307.4082282643208
 20
-148.8037065383389
 30
0.0
 10
-306.9142015428768
 20
-149.1391314331304
 30
0.0
 10
-305.9063160309208
 20
-149.7862551142224
 30
0.0
 10
-305.3912885659692
 20
-150.0986137599938
 30
0.0
 10
-303.8239168100039
 20
-150.9945692024125
 30
0.0
 10
-302.7569985661937
 20
-151.5331323154186
 30
0.0
 10
-299.49226680112
 20
-152.9780305093695
 30
0.0
 10
-297.2310877487524
 20
-153.7152068938459
 30
0.0
 10
-294.295739504231
 20
-154.3460295067771
 30
0.0
 10
-293.7021601912821
 20
-154.4576069375008
 30
0.0
 10
-292.5175557592252
 20
-154.6487964237616
 30
0.0
 10
-291.9249882640467
 20
-154.7287958630909
 30
0.0
 10
-290.1465065101403
 20
-154.9229823371124
 30
0.0
 10
-288.9598146078783
 20
-154.9914530493099
 30
0.0
 10
-287.475181359729
 20
-155.002476135244
 30
0.0
 10
-287.1781964207376
 20
-155.0012540213523
 30
0.0
 10
-286.5842683239315
 20
-155.0012660369588
 30
0.0
 10
-285.6933761803084
 20
-155.0012841536216
 30
0.0
 10
-283.6146278595492
 20
-155.0013270711279
 30
0.0
 10
-262.8271448110416
 20
-155.0017699082529
 30
0.0
 10
-242.6335930482685
 20
-155.0023498140716
 30
0.0
 10
-185.6165034625289
 20
-155.004639186738
 30
0.0
 10
-147.6051104711141
 20
-155.0072384917599
 30
0.0
 10
-71.58232459573237
 20
-155.0144247348597
 30
0.0
 10
-33.57093166171333
 20
-155.0189664022338
 30
0.0
 10
42.45185424414546
 20
-155.0182760298629
 30
0.0
 10
80.46324720267584
 20
-155.013483437989
 30
0.0
 10
156.4860331607036
 20
-155.0065264148856
 30
0.0
 10
194.497426237651
 20
-155.0041662062546
 30
0.0
 10
242.0116676286968
 20
-155.0024233750439
 30
0.0
 10
256.2659402772193
 20
-155.0019770621621
 30
0.0
 10
272.8959241699052
 20
-155.0015617943656
 30
0.0
 10
281.210917225053
 20
-155.0013773785417
 30
0.0
 10
285.0714500886882
 20
-155.0012968096915
 30
0.0
 10
286.5562704788254
 20
-155.0012666054229
 30
0.0
 10
287.1501986394809
 20
-155.0012545859061
 30
0.0
 10
287.4472506445413
 20
-155.0024372667181
 30
0.0
 10
288.3377073638094
 20
-154.9965312404918
 30
0.0
 10
288.9302416048195
 20
-154.9776742487631
 30
0.0
 10
291.8873995600036
 20
-154.8088534007879
 30
0.0
 10
294.2356401606866
 20
-154.4373995042996
 30
0.0
 10
297.1476808624179
 20
-153.6586199761329
 30
0.0
 10
297.7289156851561
 20
-153.4870015078282
 30
0.0
 10
298.8889574159675
 20
-153.1109405956882
 30
0.0
 10
299.4663964721831
 20
-152.9068004108883
 30
0.0
 10
301.1697586452731
 20
-152.253995185475
 30
0.0
 10
302.2749184756146
 20
-151.7625104421441
 30
0.0
 10
304.4259986773044
 20
-150.6699214693609
 30
0.0
 10
305.4719179098334
 20
-150.0688151325851
 30
0.0
 10
306.9961233680775
 20
-149.0844898806686
 30
0.0
 10
307.4967315549741
 20
-148.7425765742431
 30
0.0
 10
308.4828011733337
 20
-148.0307216914679
 30
0.0
 10
308.9695833002886
 20
-147.659695483095
 30
0.0
 10
311.347428030854
 20
-145.7469654084223
 30
0.0
 10
313.0613309097146
 20
-144.0453157025434
 30
0.0
 10
315.3585343700388
 20
-141.243751599606
 30
0.0
 10
316.0782751604721
 20
-140.2680313297069
 30
0.0
 10
317.0864647753393
 20
-138.7394397400281
 30
0.0
 10
317.4099266081245
 20
-138.2198755673489
 30
0.0
 10
318.0255268628561
 20
-137.1711140645315
 30
0.0
 10
318.3186158796993
 20
-136.6405055616385
 30
0.0
 10
319.7115893983641
 20
-133.9567831811424
 30
0.0
 10
320.5962976963114
 20
-131.7125773413718
 30
0.0
 10
321.4094069622
 20
-128.7833772006697
 30
0.0
 10
321.5576331657109
 20
-128.1894717490297
 30
0.0
 10
321.8218440190662
 20
-126.9980097703005
 30
0.0
 10
321.9376345550667
 20
-126.4018587789416
 30
0.0
 10
322.2374117404092
 20
-124.6121805589877
 30
0.0
 10
322.373912038603
 20
-123.4174308666569
 30
0.0
 10
322.4868378277335
 20
-121.622942442283
 30
0.0
 10
322.509147323081
 20
-121.0243849240004
 30
0.0
 10
322.5197776866981
 20
-120.1259608231564
 30
0.0
 10
322.5187086972352
 20
-119.8263673825352
 30
0.0
 10
322.5187105579191
 20
-119.2272355881994
 30
0.0
 10
322.5187151231858
 20
-117.7294061005529
 30
0.0
 10
322.5187711210734
 20
-97.05935897923368
 30
0.0
 10
322.5187453522086
 20
-76.68887577066987
 30
0.0
 10
322.5186979298321
 20
-47.93054735667859
 30
0.0
 10
322.5186707841218
 20
-33.55138314968708
 30
0.0
 10
322.51864957123
 20
-16.77569157485128
 30
0.0
 10
322.5186435805502
 20
-8.387845787428105
 30
0.0
 10
322.518641995547
 20
-4.193922893714065
 30
0.0
 10
322.5186415882787
 20
-2.096961446857132
 30
0.0
 10
322.5186414850778
 20
-1.048480723429573
 30
0.0
 10
322.5186414591041
 20
-0.5242403617138363
 30
0.0
 10
322.5186414535198
 20
-0.2995659209799134
 30
0.0
 10
322.5186414510358
 20
-0.1497829604900906
 30
0.0
 10
322.5186414504133
 20
-0.0764434203028052
 30
0.0
 10
322.5186414504133
 20
-0.000000000000098
 30
0.0
  0
VIEWPORT
  5
108
330
D9
100
AcDbEntity
  8
0
100
AcDbViewport
 10
0.0
 20
0.0
 30
0.0
 40
205.6
 41
156.0
 68
     1
 69
     1
 12
-0.0000081119
 22
0.0000061269
 13
0.0
 23
0.0
 14
10.0
 24
10.0
 15
10.0
 25
10.0
 16
0.0
 26
0.0
 36
1.0
 17
0.0
 27
0.0
 37
0.0
 42
50.0
 43
0.0
 44
0.0
 45
499.21381672
 50
0.0
 51
0.0
 72
   100
 90
   557152
  1

281
     0
 71
     1
 74
     0
110
0.0
120
0.0
130
0.0
111
1.0
121
0.0
131
0.0
112
0.0
122
1.0
132
0.0
 79
     0
146
0.0
170
     0
 61
     5
348
2F
292
     1
282
     1
141
0.0
142
0.0
 63
   256
361
109
  0
ENDBLK
  5
DC
330
D9
100
AcDbEntity
  8
0
100
AcDbBlockEnd
  0
BLOCK
  5
E3
330
E1
100
AcDbEntity
  8
0
100
AcDbBlockBegin
  2
*Paper_Space5
 70
     0
 10
0.0
 20
0.0
 30
0.0
  3
*Paper_Space5
  1

  0
SPLINE
  5
E5
330
E1
100
AcDbEntity
  8
0
  6
Continuous
 62
     7
370
    25
100
AcDbSpline
210
0.0
220
0.0
230
1.0
 70
     8
 71
     3
 72
   186
 73
   182
 74
     0
 42
0.000000001
 43
0.00000001
 40
0.0
 40
0.0
 40
0.0
 40
0.0
 40
0.004340249404387
 40
0.0078741351544958
 40
0.010991557795391
 40
0.0139124221542947
 40
0.0166595834187904
 40
0.0192341569268897
 40
0.0246120036144427
 40
0.0289956767174827
 40
0.0311883902336859
 40
0.0332913820820451
 40
0.0353266479035714
 40
0.0373028567639545
 40
0.0392290366521224
 40
0.0413652109926108
 40
0.0443087764845699
 40
0.0466345143665249
 40
0.0483910486431861
 40
0.050315052085449
 40
0.0527802813674694
 40
0.0555763458527953
 40
0.059371410041094
 40
0.0627654424227988
 40
0.0665177516776722
 40
0.0707059915243014
 40
0.0748279046225858
 40
0.078800423089336
 40
0.0827409179186327
 40
0.0866427493500012
 40
0.0890662667749104
 40
0.0912178939157456
 40
0.0933780790799681
 40
0.0972196995306659
 40
0.101698714860793
 40
0.1057177449465258
 40
0.1090850207671984
 40
0.1122088439099947
 40
0.1155999429359879
 40
0.1214382917089264
 40
0.1273274535308828
 40
0.1330550933437695
 40
0.1390392228295459
 40
0.1454244216557875
 40
0.152437010794595
 40
0.1600742542119216
 40
0.1681749406114614
 40
0.1731504469605685
 40
0.1771290370868416
 40
0.1801133645767486
 40
0.1823344544081258
 40
0.1850852742642488
 40
0.188567140239822
 40
0.1927787134324945
 40
0.1996003797924169
 40
0.2066364813246576
 40
0.2137106378062544
 40
0.2208231728949516
 40
0.2338544976306938
 40
0.2470160035319675
 40
0.2599589443806192
 40
0.2716711826103341
 40
0.2820952235424984
 40
0.2882255615056659
 40
0.2938077211997352
 40
0.2990539533217735
 40
0.3051002173561899
 40
0.3121143110365475
 40
0.3200945736339412
 40
0.3296927300314675
 40
0.3403906565394002
 40
0.3519369072566549
 40
0.363236265377223
 40
0.3802400071827244
 40
0.3963337599018415
 40
0.4143216476048653
 40
0.4310516412989745
 40
0.4465400289585834
 40
0.4863227466368572
 40
0.5257532090110659
 40
0.5429086894681479
 40
0.5598863617723736
 40
0.5759220629691151
 40
0.5908848981232707
 40
0.6018683907902888
 40
0.6121570136942511
 40
0.6217406821807224
 40
0.6309193495477258
 40
0.634361263164725
 40
0.6377897457044918
 40
0.6412249594045373
 40
0.6446813787651139
 40
0.6492870532136888
 40
0.6539968466600702
 40
0.661235942661349
 40
0.6648483306021282
 40
0.6681619173711882
 40
0.6711725886331642
 40
0.6747360859378188
 40
0.6768904527072841
 40
0.6792694279613377
 40
0.6800875824962687
 40
0.6808276895345148
 40
0.6813764960966966
 40
0.6844323283944185
 40
0.6878239960660902
 40
0.6909808646243477
 40
0.6938369517446326
 40
0.6964364213404909
 40
0.6988419492083786
 40
0.7022802769955784
 40
0.7062092567633691
 40
0.7110771210169767
 40
0.7162832550342021
 40
0.7221706256852184
 40
0.7278431527255429
 40
0.7326963130649202
 40
0.7372140553501328
 40
0.7413993695794634
 40
0.7476297030095894
 40
0.7539134810270299
 40
0.7608240235370666
 40
0.7683615928192711
 40
0.7765262319388917
 40
0.788123158573013
 40
0.7999978195660594
 40
0.8118760974625239
 40
0.8190061452447982
 40
0.8261388633522629
 40
0.8332745486363442
 40
0.8404135007284212
 40
0.8472081784489129
 40
0.8530385106622015
 40
0.8580298363008454
 40
0.8621834817020642
 40
0.8655321121235958
 40
0.8682490155322706
 40
0.8716816770779949
 40
0.8756597375418197
 40
0.8796171603202894
 40
0.8821487057968533
 40
0.8850470719578356
 40
0.8883135447379245
 40
0.8914554914728129
 40
0.8938265108039065
 40
0.8961221060153428
 40
0.899542996825522
 40
0.9036584038884721
 40
0.9070051077138661
 40
0.9095621947389323
 40
0.9125331799337569
 40
0.91561020133138
 40
0.9174471849408166
 40
0.9195158696600176
 40
0.9215037799506867
 40
0.9233318803570115
 40
0.9271529154528255
 40
0.9306659884212092
 40
0.9338989754568345
 40
0.9373853702659988
 40
0.9398619097809326
 40
0.9424645196725357
 40
0.94497541131387
 40
0.9471252630415093
 40
0.9491109631087841
 40
0.9517115136993702
 40
0.9541348057474159
 40
0.9568384645680322
 40
0.9594452592124
 40
0.9610034273286931
 40
0.9628957958383836
 40
0.9651467506601481
 40
0.9680701913916011
 40
0.9721184646920263
 40
0.9769593824280651
 40
0.9825712706530954
 40
0.9854793825872593
 40
0.9885565758630689
 40
0.9918188006980027
 40
0.99548645585217
 40
0.9999999999999999
 40
0.9999999999999999
 40
0.9999999999999999
 40
0.9999999999999999
 10
-323.112814753818
 20
67.24687827519102
 30
0.0
 10
-323.0564762333007
 20
66.09377437090203
 30
0.0
 10
-322.9542661795397
 20
64.00179873918566
 30
0.0
 10
-322.8618880705407
 20
61.10262781852866
 30
0.0
 10
-322.8111718339418
 20
58.58173985344695
 30
0.0
 10
-322.7825054869833
 20
56.26323753969392
 30
0.0
 10
-322.7657587978354
 20
54.08379726345115
 30
0.0
 10
-322.7505550217331
 20
51.24771971536444
 30
0.0
 10
-322.7340900142859
 20
47.96160961860171
 30
0.0
 10
-322.6973040697482
 20
44.73653628512377
 30
0.0
 10
-322.6514446955319
 20
42.34171471899684
 30
0.0
 10
-322.6048834618011
 20
40.51561041423934
 30
0.0
 10
-322.5432333267737
 20
38.68799083743733
 30
0.0
 10
-322.4638635201212
 20
36.85561096653663
 30
0.0
 10
-322.3503869261583
 20
34.9368993988104
 30
0.0
 10
-322.1982736521577
 20
32.68403996140674
 30
0.0
 10
-321.8778644777478
 20
30.39983290877916
 30
0.0
 10
-321.3785123976126
 20
28.18404288925878
 30
0.0
 10
-320.8301371599102
 20
26.27923475815994
 30
0.0
 10
-320.1692324328197
 20
24.35734971045202
 30
0.0
 10
-319.266658654493
 20
22.16075010631153
 30
0.0
 10
-317.946188062778
 20
19.47239732573321
 30
0.0
 10
-316.2619896295846
 20
16.6303898917113
 30
0.0
 10
-314.186184856494
 20
13.6740347469704
 30
0.0
 10
-311.8262252221966
 20
10.76492212027377
 30
0.0
 10
-309.1078373620026
 20
7.848489411268013
 30
0.0
 10
-306.1610682760245
 20
5.059700884405473
 30
0.0
 10
-303.1338265119737
 20
2.488363578035661
 30
0.0
 10
-300.0509917910981
 20
0.1039441749942707
 30
0.0
 10
-297.2770002973621
 20
-1.868436087933731
 30
0.0
 10
-294.9624070967869
 20
-3.418258174887639
 30
0.0
 10
-293.1157128820457
 20
-4.584058717437702
 30
0.0
 10
-290.8618417001875
 20
-5.991016670914805
 30
0.0
 10
-288.1655231664534
 20
-7.639892922844005
 30
0.0
 10
-285.1489683740254
 20
-9.476851221293117
 30
0.0
 10
-282.2656799399308
 20
-11.23263294602673
 30
0.0
 10
-279.7493351422196
 20
-12.76420426032086
 30
0.0
 10
-277.4137914754998
 20
-14.18555737667734
 30
0.0
 10
-274.4855362230608
 20
-15.96726664230722
 30
0.0
 10
-270.9049143688241
 20
-18.14529207213467
 30
0.0
 10
-266.7710782921541
 20
-20.65877964022947
 30
0.0
 10
-262.6050115379043
 20
-23.19069555754905
 30
0.0
 10
-258.3243474751192
 20
-25.79092067411907
 30
0.0
 10
-253.7409586065004
 20
-28.57337517913371
 30
0.0
 10
-248.7661367499913
 20
-31.59133497039901
 30
0.0
 10
-243.3842088577808
 20
-34.85352775648821
 30
0.0
 10
-238.482071788218
 20
-37.82198797744304
 30
0.0
 10
-234.4439990817251
 20
-40.2650558960698
 30
0.0
 10
-231.617247608861
 20
-41.97417794799267
 30
0.0
 10
-229.4430289886135
 20
-43.28809028746459
 30
0.0
 10
-227.5623775583877
 20
-44.42415079531679
 30
0.0
 10
-225.5668235457962
 20
-45.62916351770671
 30
0.0
 10
-223.1021065755715
 20
-47.11675568458632
 30
0.0
 10
-219.6770981295725
 20
-49.1826628993658
 30
0.0
 10
-215.4123256019169
 20
-51.7527614274582
 30
0.0
 10
-210.4724594520694
 20
-54.72613278048513
 30
0.0
 10
-205.4643459747109
 20
-57.7367468242677
 30
0.0
 10
-199.0420977460093
 20
-61.59231783004093
 30
0.0
 10
-191.1845401636866
 20
-66.30029063266787
 30
0.0
 10
-181.9535615985781
 20
-71.81608947296705
 30
0.0
 10
-173.0352092133878
 20
-77.129749888448
 30
0.0
 10
-164.7579703163237
 20
-82.04732935174619
 30
0.0
 10
-158.0882220564632
 20
-85.99925104296005
 30
0.0
 10
-152.8665695599403
 20
-89.08672281922502
 30
0.0
 10
-148.8680018896443
 20
-91.44745786897641
 30
0.0
 10
-144.8926132100167
 20
-93.79119787174939
 30
0.0
 10
-140.5784016137994
 20
-96.33090203916109
 30
0.0
 10
-135.6183486647419
 20
-99.24567203296816
 30
0.0
 10
-129.8187030689242
 20
-102.6468112156578
 30
0.0
 10
-123.1473523210993
 20
-106.5494868985243
 30
0.0
 10
-115.6311918676183
 20
-110.933487363486
 30
0.0
 10
-107.7093503635898
 20
-115.5387975236853
 30
0.0
 10
-98.30883729154269
 20
-120.9847308629575
 30
0.0
 10
-87.85088280915595
 20
-127.0164072402068
 30
0.0
 10
-75.84350932234702
 20
-133.9062092906375
 30
0.0
 10
-63.93176834048861
 20
-140.7062482246739
 30
0.0
 10
-52.20028119288724
 20
-147.3697893029059
 30
0.0
 10
-35.44574732246682
 20
-156.843651103549
 30
0.0
 10
-13.56997427942436
 20
-169.1197191275274
 30
0.0
 10
8.484802042888443
 20
-181.3657916157431
 30
0.0
 10
25.22171543971966
 20
-190.5917538534552
 30
0.0
 10
36.58398475847493
 20
-196.8260766788631
 30
0.0
 10
47.63259698490759
 20
-202.8851296160617
 30
0.0
 10
57.44180996136755
 20
-208.2669196888382
 30
0.0
 10
66.0420790457966
 20
-212.9879321552054
 30
0.0
 10
73.4501615148225
 20
-217.0534425101085
 30
0.0
 10
80.59700490434197
 20
-220.9714263066122
 30
0.0
 10
85.97117953469753
 20
-223.9043609265603
 30
0.0
 10
89.71898638132498
 20
-225.9470356168463
 30
0.0
 10
92.07050912753564
 20
-227.2291875731771
 30
0.0
 10
94.43213243251452
 20
-228.5121988673509
 30
0.0
 10
96.85967906975162
 20
-229.8438846285981
 30
0.0
 10
100.4702886544781
 20
-231.6583375320849
 30
0.0
 10
105.1757229083281
 20
-233.3149281401789
 30
0.0
 10
109.969347123939
 20
-234.338773946831
 30
0.0
 10
114.4382557344204
 20
-234.7358552567817
 30
0.0
 10
117.6871633012313
 20
-234.7781145524191
 30
0.0
 10
120.9661768037509
 20
-234.5816207680013
 30
0.0
 10
123.8205576559628
 20
-234.1841516712069
 30
0.0
 10
126.3791293552739
 20
-233.6398184009983
 30
0.0
 10
128.0232712513207
 20
-233.1853840789724
 30
0.0
 10
129.1617688919087
 20
-232.8181250667776
 30
0.0
 10
129.7606601528244
 20
-232.6084404810138
 30
0.0
 10
130.8235178686348
 20
-232.2281085818953
 30
0.0
 10
132.3698671662679
 20
-231.6774673970494
 30
0.0
 10
133.9843482190788
 20
-231.1088388517044
 30
0.0
 10
135.7932177787555
 20
-230.4801138161698
 30
0.0
 10
137.5746025260297
 20
-229.8646343410108
 30
0.0
 10
139.3242754010092
 20
-229.2581391690593
 30
0.0
 10
141.2232340248322
 20
-228.592693168472
 30
0.0
 10
143.4316545778462
 20
-227.8054412452695
 30
0.0
 10
146.5466225955311
 20
-226.6517327454983
 30
0.0
 10
150.2418118023688
 20
-225.1886128749628
 30
0.0
 10
154.4477430007526
 20
-223.3640533062377
 30
0.0
 10
158.7652047615458
 20
-221.2931476418509
 30
0.0
 10
162.725409780032
 20
-219.1271299717684
 30
0.0
 10
166.1597587330704
 20
-217.1780816781789
 30
0.0
 10
169.3194243717515
 20
-215.3972854329489
 30
0.0
 10
172.8071315059987
 20
-213.4239802257924
 30
0.0
 10
176.7650931221595
 20
-211.1817118394836
 30
0.0
 10
181.3873179904105
 20
-208.55641665544
 30
0.0
 10
186.3040735235824
 20
-205.7570778943083
 30
0.0
 10
191.6571765537443
 20
-202.7013608500723
 30
0.0
 10
198.1030142656823
 20
-199.0119225737299
 30
0.0
 10
205.5462279542867
 20
-194.7378065959125
 30
0.0
 10
213.842818973078
 20
-189.956449928854
 30
0.0
 10
221.0749074775723
 20
-185.7745325292461
 30
0.0
 10
227.1851068406775
 20
-182.2310588058504
 30
0.0
 10
232.1796757686922
 20
-179.3279769920896
 30
0.0
 10
237.1694617891469
 20
-176.420819718132
 30
0.0
 10
242.0725921788477
 20
-173.5571638497641
 30
0.0
 10
246.668501084407
 20
-170.8663422804553
 30
0.0
 10
250.7774984039171
 20
-168.4552336287175
 30
0.0
 10
254.2830485847135
 20
-166.3943217759168
 30
0.0
 10
257.2343597892653
 20
-164.6565383020331
 30
0.0
 10
259.6583067440832
 20
-163.227359772021
 30
0.0
 10
262.0160881892535
 20
-161.8357885324322
 30
0.0
 10
264.5799254279893
 20
-160.3167343886837
 30
0.0
 10
267.502432976457
 20
-158.5830447694377
 30
0.0
 10
270.2509004426095
 20
-156.8367989672597
 30
0.0
 10
272.7589717491593
 20
-155.1777248749041
 30
0.0
 10
275.0388941188432
 20
-153.6210457465839
 30
0.0
 10
277.4520808708018
 20
-151.9228637156846
 30
0.0
 10
279.702373255634
 20
-150.297421562967
 30
0.0
 10
281.6869592832368
 20
-148.837976285872
 30
0.0
 10
283.7257691706887
 20
-147.3198840003127
 30
0.0
 10
286.1984755613831
 20
-145.4562550645025
 30
0.0
 10
288.9273338101245
 20
-143.3778282248711
 30
0.0
 10
291.4206938693278
 20
-141.4704697284919
 30
0.0
 10
293.5817090416858
 20
-139.8179499337489
 30
0.0
 10
295.6649515719569
 20
-138.2279603545605
 30
0.0
 10
297.5702251669566
 20
-136.7798510258737
 30
0.0
 10
299.2900672673855
 20
-135.4793296167958
 30
0.0
 10
300.7426197182812
 20
-134.3859690180288
 30
0.0
 10
302.2611451027918
 20
-133.2486524068887
 30
0.0
 10
304.2898868174227
 20
-131.7247105547812
 30
0.0
 10
306.6920921147744
 20
-129.8854510643602
 30
0.0
 10
309.326566500306
 20
-127.5571754456304
 30
0.0
 10
311.6878456705515
 20
-125.2237525248148
 30
0.0
 10
313.6964268616948
 20
-122.9629564262859
 30
0.0
 10
315.4269988084869
 20
-120.7417911597129
 30
0.0
 10
316.8445529867882
 20
-118.6832248049621
 30
0.0
 10
318.0742344998935
 20
-116.6291355824691
 30
0.0
 10
319.0829495902092
 20
-114.6815903674182
 30
0.0
 10
319.991496323758
 20
-112.6511898213244
 30
0.0
 10
320.7914659239429
 20
-110.4950795211722
 30
0.0
 10
321.4903553482521
 20
-108.0698522734184
 30
0.0
 10
322.0046630912391
 20
-105.5830402773926
 30
0.0
 10
322.2421692766795
 20
-103.4369012651193
 30
0.0
 10
322.3846735883559
 20
-101.4327773490573
 30
0.0
 10
322.4766769807408
 20
-99.68209802457359
 30
0.0
 10
322.5575901026153
 20
-97.66544829200346
 30
0.0
 10
322.6361853902996
 20
-95.06125088319995
 30
0.0
 10
322.6975789495371
 20
-91.78926194994838
 30
0.0
 10
322.7340105852513
 20
-87.81739492992219
 30
0.0
 10
322.7486874537522
 20
-84.19825216593767
 30
0.0
 10
322.769303973903
 20
-81.07832500214798
 30
0.0
 10
322.796729055268
 20
-78.60105869851179
 30
0.0
 10
322.8469903958588
 20
-75.93113692243337
 30
0.0
 10
322.9419320036016
 20
-72.892605191218
 30
0.0
 10
323.0506559358154
 20
-70.73367663450894
 30
0.0
 10
323.1106386168208
 20
-69.54260195303306
 30
0.0
  0
LWPOLYLINE
  5
E6
330
E1
100
AcDbEntity
  8
0
  6
Continuous
 62
     7
370
    25
100
AcDbPolyline
 90
       61
 70
   128
 43
0.0
 10
-217.4353352149
 20
125.5227471927
 10
-139.5448891892
 20
170.4879445722
 10
-135.8937745317
 20
172.5956881994
 10
-132.2396128144
 20
174.7005841672
 10
-128.2154700704
 20
176.4184924147
 10
-123.7232200213
 20
177.4790989038
 10
-118.9843390918
 20
177.8824036344
 10
-114.2203037063
 20
177.6284066065
 10
-109.6525902896
 20
176.7171078202
 10
-105.5026752662
 20
175.1485072754
 10
-100.0151402296
 20
172.0346471322
 10
-94.5628090078
 20
168.8870833157
 10
-89.110477786
 20
165.7395194991
 10
-76.2585541917
 20
158.3202619315
 10
-17.8407196724
 20
124.5963638968
 10
98.9949493661
 20
57.1485678276
 10
215.8306184047
 20
-10.2992282417
 10
274.248452924
 20
-44.0231262763
 10
290.6054465894
 20
-53.465817726
 10
294.8894211208
 20
-55.9389035819
 10
299.1733956522
 20
-58.4119894377
 10
303.398987383
 20
-60.9053980233
 10
306.1161776366
 20
-63.3010929726
 10
307.6947644786
 20
-65.9379778004
 10
308.1347479089
 20
-68.6881968883
 10
307.4361279276
 20
-71.423894618
 10
305.5989045347
 20
-74.0172153709
 10
302.6230777302
 20
-76.3403035287
 10
298.976895898
 20
-78.4498061861
 10
295.3257812406
 20
-80.5575498132
 10
217.4353352149
 20
-125.5227471927
 10
139.5448891892
 20
-170.4879445722
 10
135.8937745317
 20
-172.5956881994
 10
132.2396128144
 20
-174.7005841672
 10
128.2154700704
 20
-176.4184924147
 10
123.7232200213
 20
-177.4790989038
 10
118.9843390918
 20
-177.8824036344
 10
114.2203037063
 20
-177.6284066065
 10
109.6525902896
 20
-176.7171078202
 10
105.5026752662
 20
-175.1485072754
 10
100.0151402296
 20
-172.0346471322
 10
94.5628090078
 20
-168.8870833157
 10
89.110477786
 20
-165.7395194991
 10
76.2585541917
 20
-158.3202619315
 10
17.8407196724
 20
-124.5963638968
 10
-98.9949493661
 20
-57.1485678276
 10
-215.8306184047
 20
10.2992282417
 10
-274.248452924
 20
44.0231262763
 10
-290.6054465894
 20
53.465817726
 10
-294.8894211208
 20
55.9389035819
 10
-299.1733956522
 20
58.4119894377
 10
-303.398987383
 20
60.9053980233
 10
-306.1161776366
 20
63.3010929726
 10
-307.6947644786
 20
65.9379778004
 10
-308.1347479089
 20
68.6881968883
 10
-307.4361279276
 20
71.423894618
 10
-305.5989045347
 20
74.0172153709
 10
-302.6230777302
 20
76.3403035287
 10
-298.976895898
 20
78.4498061861
 10
-295.3257812406
 20
80.5575498132
 10
-217.4353352149
 20
125.5227471927
  0
SPLINE
  5
E7
330
E1
100
AcDbEntity
  8
0
  6
Continuous
 62
     7
370
    25
100
AcDbSpline
210
0.0
220
0.0
230
1.0
 70
    11
 71
     3
 72
   215
 73
   211
 74
     0
 42
0.000000001
 43
0.00000001
 40
0.0
 40
0.0
 40
0.0
 40
0.0
 40
0.0624999999999975
 40
0.0624999999999975
 40
0.0634765624999974
 40
0.0634765624999974
 40
0.0644531249999974
 40
0.0644531249999974
 40
0.0664062499999973
 40
0.0664062499999973
 40
0.0703124999999972
 40
0.0703124999999972
 40
0.0712890624999972
 40
0.0712890624999972
 40
0.0722656249999972
 40
0.0722656249999972
 40
0.0742187499999973
 40
0.0742187499999973
 40
0.0781249999999973
 40
0.0781249999999973
 40
0.0800781249999974
 40
0.0800781249999974
 40
0.0820312499999975
 40
0.0820312499999975
 40
0.0839843749999975
 40
0.0839843749999975
 40
0.0849609374999976
 40
0.0849609374999976
 40
0.0859374999999976
 40
0.0859374999999976
 40
0.0898437499999977
 40
0.0898437499999977
 40
0.0917968749999978
 40
0.0917968749999978
 40
0.0927734374999979
 40
0.0927734374999979
 40
0.093749999999998
 40
0.093749999999998
 40
0.1249999999999995
 40
0.1249999999999995
 40
0.1875000000000025
 40
0.1875000000000025
 40
0.2500000000000055
 40
0.2500000000000055
 40
0.3125000000000085
 40
0.3125000000000085
 40
0.3750000000000115
 40
0.3750000000000115
 40
0.3906250000000122
 40
0.3984375000000125
 40
0.4003906250000127
 40
0.4003906250000127
 40
0.4008789062500127
 40
0.4008789062500127
 40
0.4013671875000127
 40
0.4013671875000127
 40
0.4023437500000127
 40
0.4023437500000127
 40
0.4062500000000128
 40
0.4062500000000128
 40
0.4072265625000129
 40
0.4072265625000129
 40
0.4082031250000129
 40
0.4082031250000129
 40
0.410156250000013
 40
0.410156250000013
 40
0.4140625000000133
 40
0.4140625000000133
 40
0.4150390625000133
 40
0.4150390625000133
 40
0.4160156250000133
 40
0.4160156250000133
 40
0.4179687500000134
 40
0.4179687500000134
 40
0.4199218750000135
 40
0.4199218750000135
 40
0.4208984375000135
 40
0.4208984375000135
 40
0.4218750000000135
 40
0.4218750000000135
 40
0.4257812500000135
 40
0.4257812500000135
 40
0.4267578125000136
 40
0.4267578125000136
 40
0.4277343750000136
 40
0.4277343750000136
 40
0.4296875000000136
 40
0.4296875000000136
 40
0.4301757812500136
 40
0.4301757812500136
 40
0.4306640625000136
 40
0.4306640625000136
 40
0.4316406250000136
 40
0.4335937500000137
 40
0.4375000000000138
 40
0.5000000000000154
 40
0.5000000000000154
 40
0.5312500000000163
 40
0.5468750000000167
 40
0.5546875000000169
 40
0.558593750000017
 40
0.559570312500017
 40
0.559570312500017
 40
0.5605468750000171
 40
0.5605468750000171
 40
0.5625000000000171
 40
0.5625000000000171
 40
0.5664062500000173
 40
0.5664062500000173
 40
0.5673828125000172
 40
0.5673828125000172
 40
0.5683593750000172
 40
0.5683593750000172
 40
0.5703125000000172
 40
0.5703125000000172
 40
0.5722656250000173
 40
0.5722656250000173
 40
0.5732421875000172
 40
0.5732421875000172
 40
0.5742187500000172
 40
0.5742187500000172
 40
0.5781250000000171
 40
0.5781250000000171
 40
0.5791015625000171
 40
0.5791015625000171
 40
0.5800781250000171
 40
0.5800781250000171
 40
0.582031250000017
 40
0.582031250000017
 40
0.5859375000000168
 40
0.5859375000000168
 40
0.5869140625000167
 40
0.5869140625000167
 40
0.5878906250000167
 40
0.5878906250000167
 40
0.5898437500000165
 40
0.5898437500000165
 40
0.5903320312500165
 40
0.5903320312500165
 40
0.5908203125000165
 40
0.5917968750000163
 40
0.5937500000000162
 40
0.6250000000000125
 40
0.6250000000000125
 40
0.6875000000000052
 40
0.6875000000000052
 40
0.7499999999999979
 40
0.7499999999999979
 40
0.8124999999999907
 40
0.8124999999999907
 40
0.8749999999999833
 40
0.8749999999999833
 40
0.8906249999999815
 40
0.8984374999999806
 40
0.9023437499999801
 40
0.9042968749999799
 40
0.9047851562499799
 40
0.9047851562499799
 40
0.9052734374999799
 40
0.9052734374999799
 40
0.9062499999999799
 40
0.9062499999999799
 40
0.9101562499999805
 40
0.9101562499999805
 40
0.9111328124999807
 40
0.9111328124999807
 40
0.9121093749999808
 40
0.9121093749999808
 40
0.914062499999981
 40
0.914062499999981
 40
0.9160156249999813
 40
0.9160156249999813
 40
0.9169921874999813
 40
0.9169921874999813
 40
0.9179687499999815
 40
0.9179687499999815
 40
0.9218749999999822
 40
0.9218749999999822
 40
0.9238281249999826
 40
0.9238281249999826
 40
0.9248046874999828
 40
0.9248046874999828
 40
0.9257812499999829
 40
0.9257812499999829
 40
0.9296874999999838
 40
0.9296874999999838
 40
0.9306640624999839
 40
0.9306640624999839
 40
0.9316406249999841
 40
0.9316406249999841
 40
0.9335937499999846
 40
0.9335937499999846
 40
0.9345703124999848
 40
0.9345703124999848
 40
0.9350585937499849
 40
0.9350585937499849
 40
0.935546874999985
 40
0.9374999999999855
 40
0.9687499999999927
 40
0.9687499999999927
 40
0.9843749999999964
 40
0.9921874999999982
 40
0.9960937499999991
 40
0.9980468749999997
 40
0.9990234374999998
 40
0.9995117187499999
 40
0.999755859375
 40
0.9998779296875
 40
0.9998779296875
 40
1.0
 40
1.0
 40
1.0
 40
1.0
 10
228.0551184286596
 20
-131.6534175470787
 30
0.0
 10
200.3796440616141
 20
-147.6301288253124
 30
0.0
 10
172.7042996149699
 20
-163.6069154222706
 30
0.0
 10
144.5963175211179
 20
-179.8332171242043
 30
0.0
 10
144.1638869719344
 20
-180.0828525026137
 30
0.0
 10
143.2990257589404
 20
-180.5821231924531
 30
0.0
 10
142.8681502436728
 20
-180.8326672064064
 30
0.0
 10
141.5314483852694
 20
-181.5585452147136
 30
0.0
 10
140.5915330460091
 20
-182.0179276438943
 30
0.0
 10
137.6804782341541
 20
-183.2958939154279
 30
0.0
 10
135.6117088346755
 20
-184.0208452285949
 30
0.0
 10
132.8670157716122
 20
-184.7695920697655
 30
0.0
 10
132.3100676807376
 20
-184.9113970025124
 30
0.0
 10
131.1798819768427
 20
-185.1788496285974
 30
0.0
 10
130.6049767943023
 20
-185.3048049100878
 30
0.0
 10
128.873024714483
 20
-185.6544062117839
 30
0.0
 10
127.7061923599149
 20
-185.8507282233951
 30
0.0
 10
124.1702828735755
 20
-186.3330139043354
 30
0.0
 10
121.7661913393421
 20
-186.5134962603852
 30
0.0
 10
118.0873719280299
 20
-186.5652640542025
 30
0.0
 10
116.8681034031412
 20
-186.5453743499993
 30
0.0
 10
114.4504255931298
 20
-186.4339043137664
 30
0.0
 10
113.2507801763542
 20
-186.3423335089211
 30
0.0
 10
110.8698201623075
 20
-186.0877392229537
 30
0.0
 10
109.6885046235324
 20
-185.9247194117709
 30
0.0
 10
107.930700767712
 20
-185.6249578331077
 30
0.0
 10
107.3456612589602
 20
-185.5154750696309
 30
0.0
 10
106.1929161232967
 20
-185.2802332983907
 30
0.0
 10
105.6241039888751
 20
-185.1543361880361
 30
0.0
 10
102.8171829228385
 20
-184.4841948021703
 30
0.0
 10
100.6893876705179
 20
-183.8191927933923
 30
0.0
 10
97.67544505933148
 20
-182.6271108349564
 30
0.0
 10
96.697023867701
 20
-182.1949534601894
 30
0.0
 10
95.30248780536724
 20
-181.5092772762254
 30
0.0
 10
94.84885009851017
 20
-181.2741646751309
 30
0.0
 10
93.963712668158
 20
-180.7909938894068
 30
0.0
 10
93.53536173309459
 20
-180.5410943941655
 30
0.0
 10
79.32515541959384
 20
-172.3380496276623
 30
0.0
 10
65.54546934706492
 20
-164.3836361803342
 30
0.0
 10
24.20594429356415
 20
-140.5206658032311
 30
0.0
 10
-3.354507447707753
 20
-124.6124625202759
 30
0.0
 10
-58.47694308295853
 20
-92.79694057340363
 30
0.0
 10
-86.03890797826509
 20
-76.88961084065096
 30
0.0
 10
-141.1555287584069
 20
-45.07073225765487
 30
0.0
 10
-168.7106034096402
 20
-29.15942515036316
 30
0.0
 10
-223.8229026372179
 20
2.661948029550221
 30
0.0
 10
-251.3799196855174
 20
18.57213390652363
 30
0.0
 10
-285.8270277965926
 20
38.45938324132248
 30
0.0
 10
-296.1612140290256
 20
44.42552704433101
 30
0.0
 10
-307.3566504323154
 20
50.88881032677956
 30
0.0
 10
-311.6625970619978
 20
53.37468300905544
 30
0.0
 10
-312.7390841816186
 20
53.99615091331789
 30
0.0
 10
-312.9552552483133
 20
54.11994112746305
 30
0.0
 10
-313.3812521283042
 20
54.37117750005539
 30
0.0
 10
-313.5914684800014
 20
54.4983986420134
 30
0.0
 10
-314.2137318348491
 20
54.88489365633415
 30
0.0
 10
-314.617130989672
 20
55.14889390639147
 30
0.0
 10
-316.5632585316859
 20
56.49096301731877
 30
0.0
 10
-317.9079713433518
 20
57.64226203812118
 30
0.0
 10
-319.326477411347
 20
59.17739703610345
 30
0.0
 10
-319.5969431344125
 20
59.48926713221221
 30
0.0
 10
-320.1109909351371
 20
60.12284451852216
 30
0.0
 10
-320.3551230087905
 20
60.44534815486863
 30
0.0
 10
-321.0422766964991
 20
61.42222897258144
 30
0.0
 10
-321.437671816522
 20
62.08184224528133
 30
0.0
 10
-322.4423868783153
 20
64.0848735184974
 30
0.0
 10
-322.872203451688
 20
65.4522207665032
 30
0.0
 10
-323.1017154766557
 20
67.20243154354502
 30
0.0
 10
-323.1319417977464
 20
67.55450602491386
 30
0.0
 10
-323.1605980270518
 20
68.25458892440659
 30
0.0
 10
-323.1591925070474
 20
68.60363090327495
 30
0.0
 10
-323.1085529573367
 20
69.64780784384169
 30
0.0
 10
-323.0130219295795
 20
70.34000181305483
 30
0.0
 10
-322.6993993910781
 20
71.71660416117024
 30
0.0
 10
-322.4813115359236
 20
72.40101277229178
 30
0.0
 10
-322.0599234208466
 20
73.42163810496702
 30
0.0
 10
-321.9033497437516
 20
73.76155779769955
 30
0.0
 10
-321.5596094729933
 20
74.43607617295042
 30
0.0
 10
-321.3732161157433
 20
74.7693073781078
 30
0.0
 10
-320.3700633135477
 20
76.4157201247011
 30
0.0
 10
-319.34188382395
 20
77.67026479886289
 30
0.0
 10
-317.7749699743777
 20
79.1603197045343
 30
0.0
 10
-317.4473707241593
 20
79.4543877772761
 30
0.0
 10
-316.7632154954107
 20
80.034492840191
 30
0.0
 10
-316.4062805316656
 20
80.32071779234937
 30
0.0
 10
-315.3041350633956
 20
81.15759555828309
 30
0.0
 10
-314.5239218602343
 20
81.68983055896875
 30
0.0
 10
-313.4935806021222
 20
82.32400160876094
 30
0.0
 10
-313.2847525563919
 20
82.44927626119488
 30
0.0
 10
-312.8615969632573
 20
82.69671780192154
 30
0.0
 10
-312.6477762068685
 20
82.81917107742218
 30
0.0
 10
-312.0088968882833
 20
83.18799052730056
 30
0.0
 10
-310.7311380813803
 20
83.92562933114186
 30
0.0
 10
-307.7496998267783
 20
85.64678594920225
 30
0.0
 10
-277.9352933452928
 20
102.858338691641
 30
0.0
 10
-248.972543709106
 20
119.5780283987763
 30
0.0
 10
-208.0841642694398
 20
143.1824156694408
 30
0.0
 10
-187.6400101150436
 20
154.9846298362634
 30
0.0
 10
-163.7884639275124
 20
168.7538606416427
 30
0.0
 10
-151.8626679210416
 20
175.6384628193025
 30
0.0
 10
-146.3256838755865
 20
178.8348810193023
 30
0.0
 10
-144.1960732773208
 20
180.064271853849
 30
0.0
 10
-143.344228926352
 20
180.5560281230829
 30
0.0
 10
-142.920387489199
 20
180.8031097405524
 30
0.0
 10
-141.6065807176406
 20
181.519898747191
 30
0.0
 10
-140.694725834021
 20
181.9683483650573
 30
0.0
 10
-137.860373310779
 20
183.2246562444494
 30
0.0
 10
-135.8373327674479
 20
183.9457749114316
 30
0.0
 10
-133.1377000405368
 20
184.6981665304445
 30
0.0
 10
-132.5875054639992
 20
184.8415092003953
 30
0.0
 10
-131.4794705429131
 20
185.1104405108103
 30
0.0
 10
-130.9216119801303
 20
185.23611108232
 30
0.0
 10
-129.2367487528773
 20
185.5872773901937
 30
0.0
 10
-128.0984854952857
 20
185.786993997903
 30
0.0
 10
-125.7924455765713
 20
186.118849513472
 30
0.0
 10
-124.6246694806954
 20
186.2509897155943
 30
0.0
 10
-122.8505632789754
 20
186.3978137850115
 30
0.0
 10
-122.2554468669131
 20
186.4381739736339
 30
0.0
 10
-121.057573449405
 20
186.5013994616224
 30
0.0
 10
-120.4559182190143
 20
186.5241496555641
 30
0.0
 10
-117.4625655171311
 20
186.5930432290484
 30
0.0
 10
-115.0896579210294
 20
186.5075497203474
 30
0.0
 10
-112.1503328392903
 20
186.2275621416124
 30
0.0
 10
-111.563821976784
 20
186.1628202326974
 30
0.0
 10
-110.3935537534537
 20
186.0155557901207
 30
0.0
 10
-109.8085034239019
 20
185.9328255561246
 30
0.0
 10
-108.0666680576434
 20
185.6587506937299
 30
0.0
 10
-106.93142130317
 20
185.4430739863743
 30
0.0
 10
-103.6012100222643
 20
184.7002105415583
 30
0.0
 10
-101.4810525604644
 20
184.0781064713055
 30
0.0
 10
-98.95938896428984
 20
183.1373897615387
 30
0.0
 10
-98.46076784903951
 20
182.9406346382572
 30
0.0
 10
-97.48793463988183
 20
182.5351186281802
 30
0.0
 10
-97.01235799968958
 20
182.3258862688522
 30
0.0
 10
-95.61747091869049
 20
181.679170509842
 30
0.0
 10
-94.72993692251433
 20
181.2227080846515
 30
0.0
 10
-93.67234818635936
 20
180.6211744396031
 30
0.0
 10
-93.46321228710849
 20
180.4994451111148
 30
0.0
 10
-93.04323320600281
 20
180.2570061578984
 30
0.0
 10
-92.41326451952602
 20
179.8933477667871
 30
0.0
 10
-90.94333713827733
 20
179.0448117901343
 30
0.0
 10
-76.24405377774312
 20
170.5594576654555
 30
0.0
 10
-61.96464633470783
 20
162.3166046525429
 30
0.0
 10
-21.64585681417353
 20
139.0429319585909
 30
0.0
 10
5.23409491861003
 20
123.5275882155073
 30
0.0
 10
58.99540377701233
 20
92.49771213307609
 30
0.0
 10
85.8767289268017
 20
76.98316129361201
 30
0.0
 10
139.6324681985424
 20
45.95006993235793
 30
0.0
 10
166.5071930476523
 20
30.43170880040414
 30
0.0
 10
220.2585011650538
 20
-0.6039406543914827
 30
0.0
 10
247.1349460525826
 20
-16.12130892597823
 30
0.0
 10
280.731355975358
 20
-35.51752640612325
 30
0.0
 10
290.810333235145
 20
-41.33636050204452
 30
0.0
 10
302.5692139780113
 20
-48.12495689077809
 30
0.0
 10
308.4486715511457
 20
-51.51924606005209
 30
0.0
 10
311.1784235472354
 20
-53.09516412149983
 30
0.0
 10
312.2283287563022
 20
-53.70128615655719
 30
0.0
 10
312.6482908871575
 20
-53.94373494707224
 30
0.0
 10
312.859174655923
 20
-54.06451000525007
 30
0.0
 10
313.4846464492761
 20
-54.43040891352871
 30
0.0
 10
313.8902975224555
 20
-54.67998129448159
 30
0.0
 10
315.8619495991969
 20
-55.95601852062416
 30
0.0
 10
317.2597488826923
 20
-57.0662088452088
 30
0.0
 10
318.7681923245618
 20
-58.57281663269287
 30
0.0
 10
319.0578348264667
 20
-58.88013439960326
 30
0.0
 10
319.6121929796694
 20
-59.50717772875216
 30
0.0
 10
319.8761551430568
 20
-59.82622154495058
 30
0.0
 10
320.6190110847816
 20
-60.78801863342574
 30
0.0
 10
321.052944900252
 20
-61.43977542424794
 30
0.0
 10
321.8014112260384
 20
-62.76385433730248
 30
0.0
 10
322.1159414409847
 20
-63.43617685488196
 30
0.0
 10
322.4976943959074
 20
-64.46016926514773
 30
0.0
 10
322.6099086220281
 20
-64.80408995591466
 30
0.0
 10
322.803807721061
 20
-65.49718962390915
 30
0.0
 10
322.8856595160528
 20
-65.8473504655845
 30
0.0
 10
323.2145452432638
 20
-67.59878050327382
 30
0.0
 10
323.2232095449702
 20
-68.99302292154277
 30
0.0
 10
322.8665727144148
 20
-71.07436052101544
 30
0.0
 10
322.6855678886399
 20
-71.76645460248263
 30
0.0
 10
322.3175881233078
 20
-72.80197897913801
 30
0.0
 10
322.1789228289622
 20
-73.14610561380714
 30
0.0
 10
321.8726315730935
 20
-73.82550483374236
 30
0.0
 10
321.7046799338437
 20
-74.16174150214327
 30
0.0
 10
320.791982660834
 20
-75.825865302898
 30
0.0
 10
319.8306727300043
 20
-77.10310074451331
 30
0.0
 10
318.3343705228167
 20
-78.63072662275884
 30
0.0
 10
318.0192277042304
 20
-78.9336677744108
 30
0.0
 10
317.3635621456157
 20
-79.52787932854768
 30
0.0
 10
317.0238960102179
 20
-79.81849674758756
 30
0.0
 10
315.9703768853474
 20
-80.67142091867548
 30
0.0
 10
315.2220815625665
 20
-81.21484256423997
 30
0.0
 10
314.033037220196
 20
-81.99345678249547
 30
0.0
 10
313.6255683355332
 20
-82.24689721564083
 30
0.0
 10
312.9978033636452
 20
-82.61797693507822
 30
0.0
 10
312.7852029204847
 20
-82.73983582682936
 30
0.0
 10
312.3615540815876
 20
-82.98440461484152
 30
0.0
 10
311.3024319219426
 20
-83.59582655032285
 30
0.0
 10
296.6865410314983
 20
-92.03344647968895
 30
0.0
 10
282.2824159973371
 20
-100.3487498273437
 30
0.0
 10
261.9471734275301
 20
-112.0879967691593
 30
0.0
 10
251.7795497140556
 20
-117.9576188380781
 30
0.0
 10
239.9173294426155
 20
-124.8055155204563
 30
0.0
 10
233.9862225707313
 20
-128.2294657458222
 30
0.0
 10
231.020670132046
 20
-129.941441434211
 30
0.0
 10
229.5378941851046
 20
-130.7974294356592
 30
0.0
 10
228.7965062826515
 20
-131.225423477381
 30
0.0
 10
228.4258123495444
 20
-131.4394205087012
 30
0.0
 10
228.2669435249935
 20
-131.5311335243901
 30
0.0
 10
228.1610309761684
 20
-131.5922755353545
 30
0.0
 10
228.1091720895327
 20
-131.6222130328634
 30
0.0
 10
228.0551184286596
 20
-131.6534175470787
 30
0.0
  0
LWPOLYLINE
  5
E8
330
E1
100
AcDbEntity
  8
0
  6
Continuous
 62
     7
370
    25
100
AcDbPolyline
 90
       33
 70
   128
 43
0.0
 10
51.6187950267
 20
-39.6070729287
 10
46.6387920475
 20
-37.245891862
 10
40.9255159986
 20
-35.4804814016
 10
34.7487189219
 20
-34.3964078826
 10
28.3155084587
 20
-34.0273208098
 10
21.870071104
 20
-34.3906367221
 10
15.69919732
 20
-35.467068981
 10
9.9663826107
 20
-37.2317590235
 10
4.9510366551
 20
-39.6063287381
 10
0.8541325296
 20
-42.4867011664
 10
-2.1963532904
 20
-45.7771932874
 10
-4.0792391617
 20
-49.3542699739
 10
-4.7157100566
 20
-53.0575281311
 10
-4.0858315277
 20
-56.7821971288
 10
-2.2204650007
 20
-60.3447806769
 10
0.8406279615
 20
-63.6572470208
 10
4.9765605709
 20
-66.5640017276
 10
9.9951991991
 20
-68.9349434116
 10
15.7121704329
 20
-70.6916323376
 10
21.8875474009
 20
-71.7669730886
 10
28.3394124321
 20
-72.1282746776
 10
34.7522901979
 20
-71.7587937052
 10
40.9503367992
 20
-70.6691831572
 10
46.6432704542
 20
-68.9079910945
 10
51.6350718106
 20
-66.5391376726
 10
55.7403446627
 20
-63.6464933071
 10
58.7752906707
 20
-60.3639400858
 10
60.654331316
 20
-56.7823214942
 10
61.2842712433
 20
-53.0775014591
 10
60.6492579274
 20
-49.3585486568
 10
58.7706017924
 20
-45.7851376388
 10
55.7296905439
 20
-42.4999020445
 10
51.6187950267
 20
-39.6070729287
  0
SPLINE
  5
E9
330
E1
100
AcDbEntity
  8
0
  6
Continuous
 62
     7
370
    25
100
AcDbSpline
210
0.0
220
0.0
230
1.0
 70
     8
 71
     3
 72
    14
 73
    10
 74
     0
 42
0.000000001
 43
0.00000001
 40
0.0
 40
0.0
 40
0.0
 40
0.0
 40
0.1440534162836599
 40
0.2881068325673197
 40
0.4321602488509796
 40
0.5762136651346392
 40
0.7202670814182991
 40
0.8643204977019588
 40
1.0
 40
1.0
 40
1.0
 40
1.0
 10
44.54772721475256
 20
-51.85452160661398
 30
0.0
 10
45.55161474103672
 20
-52.50394098791411
 30
0.0
 10
47.55938979360504
 20
-53.80277975051435
 30
0.0
 10
49.66314759335035
 20
-56.13375486304431
 30
0.0
 10
50.98902280432299
 20
-58.63474500177352
 30
0.0
 10
51.43475736977526
 20
-61.2445465860647
 30
0.0
 10
50.97757520134766
 20
-63.84635800941849
 30
0.0
 10
49.73352022628487
 20
-66.32239279125557
 30
0.0
 10
48.25079460642449
 20
-67.77962089468411
 30
0.0
 10
47.53162478126696
 20
-68.4864236006737
 30
0.0
  0
SPLINE
  5
EA
330
E1
100
AcDbEntity
  8
0
  6
Continuous
 62
     7
370
    25
100
AcDbSpline
210
0.0
220
0.0
230
1.0
 70
     8
 71
     3
 72
    22
 73
    18
 74
     0
 42
0.000000001
 43
0.00000001
 40
0.0
 40
0.0
 40
0.0
 40
0.0
 40
0.062831668253485
 40
0.129772263378236
 40
0.1967128585029871
 40
0.2636534536277383
 40
0.3305940487524892
 40
0.3975346438772404
 40
0.4644752390019915
 40
0.5314158341267426
 40
0.5983564292514938
 40
0.6652970243762446
 40
0.7322376195009958
 40
0.7991782146257469
 40
0.8661188097504977
 40
0.933059404875249
 40
1.0
 40
1.0
 40
1.0
 40
1.0
 10
9.030007791364623
 20
-68.47896068178223
 30
0.0
 10
8.31339504011028
 20
-67.77456841910677
 30
0.0
 10
6.833306077315265
 20
-66.31971960203049
 30
0.0
 10
5.591196387850689
 20
-63.84641867421127
 30
0.0
 10
5.133222044674512
 20
-61.24424078861308
 30
0.0
 10
5.581542918223001
 20
-58.63590752678705
 30
0.0
 10
6.897865071559472
 20
-56.1294105604417
 30
0.0
 10
9.037248793753387
 20
-53.81899443618953
 30
0.0
 10
11.91596074044761
 20
-51.79400716651585
 30
0.0
 10
15.42379992548451
 20
-50.13210653743087
 30
0.0
 10
19.4257748856812
 20
-48.89724379812882
 30
0.0
 10
23.76841435018033
 20
-48.13669400938254
 30
0.0
 10
28.28373076014383
 20
-47.88031942097184
 30
0.0
 10
32.80229009401634
 20
-48.13561339437585
 30
0.0
 10
37.1352007867885
 20
-48.90156625815571
 30
0.0
 10
41.17284790998399
 20
-50.11589731233004
 30
0.0
 10
43.42276744649637
 20
-51.27498017518599
 30
0.0
 10
44.54772721475256
 20
-51.85452160661398
 30
0.0
  0
LWPOLYLINE
  5
EB
330
E1
100
AcDbEntity
  8
0
  6
Continuous
 62
     7
370
    25
100
AcDbPolyline
 90
       19
 70
   128
 43
0.0
 10
48.6856896659
 20
-67.3605933606
 10
48.0813378686
 20
-66.7324699231
 10
46.4578365321
 20
-65.3533817243
 10
44.5477272148
 20
-64.102633785
 10
42.3811334815
 20
-62.9999511474
 10
39.9922238097
 20
-62.0627237753
 10
37.4186727321
 20
-61.3057323043
 10
34.7010666864
 20
-60.7409149421
 10
31.8822639434
 20
-60.3771791959
 10
29.0067187063
 20
-60.2202613957
 10
26.1197800411
 20
-60.2726362289
 10
23.2669766953
 20
-60.5334777132
 10
20.4932990818
 20
-60.9986722225
 10
17.8424897535
 20
-61.6608833615
 10
15.3563535569
 20
-62.509667665
 10
13.074098345
 20
-63.5316392974
 10
11.031716646
 20
-64.7106811557
 10
9.2614180391
 20
-66.0281990453
 10
7.8875411529
 20
-67.3553967974
  0
VIEWPORT
  5
10A
330
E1
100
AcDbEntity
  8
0
100
AcDbViewport
 10
0.0
 20
0.0
 30
0.0
 40
205.6
 41
156.0
 68
     1
 69
     1
 12
-0.0000081119
 22
0.0000061269
 13
0.0
 23
0.0
 14
10.0
 24
10.0
 15
10.0
 25
10.0
 16
0.0
 26
0.0
 36
1.0
 17
0.0
 27
0.0
 37
0.0
 42
50.0
 43
0.0
 44
0.0
 45
499.21381672
 50
0.0
 51
0.0
 72
   100
 90
   557152
  1

281
     0
 71
     1
 74
     0
110
0.0
120
0.0
130
0.0
111
1.0
121
0.0
131
0.0
112
0.0
122
1.0
132
0.0
 79
     0
146
0.0
170
     0
 61
     5
348
2F
292
     1
282
     1
141
0.0
142
0.0
 63
   256
361
10B
  0
ENDBLK
  5
E4
330
E1
100
AcDbEntity
  8
0
100
AcDbBlockEnd
  0
BLOCK
  5
EE
330
EC
100
AcDbEntity
  8
0
100
AcDbBlockBegin
  2
*Paper_Space6
 70
     0
 10
0.0
 20
0.0
 30
0.0
  3
*Paper_Space6
  1

  0
SPLINE
  5
F0
330
EC
100
AcDbEntity
  8
0
  6
Continuous
 62
     7
370
    25
100
AcDbSpline
210
0.0
220
0.0
230
1.0
 70
     8
 71
     3
 72
   179
 73
   175
 74
     0
 42
0.000000001
 43
0.00000001
 40
0.0
 40
0.0
 40
0.0
 40
0.0
 40
0.003887510365993
 40
0.007043613816215
 40
0.0097588527694471
 40
0.0122306427804931
 40
0.0145112550952386
 40
0.0166020753539377
 40
0.0210307479910668
 40
0.0242475224812632
 40
0.0268214705130477
 40
0.0296840709862311
 40
0.0330278078601388
 40
0.0367331649605641
 40
0.0400940034076832
 40
0.0425007004640426
 40
0.0446656655904071
 40
0.0463921232626491
 40
0.0478490524784553
 40
0.0510510880678389
 40
0.0546725868059818
 40
0.0587487118181899
 40
0.0632538267881029
 40
0.0676516480342873
 40
0.071611324067224
 40
0.0757672615726355
 40
0.0811006559520209
 40
0.0867419577425239
 40
0.0910301649669325
 40
0.0960556451626663
 40
0.1011487471664481
 40
0.1030770292307954
 40
0.1053144653785851
 40
0.1081817801693248
 40
0.1113964187147793
 40
0.1140988768425122
 40
0.1163421743240833
 40
0.1203687423988596
 40
0.1241039104103482
 40
0.1284797731875549
 40
0.1335116621401927
 40
0.1391276146258071
 40
0.1447783002524184
 40
0.150349180682526
 40
0.1652620859434441
 40
0.1795867340824753
 40
0.1919556173071211
 40
0.2048704614868113
 40
0.2186294444959731
 40
0.2332315389354758
 40
0.2455197336769258
 40
0.2583467778805244
 40
0.2717125648363243
 40
0.2856171466217987
 40
0.2998937697516829
 40
0.3129366872386472
 40
0.3247129590322305
 40
0.3352251498116625
 40
0.3444753407778854
 40
0.3513355655852808
 40
0.3572892451922577
 40
0.3623748992603006
 40
0.367462469426191
 40
0.3729146977176144
 40
0.3787315303550718
 40
0.3860548668134919
 40
0.3939542416501125
 40
0.4026687247999437
 40
0.4122182728609206
 40
0.4246760817468932
 40
0.438318792276996
 40
0.4531477326812101
 40
0.4691647143792002
 40
0.4863721081167072
 40
0.5047729269932659
 40
0.5199596134933181
 40
0.5343422688539097
 40
0.5477466327938358
 40
0.5601721943865205
 40
0.5716182469473251
 40
0.5820839336950974
 40
0.5915682897630755
 40
0.5993993284756095
 40
0.6064040852364425
 40
0.6125817342665371
 40
0.6179704105218009
 40
0.6236254621464686
 40
0.6300293837791612
 40
0.6340062484556253
 40
0.6382436651565631
 40
0.6428693508583478
 40
0.6484184615062935
 40
0.6537588410217703
 40
0.6585878276843723
 40
0.6612535707378159
 40
0.6640460617902292
 40
0.6673156303064852
 40
0.6707042750398158
 40
0.673469713188215
 40
0.6752963889054321
 40
0.6772417624730134
 40
0.6797601447188669
 40
0.6820229649668489
 40
0.6842503171790807
 40
0.6880312584370439
 40
0.6895071026429667
 40
0.6904335929731452
 40
0.6913053287277795
 40
0.6926522482404098
 40
0.6945179489721224
 40
0.6964361709934325
 40
0.6987146333999046
 40
0.7024726990692337
 40
0.7054656688344233
 40
0.7081829282504134
 40
0.7107722441012182
 40
0.7150376532198924
 40
0.7196139637900048
 40
0.7245613195447606
 40
0.7300425459162986
 40
0.7361048587808184
 40
0.744738698664977
 40
0.7543412174618627
 40
0.7649127445000435
 40
0.7764528587360152
 40
0.78880730393609
 40
0.8005531927711407
 40
0.81134240854298
 40
0.8211754140274492
 40
0.8291904286769246
 40
0.8364344655007995
 40
0.842907558788779
 40
0.8489762626942903
 40
0.8553037476901926
 40
0.8619038004507463
 40
0.8690336846956331
 40
0.8749209125164155
 40
0.8810099447140822
 40
0.886321502110157
 40
0.8911022480926465
 40
0.8955548636517748
 40
0.9004105874307603
 40
0.9042189596736006
 40
0.9085152141676297
 40
0.912715362131983
 40
0.9167410599005978
 40
0.9207451498051035
 40
0.9247342784974057
 40
0.9288348862486312
 40
0.931552707557206
 40
0.9344577344367362
 40
0.9376204010580163
 40
0.9395707174263207
 40
0.9408710450686989
 40
0.9419950567558679
 40
0.9434337262393425
 40
0.945863326918985
 40
0.9488035390789229
 40
0.9515748631251487
 40
0.9551347382392497
 40
0.9584087671841941
 40
0.9608020730954062
 40
0.9629462336858362
 40
0.965351836183202
 40
0.9680202150816503
 40
0.9711101987129873
 40
0.9761134864873738
 40
0.9823762164388056
 40
0.9847443433818182
 40
0.9872558097387908
 40
0.9899142967610424
 40
0.9927695074875487
 40
0.9960324039459699
 40
1.0
 40
1.0
 40
1.0
 40
1.0
 10
-345.2421838582071
 20
13.30458542475613
 30
0.0
 10
-345.1817174929256
 20
12.18764670769631
 30
0.0
 10
-345.0721610709959
 20
10.16391320252832
 30
0.0
 10
-344.9610994082474
 20
7.37751290363664
 30
0.0
 10
-344.8908845567264
 20
5.005044410858438
 30
0.0
 10
-344.8446969393823
 20
2.886414242255358
 30
0.0
 10
-344.811882578006
 20
0.9461747535186373
 30
0.0
 10
-344.7782275493514
 20
-1.550007999437324
 30
0.0
 10
-344.7500436030766
 20
-4.319387284439327
 30
0.0
 10
-344.7191765383268
 20
-7.254393720872075
 30
0.0
 10
-344.685758997018
 20
-9.808528568576211
 30
0.0
 10
-344.639500333696
 20
-12.44839406325462
 30
0.0
 10
-344.5624449528255
 20
-15.4810635052763
 30
0.0
 10
-344.4393294920856
 20
-18.67482053203029
 30
0.0
 10
-344.2760138210204
 20
-21.70699519607673
 30
0.0
 10
-344.063294534741
 20
-24.17814119403987
 30
0.0
 10
-343.7200210800784
 20
-26.16159603178281
 30
0.0
 10
-343.3228313159589
 20
-27.866595676675
 30
0.0
 10
-342.7428839535416
 20
-29.90508346298238
 30
0.0
 10
-341.8133147922937
 20
-32.48570440418874
 30
0.0
 10
-340.2671478564669
 20
-35.75204120737071
 30
0.0
 10
-338.1740570436872
 20
-39.20969289273877
 30
0.0
 10
-335.5787333887497
 20
-42.63318337345945
 30
0.0
 10
-332.6987526826827
 20
-45.75400487961426
 30
0.0
 10
-329.6736169276099
 20
-48.54723039255591
 30
0.0
 10
-326.2227566712812
 20
-51.31704500803436
 30
0.0
 10
-322.1456235309306
 20
-54.13506344003723
 30
0.0
 10
-317.8516912273141
 20
-56.67989981607667
 30
0.0
 10
-313.5058127543642
 20
-58.9473527350266
 30
0.0
 10
-309.2479023784221
 20
-60.93238916631248
 30
0.0
 10
-305.6200831241688
 20
-62.44380720243457
 30
0.0
 10
-302.8089292537906
 20
-63.53313287606545
 30
0.0
 10
-300.6430962787865
 20
-64.33760119952765
 30
0.0
 10
-298.0614319362777
 20
-65.24854505620682
 30
0.0
 10
-295.2996049867015
 20
-66.16504789319825
 30
0.0
 10
-292.7113730093012
 20
-66.97282489721574
 30
0.0
 10
-289.8805286913003
 20
-67.84380068039975
 30
0.0
 10
-286.8153430356775
 20
-68.76599353833893
 30
0.0
 10
-283.2549772653489
 20
-69.83595967751197
 30
0.0
 10
-279.3821228587118
 20
-70.99895530094186
 30
0.0
 10
-274.9780953094602
 20
-72.32023239263117
 30
0.0
 10
-270.2075692610943
 20
-73.74994262059046
 30
0.0
 10
-265.2790302459326
 20
-75.22525598728113
 30
0.0
 10
-257.6286822970694
 20
-77.51247829534677
 30
0.0
 10
-247.4388794864053
 20
-80.55169880199998
 30
0.0
 10
-235.2602646585941
 20
-84.17042757591197
 30
0.0
 10
-223.6730555180156
 20
-87.60047266683041
 30
0.0
 10
-212.2466705460355
 20
-90.9700353898277
 30
0.0
 10
-200.1598507436831
 20
-94.51909614911614
 30
0.0
 10
-188.2497010260343
 20
-97.99931624356198
 30
0.0
 10
-176.6064348491256
 20
-101.3848887237234
 30
0.0
 10
-165.3203424881817
 20
-104.6508174384956
 30
0.0
 10
-153.5549308467827
 20
-108.0375006889737
 30
0.0
 10
-141.3590531061185
 20
-111.5278491432703
 30
0.0
 10
-129.2536477698069
 20
-114.9706180241881
 30
0.0
 10
-117.7684155047431
 20
-118.2162050637925
 30
0.0
 10
-107.3861102840992
 20
-121.1323842811758
 30
0.0
 10
-98.1166790200397
 20
-123.7212978827846
 30
0.0
 10
-90.29148542439869
 20
-125.8955453104313
 30
0.0
 10
-83.80630254098348
 20
-127.6896552588
 30
0.0
 10
-78.54552960410217
 20
-129.139908621212
 30
0.0
 10
-73.80680234866945
 20
-130.4422128463868
 30
0.0
 10
-69.21557284340487
 20
-131.700335004743
 30
0.0
 10
-64.4093652381177
 20
-133.0133635453461
 30
0.0
 10
-58.94622202306515
 20
-134.5009359922292
 30
0.0
 10
-52.76407371023959
 20
-136.1776934501667
 30
0.0
 10
-45.73059346624682
 20
-138.0768044557612
 30
0.0
 10
-38.04475973725984
 20
-140.1420554738143
 30
0.0
 10
-29.02073225397433
 20
-142.5542566363175
 30
0.0
 10
-18.54962309555101
 20
-145.3360326691869
 30
0.0
 10
-6.527096026870405
 20
-148.5072380997699
 30
0.0
 10
6.543297572757304
 20
-151.928882587241
 30
0.0
 10
20.66552542214389
 20
-155.596766413303
 30
0.0
 10
35.84478429621358
 20
-159.5070816384278
 30
0.0
 10
50.78977068757743
 20
-163.3250012778499
 30
0.0
 10
64.91448193125798
 20
-166.9065588711883
 30
0.0
 10
77.57721143486093
 20
-170.097393034739
 30
0.0
 10
89.43520719117853
 20
-173.0687942020564
 30
0.0
 10
100.4353879091961
 20
-175.8116579842406
 30
0.0
 10
110.5756102372916
 20
-178.3291344024394
 30
0.0
 10
119.8534147441506
 20
-180.623775496993
 30
0.0
 10
128.0680039155547
 20
-182.64877563098
 30
0.0
 10
135.2624374585544
 20
-184.4174676515954
 30
0.0
 10
141.4820317906015
 20
-185.9430757473536
 30
0.0
 10
146.976899286071
 20
-187.2883610832367
 30
0.0
 10
152.0833276170353
 20
-188.5364805452159
 30
0.0
 10
157.2073794176576
 20
-189.7873010373784
 30
0.0
 10
161.8824489023965
 20
-190.9269445754794
 30
0.0
 10
166.1040140378153
 20
-191.9541191243614
 30
0.0
 10
169.8632315175097
 20
-192.8685673486781
 30
0.0
 10
173.5154774148907
 20
-193.7472888234543
 30
0.0
 10
177.8901275375701
 20
-194.6825354048352
 30
0.0
 10
182.0634529779866
 20
-195.2870914042834
 30
0.0
 10
185.6203120551788
 20
-195.5901806447294
 30
0.0
 10
188.5787019197693
 20
-195.6858450897748
 30
0.0
 10
191.1569082574795
 20
-195.6692964012414
 30
0.0
 10
193.9949424354936
 20
-195.5220787947431
 30
0.0
 10
196.8753281841556
 20
-195.2186885382814
 30
0.0
 10
199.3291867490623
 20
-194.8273440226126
 30
0.0
 10
201.3416079942936
 20
-194.417722284822
 30
0.0
 10
203.2559577223061
 20
-193.9545049539513
 30
0.0
 10
205.2901097255463
 20
-193.363440330764
 30
0.0
 10
207.3923502182754
 20
-192.6315474593582
 30
0.0
 10
209.8720765240418
 20
-191.6189692231578
 30
0.0
 10
212.1192141642921
 20
-190.4966022283619
 30
0.0
 10
213.8571515098558
 20
-189.4342399742165
 30
0.0
 10
214.7618725742191
 20
-188.8499531130661
 30
0.0
 10
215.4860832716596
 20
-188.3721202346118
 30
0.0
 10
215.967059199333
 20
-188.0521200249267
 30
0.0
 10
216.4434812976066
 20
-187.7387712807331
 30
0.0
 10
217.0519839810788
 20
-187.342633681267
 30
0.0
 10
217.8410538030505
 20
-186.8344355466132
 30
0.0
 10
218.822766102024
 20
-186.2086331175131
 30
0.0
 10
219.9953356905775
 20
-185.4634382368659
 30
0.0
 10
221.1709311853857
 20
-184.7121391617672
 30
0.0
 10
222.6771412085403
 20
-183.737613128055
 30
0.0
 10
224.7495599830807
 20
-182.361462521057
 30
0.0
 10
227.4667194507541
 20
-180.4597897709279
 30
0.0
 10
230.5665591881165
 20
-178.1204439765255
 30
0.0
 10
233.7665811688524
 20
-175.5000300033741
 30
0.0
 10
237.2841682589839
 20
-172.2728447095381
 30
0.0
 10
241.1600238947508
 20
-168.5379048011799
 30
0.0
 10
245.8422004072415
 20
-164.0757216046396
 30
0.0
 10
250.9177622099594
 20
-159.1982457235576
 30
0.0
 10
256.4017326466575
 20
-153.9129957797193
 30
0.0
 10
262.0203158560942
 20
-148.4739537298518
 30
0.0
 10
267.4937499944012
 20
-143.1555488712323
 30
0.0
 10
272.5498213597559
 20
-138.2260697339925
 30
0.0
 10
277.0086859561487
 20
-133.8662907137965
 30
0.0
 10
280.9073375061183
 20
-130.0440934196414
 30
0.0
 10
284.2802033176554
 20
-126.7295552408122
 30
0.0
 10
287.3526643395591
 20
-123.7036111650577
 30
0.0
 10
290.2842491317378
 20
-120.8105349115021
 30
0.0
 10
293.2265724696728
 20
-117.9009116328283
 30
0.0
 10
296.3152942240895
 20
-114.840051123209
 30
0.0
 10
299.359961500718
 20
-111.8153702777778
 30
0.0
 10
302.4033592213254
 20
-108.7878653647157
 30
0.0
 10
305.1646535273882
 20
-106.0276749975851
 30
0.0
 10
308.1730519391541
 20
-103.0373904680634
 30
0.0
 10
310.9710323427779
 20
-100.0896578173591
 30
0.0
 10
313.7361690437667
 20
-97.02450082108035
 30
0.0
 10
316.2011204983969
 20
-94.18340171482382
 30
0.0
 10
318.5542318235604
 20
-91.40186398655955
 30
0.0
 10
320.7397152934568
 20
-88.77531487632567
 30
0.0
 10
322.9146417844622
 20
-86.13588560794699
 30
0.0
 10
325.0091840372479
 20
-83.58567678803819
 30
0.0
 10
327.0313072992338
 20
-81.1270986309561
 30
0.0
 10
329.0962757176393
 20
-78.62945067083328
 30
0.0
 10
330.9165605487252
 20
-76.44448825700508
 30
0.0
 10
332.8347707013082
 20
-74.15643026098606
 30
0.0
 10
334.6737818446965
 20
-71.89940756866912
 30
0.0
 10
336.2867906651065
 20
-69.88664507794235
 30
0.0
 10
337.4393689047468
 20
-68.25130585610381
 30
0.0
 10
338.2344972473501
 20
-67.02923108396242
 30
0.0
 10
338.9033357860205
 20
-65.9438770308974
 30
0.0
 10
339.7321278603736
 20
-64.51225987239472
 30
0.0
 10
340.7766817235731
 20
-62.51279124751316
 30
0.0
 10
341.8694044079911
 20
-60.04334852118843
 30
0.0
 10
342.901171663785
 20
-57.15011355597482
 30
0.0
 10
343.7045328970227
 20
-54.06206297978535
 30
0.0
 10
344.1769771208001
 20
-51.06252885322569
 30
0.0
 10
344.329312779816
 20
-48.56613253807134
 30
0.0
 10
344.4391919219127
 20
-46.4154006809888
 30
0.0
 10
344.5251895768197
 20
-44.25585448779178
 30
0.0
 10
344.5989427829203
 20
-41.88138453744874
 30
0.0
 10
344.6680627595399
 20
-38.83478976435509
 30
0.0
 10
344.7248565015352
 20
-34.82472922949761
 30
0.0
 10
344.7616489489165
 20
-31.0503127696853
 30
0.0
 10
344.8035954998814
 20
-27.98464259119355
 30
0.0
 10
344.8395227245156
 20
-25.91866209744722
 30
0.0
 10
344.8892603525412
 20
-23.72966065575552
 30
0.0
 10
344.9624843682544
 20
-21.35067063044886
 30
0.0
 10
345.0751195079824
 20
-18.63046214159598
 30
0.0
 10
345.182483358302
 20
-16.68781497298061
 30
0.0
 10
345.2413972411588
 20
-15.62182407024501
 30
0.0
  0
LWPOLYLINE
  5
F1
330
EC
100
AcDbEntity
  8
0
  6
Continuous
 62
     7
370
    25
100
AcDbPolyline
 90
       61
 70
   128
 43
0.0
 10
-271.9585724158
 20
73.9125126153
 10
-220.5503368154
 20
124.0885265536
 10
-218.1405757716
 20
126.440527207
 10
-215.7264465919
 20
128.7905641715
 10
-212.7608385419
 20
130.867032575
 10
-209.0116949196
 20
132.4544549865
 10
-204.6906102094
 20
133.519138385
 10
-200.0091788957
 20
134.0273897495
 10
-195.1789954629
 20
133.9455160591
 10
-190.4116543954
 20
133.2398242927
 10
-183.5757295676
 20
131.4205036264
 10
-176.7561930192
 20
129.5670997175
 10
-169.9366564708
 20
127.7136958087
 10
-153.8620346066
 20
123.3449580235
 10
-80.7955715877
 20
103.4870589999
 10
65.3373544502
 20
63.7712609526
 10
211.4702804881
 20
24.0554629053
 10
284.536743507
 20
4.1975638817
 10
304.9953531523
 20
-1.3626478449
 10
310.3535604404
 20
-2.8188937733
 10
315.7117677284
 20
-4.2751397017
 10
321.0245954793
 20
-5.75758967
 10
324.8463282434
 20
-7.3862241295
 10
327.7036673669
 20
-9.3936543461
 10
329.5311943444
 20
-11.6709011041
 10
330.2634906709
 20
-14.1089851876
 10
329.835137841
 20
-16.5989273805
 10
328.1807173496
 20
-19.031748467
 10
325.77656906
 20
-21.3844980236
 10
323.3668080162
 20
-23.736498677
 10
271.9585724158
 20
-73.9125126153
 10
220.5503368154
 20
-124.0885265536
 10
218.1405757716
 20
-126.440527207
 10
215.7264465919
 20
-128.7905641715
 10
212.7608385419
 20
-130.867032575
 10
209.0116949196
 20
-132.4544549865
 10
204.6906102094
 20
-133.519138385
 10
200.0091788957
 20
-134.0273897495
 10
195.1789954629
 20
-133.9455160591
 10
190.4116543954
 20
-133.2398242927
 10
183.5757295676
 20
-131.4205036264
 10
176.7561930192
 20
-129.5670997175
 10
169.9366564708
 20
-127.7136958087
 10
153.8620346066
 20
-123.3449580235
 10
80.7955715877
 20
-103.4870589999
 10
-65.3373544502
 20
-63.7712609526
 10
-211.4702804881
 20
-24.0554629053
 10
-284.536743507
 20
-4.1975638817
 10
-304.9953531523
 20
1.3626478449
 10
-310.3535604404
 20
2.8188937733
 10
-315.7117677284
 20
4.2751397017
 10
-321.0245954793
 20
5.75758967
 10
-324.8463282434
 20
7.3862241295
 10
-327.7036673669
 20
9.3936543461
 10
-329.5311943444
 20
11.6709011041
 10
-330.2634906709
 20
14.1089851876
 10
-329.835137841
 20
16.5989273805
 10
-328.1807173496
 20
19.031748467
 10
-325.77656906
 20
21.3844980236
 10
-323.3668080162
 20
23.736498677
 10
-271.9585724158
 20
73.9125126153
  0
SPLINE
  5
F2
330
EC
100
AcDbEntity
  8
0
  6
Continuous
 62
     7
370
    25
100
AcDbSpline
210
0.0
220
0.0
230
1.0
 70
    11
 71
     3
 72
   215
 73
   211
 74
     0
 42
0.000000001
 43
0.00000001
 40
0.0
 40
0.0
 40
0.0
 40
0.0
 40
0.0624999999999975
 40
0.0624999999999975
 40
0.0634765624999974
 40
0.0634765624999974
 40
0.0644531249999974
 40
0.0644531249999974
 40
0.0664062499999973
 40
0.0664062499999973
 40
0.0703124999999972
 40
0.0703124999999972
 40
0.0712890624999972
 40
0.0712890624999972
 40
0.0722656249999972
 40
0.0722656249999972
 40
0.0742187499999973
 40
0.0742187499999973
 40
0.0781249999999973
 40
0.0781249999999973
 40
0.0800781249999974
 40
0.0800781249999974
 40
0.0820312499999975
 40
0.0820312499999975
 40
0.0839843749999975
 40
0.0839843749999975
 40
0.0849609374999976
 40
0.0849609374999976
 40
0.0859374999999976
 40
0.0859374999999976
 40
0.0898437499999977
 40
0.0898437499999977
 40
0.0917968749999978
 40
0.0917968749999978
 40
0.0927734374999979
 40
0.0927734374999979
 40
0.093749999999998
 40
0.093749999999998
 40
0.1249999999999995
 40
0.1249999999999995
 40
0.1875000000000025
 40
0.1875000000000025
 40
0.2500000000000055
 40
0.2500000000000055
 40
0.3125000000000085
 40
0.3125000000000085
 40
0.3750000000000115
 40
0.3750000000000115
 40
0.3906250000000122
 40
0.3984375000000125
 40
0.4003906250000127
 40
0.4003906250000127
 40
0.4008789062500127
 40
0.4008789062500127
 40
0.4013671875000127
 40
0.4013671875000127
 40
0.4023437500000127
 40
0.4023437500000127
 40
0.4062500000000128
 40
0.4062500000000128
 40
0.4072265625000129
 40
0.4072265625000129
 40
0.4082031250000129
 40
0.4082031250000129
 40
0.410156250000013
 40
0.410156250000013
 40
0.4140625000000133
 40
0.4140625000000133
 40
0.4150390625000133
 40
0.4150390625000133
 40
0.4160156250000133
 40
0.4160156250000133
 40
0.4179687500000134
 40
0.4179687500000134
 40
0.4199218750000135
 40
0.4199218750000135
 40
0.4208984375000135
 40
0.4208984375000135
 40
0.4218750000000135
 40
0.4218750000000135
 40
0.4257812500000135
 40
0.4257812500000135
 40
0.4267578125000136
 40
0.4267578125000136
 40
0.4277343750000136
 40
0.4277343750000136
 40
0.4296875000000136
 40
0.4296875000000136
 40
0.4301757812500136
 40
0.4301757812500136
 40
0.4306640625000136
 40
0.4306640625000136
 40
0.4316406250000136
 40
0.4335937500000137
 40
0.4375000000000138
 40
0.5000000000000154
 40
0.5000000000000154
 40
0.5312500000000163
 40
0.5468750000000167
 40
0.5546875000000169
 40
0.558593750000017
 40
0.559570312500017
 40
0.559570312500017
 40
0.5605468750000171
 40
0.5605468750000171
 40
0.5625000000000171
 40
0.5625000000000171
 40
0.5664062500000173
 40
0.5664062500000173
 40
0.5673828125000172
 40
0.5673828125000172
 40
0.5683593750000172
 40
0.5683593750000172
 40
0.5703125000000172
 40
0.5703125000000172
 40
0.5722656250000173
 40
0.5722656250000173
 40
0.5732421875000172
 40
0.5732421875000172
 40
0.5742187500000172
 40
0.5742187500000172
 40
0.5781250000000171
 40
0.5781250000000171
 40
0.5791015625000171
 40
0.5791015625000171
 40
0.5800781250000171
 40
0.5800781250000171
 40
0.582031250000017
 40
0.582031250000017
 40
0.5859375000000168
 40
0.5859375000000168
 40
0.5869140625000167
 40
0.5869140625000167
 40
0.5878906250000167
 40
0.5878906250000167
 40
0.5898437500000165
 40
0.5898437500000165
 40
0.5903320312500165
 40
0.5903320312500165
 40
0.5908203125000165
 40
0.5917968750000163
 40
0.5937500000000162
 40
0.6250000000000125
 40
0.6250000000000125
 40
0.6875000000000052
 40
0.6875000000000052
 40
0.7499999999999979
 40
0.7499999999999979
 40
0.8124999999999907
 40
0.8124999999999907
 40
0.8749999999999833
 40
0.8749999999999833
 40
0.8906249999999815
 40
0.8984374999999806
 40
0.9023437499999801
 40
0.9042968749999799
 40
0.9047851562499799
 40
0.9047851562499799
 40
0.9052734374999799
 40
0.9052734374999799
 40
0.9062499999999799
 40
0.9062499999999799
 40
0.9101562499999805
 40
0.9101562499999805
 40
0.9111328124999807
 40
0.9111328124999807
 40
0.9121093749999808
 40
0.9121093749999808
 40
0.914062499999981
 40
0.914062499999981
 40
0.9160156249999813
 40
0.9160156249999813
 40
0.9169921874999813
 40
0.9169921874999813
 40
0.9179687499999815
 40
0.9179687499999815
 40
0.9218749999999822
 40
0.9218749999999822
 40
0.9238281249999826
 40
0.9238281249999826
 40
0.9248046874999828
 40
0.9248046874999828
 40
0.9257812499999829
 40
0.9257812499999829
 40
0.9296874999999838
 40
0.9296874999999838
 40
0.9306640624999839
 40
0.9306640624999839
 40
0.9316406249999841
 40
0.9316406249999841
 40
0.9335937499999846
 40
0.9335937499999846
 40
0.9345703124999848
 40
0.9345703124999848
 40
0.9350585937499849
 40
0.9350585937499849
 40
0.935546874999985
 40
0.9374999999999855
 40
0.9687499999999927
 40
0.9687499999999927
 40
0.9843749999999964
 40
0.9921874999999982
 40
0.9960937499999991
 40
0.9980468749999997
 40
0.9990234374999998
 40
0.9995117187499999
 40
0.999755859375
 40
0.9998779296875
 40
0.9998779296875
 40
1.0
 40
1.0
 40
1.0
 40
1.0
 10
285.2413310775283
 20
-77.52248180447138
 30
0.0
 10
266.9753256916391
 20
-95.35066303138022
 30
0.0
 10
248.7094829668207
 20
-113.1788886923948
 30
0.0
 10
230.1579729290997
 20
-131.2856082395384
 30
0.0
 10
229.8725650128342
 20
-131.5641731364736
 30
0.0
 10
229.3017490365206
 20
-132.1213028906912
 30
0.0
 10
229.0182916826785
 20
-132.4004057076534
 30
0.0
 10
228.1126335931989
 20
-133.2224675500154
 30
0.0
 10
227.4497030951435
 20
-133.7570160043745
 30
0.0
 10
225.3224183261011
 20
-135.2891616487243
 30
0.0
 10
223.7168822803508
 20
-136.2218024270927
 30
0.0
 10
221.4777564549145
 20
-137.2775532938898
 30
0.0
 10
221.0182143386502
 20
-137.4831504108777
 30
0.0
 10
220.0753003971892
 20
-137.8830509460888
 30
0.0
 10
219.5904927871928
 20
-138.0778702265724
 30
0.0
 10
218.1146944942938
 20
-138.6393373454327
 30
0.0
 10
217.1003743855192
 20
-138.984183902228
 30
0.0
 10
213.9689976988218
 20
-139.9331806003593
 30
0.0
 10
211.7645185218223
 20
-140.452749235112
 30
0.0
 10
208.2763298892836
 20
-141.0565297961668
 30
0.0
 10
207.1012865155593
 20
-141.2250628652155
 30
0.0
 10
204.7344471301386
 20
-141.4978493686016
 30
0.0
 10
203.5414750157696
 20
-141.6022989752068
 30
0.0
 10
201.1364842931561
 20
-141.7475060208963
 30
0.0
 10
199.9244666631743
 20
-141.7882667313263
 30
0.0
 10
198.0917175601575
 20
-141.8001746935633
 30
0.0
 10
197.4767637571065
 20
-141.7958573584263
 30
0.0
 10
196.2550887311218
 20
-141.7707124542169
 30
0.0
 10
195.6472397098922
 20
-141.7499355038535
 30
0.0
 10
192.6226751651357
 20
-141.6057472645496
 30
0.0
 10
190.2495644859368
 20
-141.3626247976139
 30
0.0
 10
186.7601596784798
 20
-140.8050484838677
 30
0.0
 10
185.6042768451645
 20
-140.5855405322671
 30
0.0
 10
183.92113031726
 20
-140.2132460929996
 30
0.0
 10
183.3674357041944
 20
-140.0818566671045
 30
0.0
 10
182.2745729712834
 20
-139.8046756647144
 30
0.0
 10
181.7374710221933
 20
-139.6568356032933
 30
0.0
 10
163.9641389995614
 20
-134.8266621295374
 30
0.0
 10
146.7293325668385
 20
-130.1429177579859
 30
0.0
 10
95.02460539228132
 20
-116.0919857703738
 30
0.0
 10
60.55428017723062
 20
-106.7251928079784
 30
0.0
 10
-8.387381419779683
 20
-87.99259398355584
 30
0.0
 10
-42.85870531423058
 20
-78.62677579662666
 30
0.0
 10
-111.7965289598969
 20
-59.89043129557589
 30
0.0
 10
-146.2633051027838
 20
-50.5201747404342
 30
0.0
 10
-215.1982764004667
 20
-31.78104650670038
 30
0.0
 10
-249.6663345858029
 20
-22.41204114041685
 30
0.0
 10
-292.7519596441606
 20
-10.70132343471608
 30
0.0
 10
-305.6776827002234
 20
-7.188142728438263
 30
0.0
 10
-319.6805942536265
 20
-3.382240693470775
 30
0.0
 10
-325.0663357759896
 20
-1.918438362329217
 30
0.0
 10
-326.4127714618998
 20
-1.552488076847436
 30
0.0
 10
-326.6826357090309
 20
-1.479859976724132
 30
0.0
 10
-327.2181726630094
 20
-1.330522292017244
 30
0.0
 10
-327.4841033512701
 20
-1.254063915118453
 30
0.0
 10
-328.2763559997074
 20
-1.019294814619209
 30
0.0
 10
-328.7968342600525
 20
-0.8556399184520419
 30
0.0
 10
-331.3428105863126
 20
-0.0077745170724841
 30
0.0
 10
-333.2165971156765
 20
0.7689785042544889
 30
0.0
 10
-335.3572775732089
 20
1.861672456814484
 30
0.0
 10
-335.7752467365331
 20
2.086352820653572
 30
0.0
 10
-336.5905342160189
 20
2.548188180770114
 30
0.0
 10
-336.9887854460352
 20
2.785938281474637
 30
0.0
 10
-338.145109455755
 20
3.514057841959475
 30
0.0
 10
-338.8603598573113
 20
4.016135723000954
 30
0.0
 10
-340.8451154724894
 20
5.570596155697535
 30
0.0
 10
-341.955370104139
 20
6.670682773842571
 30
0.0
 10
-343.0701531230802
 20
8.127579712804215
 30
0.0
 10
-343.2791729442187
 20
8.423076166521229
 30
0.0
 10
-343.664754442333
 20
9.015440479271748
 30
0.0
 10
-343.8420021790262
 20
9.313164269600327
 30
0.0
 10
-344.3278848413947
 20
10.2108843198133
 30
0.0
 10
-344.590783684543
 20
10.81541691384343
 30
0.0
 10
-344.9955057806185
 20
12.03649098643836
 30
0.0
 10
-345.1373326448457
 20
12.65303210681618
 30
0.0
 10
-345.2569585800758
 20
13.58707933691917
 30
0.0
 10
-345.2812940243845
 20
13.90063324148712
 30
0.0
 10
-345.2980144617978
 20
14.52785970049376
 30
0.0
 10
-345.2904385082948
 20
14.84024903797849
 30
0.0
 10
-345.1744471055588
 20
16.39619678126187
 30
0.0
 10
-344.8340427581266
 20
17.62193852712785
 30
0.0
 10
-344.0994425359495
 20
19.13037734626442
 30
0.0
 10
-343.9369229034648
 20
19.43086706761116
 30
0.0
 10
-343.5801097378342
 20
20.02940628670858
 30
0.0
 10
-343.3855503016971
 20
20.32767365073233
 30
0.0
 10
-342.7607771027741
 20
21.20866455590268
 30
0.0
 10
-342.2876987646003
 20
21.78101439184749
 30
0.0
 10
-341.6278092224748
 20
22.47830236810745
 30
0.0
 10
-341.4923966957682
 20
22.61685050159776
 30
0.0
 10
-341.2147274038976
 20
22.8921344643846
 30
0.0
 10
-341.073101350161
 20
23.02903730144362
 30
0.0
 10
-340.6514377219683
 20
23.44059699741036
 30
0.0
 10
-339.8081102543472
 20
24.26371633341052
 30
0.0
 10
-337.8403448687316
 20
26.18432777173352
 30
0.0
 10
-318.1626612693132
 20
45.39043434207022
 30
0.0
 10
-299.0469686319537
 20
64.04773392753354
 30
0.0
 10
-272.0603685439103
 20
90.38752111718782
 30
0.0
 10
-258.5671129835757
 20
103.5574268017289
 30
0.0
 10
-242.8249402117237
 20
118.9223055458857
 30
0.0
 10
-234.9538251687135
 20
126.6047371311476
 30
0.0
 10
-231.2993697283061
 20
130.1715778682936
 30
0.0
 10
-229.8938082542333
 20
131.543439230093
 30
0.0
 10
-229.3315835248784
 20
132.0921837367504
 30
0.0
 10
-229.0530748322523
 20
132.367265251654
 30
0.0
 10
-228.16463981432
 20
133.1780969680858
 30
0.0
 10
-227.5229238835377
 20
133.6990579008442
 30
0.0
 10
-225.4578373481018
 20
135.2010741097853
 30
0.0
 10
-223.894028797963
 20
136.1234913956506
 30
0.0
 10
-221.6998176693853
 20
137.175493940223
 30
0.0
 10
-221.2475145333601
 20
137.3813743588918
 30
0.0
 10
-220.3265196230321
 20
137.7791654879644
 30
0.0
 10
-219.857852364139
 20
137.9711488047678
 30
0.0
 10
-218.4278426408695
 20
138.5267862874732
 30
0.0
 10
-217.4425537959181
 20
138.8701800749949
 30
0.0
 10
-215.4092027927421
 20
139.5038568646669
 30
0.0
 10
-214.3611418367654
 20
139.7941408840063
 30
0.0
 10
-212.7413174353063
 20
140.1891813533016
 30
0.0
 10
-212.193404872083
 20
140.3141173831216
 30
0.0
 10
-211.0813286425893
 20
140.5502398284591
 30
0.0
 10
-210.5181586971006
 20
140.6611605204294
 30
0.0
 10
-207.6936148580603
 20
141.175258967699
 30
0.0
 10
-205.3828392375596
 20
141.4633760101798
 30
0.0
 10
-202.4314041325697
 20
141.6718823940261
 30
0.0
 10
-201.8379366958001
 20
141.7059242798118
 30
0.0
 10
-200.6445348464171
 20
141.7584336422453
 30
0.0
 10
-200.0432588835783
 20
141.7769207813475
 30
0.0
 10
-198.2389086255337
 20
141.8082938406396
 30
0.0
 10
-197.0439618748719
 20
141.7971634311187
 30
0.0
 10
-193.4822466148345
 20
141.6705974007636
 30
0.0
 10
-191.1383820651
 20
141.4628775575332
 30
0.0
 10
-188.2479048795235
 20
141.0446653324159
 30
0.0
 10
-187.6708599060712
 20
140.9528136344435
 30
0.0
 10
-186.5339470276909
 20
140.7551636632837
 30
0.0
 10
-185.9725342271861
 20
140.6491711122985
 30
0.0
 10
-184.3089868029402
 20
140.3101384422581
 30
0.0
 10
-183.2275000140725
 20
140.0560872075649
 30
0.0
 10
-181.9093190419872
 20
139.7042531235217
 30
0.0
 10
-181.647230534996
 20
139.6323113890684
 30
0.0
 10
-181.1219441555791
 20
139.489556803919
 30
0.0
 10
-180.3340145443358
 20
139.2754249690531
 30
0.0
 10
-178.4955118296476
 20
138.7757843184217
 30
0.0
 10
-160.110478447441
 20
133.7793840735393
 30
0.0
 10
-142.2506646880417
 20
128.9258070895579
 30
0.0
 10
-91.82264897344173
 20
115.2218861688778
 30
0.0
 10
-58.2034710979642
 20
106.0864276911631
 30
0.0
 10
9.035812177144095
 20
87.81641614631977
 30
0.0
 10
42.65589649341318
 20
78.68184244594703
 30
0.0
 10
109.8915038153554
 20
60.40824302448806
 30
0.0
 10
143.5072318975527
 20
51.26941747906417
 30
0.0
 10
210.7399146486331
 20
32.99296352921443
 30
0.0
 10
244.3567780176041
 20
23.85524592780237
 30
0.0
 10
286.3784207703107
 20
12.43364891030205
 30
0.0
 10
298.9849495198309
 20
9.007204612534382
 30
0.0
 10
313.6926148341601
 20
5.009734497368356
 30
0.0
 10
321.04645930774
 20
3.01100974930768
 30
0.0
 10
324.4607469305594
 20
2.083032613744984
 30
0.0
 10
325.77393489484
 20
1.726118673909913
 30
0.0
 10
326.2992101136452
 20
1.583353125197806
 30
0.0
 10
326.5624802416827
 20
1.512490675996001
 30
0.0
 10
327.3472599855662
 20
1.295765001851287
 30
0.0
 10
327.862507534941
 20
1.144750449306106
 30
0.0
 10
330.3990837078631
 20
0.3570511148975331
 30
0.0
 10
332.3025544284745
 20
-0.3765864334811936
 30
0.0
 10
334.5145631813594
 20
-1.431282791503563
 30
0.0
 10
334.948524243726
 20
-1.649165577739697
 30
0.0
 10
335.7989802787051
 20
-2.099299178823677
 30
0.0
 10
336.214406561245
 20
-2.331083527023186
 30
0.0
 10
337.4162297463358
 20
-3.037872359593352
 30
0.0
 10
338.1642794641978
 20
-3.527390818276535
 30
0.0
 10
339.5568275401601
 20
-4.542121253330366
 30
0.0
 10
340.2013239075897
 20
-5.067333915872357
 30
0.0
 10
341.0899787797436
 20
-5.882069942398149
 30
0.0
 10
341.3731563685724
 20
-6.158143667751095
 30
0.0
 10
341.9130348169066
 20
-6.719417484430446
 30
0.0
 10
342.1703975306744
 20
-7.005429085566339
 30
0.0
 10
343.380744194804
 20
-8.44824763824703
 30
0.0
 10
344.1023988883555
 20
-9.635328204579185
 30
0.0
 10
344.8266102092135
 20
-11.46363525161856
 30
0.0
 10
345.0077978563356
 20
-12.08108576171184
 30
0.0
 10
345.1860723753507
 20
-13.0197073973244
 30
0.0
 10
345.2296696782943
 20
-13.33412275042588
 30
0.0
 10
345.284665541836
 20
-13.959812366945
 30
0.0
 10
345.2962462379695
 20
-14.27195792285574
 30
0.0
 10
345.2757364007475
 20
-15.82924096501884
 30
0.0
 10
345.0108279346196
 20
-17.064150639728
 30
0.0
 10
344.3629123053563
 20
-18.59387142272123
 30
0.0
 10
344.2168333101079
 20
-18.90002922915503
 30
0.0
 10
343.8944563652009
 20
-19.506258169883
 30
0.0
 10
343.7186426947851
 20
-19.80564241164404
 30
0.0
 10
343.1485364970465
 20
-20.69291317147516
 30
0.0
 10
342.7116756620471
 20
-21.26994243350888
 30
0.0
 10
341.9740698032151
 20
-22.11449158175449
 30
0.0
 10
341.714456691394
 20
-22.39250236423176
 30
0.0
 10
341.3045679924494
 20
-22.8042978109579
 30
0.0
 10
341.163803681505
 20
-22.94050837293128
 30
0.0
 10
340.8841932813497
 20
-23.21341874875911
 30
0.0
 10
340.1851672036661
 20
-23.89569466837355
 30
0.0
 10
330.5386010487259
 20
-33.31110076318551
 30
0.0
 10
321.0317676745609
 20
-42.59003314368533
 30
0.0
 10
307.6103464692056
 20
-55.68969935817166
 30
0.0
 10
300.8996328289764
 20
-62.23953163986948
 30
0.0
 10
293.0704761638217
 20
-69.88100514872283
 30
0.0
 10
289.1559019135092
 20
-73.70174301262493
 30
0.0
 10
287.1986160356789
 20
-75.6121122835736
 30
0.0
 10
286.2199734374713
 20
-76.56729701164484
 30
0.0
 10
285.7306522271928
 20
-77.04488939982163
 30
0.0
 10
285.4859916447174
 20
-77.28368560006814
 30
0.0
 10
285.3811371142776
 20
-77.38602683008017
 30
0.0
 10
285.3112340950798
 20
-77.454254317052
 30
0.0
 10
285.2770068692976
 20
-77.48766113801257
 30
0.0
 10
285.2413310775283
 20
-77.52248180447138
 30
0.0
  0
LWPOLYLINE
  5
F3
330
EC
100
AcDbEntity
  8
0
  6
Continuous
 62
     7
370
    25
100
AcDbPolyline
 90
       33
 70
   128
 43
0.0
 10
34.0687633919
 20
-39.6070630629
 10
28.1028405002
 20
-38.3520866951
 10
21.7411935845
 20
-37.7164745091
 10
15.285319566
 20
-37.7321228111
 10
8.9503023382
 20
-38.3962060356
 10
2.9783444999
 20
-39.6864214865
 10
-2.3664278261
 20
-41.5427007839
 10
-6.9405331685
 20
-43.9189830113
 10
-10.5171315649
 20
-46.7059553205
 10
-12.9574689856
 20
-49.7843326477
 10
-14.1882361698
 20
-53.0530895098
 10
-14.1568663003
 20
-56.3884940508
 10
-12.870132677
 20
-59.6418347732
 10
-10.3625971557
 20
-62.7207766074
 10
-6.7576317397
 20
-65.4736092897
 10
-2.13826615
 20
-67.8313468282
 10
3.3003952841
 20
-69.6797569124
 10
9.308224071
 20
-70.9371752467
 10
15.6689388446
 20
-71.5647913866
 10
22.1189879162
 20
-71.5419156486
 10
28.4678438591
 20
-70.8683584733
 10
34.405540458
 20
-69.5778414248
 10
39.7695303986
 20
-67.7061956825
 10
44.307323892
 20
-65.3389620697
 10
47.8643530072
 20
-62.5604439286
 10
50.3064067049
 20
-59.4703333465
 10
51.526389451
 20
-56.2107073558
 10
51.4890220159
 20
-52.8720164405
 10
50.1952496777
 20
-49.6183379839
 10
47.6857332198
 20
-46.5450495658
 10
44.0625311831
 20
-43.7850097011
 10
39.4763796938
 20
-41.44741238
 10
34.0687633919
 20
-39.6070630629
  0
SPLINE
  5
F4
330
EC
100
AcDbEntity
  8
0
  6
Continuous
 62
     7
370
    25
100
AcDbSpline
210
0.0
220
0.0
230
1.0
 70
     8
 71
     3
 72
    15
 73
    11
 74
     0
 42
0.000000001
 43
0.00000001
 40
0.0
 40
0.0
 40
0.0
 40
0.0
 40
0.1334099207512437
 40
0.2668198415024874
 40
0.400229762253731
 40
0.5336396830049746
 40
0.6670496037562181
 40
0.8004595245074617
 40
0.9338694452587053
 40
1.0
 40
1.0
 40
1.0
 40
1.0
 10
29.40180950259391
 20
-52.73382613791073
 30
0.0
 10
30.69321687323058
 20
-53.13465079533324
 30
0.0
 10
33.27603161450392
 20
-53.93630011017827
 30
0.0
 10
36.47813238145194
 20
-55.60301444248825
 30
0.0
 10
39.02623447040393
 20
-57.53334831926158
 30
0.0
 10
40.7809424942397
 20
-59.68894900568644
 30
0.0
 10
41.6995394153095
 20
-61.9802322406354
 30
0.0
 10
41.68933569130694
 20
-64.31029932331874
 30
0.0
 10
41.07891034456849
 20
-66.24149876939046
 30
0.0
 10
40.16970823408561
 20
-67.30287167627175
 30
0.0
 10
39.86838570896997
 20
-67.65462577000231
 30
0.0
  0
SPLINE
  5
F5
330
EC
100
AcDbEntity
  8
0
  6
Continuous
 62
     7
370
    25
100
AcDbSpline
210
0.0
220
0.0
230
1.0
 70
     8
 71
     3
 72
    20
 73
    16
 74
     0
 42
0.000000001
 43
0.00000001
 40
0.0
 40
0.0
 40
0.0
 40
0.0
 40
0.0339034313034784
 40
0.1144114786948554
 40
0.1949195260862319
 40
0.2754275734776088
 40
0.3559356208689857
 40
0.4364436682603626
 40
0.5169517156517395
 40
0.597459763043116
 40
0.677967810434493
 40
0.7584758578258698
 40
0.8389839052172463
 40
0.9194919526086232
 40
1.0
 40
1.0
 40
1.0
 40
1.0
 10
-2.57001760590563
 20
-67.61097963815895
 30
0.0
 10
-2.830464637570959
 20
-67.31325546048132
 30
0.0
 10
-3.709376560903602
 20
-66.30854702532623
 30
0.0
 10
-4.325936627615881
 20
-64.43575738057537
 30
0.0
 10
-4.388943568299258
 20
-62.10686786377728
 30
0.0
 10
-3.516946142401854
 20
-59.81000446136903
 30
0.0
 10
-1.80551854473807
 20
-57.64660735864209
 30
0.0
 10
0.6962128730848838
 20
-55.69627240413558
 30
0.0
 10
3.887600393660807
 20
-54.03494601904435
 30
0.0
 10
7.647388261158933
 20
-52.72602976205629
 30
0.0
 10
11.83004761101413
 20
-51.82059753952529
 30
0.0
 10
16.27762301456161
 20
-51.350794931721
 30
0.0
 10
20.80911167065164
 20
-51.34450188982657
 30
0.0
 10
25.28792907751261
 20
-51.76530712244859
 30
0.0
 10
28.03051602756681
 20
-52.41098646609002
 30
0.0
 10
29.40180950259391
 20
-52.73382613791073
 30
0.0
  0
LWPOLYLINE
  5
F6
330
EC
100
AcDbEntity
  8
0
  6
Continuous
 62
     7
370
    25
100
AcDbPolyline
 90
       17
 70
   128
 43
0.0
 10
36.7608317512
 20
-68.7544519978
 10
36.1362793122
 20
-68.362192353
 10
34.1233357308
 20
-67.2953417154
 10
31.8666493635
 20
-66.3668418146
 10
29.4018095026
 20
-65.5913356486
 10
26.767688145
 20
-64.9810534129
 10
24.005826958
 20
-64.545619623
 10
21.1597821424
 20
-64.2919013298
 10
18.2744375252
 20
-64.2238998224
 10
15.3952967146
 20
-64.3426875252
 10
12.5677654809
 20
-64.6463910852
 10
9.836435681
 20
-65.1302209157
 10
7.2443820174
 20
-65.7865467314
 10
4.8324827247
 20
-66.605017882
 10
2.6387748956
 20
-67.5727265886
 10
0.697854613
 20
-68.6744115068
 10
0.5817285693
 20
-68.7499070974
  0
VIEWPORT
  5
10C
330
EC
100
AcDbEntity
  8
0
100
AcDbViewport
 10
0.0
 20
0.0
 30
0.0
 40
205.6
 41
156.0
 68
     1
 69
     1
 12
-0.0000081119
 22
0.0000061269
 13
0.0
 23
0.0
 14
10.0
 24
10.0
 15
10.0
 25
10.0
 16
0.0
 26
0.0
 36
1.0
 17
0.0
 27
0.0
 37
0.0
 42
50.0
 43
0.0
 44
0.0
 45
499.21381672
 50
0.0
 51
0.0
 72
   100
 90
   557152
  1

281
     0
 71
     1
 74
     0
110
0.0
120
0.0
130
0.0
111
1.0
121
0.0
131
0.0
112
0.0
122
1.0
132
0.0
 79
     0
146
0.0
170
     0
 61
     5
348
2F
292
     1
282
     1
141
0.0
142
0.0
 63
   256
361
10D
  0
ENDBLK
  5
EF
330
EC
100
AcDbEntity
  8
0
100
AcDbBlockEnd
  0
BLOCK
  5
F9
330
F7
100
AcDbEntity
  8
0
100
AcDbBlockBegin
  2
*Paper_Space7
 70
     0
 10
0.0
 20
0.0
 30
0.0
  3
*Paper_Space7
  1

  0
SPLINE
  5
FB
330
F7
100
AcDbEntity
  8
0
  6
Continuous
 62
     7
370
    25
100
AcDbSpline
210
0.0
220
0.0
230
1.0
 70
     8
 71
     3
 72
   180
 73
   176
 74
     0
 42
0.000000001
 43
0.00000001
 40
0.0
 40
0.0
 40
0.0
 40
0.0
 40
0.0047204116826359
 40
0.0085471503567594
 40
0.0119365860805961
 40
0.0151240114723234
 40
0.0181320600922239
 40
0.0209671759059306
 40
0.027496629023078
 40
0.03294770785177
 40
0.0372857285728485
 40
0.0404494289262762
 40
0.0431811664721609
 40
0.0459818449671949
 40
0.0489227261208699
 40
0.0537130188185911
 40
0.0585271347876535
 40
0.0633649226947377
 40
0.0708960407841105
 40
0.078842299080193
 40
0.083554435634235
 40
0.0883107191478237
 40
0.092527857344027
 40
0.09608977222458
 40
0.0997551308574349
 40
0.1041664387782277
 40
0.1087774699242956
 40
0.1120875869151495
 40
0.1151243860828105
 40
0.1178866555572939
 40
0.120460802413107
 40
0.1236766724294477
 40
0.1276560621366863
 40
0.1319790873304584
 40
0.136173773115417
 40
0.1398603700646764
 40
0.1421219885527253
 40
0.1441775315321392
 40
0.1464086106008683
 40
0.150735150076713
 40
0.155588830022408
 40
0.1604396584018803
 40
0.1642739610580371
 40
0.1677195478453754
 40
0.1719345368365301
 40
0.1768137089123073
 40
0.1815400203993906
 40
0.1883711195498702
 40
0.1944772621095964
 40
0.200111243764775
 40
0.2064310713694226
 40
0.2135830070273733
 40
0.2214562641846116
 40
0.2295154178792045
 40
0.2376922082818988
 40
0.2441989315293084
 40
0.25070004884895
 40
0.2561576679613907
 40
0.260241482281203
 40
0.2661426047495392
 40
0.2744815547159472
 40
0.2836176758931018
 40
0.2923425057476716
 40
0.3006509951644821
 40
0.3085991718761938
 40
0.3170617594613869
 40
0.3263245722280486
 40
0.3399141750930961
 40
0.3549115253052231
 40
0.3713058206953799
 40
0.3890847092029974
 40
0.4082339408232568
 40
0.4287351124028503
 40
0.4432952147567658
 40
0.4581263389151642
 40
0.4723573266312949
 40
0.4859436059636575
 40
0.4988868987131827
 40
0.511188799842915
 40
0.5228508010590367
 40
0.5378812865757971
 40
0.5517018428470845
 40
0.5643158781211719
 40
0.5757267822050368
 40
0.5859380174092715
 40
0.6071471341950805
 40
0.611326071165105
 40
0.6156390173245984
 40
0.6206777532612727
 40
0.6265193108069526
 40
0.633404308135315
 40
0.6409829241023114
 40
0.6478744645992296
 40
0.6539133082267273
 40
0.659151972201353
 40
0.6613345339589332
 40
0.6634038393456043
 40
0.6653713977607388
 40
0.6672539781030584
 40
0.6695999052673275
 40
0.673596204779321
 40
0.6781093806387629
 40
0.6819325831426577
 40
0.6851371672864298
 40
0.687519077134482
 40
0.6901706841221503
 40
0.6931348305344136
 40
0.6970399498531301
 40
0.7011484266553771
 40
0.7052773294073866
 40
0.7088613654919568
 40
0.712544190400283
 40
0.7164394873747889
 40
0.7200123137758628
 40
0.7230602398991454
 40
0.7257689996416586
 40
0.7285708407818772
 40
0.7321192804075054
 40
0.7360929831328356
 40
0.7405874449101009
 40
0.7483370378947651
 40
0.7572683467653472
 40
0.7673305604661302
 40
0.7771448957949898
 40
0.7860704283982635
 40
0.793970847985629
 40
0.8010131417893134
 40
0.8073651712141678
 40
0.814183173205469
 40
0.8218498680886067
 40
0.8302363902527299
 40
0.8388853521086792
 40
0.8468227653675467
 40
0.8540155165467456
 40
0.8609699302308411
 40
0.8687636394597337
 40
0.8727369342629753
 40
0.8759851154624947
 40
0.8785476620758211
 40
0.8814961485552408
 40
0.885886569882583
 40
0.8902680352840859
 40
0.8939934116527496
 40
0.8970606268790552
 40
0.9001103601997203
 40
0.9048267689056912
 40
0.9102033659489296
 40
0.9157618303974084
 40
0.9208944154856937
 40
0.9253368782955821
 40
0.9291360371994858
 40
0.9301099040788027
 40
0.9310692114832341
 40
0.9320620711214298
 40
0.9339311083806642
 40
0.9357595576801346
 40
0.939213596647932
 40
0.9420176567654835
 40
0.9446466111878113
 40
0.9475263584226213
 40
0.9508736066664475
 40
0.95510333529802
 40
0.959321070631978
 40
0.962449822919638
 40
0.9660034179844659
 40
0.9701169373126504
 40
0.9747784019377085
 40
0.9772671205408417
 40
0.9798899222907884
 40
0.9826519267198868
 40
0.985558283501027
 40
0.988615953200679
 40
0.9918589273630091
 40
0.9955255182130971
 40
1.0
 40
1.0
 40
1.0
 40
1.0
 10
-346.3364930149054
 20
-4.458985253809236
 30
0.0
 10
-346.2613561201531
 20
-5.92552120770782
 30
0.0
 10
-346.1253073218772
 20
-8.580947078225424
 30
0.0
 10
-345.9820067451342
 20
-12.28039160251731
 30
0.0
 10
-345.8866442371611
 20
-15.49717901801638
 30
0.0
 10
-345.8171785146268
 20
-18.45567053302546
 30
0.0
 10
-345.7635006410358
 20
-21.24167004956613
 30
0.0
 10
-345.6992852435394
 20
-25.06014369737566
 30
0.0
 10
-345.6289465260168
 20
-29.64076773057433
 30
0.0
 10
-345.5186475202239
 20
-34.71942409253025
 30
0.0
 10
-345.3840047878308
 20
-38.7746346730609
 30
0.0
 10
-345.2391456383501
 20
-42.01411038887193
 30
0.0
 10
-345.0706082261096
 20
-44.76310072333366
 30
0.0
 10
-344.651428998017
 20
-47.43723045330869
 30
0.0
 10
-343.860871242524
 20
-50.73087162070414
 30
0.0
 10
-342.4841915207218
 20
-54.55268305949745
 30
0.0
 10
-340.3584567319896
 20
-58.69764301928356
 30
0.0
 10
-337.2806213035472
 20
-63.28112243607223
 30
0.0
 10
-332.9406482186355
 20
-68.16664343058753
 30
0.0
 10
-328.0178659169971
 20
-72.35862466153553
 30
0.0
 10
-323.5004539927856
 20
-75.55088395133056
 30
0.0
 10
-319.8227511588237
 20
-77.83714767794756
 30
0.0
 10
-316.3621409960073
 20
-79.75899754206225
 30
0.0
 10
-313.1437605963732
 20
-81.38843681886254
 30
0.0
 10
-309.8170981354073
 20
-82.93928957896397
 30
0.0
 10
-306.133502982686
 20
-84.50967279258612
 30
0.0
 10
-302.5065551585487
 20
-85.91360522561152
 30
0.0
 10
-299.2552992790459
 20
-87.07278786848472
 30
0.0
 10
-296.5349073972812
 20
-87.98136985331409
 30
0.0
 10
-294.0194226192644
 20
-88.77310628940579
 30
0.0
 10
-291.4384041370896
 20
-89.54229249837236
 30
0.0
 10
-288.4612876854266
 20
-90.37796829744178
 30
0.0
 10
-284.9310364286092
 20
-91.29677925052135
 30
0.0
 10
-281.0663169526804
 20
-92.21640127242058
 30
0.0
 10
-277.25204242193
 20
-93.04043804361939
 30
0.0
 10
-274.0552354479188
 20
-93.66764936819952
 30
0.0
 10
-271.5309375217542
 20
-94.12597612335169
 30
0.0
 10
-269.4481067550751
 20
-94.48482489407809
 30
0.0
 10
-266.6940347863514
 20
-94.9367549723921
 30
0.0
 10
-263.0943380317314
 20
-95.48177831344385
 30
0.0
 10
-258.7975885393372
 20
-96.10014039094914
 30
0.0
 10
-254.7626653405187
 20
-96.6746492907978
 30
0.0
 10
-251.1650834751285
 20
-97.1878357505496
 30
0.0
 10
-247.8096310454441
 20
-97.66628769096711
 30
0.0
 10
-244.1281155736703
 20
-98.19132067176727
 30
0.0
 10
-240.0713399622007
 20
-98.7698211150943
 30
0.0
 10
-235.2404559293233
 20
-99.4586052825237
 30
0.0
 10
-230.0415825915469
 20
-100.1996121998227
 30
0.0
 10
-224.5672239452497
 20
-100.9794354900135
 30
0.0
 10
-219.2336632835315
 20
-101.7386752072749
 30
0.0
 10
-213.5811345063448
 20
-102.5426214643584
 30
0.0
 10
-207.257650485111
 20
-103.4409332873667
 30
0.0
 10
-200.4110970022745
 20
-104.4120275878664
 30
0.0
 10
-193.2526509713713
 20
-105.4253720105299
 30
0.0
 10
-186.4925889816288
 20
-106.3801169094898
 30
0.0
 10
-180.1898078422337
 20
-107.2681714632228
 30
0.0
 10
-174.6915974388451
 20
-108.0410826968501
 30
0.0
 10
-169.9121052951871
 20
-108.711417403511
 30
0.0
 10
-165.3093701859791
 20
-109.3556972596875
 30
0.0
 10
-159.8336348166103
 20
-110.1205337918527
 30
0.0
 10
-152.8366437626674
 20
-111.094669994283
 30
0.0
 10
-144.9855265341729
 20
-112.1829747513824
 30
0.0
 10
-137.1300332033028
 20
-113.2666256909989
 30
0.0
 10
-129.618309790642
 20
-114.2976890668652
 30
0.0
 10
-122.1714302408352
 20
-115.3146123919478
 30
0.0
 10
-114.4203015099592
 20
-116.3671639582773
 30
0.0
 10
-104.9502088740081
 20
-117.6448251631171
 30
0.0
 10
-93.48504065529507
 20
-119.1778965628309
 30
0.0
 10
-79.84018095612534
 20
-120.9804943123976
 30
0.0
 10
-64.90839482171081
 20
-122.9251732793824
 30
0.0
 10
-48.70344480569888
 20
-125.0012162777385
 30
0.0
 10
-31.24326395721113
 20
-127.1960896442281
 30
0.0
 10
-14.75800286443587
 20
-129.2269285209241
 30
0.0
 10
0.4177692064837382
 20
-131.0660883139756
 30
0.0
 10
13.68897885193753
 20
-132.6537113892045
 30
0.0
 10
26.66671881587339
 20
-134.1877843201903
 30
0.0
 10
39.07428990978881
 20
-135.6388154741053
 30
0.0
 10
50.8998694711555
 20
-137.0086579243812
 30
0.0
 10
62.14549965380787
 20
-138.3003757376619
 30
0.0
 10
74.0345892794181
 20
-139.6559183929006
 30
0.0
 10
86.39710878004087
 20
-141.0547579663744
 30
0.0
 10
99.06471413518088
 20
-142.4777516599019
 30
0.0
 10
110.6415600722525
 20
-143.7707211986984
 30
0.0
 10
121.1305501457182
 20
-144.9369676228644
 30
0.0
 10
134.2730927611771
 20
-146.3934299965185
 30
0.0
 10
145.2430443465337
 20
-147.6045343011325
 30
0.0
 10
154.4283353930311
 20
-148.6176371346867
 30
0.0
 10
158.6171505346663
 20
-149.0795672816089
 30
0.0
 10
163.2798386746065
 20
-149.5935120331071
 30
0.0
 10
168.7057439528566
 20
-150.1907188864666
 30
0.0
 10
174.8789908591851
 20
-150.8679276402464
 30
0.0
 10
181.3588526995048
 20
-151.5760130397916
 30
0.0
 10
187.50253255433
 20
-152.2386460748946
 30
0.0
 10
192.9001198665123
 20
-152.7742452711876
 30
0.0
 10
197.1107520159444
 20
-153.0435144552505
 30
0.0
 10
199.9620971384762
 20
-153.1247651067213
 30
0.0
 10
201.8303749988075
 20
-153.1490067341616
 30
0.0
 10
203.5941115152344
 20
-153.143608877907
 30
0.0
 10
205.4109851445035
 20
-153.111058175925
 30
0.0
 10
207.8280007371814
 20
-153.0274217623693
 30
0.0
 10
211.0650626755861
 20
-152.8312894594472
 30
0.0
 10
214.82704318022
 20
-152.4555210544452
 30
0.0
 10
218.4178931519781
 20
-151.9390077912335
 30
0.0
 10
221.4799014045233
 20
-151.3452939601549
 30
0.0
 10
223.9255591837948
 20
-150.8040518769536
 30
0.0
 10
226.0125734913499
 20
-150.3014753729149
 30
0.0
 10
228.6128683590057
 20
-149.6162864036512
 30
0.0
 10
231.5580767178645
 20
-148.7462168458381
 30
0.0
 10
234.7623133326185
 20
-147.6720057573728
 30
0.0
 10
237.887421882464
 20
-146.4808538954923
 30
0.0
 10
240.9904130934842
 20
-145.1416694202425
 30
0.0
 10
244.013778400966
 20
-143.6735123053905
 30
0.0
 10
246.9942622728182
 20
-142.0380174692442
 30
0.0
 10
249.6754903538124
 20
-140.3846133960942
 30
0.0
 10
251.9460717181316
 20
-138.8392986811265
 30
0.0
 10
253.9145850427177
 20
-137.3860952827654
 30
0.0
 10
255.6761470934401
 20
-135.969662750167
 30
0.0
 10
257.2873095747237
 20
-134.603703527097
 30
0.0
 10
258.8906842254822
 20
-133.2472314567412
 30
0.0
 10
261.0551729662485
 20
-131.4030952967752
 30
0.0
 10
263.7511917432756
 20
-129.0952135764414
 30
0.0
 10
267.0517229825793
 20
-126.253833232247
 30
0.0
 10
270.4826020438447
 20
-123.2851470026704
 30
0.0
 10
273.878796658619
 20
-120.3316109682225
 30
0.0
 10
277.0032982438462
 20
-117.601865181155
 30
0.0
 10
279.7897009439018
 20
-115.1579576777878
 30
0.0
 10
282.2691405531195
 20
-112.9760339529969
 30
0.0
 10
284.6214856670444
 20
-110.9000944355122
 30
0.0
 10
287.0562450956372
 20
-108.7452698665321
 30
0.0
 10
289.7300145412927
 20
-106.371120847889
 30
0.0
 10
292.6149077728778
 20
-103.7998016825648
 30
0.0
 10
295.5208646326395
 20
-101.1989319607431
 30
0.0
 10
298.2768263681514
 20
-98.72203810818198
 30
0.0
 10
300.8224649837148
 20
-96.42522483074842
 30
0.0
 10
303.3742072275255
 20
-94.11462392439734
 30
0.0
 10
305.6315888187303
 20
-92.0621348876123
 30
0.0
 10
307.4740585678751
 20
-90.38201102054153
 30
0.0
 10
308.8802767001137
 20
-89.09325510857741
 30
0.0
 10
310.4517642701167
 20
-87.64131689351632
 30
0.0
 10
312.3730973506806
 20
-85.78735769058146
 30
0.0
 10
314.5698441524319
 20
-83.53295263296913
 30
0.0
 10
316.8282242517824
 20
-81.07121360216846
 30
0.0
 10
318.756985219183
 20
-78.86629030938667
 30
0.0
 10
320.3907661988794
 20
-76.9368002316982
 30
0.0
 10
322.0759263553996
 20
-74.89888513000507
 30
0.0
 10
324.0161293738584
 20
-72.4982356175797
 30
0.0
 10
326.2319546005559
 20
-69.70860003169574
 30
0.0
 10
328.3768307145783
 20
-66.99327732850067
 30
0.0
 10
330.3982292651897
 20
-64.44829129695471
 30
0.0
 10
332.1504254501458
 20
-62.26718919096623
 30
0.0
 10
333.5272109737169
 20
-60.57153520817853
 30
0.0
 10
334.4462756070795
 20
-59.43971214780374
 30
0.0
 10
334.9607035023955
 20
-58.80101968514743
 30
0.0
 10
335.6951163836007
 20
-57.87862157531819
 30
0.0
 10
336.4388287147308
 20
-56.91318151161864
 30
0.0
 10
337.774714007742
 20
-55.03133488142796
 30
0.0
 10
339.1959442462016
 20
-52.84154492570011
 30
0.0
 10
340.6206169567798
 20
-50.33976142780048
 30
0.0
 10
341.8117268419176
 20
-47.9425144111222
 30
0.0
 10
342.9267169176392
 20
-45.29889203382354
 30
0.0
 10
344.001686958358
 20
-42.08579954267291
 30
0.0
 10
344.8509274048371
 20
-38.41281733624356
 30
0.0
 10
345.1687718251737
 20
-34.78614009602462
 30
0.0
 10
345.3237364753114
 20
-31.34772584988977
 30
0.0
 10
345.4546719711491
 20
-28.00137995468564
 30
0.0
 10
345.5598133044432
 20
-24.2028442063077
 30
0.0
 10
345.6316573131157
 20
-20.75442514816599
 30
0.0
 10
345.6864907519345
 20
-17.77369248008309
 30
0.0
 10
345.7299622683086
 20
-15.37933960187267
 30
0.0
 10
345.7785404276694
 20
-12.86626027967808
 30
0.0
 10
345.8365650511019
 20
-10.23145818770125
 30
0.0
 10
345.9093164983706
 20
-7.464262928457262
 30
0.0
 10
346.0057858779799
 20
-4.487255824546968
 30
0.0
 10
346.1442618749944
 20
-1.109253424120126
 30
0.0
 10
346.2686020830868
 20
1.291124024473532
 30
0.0
 10
346.3369417259445
 20
2.610415186011989
 30
0.0
  0
LWPOLYLINE
  5
FC
330
F7
100
AcDbEntity
  8
0
  6
Continuous
 62
     7
370
    25
100
AcDbPolyline
 90
       61
 70
   128
 43
0.0
 10
-287.6399116177
 20
36.2392225189
 10
-248.6946886138
 20
70.5856807938
 10
-246.8691312854
 20
72.1956710255
 10
-245.0387672006
 20
73.8045804945
 10
-242.595378996
 20
75.2605690501
 10
-239.2568755717
 20
76.43483455
 10
-235.225118919
 20
77.2970024012
 10
-230.7019710292
 20
77.8166980107
 10
-225.8892938937
 20
77.9635467854
 10
-220.9889495037
 20
77.7071741324
 10
-213.7681280684
 20
76.8210177539
 10
-206.5553718289
 20
75.912295884
 10
-199.3426155894
 20
75.0035740141
 10
-182.3411187393
 20
72.8615867494
 10
-105.0615876023
 20
63.1252810007
 10
49.4974746717
 20
43.6526695034
 10
204.0565369457
 20
24.1800580061
 10
281.3360680827
 20
14.4437522574
 10
302.9743368011
 20
11.7175866478
 10
308.6415024178
 20
11.0035908929
 10
314.3086680345
 20
10.289595138
 10
319.9371055394
 20
9.556897056
 10
324.1210875446
 20
8.6687521634
 10
327.4392013931
 20
7.4975200127
 10
329.8003233059
 20
6.1104879344
 10
331.1133295038
 20
4.5749432588
 10
331.2870962079
 20
2.9581733164
 10
330.230499639
 20
1.3274654376
 10
328.4106919499
 20
-0.2827740123
 10
326.5851346216
 20
-1.8927642439
 10
287.6399116177
 20
-36.2392225189
 10
248.6946886138
 20
-70.5856807938
 10
246.8691312854
 20
-72.1956710255
 10
245.0387672006
 20
-73.8045804945
 10
242.595378996
 20
-75.2605690501
 10
239.2568755717
 20
-76.43483455
 10
235.225118919
 20
-77.2970024012
 10
230.7019710292
 20
-77.8166980107
 10
225.8892938937
 20
-77.9635467854
 10
220.9889495037
 20
-77.7071741324
 10
213.7681280684
 20
-76.8210177539
 10
206.5553718289
 20
-75.912295884
 10
199.3426155895
 20
-75.0035740141
 10
182.3411187393
 20
-72.8615867494
 10
105.0615876023
 20
-63.1252810007
 10
-49.4974746717
 20
-43.6526695034
 10
-204.0565369457
 20
-24.1800580061
 10
-281.3360680827
 20
-14.4437522574
 10
-302.9743368011
 20
-11.7175866478
 10
-308.6415024178
 20
-11.0035908929
 10
-314.3086680345
 20
-10.289595138
 10
-319.9371055394
 20
-9.556897056
 10
-324.1210875446
 20
-8.6687521634
 10
-327.4392013931
 20
-7.4975200127
 10
-329.8003233059
 20
-6.1104879344
 10
-331.1133295038
 20
-4.5749432588
 10
-331.2870962079
 20
-2.9581733164
 10
-330.230499639
 20
-1.3274654376
 10
-328.4106919499
 20
0.2827740123
 10
-326.5851346216
 20
1.8927642439
 10
-287.6399116177
 20
36.2392225189
  0
SPLINE
  5
FD
330
F7
100
AcDbEntity
  8
0
  6
Continuous
 62
     7
370
    25
100
AcDbSpline
210
0.0
220
0.0
230
1.0
 70
    11
 71
     3
 72
   215
 73
   211
 74
     0
 42
0.000000001
 43
0.00000001
 40
0.0
 40
0.0
 40
0.0
 40
0.0
 40
0.0624999999999975
 40
0.0624999999999975
 40
0.0634765624999974
 40
0.0634765624999974
 40
0.0644531249999974
 40
0.0644531249999974
 40
0.0664062499999973
 40
0.0664062499999973
 40
0.0703124999999972
 40
0.0703124999999972
 40
0.0712890624999972
 40
0.0712890624999972
 40
0.0722656249999972
 40
0.0722656249999972
 40
0.0742187499999973
 40
0.0742187499999973
 40
0.0781249999999973
 40
0.0781249999999973
 40
0.0800781249999974
 40
0.0800781249999974
 40
0.0820312499999975
 40
0.0820312499999975
 40
0.0839843749999975
 40
0.0839843749999975
 40
0.0849609374999976
 40
0.0849609374999976
 40
0.0859374999999976
 40
0.0859374999999976
 40
0.0898437499999977
 40
0.0898437499999977
 40
0.0917968749999978
 40
0.0917968749999978
 40
0.0927734374999979
 40
0.0927734374999979
 40
0.093749999999998
 40
0.093749999999998
 40
0.1249999999999995
 40
0.1249999999999995
 40
0.1875000000000025
 40
0.1875000000000025
 40
0.2500000000000055
 40
0.2500000000000055
 40
0.3125000000000085
 40
0.3125000000000085
 40
0.3750000000000115
 40
0.3750000000000115
 40
0.3906250000000122
 40
0.3984375000000125
 40
0.4003906250000127
 40
0.4003906250000127
 40
0.4008789062500127
 40
0.4008789062500127
 40
0.4013671875000127
 40
0.4013671875000127
 40
0.4023437500000127
 40
0.4023437500000127
 40
0.4062500000000128
 40
0.4062500000000128
 40
0.4072265625000129
 40
0.4072265625000129
 40
0.4082031250000129
 40
0.4082031250000129
 40
0.410156250000013
 40
0.410156250000013
 40
0.4140625000000133
 40
0.4140625000000133
 40
0.4150390625000133
 40
0.4150390625000133
 40
0.4160156250000133
 40
0.4160156250000133
 40
0.4179687500000134
 40
0.4179687500000134
 40
0.4199218750000135
 40
0.4199218750000135
 40
0.4208984375000135
 40
0.4208984375000135
 40
0.4218750000000135
 40
0.4218750000000135
 40
0.4257812500000135
 40
0.4257812500000135
 40
0.4267578125000136
 40
0.4267578125000136
 40
0.4277343750000136
 40
0.4277343750000136
 40
0.4296875000000136
 40
0.4296875000000136
 40
0.4301757812500136
 40
0.4301757812500136
 40
0.4306640625000136
 40
0.4306640625000136
 40
0.4316406250000136
 40
0.4335937500000137
 40
0.4375000000000138
 40
0.5000000000000154
 40
0.5000000000000154
 40
0.5312500000000163
 40
0.5468750000000167
 40
0.5546875000000169
 40
0.558593750000017
 40
0.559570312500017
 40
0.559570312500017
 40
0.5605468750000171
 40
0.5605468750000171
 40
0.5625000000000171
 40
0.5625000000000171
 40
0.5664062500000173
 40
0.5664062500000173
 40
0.5673828125000172
 40
0.5673828125000172
 40
0.5683593750000172
 40
0.5683593750000172
 40
0.5703125000000172
 40
0.5703125000000172
 40
0.5722656250000173
 40
0.5722656250000173
 40
0.5732421875000172
 40
0.5732421875000172
 40
0.5742187500000172
 40
0.5742187500000172
 40
0.5781250000000171
 40
0.5781250000000171
 40
0.5791015625000171
 40
0.5791015625000171
 40
0.5800781250000171
 40
0.5800781250000171
 40
0.582031250000017
 40
0.582031250000017
 40
0.5859375000000168
 40
0.5859375000000168
 40
0.5869140625000167
 40
0.5869140625000167
 40
0.5878906250000167
 40
0.5878906250000167
 40
0.5898437500000165
 40
0.5898437500000165
 40
0.5903320312500165
 40
0.5903320312500165
 40
0.5908203125000165
 40
0.5917968750000163
 40
0.5937500000000162
 40
0.6250000000000125
 40
0.6250000000000125
 40
0.6875000000000052
 40
0.6875000000000052
 40
0.7499999999999979
 40
0.7499999999999979
 40
0.8124999999999907
 40
0.8124999999999907
 40
0.8749999999999833
 40
0.8749999999999833
 40
0.8906249999999815
 40
0.8984374999999806
 40
0.9023437499999801
 40
0.9042968749999799
 40
0.9047851562499799
 40
0.9047851562499799
 40
0.9052734374999799
 40
0.9052734374999799
 40
0.9062499999999799
 40
0.9062499999999799
 40
0.9101562499999805
 40
0.9101562499999805
 40
0.9111328124999807
 40
0.9111328124999807
 40
0.9121093749999808
 40
0.9121093749999808
 40
0.914062499999981
 40
0.914062499999981
 40
0.9160156249999813
 40
0.9160156249999813
 40
0.9169921874999813
 40
0.9169921874999813
 40
0.9179687499999815
 40
0.9179687499999815
 40
0.9218749999999822
 40
0.9218749999999822
 40
0.9238281249999826
 40
0.9238281249999826
 40
0.9248046874999828
 40
0.9248046874999828
 40
0.9257812499999829
 40
0.9257812499999829
 40
0.9296874999999838
 40
0.9296874999999838
 40
0.9306640624999839
 40
0.9306640624999839
 40
0.9316406249999841
 40
0.9316406249999841
 40
0.9335937499999846
 40
0.9335937499999846
 40
0.9345703124999848
 40
0.9345703124999848
 40
0.9350585937499849
 40
0.9350585937499849
 40
0.935546874999985
 40
0.9374999999999855
 40
0.9687499999999927
 40
0.9687499999999927
 40
0.9843749999999964
 40
0.9921874999999982
 40
0.9960937499999991
 40
0.9980468749999997
 40
0.9990234374999998
 40
0.9995117187499999
 40
0.999755859375
 40
0.9998779296875
 40
0.9998779296875
 40
1.0
 40
1.0
 40
1.0
 40
1.0
 10
301.6885642986958
 20
-38.00918638701341
 30
0.0
 10
287.8508271183475
 20
-50.21292348300047
 30
0.0
 10
274.013262032659
 20
-62.41668239936079
 30
0.0
 10
259.9592061521824
 20
-74.81108959961831
 30
0.0
 10
259.74298983426
 20
-75.00177277787132
 30
0.0
 10
259.3105570462037
 20
-75.38313911484767
 30
0.0
 10
259.096405637242
 20
-75.57408721949496
 30
0.0
 10
258.3954243859666
 20
-76.13942255658968
 30
0.0
 10
257.8661557278587
 20
-76.51009003225379
 30
0.0
 10
256.1237276084314
 20
-77.5818922356969
 30
0.0
 10
254.7548518443137
 20
-78.2471399684288
 30
0.0
 10
252.7868729583183
 20
-79.01761090198924
 30
0.0
 10
252.3803149733847
 20
-79.16862259122604
 30
0.0
 10
251.5408367158575
 20
-79.46437684588649
 30
0.0
 10
251.1066157779966
 20
-79.60950998793496
 30
0.0
 10
249.7772129368843
 20
-80.03102692747531
 30
0.0
 10
248.8536381460094
 20
-80.29437279356667
 30
0.0
 10
245.9746055626438
 20
-81.0331237628606
 30
0.0
 10
243.9120568964243
 20
-81.45781867640858
 30
0.0
 10
240.59593706742
 20
-81.98959797435022
 30
0.0
 10
239.4704740515129
 20
-82.14634823351338
 30
0.0
 10
237.1874654039685
 20
-82.41925894219226
 30
0.0
 10
236.0287999052878
 20
-82.53559393607615
 30
0.0
 10
233.6772513844051
 20
-82.72814610494119
 30
0.0
 10
232.4843701196775
 20
-82.80436534044678
 30
0.0
 10
230.6685985830242
 20
-82.88768371308521
 30
0.0
 10
230.0573421538726
 20
-82.91030136827945
 30
0.0
 10
228.8390278344163
 20
-82.94459361202449
 30
0.0
 10
228.2308630044275
 20
-82.9563472735253
 30
0.0
 10
225.1949135400509
 20
-82.98862584914457
 30
0.0
 10
222.781607909538
 20
-82.93046980520238
 30
0.0
 10
219.1849797236742
 20
-82.71645580215362
 30
0.0
 10
217.9852074274186
 20
-82.62320828817303
 30
0.0
 10
216.2254873009334
 20
-82.45360840134838
 30
0.0
 10
215.6444579983925
 20
-82.3920888769376
 30
0.0
 10
214.4933503620598
 20
-82.25920074491947
 30
0.0
 10
213.9248296355326
 20
-82.18643125635839
 30
0.0
 10
195.1267307782428
 20
-79.81823864342358
 30
0.0
 10
176.8982259951522
 20
-77.52185059704824
 30
0.0
 10
122.2124785602203
 20
-70.6328925585834
 30
0.0
 10
85.75492946253729
 20
-66.04059271988065
 30
0.0
 10
12.8390652806956
 20
-56.8566687246814
 30
0.0
 10
-23.61924037620721
 20
-52.26503613733272
 30
0.0
 10
-96.53219698205356
 20
-43.07854814165771
 30
0.0
 10
-132.9870573182897
 20
-38.48387738893268
 30
0.0
 10
-205.8978530179455
 20
-29.29548386362466
 30
0.0
 10
-242.3536846180278
 20
-24.70166957926946
 30
0.0
 10
-287.9238925636266
 20
-18.95977068491386
 30
0.0
 10
-301.5949818897202
 20
-17.23722470813836
 30
0.0
 10
-316.4053627062241
 20
-15.37116317179355
 30
0.0
 10
-322.1016678036212
 20
-14.65345140246849
 30
0.0
 10
-323.5257443094384
 20
-14.47402366367699
 30
0.0
 10
-323.8109971279675
 20
-14.43852284224596
 30
0.0
 10
-324.3783250834316
 20
-14.36472693825445
 30
0.0
 10
-324.6605958006865
 20
-14.32660383720612
 30
0.0
 10
-325.5032084219273
 20
-14.20854172074743
 30
0.0
 10
-326.0590368791185
 20
-14.1249293093608
 30
0.0
 10
-328.789315128204
 20
-13.68553417875765
 30
0.0
 10
-330.8354777875289
 20
-13.26405515859931
 30
0.0
 10
-333.222461554699
 20
-12.65069296050232
 30
0.0
 10
-333.6912466971785
 20
-12.52365652209131
 30
0.0
 10
-334.6113252620759
 20
-12.26071958422364
 30
0.0
 10
-335.0636875342713
 20
-12.12447541670322
 30
0.0
 10
-336.3862166076739
 20
-11.70460692717159
 30
0.0
 10
-337.2167066271324
 20
-11.41169519607504
 30
0.0
 10
-339.5600192454189
 20
-10.4953407079087
 30
0.0
 10
-340.9262902608627
 20
-9.834686405968538
 30
0.0
 10
-342.3828662044142
 20
-8.945069300319886
 30
0.0
 10
-342.6613420731406
 20
-8.763926403717079
 30
0.0
 10
-343.1864154394978
 20
-8.39941973258309
 30
0.0
 10
-343.4338995615466
 20
-8.215534590294837
 30
0.0
 10
-344.1319384844242
 20
-7.659064424289139
 30
0.0
 10
-344.5382003797367
 20
-7.28167772859685
 30
0.0
 10
-345.2334690540155
 20
-6.514193032783361
 30
0.0
 10
-345.5224793303291
 20
-6.124095411800014
 30
0.0
 10
-345.8658185563074
 20
-5.52917322793213
 30
0.0
 10
-345.9653750199539
 20
-5.328808241810306
 30
0.0
 10
-346.1328120769082
 20
-4.926682894616952
 30
0.0
 10
-346.2004228144687
 20
-4.725748250158583
 30
0.0
 10
-346.4595236727112
 20
-3.721702566601357
 30
0.0
 10
-346.4165265766369
 20
-2.920455296187424
 30
0.0
 10
-346.0503567367654
 20
-1.921379435561074
 30
0.0
 10
-345.9613551867535
 20
-1.721689588499414
 30
0.0
 10
-345.7512360088076
 20
-1.322565161770664
 30
0.0
 10
-345.6299069215069
 20
-1.122979685956572
 30
0.0
 10
-345.2218197016357
 20
-0.5313963089356721
 30
0.0
 10
-344.8900322545201
 20
-0.1442907807573945
 30
0.0
 10
-344.4029193194382
 20
0.3307652810807318
 30
0.0
 10
-344.3018698418569
 20
0.425334230475187
 30
0.0
 10
-344.0925435030839
 20
0.6135908222412236
 30
0.0
 10
-343.9849326609765
 20
0.7073596789661657
 30
0.0
 10
-343.6654946194299
 20
0.9890801725513237
 30
0.0
 10
-343.0266183132757
 20
1.552521132522092
 30
0.0
 10
-341.5359055645847
 20
2.867216537234575
 30
0.0
 10
-326.6287466844919
 20
16.01416679482893
 30
0.0
 10
-312.1472651301957
 20
28.78546011094458
 30
0.0
 10
-291.7030955512428
 20
46.81555556111412
 30
0.0
 10
-281.481057810417
 20
55.83060921377279
 30
0.0
 10
-269.5553034472828
 20
66.3481663067026
 30
0.0
 10
-263.5923959566181
 20
71.60694103553847
 30
0.0
 10
-260.8238934923096
 20
74.04851379059782
 30
0.0
 10
-259.7590830652281
 20
74.9875800090638
 30
0.0
 10
-259.3331587465918
 20
75.36320647777501
 30
0.0
 10
-259.1229507832912
 20
75.55136771133017
 30
0.0
 10
-258.4363591719857
 20
76.10877975764252
 30
0.0
 10
-257.9248739676561
 20
76.46984518057457
 30
0.0
 10
-256.2369190965505
 20
77.51972968657076
 30
0.0
 10
-254.9069907824405
 20
78.1766888629099
 30
0.0
 10
-252.9826792552943
 20
78.94289811292823
 30
0.0
 10
-252.5833726370902
 20
79.09379285910315
 30
0.0
 10
-251.7651373117388
 20
79.38728741970019
 30
0.0
 10
-251.3462503927516
 20
79.52993285101387
 30
0.0
 10
-250.0608815062525
 20
79.94581537051567
 30
0.0
 10
-249.1657650283744
 20
80.2070295949835
 30
0.0
 10
-247.3004692428096
 20
80.69794117278178
 30
0.0
 10
-246.330291372742
 20
80.92763912973005
 30
0.0
 10
-244.817946624349
 20
81.24822056600945
 30
0.0
 10
-244.3043000617823
 20
81.35107896180496
 30
0.0
 10
-243.2575742554884
 20
81.54863649122096
 30
0.0
 10
-242.7254171746157
 20
81.64312394365241
 30
0.0
 10
-240.0462633220381
 20
82.08990714869638
 30
0.0
 10
-237.8225736315616
 20
82.37034862454684
 30
0.0
 10
-234.9440120520882
 20
82.6261144189673
 30
0.0
 10
-234.3633017603686
 20
82.67247989777779
 30
0.0
 10
-233.1917184210988
 20
82.75547570955746
 30
0.0
 10
-232.5995188831579
 20
82.7921740602612
 30
0.0
 10
-230.8166087715628
 20
82.88682071902187
 30
0.0
 10
-229.6281873249129
 20
82.92900975235345
 30
0.0
 10
-226.0634617382406
 20
82.99478359084544
 30
0.0
 10
-223.6876912020068
 20
82.95815620604952
 30
0.0
 10
-220.7188948678364
 20
82.80891560548149
 30
0.0
 10
-220.1242036836483
 20
82.77375198910237
 30
0.0
 10
-218.9485120116115
 20
82.6937588141286
 30
0.0
 10
-218.3659318022052
 20
82.64886827288981
 30
0.0
 10
-216.6336591679321
 20
82.49982045948589
 30
0.0
 10
-215.4994024849667
 20
82.38131697317463
 30
0.0
 10
-214.1067579956182
 20
82.20978831794132
 30
0.0
 10
-213.8293861054348
 20
82.17440724629002
 30
0.0
 10
-213.2738129946013
 20
82.10441589538178
 30
0.0
 10
-212.4404532968649
 20
81.9994288982826
 30
0.0
 10
-210.4959471207682
 20
81.75445944128253
 30
0.0
 10
-191.0508806783423
 20
79.3047691499274
 30
0.0
 10
-172.1613376204593
 20
76.92511707049744
 30
0.0
 10
-118.8259245980346
 20
70.20630246271703
 30
0.0
 10
-83.26860326179222
 20
65.72742731611727
 30
0.0
 10
-12.15325795540979
 20
56.77029678907279
 30
0.0
 10
23.40475005593897
 20
52.29202728710737
 30
0.0
 10
94.51731058672463
 20
43.33244079010006
 30
0.0
 10
130.0720184619966
 20
38.8512608185743
 30
0.0
 10
201.1823634459683
 20
29.88972034375226
 30
0.0
 10
236.7379314093517
 20
25.40929878699824
 30
0.0
 10
281.1828182963663
 20
19.80914831808534
 30
0.0
 10
294.5163116384793
 20
18.12912701460472
 30
0.0
 10
310.0720903381517
 20
16.16913513611246
 30
0.0
 10
317.8499889340086
 20
15.18914630569817
 30
0.0
 10
321.4611582752629
 20
14.73415302301147
 30
0.0
 10
322.8500698916842
 20
14.55915584414123
 30
0.0
 10
323.405634564544
 20
14.48915699144161
 30
0.0
 10
323.6839194126115
 20
14.45451784246719
 30
0.0
 10
324.5147773073551
 20
14.34773498453732
 30
0.0
 10
325.0623753839607
 20
14.27202445438745
 30
0.0
 10
327.7688561775786
 20
13.87088089963038
 30
0.0
 10
329.8341053404951
 20
13.47831698971381
 30
0.0
 10
332.2827298484944
 20
12.89230252085698
 30
0.0
 10
332.7657489491558
 20
12.77029188099287
 30
0.0
 10
333.7179110164292
 20
12.51632206121268
 30
0.0
 10
334.1858813394964
 20
12.38461832999629
 30
0.0
 10
335.5484292530831
 20
11.98032738174776
 30
0.0
 10
336.4084455164181
 20
11.6968357534206
 30
0.0
 10
338.0343082622694
 20
11.10265405396694
 30
0.0
 10
338.8001529344663
 20
10.79196345997824
 30
0.0
 10
339.8779050572812
 20
10.30541680339906
 30
0.0
 10
340.2252965286438
 20
10.13980935878408
 30
0.0
 10
340.8960014891684
 20
9.801640183202675
 30
0.0
 10
341.2201669005118
 20
9.628584613327794
 30
0.0
 10
342.76818477273
 20
8.751954540248851
 30
0.0
 10
343.7697700915304
 20
8.019386633154095
 30
0.0
 10
344.9281046783314
 20
6.875117524343374
 30
0.0
 10
345.2563913300109
 20
6.486061012569308
 30
0.0
 10
345.6590276207367
 20
5.890622559416685
 30
0.0
 10
345.7779047849023
 20
5.690499623181037
 30
0.0
 10
345.9829529098654
 20
5.290941585513485
 30
0.0
 10
346.0695141458555
 20
5.090954444984947
 30
0.0
 10
346.4236824130036
 20
4.08999346930363
 30
0.0
 10
346.4578046639113
 20
3.285975483535361
 30
0.0
 10
346.182770095444
 20
2.276811025825186
 30
0.0
 10
346.1114457266975
 20
2.074159840249099
 30
0.0
 10
345.9373469272402
 20
1.671518749847049
 30
0.0
 10
345.8348878515778
 20
1.471989974320083
 30
0.0
 10
345.4825569289774
 20
0.8786306667143904
 30
0.0
 10
345.187833461703
 20
0.4900152847454112
 30
0.0
 10
344.6590183982985
 20
-0.0828232193893497
 30
0.0
 10
344.4682649803094
 20
-0.2720855152315987
 30
0.0
 10
344.1605678879765
 20
-0.5534712466551406
 30
0.0
 10
344.0536456631896
 20
-0.6467599325300013
 30
0.0
 10
343.841822326449
 20
-0.8335723104361537
 30
0.0
 10
343.3122639030984
 20
-1.300603245577209
 30
0.0
 10
336.0043510425371
 20
-7.745629385040067
 30
0.0
 10
328.8022735332124
 20
-14.09724042763695
 30
0.0
 10
318.6346246574122
 20
-23.0642191654734
 30
0.0
 10
313.5507970068123
 20
-27.54770812962639
 30
0.0
 10
307.6196745294993
 20
-32.77844648685968
 30
0.0
 10
304.654117608495
 20
-35.39381620945149
 30
0.0
 10
303.171340467241
 20
-36.70150123695756
 30
0.0
 10
302.4299522569668
 20
-37.35534379611075
 30
0.0
 10
302.0592582457767
 20
-37.68226508752419
 30
0.0
 10
301.8739112641526
 20
-37.84572573624882
 30
0.0
 10
301.794476848646
 20
-37.9157803006437
 30
0.0
 10
301.7415205728004
 20
-37.96248334371884
 30
0.0
 10
301.7155911291262
 20
-37.98535096299781
 30
0.0
 10
301.6885642986958
 20
-38.00918638701341
 30
0.0
  0
VIEWPORT
  5
10E
330
F7
100
AcDbEntity
  8
0
100
AcDbViewport
 10
0.0
 20
0.0
 30
0.0
 40
205.6
 41
156.0
 68
     1
 69
     1
 12
-0.0000081119
 22
0.0000061269
 13
0.0
 23
0.0
 14
10.0
 24
10.0
 15
10.0
 25
10.0
 16
0.0
 26
0.0
 36
1.0
 17
0.0
 27
0.0
 37
0.0
 42
50.0
 43
0.0
 44
0.0
 45
499.21381672
 50
0.0
 51
0.0
 72
   100
 90
   557152
  1

281
     0
 71
     1
 74
     0
110
0.0
120
0.0
130
0.0
111
1.0
121
0.0
131
0.0
112
0.0
122
1.0
132
0.0
 79
     0
146
0.0
170
     0
 61
     5
348
2F
292
     1
282
     1
141
0.0
142
0.0
 63
   256
361
10F
  0
ENDBLK
  5
FA
330
F7
100
AcDbEntity
  8
0
100
AcDbBlockEnd
  0
ENDSEC
  0
SECTION
  2
ENTITIES
  0
LWPOLYLINE
  5
73
330
1F
100
AcDbEntity
  8
0
  6
Continuous
 62
     7
370
    25
100
AcDbPolyline
 90
       61
 70
   128
 43
0.0
 10
-307.5
 20
0.0
 10
-307.5
 20
110.1537251488
 10
-307.5
 20
115.3171810152
 10
-307.4943573691
 20
120.479303444
 10
-306.7530860595
 20
125.4290293799
 10
-304.8756987067
 20
129.9046429721
 10
-302.0188027924
 20
133.7495367388
 10
-298.3390057983
 20
136.8071031984
 10
-293.9929152062
 20
138.9207348693
 10
-289.1371384977
 20
139.9338242696
 10
-281.4427677553
 20
140.0
 10
-273.7320069949
 20
140.0
 10
-266.0212462345
 20
140.0
 10
-247.8458815849
 20
140.0
 10
-165.2305877233
 20
140.0
 10
0.0
 20
140.0
 10
165.2305877233
 20
140.0
 10
247.8458815849
 20
140.0
 10
270.9781638662
 20
140.0
 10
277.0366187493
 20
140.0
 10
283.0950736325
 20
140.0
 10
289.1371384977
 20
139.9338242696
 10
293.9929152062
 20
138.9207348693
 10
298.3390057983
 20
136.8071031984
 10
302.0188027924
 20
133.7495367388
 10
304.8756987067
 20
129.904642972
 10
306.7530860595
 20
125.4290293799
 10
307.4943573691
 20
120.479303444
 10
307.5
 20
115.3171810152
 10
307.5
 20
110.1537251488
 10
307.5
 20
0.0
 10
307.5
 20
-110.1537251488
 10
307.5
 20
-115.3171810152
 10
307.4943573691
 20
-120.479303444
 10
306.7530860595
 20
-125.4290293799
 10
304.8756987067
 20
-129.9046429721
 10
302.0188027924
 20
-133.7495367388
 10
298.3390057983
 20
-136.8071031984
 10
293.9929152062
 20
-138.9207348693
 10
289.1371384977
 20
-139.9338242696
 10
281.4427677553
 20
-140.0
 10
273.7320069949
 20
-140.0
 10
266.0212462345
 20
-140.0
 10
247.8458815849
 20
-140.0
 10
165.2305877233
 20
-140.0
 10
0.0
 20
-140.0
 10
-165.2305877233
 20
-140.0
 10
-247.8458815849
 20
-140.0
 10
-270.9781638662
 20
-140.0
 10
-277.0366187493
 20
-140.0
 10
-283.0950736325
 20
-140.0
 10
-289.1371384977
 20
-139.9338242696
 10
-293.9929152062
 20
-138.9207348693
 10
-298.3390057983
 20
-136.8071031984
 10
-302.0188027924
 20
-133.7495367388
 10
-304.8756987067
 20
-129.9046429721
 10
-306.7530860595
 20
-125.4290293799
 10
-307.4943573691
 20
-120.479303444
 10
-307.5
 20
-115.3171810152
 10
-307.5
 20
-110.1537251488
 10
-307.5
 20
0.0
  0
CIRCLE
  5
74
330
1F
100
AcDbEntity
  8
0
  6
Continuous
 62
     7
370
    25
100
AcDbCircle
 10
0.0
 20
40.0
 30
0.0
 40
33.00000000004943
  0
SPLINE
  5
75
330
1F
100
AcDbEntity
  8
0
  6
Continuous
 62
     7
370
    25
100
AcDbSpline
210
0.0
220
0.0
230
1.0
 70
    11
 71
     3
 72
   215
 73
   211
 74
     0
 42
0.000000001
 43
0.00000001
 40
0.0
 40
0.0
 40
0.0
 40
0.0
 40
0.0624999999999975
 40
0.0624999999999975
 40
0.0634765624999974
 40
0.0634765624999974
 40
0.0644531249999974
 40
0.0644531249999974
 40
0.0664062499999973
 40
0.0664062499999973
 40
0.0703124999999972
 40
0.0703124999999972
 40
0.0712890624999972
 40
0.0712890624999972
 40
0.0722656249999972
 40
0.0722656249999972
 40
0.0742187499999973
 40
0.0742187499999973
 40
0.0781249999999973
 40
0.0781249999999973
 40
0.0800781249999974
 40
0.0800781249999974
 40
0.0820312499999975
 40
0.0820312499999975
 40
0.0839843749999975
 40
0.0839843749999975
 40
0.0849609374999976
 40
0.0849609374999976
 40
0.0859374999999976
 40
0.0859374999999976
 40
0.0898437499999977
 40
0.0898437499999977
 40
0.0917968749999978
 40
0.0917968749999978
 40
0.0927734374999979
 40
0.0927734374999979
 40
0.093749999999998
 40
0.093749999999998
 40
0.1249999999999995
 40
0.1249999999999995
 40
0.1875000000000025
 40
0.1875000000000025
 40
0.2500000000000055
 40
0.2500000000000055
 40
0.3125000000000085
 40
0.3125000000000085
 40
0.3750000000000115
 40
0.3750000000000115
 40
0.3906250000000122
 40
0.3984375000000125
 40
0.4003906250000127
 40
0.4003906250000127
 40
0.4008789062500127
 40
0.4008789062500127
 40
0.4013671875000127
 40
0.4013671875000127
 40
0.4023437500000127
 40
0.4023437500000127
 40
0.4062500000000128
 40
0.4062500000000128
 40
0.4072265625000129
 40
0.4072265625000129
 40
0.4082031250000129
 40
0.4082031250000129
 40
0.410156250000013
 40
0.410156250000013
 40
0.4140625000000133
 40
0.4140625000000133
 40
0.4150390625000133
 40
0.4150390625000133
 40
0.4160156250000133
 40
0.4160156250000133
 40
0.4179687500000134
 40
0.4179687500000134
 40
0.4199218750000135
 40
0.4199218750000135
 40
0.4208984375000135
 40
0.4208984375000135
 40
0.4218750000000135
 40
0.4218750000000135
 40
0.4257812500000135
 40
0.4257812500000135
 40
0.4267578125000136
 40
0.4267578125000136
 40
0.4277343750000136
 40
0.4277343750000136
 40
0.4296875000000136
 40
0.4296875000000136
 40
0.4301757812500136
 40
0.4301757812500136
 40
0.4306640625000136
 40
0.4306640625000136
 40
0.4316406250000136
 40
0.4335937500000137
 40
0.4375000000000138
 40
0.5000000000000154
 40
0.5000000000000154
 40
0.5312500000000163
 40
0.5468750000000167
 40
0.5546875000000169
 40
0.558593750000017
 40
0.559570312500017
 40
0.559570312500017
 40
0.5605468750000171
 40
0.5605468750000171
 40
0.5625000000000171
 40
0.5625000000000171
 40
0.5664062500000173
 40
0.5664062500000173
 40
0.5673828125000172
 40
0.5673828125000172
 40
0.5683593750000172
 40
0.5683593750000172
 40
0.5703125000000172
 40
0.5703125000000172
 40
0.5722656250000173
 40
0.5722656250000173
 40
0.5732421875000172
 40
0.5732421875000172
 40
0.5742187500000172
 40
0.5742187500000172
 40
0.5781250000000171
 40
0.5781250000000171
 40
0.5791015625000171
 40
0.5791015625000171
 40
0.5800781250000171
 40
0.5800781250000171
 40
0.582031250000017
 40
0.582031250000017
 40
0.5859375000000168
 40
0.5859375000000168
 40
0.5869140625000167
 40
0.5869140625000167
 40
0.5878906250000167
 40
0.5878906250000167
 40
0.5898437500000165
 40
0.5898437500000165
 40
0.5903320312500165
 40
0.5903320312500165
 40
0.5908203125000165
 40
0.5917968750000163
 40
0.5937500000000162
 40
0.6250000000000125
 40
0.6250000000000125
 40
0.6875000000000052
 40
0.6875000000000052
 40
0.7499999999999979
 40
0.7499999999999979
 40
0.8124999999999907
 40
0.8124999999999907
 40
0.8749999999999833
 40
0.8749999999999833
 40
0.8906249999999815
 40
0.8984374999999806
 40
0.9023437499999801
 40
0.9042968749999799
 40
0.9047851562499799
 40
0.9047851562499799
 40
0.9052734374999799
 40
0.9052734374999799
 40
0.9062499999999799
 40
0.9062499999999799
 40
0.9101562499999805
 40
0.9101562499999805
 40
0.9111328124999807
 40
0.9111328124999807
 40
0.9121093749999808
 40
0.9121093749999808
 40
0.914062499999981
 40
0.914062499999981
 40
0.9160156249999813
 40
0.9160156249999813
 40
0.9169921874999813
 40
0.9169921874999813
 40
0.9179687499999815
 40
0.9179687499999815
 40
0.9218749999999822
 40
0.9218749999999822
 40
0.9238281249999826
 40
0.9238281249999826
 40
0.9248046874999828
 40
0.9248046874999828
 40
0.9257812499999829
 40
0.9257812499999829
 40
0.9296874999999838
 40
0.9296874999999838
 40
0.9306640624999839
 40
0.9306640624999839
 40
0.9316406249999841
 40
0.9316406249999841
 40
0.9335937499999846
 40
0.9335937499999846
 40
0.9345703124999848
 40
0.9345703124999848
 40
0.9350585937499849
 40
0.9350585937499849
 40
0.935546874999985
 40
0.9374999999999855
 40
0.9687499999999927
 40
0.9687499999999927
 40
0.9843749999999964
 40
0.9921874999999982
 40
0.9960937499999991
 40
0.9980468749999997
 40
0.9990234374999998
 40
0.9995117187499999
 40
0.999755859375
 40
0.9998779296875
 40
0.9998779296875
 40
1.0
 40
1.0
 40
1.0
 40
1.0
 10
322.5186414504133
 20
0.0000000000000979
 30
0.0
 10
322.5186414504132
 20
-39.13903119498443
 30
0.0
 10
322.5188255742282
 20
-78.2780627785905
 30
0.0
 10
322.5187141442139
 20
-118.0286408366418
 30
0.0
 10
322.5187123510358
 20
-118.6401881909035
 30
0.0
 10
322.5187086015858
 20
-119.86328289844
 30
0.0
 10
322.5209193507503
 20
-120.4748436449904
 30
0.0
 10
322.4648401072838
 20
-122.3091462985273
 30
0.0
 10
322.3629068396321
 20
-123.53645405114
 30
0.0
 10
321.8698324878118
 20
-127.1602328950565
 30
0.0
 10
321.2949682336554
 20
-129.5110503830652
 30
0.0
 10
320.2713003823936
 20
-132.3689646861389
 30
0.0
 10
320.0511722947591
 20
-132.936480142157
 30
0.0
 10
319.5796070474605
 20
-134.0632388453068
 30
0.0
 10
319.3273674959153
 20
-134.6240379999887
 30
0.0
 10
318.5309112352677
 20
-136.2769318600019
 30
0.0
 10
317.9463065971785
 20
-137.3424773627587
 30
0.0
 10
316.0367819440125
 20
-140.4334838604976
 30
0.0
 10
314.5579013107756
 20
-142.3545020801598
 30
0.0
 10
312.0199923687771
 20
-145.0192294431605
 30
0.0
 10
311.1334768738025
 20
-145.857020032258
 30
0.0
 10
309.2873833503446
 20
-147.4300392571668
 30
0.0
 10
308.326942914422
 20
-148.166153639687
 30
0.0
 10
306.3315031074772
 20
-149.5378997760751
 30
0.0
 10
305.2965075659372
 20
-150.1735366909129
 30
0.0
 10
303.6863812996142
 20
-151.0493204774829
 30
0.0
 10
303.1385929123028
 20
-151.3289028979724
 30
0.0
 10
302.0353366362056
 20
-151.85587442669
 30
0.0
 10
301.4789171696874
 20
-152.1038767951133
 30
0.0
 10
298.6732830843414
 20
-153.2678285498671
 30
0.0
 10
296.3541585749714
 20
-153.9578609442818
 30
0.0
 10
292.7628248408431
 20
-154.6288857271076
 30
0.0
 10
291.5416366979258
 20
-154.7913941031074
 30
0.0
 10
289.7156814002974
 20
-154.9376106180497
 30
0.0
 10
289.1069269455041
 20
-154.9703967606976
 30
0.0
 10
287.8892151989198
 20
-155.0044583726813
 30
0.0
 10
287.280229056678
 20
-155.0012519322614
 30
0.0
 10
267.1843701107658
 20
-155.0016594790219
 30
0.0
 10
247.6974778775707
 20
-155.0021861748408
 30
0.0
 10
189.2368017490781
 20
-155.0044270390714
 30
0.0
 10
150.2630177408813
 20
-155.0070076685106
 30
0.0
 10
72.31544987895377
 20
-155.0143358729929
 30
0.0
 10
33.34166590134404
 20
-155.0190564559769
 30
0.0
 10
-44.60590170546838
 20
-155.018161468616
 30
0.0
 10
-83.57968534170661
 20
-155.013138116355
 30
0.0
 10
-161.5272527252543
 20
-155.0061317540121
 30
0.0
 10
-200.5010364737414
 20
-155.0038552537768
 30
0.0
 10
-249.2182662369384
 20
-155.0021929657947
 30
0.0
 10
-263.8334352395558
 20
-155.0017702891734
 30
0.0
 10
-279.6665350854697
 20
-155.0014084414775
 30
0.0
 10
-285.7561888854385
 20
-155.0012827640602
 30
0.0
 10
-287.2786023360629
 20
-155.0012519977233
 30
0.0
 10
-287.5830862223163
 20
-155.0024801657824
 30
0.0
 10
-288.19204530736
 20
-154.9959716459504
 30
0.0
 10
-288.4965210408475
 20
-154.9887867280657
 30
0.0
 10
-289.4099367602119
 20
-154.9553842844946
 30
0.0
 10
-290.0185510280112
 20
-154.9172625724957
 30
0.0
 10
-293.0385413874635
 20
-154.6495121770673
 30
0.0
 10
-295.3995973046535
 20
-154.1901673556322
 30
0.0
 10
-298.2829850202644
 20
-153.3128501596886
 30
0.0
 10
-298.8562358586593
 20
-153.1220956150099
 30
0.0
 10
-299.9957772860661
 20
-152.709527559096
 30
0.0
 10
-300.5634322075218
 20
-152.4871275272111
 30
0.0
 10
-302.2458826609778
 20
-151.7764591383474
 30
0.0
 10
-303.3334147470143
 20
-151.2481001935433
 30
0.0
 10
-306.4973236978572
 20
-149.505072909409
 30
0.0
 10
-308.4760829126057
 20
-148.134166122057
 30
0.0
 10
-310.7821663794006
 20
-146.1526616736992
 30
0.0
 10
-311.2347877580527
 20
-145.7427867682741
 30
0.0
 10
-312.1125666264492
 20
-144.9055339280078
 30
0.0
 10
-312.539106471409
 20
-144.4770063775956
 30
0.0
 10
-313.7822878363115
 20
-143.1622098746998
 30
0.0
 10
-314.5625900791978
 20
-142.2468063567318
 30
0.0
 10
-316.026994821253
 20
-140.3388723672621
 30
0.0
 10
-316.7111001897541
 20
-139.3463441962126
 30
0.0
 10
-317.6632748932696
 20
-137.7982367053324
 30
0.0
 10
-317.9689205982743
 20
-137.2711623826692
 30
0.0
 10
-318.5520619633574
 20
-136.201898864746
 30
0.0
 10
-318.8284293917736
 20
-135.6619314225706
 30
0.0
 10
-320.1357473190278
 20
-132.9359411973189
 30
0.0
 10
-320.945378285975
 20
-130.6722448516287
 30
0.0
 10
-321.6625377383835
 20
-127.7391345820848
 30
0.0
 10
-321.7910874791096
 20
-127.1472895386765
 30
0.0
 10
-322.0178743685564
 20
-125.9529610459652
 30
0.0
 10
-322.1160737646852
 20
-125.349979383223
 30
0.0
 10
-322.3618120508013
 20
-123.5455720281713
 30
0.0
 10
-322.4620407287235
 20
-122.3419552567958
 30
0.0
 10
-322.5102613449315
 20
-120.8366120594931
 30
0.0
 10
-322.5160437319846
 20
-120.5355022179644
 30
0.0
 10
-322.519913140512
 20
-119.933200430632
 30
0.0
 10
-322.5187093066235
 20
-119.6320160509185
 30
0.0
 10
-322.518712086794
 20
-118.7285014736851
 30
0.0
 10
-322.5187174096305
 20
-116.9214723166847
 30
0.0
 10
-322.5187283714728
 20
-112.7050709398064
 30
0.0
 10
-322.5188046048575
 20
-70.54105670620073
 30
0.0
 10
-322.5186211597855
 20
-29.58172681216099
 30
0.0
 10
-322.5186557663182
 20
28.24320854140487
 30
0.0
 10
-322.5187233667075
 20
57.1556762181874
 30
0.0
 10
-322.5187555529118
 20
90.88688850636662
 30
0.0
 10
-322.5187392452404
 20
107.752494653141
 30
0.0
 10
-322.5187212990009
 20
115.5829546386275
 30
0.0
 10
-322.5187124855672
 20
118.5946700158347
 30
0.0
 10
-322.5187088021278
 20
119.7993561665663
 30
0.0
 10
-322.5216523837669
 20
120.4017020569229
 30
0.0
 10
-322.4706294970102
 20
122.2086825248417
 30
0.0
 10
-322.375146612257
 20
123.4027571834195
 30
0.0
 10
-321.9097800896903
 20
126.945770439768
 30
0.0
 10
-321.3625564973918
 20
129.2595582210789
 30
0.0
 10
-320.3752155220833
 20
132.0900744615944
 30
0.0
 10
-320.1617464300737
 20
132.6546980016683
 30
0.0
 10
-319.7076553588054
 20
133.767604943383
 30
0.0
 10
-319.4671208528112
 20
134.3160015827622
 30
0.0
 10
-318.7058783801259
 20
135.9375155368018
 30
0.0
 10
-318.1456331089274
 20
136.9870176020403
 30
0.0
 10
-316.9214990286666
 20
139.0241164501991
 30
0.0
 10
-316.2576122046076
 20
140.011714418743
 30
0.0
 10
-315.1829711910442
 20
141.4460384567423
 30
0.0
 10
-314.8115966310281
 20
141.9162855978554
 30
0.0
 10
-314.042015697823
 20
142.8407534976965
 30
0.0
 10
-313.6444474071915
 20
143.2940541937562
 30
0.0
 10
-311.6122136074235
 20
145.4950603819577
 30
0.0
 10
-309.8295954722414
 20
147.0682403514407
 30
0.0
 10
-307.4082282643208
 20
148.8037065383389
 30
0.0
 10
-306.9142015428768
 20
149.1391314331304
 30
0.0
 10
-305.9063160309208
 20
149.7862551142224
 30
0.0
 10
-305.3912885659692
 20
150.0986137599938
 30
0.0
 10
-303.8239168100039
 20
150.9945692024125
 30
0.0
 10
-302.7569985661937
 20
151.5331323154186
 30
0.0
 10
-299.49226680112
 20
152.9780305093695
 30
0.0
 10
-297.2310877487524
 20
153.7152068938459
 30
0.0
 10
-294.295739504231
 20
154.3460295067771
 30
0.0
 10
-293.7021601912821
 20
154.4576069375008
 30
0.0
 10
-292.5175557592252
 20
154.6487964237616
 30
0.0
 10
-291.9249882640467
 20
154.7287958630909
 30
0.0
 10
-290.1465065101403
 20
154.9229823371124
 30
0.0
 10
-288.9598146078783
 20
154.9914530493099
 30
0.0
 10
-287.475181359729
 20
155.002476135244
 30
0.0
 10
-287.1781964207376
 20
155.0012540213523
 30
0.0
 10
-286.5842683239315
 20
155.0012660369588
 30
0.0
 10
-285.6933761803084
 20
155.0012841536216
 30
0.0
 10
-283.6146278595492
 20
155.0013270711279
 30
0.0
 10
-262.8271448110416
 20
155.0017699082529
 30
0.0
 10
-242.6335930482685
 20
155.0023498140716
 30
0.0
 10
-185.6165034625289
 20
155.004639186738
 30
0.0
 10
-147.6051104711141
 20
155.0072384917599
 30
0.0
 10
-71.58232459573237
 20
155.0144247348597
 30
0.0
 10
-33.57093166171333
 20
155.0189664022338
 30
0.0
 10
42.45185424414546
 20
155.0182760298629
 30
0.0
 10
80.46324720267584
 20
155.013483437989
 30
0.0
 10
156.4860331607036
 20
155.0065264148856
 30
0.0
 10
194.497426237651
 20
155.0041662062546
 30
0.0
 10
242.0116676286968
 20
155.0024233750439
 30
0.0
 10
256.2659402772193
 20
155.0019770621621
 30
0.0
 10
272.8959241699052
 20
155.0015617943656
 30
0.0
 10
281.210917225053
 20
155.0013773785417
 30
0.0
 10
285.0714500886882
 20
155.0012968096915
 30
0.0
 10
286.5562704788254
 20
155.0012666054229
 30
0.0
 10
287.1501986394809
 20
155.0012545859061
 30
0.0
 10
287.4472506445413
 20
155.0024372667181
 30
0.0
 10
288.3377073638094
 20
154.9965312404918
 30
0.0
 10
288.9302416048195
 20
154.9776742487631
 30
0.0
 10
291.8873995600036
 20
154.8088534007879
 30
0.0
 10
294.2356401606866
 20
154.4373995042996
 30
0.0
 10
297.1476808624179
 20
153.6586199761329
 30
0.0
 10
297.7289156851561
 20
153.4870015078282
 30
0.0
 10
298.8889574159675
 20
153.1109405956882
 30
0.0
 10
299.4663964721831
 20
152.9068004108883
 30
0.0
 10
301.1697586452731
 20
152.253995185475
 30
0.0
 10
302.2749184756146
 20
151.7625104421441
 30
0.0
 10
304.4259986773044
 20
150.6699214693609
 30
0.0
 10
305.4719179098334
 20
150.0688151325851
 30
0.0
 10
306.9961233680775
 20
149.0844898806686
 30
0.0
 10
307.4967315549741
 20
148.7425765742431
 30
0.0
 10
308.4828011733337
 20
148.0307216914679
 30
0.0
 10
308.9695833002886
 20
147.659695483095
 30
0.0
 10
311.347428030854
 20
145.7469654084223
 30
0.0
 10
313.0613309097146
 20
144.0453157025434
 30
0.0
 10
315.3585343700388
 20
141.243751599606
 30
0.0
 10
316.0782751604721
 20
140.2680313297069
 30
0.0
 10
317.0864647753393
 20
138.7394397400281
 30
0.0
 10
317.4099266081245
 20
138.2198755673489
 30
0.0
 10
318.0255268628561
 20
137.1711140645315
 30
0.0
 10
318.3186158796993
 20
136.6405055616385
 30
0.0
 10
319.7115893983641
 20
133.9567831811424
 30
0.0
 10
320.5962976963114
 20
131.7125773413718
 30
0.0
 10
321.4094069622
 20
128.7833772006697
 30
0.0
 10
321.5576331657109
 20
128.1894717490297
 30
0.0
 10
321.8218440190662
 20
126.9980097703005
 30
0.0
 10
321.9376345550667
 20
126.4018587789416
 30
0.0
 10
322.2374117404092
 20
124.6121805589877
 30
0.0
 10
322.373912038603
 20
123.4174308666569
 30
0.0
 10
322.4868378277335
 20
121.622942442283
 30
0.0
 10
322.509147323081
 20
121.0243849240004
 30
0.0
 10
322.5197776866981
 20
120.1259608231564
 30
0.0
 10
322.5187086972352
 20
119.8263673825352
 30
0.0
 10
322.5187105579191
 20
119.2272355881994
 30
0.0
 10
322.5187151231858
 20
117.7294061005529
 30
0.0
 10
322.5187711210734
 20
97.05935897923368
 30
0.0
 10
322.5187453522086
 20
76.68887577066987
 30
0.0
 10
322.5186979298321
 20
47.93054735667859
 30
0.0
 10
322.5186707841218
 20
33.55138314968708
 30
0.0
 10
322.51864957123
 20
16.77569157485128
 30
0.0
 10
322.5186435805502
 20
8.387845787428105
 30
0.0
 10
322.518641995547
 20
4.193922893714065
 30
0.0
 10
322.5186415882787
 20
2.096961446857132
 30
0.0
 10
322.5186414850778
 20
1.048480723429573
 30
0.0
 10
322.5186414591041
 20
0.5242403617138363
 30
0.0
 10
322.5186414535198
 20
0.2995659209799134
 30
0.0
 10
322.5186414510358
 20
0.1497829604900906
 30
0.0
 10
322.5186414504133
 20
0.0764434203028052
 30
0.0
 10
322.5186414504133
 20
0.000000000000098
 30
0.0
  0
CIRCLE
  5
76
330
1F
100
AcDbEntity
  8
0
  6
Continuous
 62
     7
370
    25
100
AcDbCircle
 10
0.0
 20
40.0
 30
0.0
 40
23.00000000000001
  0
SPLINE
  5
77
330
1B
100
AcDbEntity
 67
     1
  8
0
  6
Continuous
 62
     7
370
    25
100
AcDbSpline
210
0.0
220
0.0
230
1.0
 70
     8
 71
     3
 72
   144
 73
   140
 74
     0
 42
0.000000001
 43
0.00000001
 40
0.0
 40
0.0
 40
0.0
 40
0.0
 40
0.0051073790958819
 40
0.0092616038267692
 40
0.0128571121872918
 40
0.0161872117076707
 40
0.0193226194194456
 40
0.0222761356974898
 40
0.0286098930666055
 40
0.0343235125892985
 40
0.0403433923886485
 40
0.0467037780152207
 40
0.0528715625907446
 40
0.0579385450879955
 40
0.062011198706681
 40
0.0651352119098454
 40
0.0679050123645969
 40
0.0708200995775985
 40
0.0738847836920769
 40
0.0770994244948975
 40
0.0804655832618488
 40
0.0839928315916341
 40
0.0912589735219816
 40
0.0987727012534125
 40
0.1066195383007238
 40
0.1143410932279328
 40
0.1192703984487175
 40
0.1240258010291337
 40
0.1284554111253588
 40
0.1322095950893035
 40
0.135210714447686
 40
0.137629421212142
 40
0.1394665229673023
 40
0.1414751267514942
 40
0.1437510614930995
 40
0.1463634616871143
 40
0.1504871430077541
 40
0.1553915481733847
 40
0.1611395370137517
 40
0.1675194166991259
 40
0.1738121388319045
 40
0.1857961893518937
 40
0.19729346414866
 40
0.2029190773756854
 40
0.2083773532233122
 40
0.2135724934337358
 40
0.2173296552207411
 40
0.220986303711535
 40
0.2245577353226555
 40
0.2280729319664011
 40
0.2315448493435315
 40
0.2349814509286874
 40
0.2417706141743349
 40
0.2485206621269279
 40
0.255089864402364
 40
0.261670973501466
 40
0.2680971081524375
 40
0.2743666360222292
 40
0.2805562863346227
 40
0.2868246591463946
 40
0.3019310575657872
 40
0.3175038388916468
 40
0.3366540342758224
 40
0.3564724052566716
 40
0.3769610641182649
 40
0.4053024943508055
 40
0.4346126602740787
 40
0.4649046609937002
 40
0.4961920672634055
 40
0.5160016435229181
 40
0.5361990273114181
 40
0.556787545127591
 40
0.5769352146946629
 40
0.5958668464500505
 40
0.6135943238058709
 40
0.6301280410572203
 40
0.645476827716643
 40
0.6567100630026129
 40
0.6672189869893151
 40
0.6770056511120509
 40
0.6864578935018034
 40
0.696918262867393
 40
0.7084980540115535
 40
0.72119192543073
 40
0.7349925510228382
 40
0.7405071509971352
 40
0.7461786160917061
 40
0.7518478231193844
 40
0.7559789017753539
 40
0.7600325900026207
 40
0.7640301829369817
 40
0.7679878784922448
 40
0.7719184644249265
 40
0.775832860813628
 40
0.7797417554502707
 40
0.7836571190878161
 40
0.7875935556973002
 40
0.7915694220849113
 40
0.7956076399690403
 40
0.7997142697606343
 40
0.8106014614792385
 40
0.8213073234223215
 40
0.8313142453025221
 40
0.8383415008632277
 40
0.8450109576960444
 40
0.8492786143513807
 40
0.8534160434001496
 40
0.8573299973983082
 40
0.8599447696451524
 40
0.8623942873353853
 40
0.864827117263963
 40
0.8673884843650439
 40
0.8711858450418568
 40
0.8754748376313859
 40
0.8802022104086706
 40
0.8879412418809841
 40
0.8955826462377332
 40
0.9030536072554051
 40
0.9102796164691518
 40
0.9140394033967543
 40
0.9175145299203336
 40
0.9207103819612232
 40
0.9236374853213625
 40
0.9269289507837918
 40
0.9313290756320364
 40
0.936873891515563
 40
0.9411513276845695
 40
0.9459745876402129
 40
0.9514143838787701
 40
0.9573292635530388
 40
0.9622695355777193
 40
0.9673780695681374
 40
0.9745806651863439
 40
0.9827613037588941
 40
0.9855986463810228
 40
0.9885815479836695
 40
0.9918219772048178
 40
0.995542813904718
 40
1.0
 40
1.0
 40
1.0
 40
1.0
 10
-322.4813816877434
 20
-0.7471296581891342
 30
0.0
 10
-322.402927666963
 20
-2.31994061220938
 30
0.0
 10
-322.2606609494462
 20
-5.172039835132495
 30
0.0
 10
-322.0629175339228
 20
-9.131359088885786
 30
0.0
 10
-321.8923364976226
 20
-12.54336022306499
 30
0.0
 10
-321.7373316872452
 20
-15.6416149010194
 30
0.0
 10
-321.592126236922
 20
-18.54216360646866
 30
0.0
 10
-321.4006317123395
 20
-22.36768730025074
 30
0.0
 10
-321.16874753815
 20
-26.98705685342889
 30
0.0
 10
-320.8921818952999
 20
-32.5511405298505
 30
0.0
 10
-320.6061867469159
 20
-38.12176812977943
 30
0.0
 10
-320.3509727718851
 20
-43.83887843070077
 30
0.0
 10
-319.5520378752038
 20
-49.21502907955209
 30
0.0
 10
-318.483017516491
 20
-53.81594186172367
 30
0.0
 10
-317.376652853713
 20
-57.43435524594703
 30
0.0
 10
-316.3208126983456
 20
-60.32139208089719
 30
0.0
 10
-315.2757393793734
 20
-62.82918345095423
 30
0.0
 10
-314.1327010519206
 20
-65.27378192619554
 30
0.0
 10
-312.8172193111488
 20
-67.78616337462793
 30
0.0
 10
-311.3140864455459
 20
-70.35367551629388
 30
0.0
 10
-309.6078034045541
 20
-72.96339341453469
 30
0.0
 10
-307.0325299878158
 20
-76.49087425652475
 30
0.0
 10
-303.3375928773203
 20
-80.77417631601199
 30
0.0
 10
-298.217344558194
 20
-85.5337268069599
 30
0.0
 10
-292.4751263101851
 20
-89.7650682125117
 30
0.0
 10
-286.9805281235598
 20
-92.91679689858047
 30
0.0
 10
-282.0954442334863
 20
-95.14894423553636
 30
0.0
 10
-278.0162995665072
 20
-96.6768512386192
 30
0.0
 10
-274.1946552114889
 20
-97.82601535798061
 30
0.0
 10
-270.8327118126874
 20
-98.62304183328983
 30
0.0
 10
-268.0640903518572
 20
-99.13973436899114
 30
0.0
 10
-265.8147183385975
 20
-99.46682781385334
 30
0.0
 10
-264.1008348328509
 20
-99.66462651933409
 30
0.0
 10
-262.7168517825264
 20
-99.79225631856616
 30
0.0
 10
-261.4969675351149
 20
-99.8792823194331
 30
0.0
 10
-260.2938865609079
 20
-99.94326877374847
 30
0.0
 10
-259.2387068880572
 20
-99.97902573137638
 30
0.0
 10
-258.4323859043325
 20
-99.99430353941224
 30
0.0
 10
-257.9791868929651
 20
-99.9983717981544
 30
0.0
 10
-257.8248087867295
 20
-99.99926000936121
 30
0.0
 10
-257.5443535023096
 20
-100.0002148236413
 30
0.0
 10
-257.3416121487051
 20
-99.99992945524065
 30
0.0
 10
-257.1875519117254
 20
-100.000008403124
 30
0.0
 10
-257.1157818180695
 20
-99.99999848713996
 30
0.0
 10
-257.0350034721811
 20
-100.0000003829493
 30
0.0
 10
-256.1155322139887
 20
-99.999999929922
 30
0.0
 10
-254.8266877482558
 20
-100.0000000156892
 30
0.0
 10
-253.3438776133952
 20
-99.99999999594988
 30
0.0
 10
-251.5786434765265
 20
-100.0000000010559
 30
0.0
 10
-249.548616039672
 20
-99.99999999972319
 30
0.0
 10
-247.2830842938756
 20
-100.0000000000713
 30
0.0
 10
-244.0030010035823
 20
-99.9999999999595
 30
0.0
 10
-239.4353624147799
 20
-100.0000000000136
 30
0.0
 10
-233.4939439020622
 20
-99.99999999999642
 30
0.0
 10
-227.3462303365175
 20
-100.000000000001
 30
0.0
 10
-221.3135421502064
 20
-99.99999999999976
 30
0.0
 10
-215.369359446331
 20
-100.0
 30
0.0
 10
-209.5470163816347
 20
-100.0000000000001
 30
0.0
 10
-203.7731620918392
 20
-100.0
 30
0.0
 10
-195.2748766008679
 20
-100.0000000000001
 30
0.0
 10
-183.8836471466766
 20
-100.0000000000001
 30
0.0
 10
-168.5207455259656
 20
-100.0000000000002
 30
0.0
 10
-151.7049276742728
 20
-100.0000000000002
 30
0.0
 10
-133.3732711779713
 20
-100.0000000000003
 30
0.0
 10
-112.2075638219757
 20
-100.0000000000003
 30
0.0
 10
-88.11505998251725
 20
-100.0000000000004
 30
0.0
 10
-60.9996639085829
 20
-100.0000000000005
 30
0.0
 10
-32.97573536129628
 20
-100.0000000000005
 30
0.0
 10
-7.881007181514399
 20
-100.0000000000004
 30
0.0
 10
14.10127570535886
 20
-100.0000000000005
 30
0.0
 10
32.78477346567207
 20
-100.0000000000005
 30
0.0
 10
51.57252161633846
 20
-100.0000000000006
 30
0.0
 10
69.96999330614543
 20
-100.0000000000005
 30
0.0
 10
87.48518932883539
 20
-100.0000000000005
 30
0.0
 10
103.8858453665948
 20
-100.0000000000005
 30
0.0
 10
119.1814227365961
 20
-100.0000000000004
 30
0.0
 10
132.4742023606576
 20
-100.0000000000005
 30
0.0
 10
143.9089328228041
 20
-100.0000000000003
 30
0.0
 10
153.6283927118891
 20
-100.0000000000004
 30
0.0
 10
162.7981255307892
 20
-100.0000000000003
 30
0.0
 10
171.9522079028724
 20
-100.0000000000003
 30
0.0
 10
181.660967169387
 20
-100.0000000000003
 30
0.0
 10
192.3697035431369
 20
-100.0000000000001
 30
0.0
 10
204.1090940515211
 20
-100.0000000000002
 30
0.0
 10
213.9777353628395
 20
-100.0000000000001
 30
0.0
 10
221.6831298025961
 20
-100.0
 30
0.0
 10
226.8765928726056
 20
-100.0000000000001
 30
0.0
 10
231.6591862574088
 20
-99.99999999999977
 30
0.0
 10
235.8280335412798
 20
-100.0000000000007
 30
0.0
 10
239.3546385161191
 20
-99.99999999999757
 30
0.0
 10
242.6399967972226
 20
-100.000000000009
 30
0.0
 10
245.6569031762708
 20
-99.99999999996687
 30
0.0
 10
248.3779551799751
 20
-100.0000000001226
 30
0.0
 10
250.7767967133496
 20
-99.99999999954477
 30
0.0
 10
252.8274393646009
 20
-100.0000000016978
 30
0.0
 10
254.5044196710654
 20
-99.99999999363727
 30
0.0
 10
255.7824199308455
 20
-100.0000000239882
 30
0.0
 10
256.6375266131136
 20
-99.99999990889191
 30
0.0
 10
257.0419839354674
 20
-100.0000003483212
 30
0.0
 10
256.9565624825858
 20
-99.99999775082053
 30
0.0
 10
257.0039603606921
 20
-100.0000244901623
 30
0.0
 10
256.9431035792768
 20
-99.99991530136215
 30
0.0
 10
257.2322383800008
 20
-100.0002561556214
 30
0.0
 10
258.1604306884746
 20
-99.99936693215442
 30
0.0
 10
259.2135805699712
 20
-99.98040938327755
 30
0.0
 10
260.3468281184583
 20
-99.93974405602047
 30
0.0
 10
261.4473488506355
 20
-99.8804896240688
 30
0.0
 10
262.5041435197481
 20
-99.80836965401006
 30
0.0
 10
264.0917445151134
 20
-99.6636969157273
 30
0.0
 10
265.8423409660221
 20
-99.45860647867799
 30
0.0
 10
267.9177222016182
 20
-99.15275439661224
 30
0.0
 10
270.5668169440759
 20
-98.66575370841623
 30
0.0
 10
273.7728865060501
 20
-97.92031410687837
 30
0.0
 10
277.5624457014677
 20
-96.80193900641426
 30
0.0
 10
282.4156040859916
 20
-95.01800174886219
 30
0.0
 10
288.0305559709391
 20
-92.35722831336311
 30
0.0
 10
294.0329556454965
 20
-88.6397709610309
 30
0.0
 10
299.4636703389159
 20
-84.38131470117986
 30
0.0
 10
303.543875019959
 20
-80.39752187334031
 30
0.0
 10
306.4717334321889
 20
-77.03214851148405
 30
0.0
 10
308.4495519390838
 20
-74.49413915205058
 30
0.0
 10
310.1507167474139
 20
-72.07120455949386
 30
0.0
 10
311.7091098857169
 20
-69.62116098235408
 30
0.0
 10
313.3362578973245
 20
-66.77852027056294
 30
0.0
 10
315.1568060940741
 20
-63.1226223550841
 30
0.0
 10
316.815607110808
 20
-59.05744285365365
 30
0.0
 10
318.2099320679489
 20
-54.75920007213751
 30
0.0
 10
319.2971095293877
 20
-50.40633705826934
 30
0.0
 10
320.1513590401029
 20
-45.48449161153557
 30
0.0
 10
320.5164676301887
 20
-40.46861269950035
 30
0.0
 10
320.7352543667176
 20
-35.55213069838949
 30
0.0
 10
321.0084759923884
 20
-30.23975777771911
 30
0.0
 10
321.3215728683359
 20
-23.9293514455374
 30
0.0
 10
321.6034355682986
 20
-18.31842014920101
 30
0.0
 10
321.8191114565553
 20
-14.00689885012851
 30
0.0
 10
321.9586790847292
 20
-11.21669479002944
 30
0.0
 10
322.1117185929891
 20
-8.15441543962088
 30
0.0
 10
322.2872988581867
 20
-4.638126584745689
 30
0.0
 10
322.4129171853573
 20
-2.11971459510471
 30
0.0
 10
322.4813816877437
 20
-0.7471296581891342
 30
0.0
  0
SPLINE
  5
7C
330
1B
100
AcDbEntity
 67
     1
  8
0
  6
Continuous
 62
     7
370
    25
100
AcDbSpline
210
0.0
220
0.0
230
1.0
 70
    24
 71
     3
 72
    46
 73
    42
 74
     0
 42
0.000000001
 43
0.00000001
 40
0.0
 40
0.0
 40
0.0
 40
0.0
 40
0.019296248444366
 40
0.0964812422218145
 40
0.1039328338230978
 40
0.1113839416466807
 40
0.1188222375861352
 40
0.1245052314135886
 40
0.1301881156425292
 40
0.1358702811291099
 40
0.1415526556139439
 40
0.1472474657581838
 40
0.1529421189575783
 40
0.1586458059339169
 40
0.1643495120741774
 40
0.1733189054679136
 40
0.1822986355342525
 40
0.1913033633047158
 40
0.2003172083992786
 40
0.2093152560151741
 40
0.3876251700843844
 40
0.5806153659751219
 40
0.6771104631960386
 40
0.6931986825411414
 40
0.7092867925796184
 40
0.7253642799465242
 40
0.7310536921410103
 40
0.7367428720957749
 40
0.7424319969377023
 40
0.7481213285357479
 40
0.7538142787068154
 40
0.7595070861183553
 40
0.7652125206186158
 40
0.7709178813445733
 40
0.7797697434797565
 40
0.7886377202199011
 40
0.7975448383657944
 40
0.8064665483928172
 40
0.815363580732356
 40
0.9906903830148969
 40
1.0
 40
1.0
 40
1.0
 40
1.0
 10
322.5186414504132
 20
0.0
 30
0.0
 10
322.5240087889607
 20
-0.0000000000000069
 30
0.0
 10
322.5508454816982
 20
-0.0000000000000416
 30
0.0
 10
322.1464548731039
 20
0.0000000000005274
 30
0.0
 10
322.6301682749335
 20
0.0000000000001804
 30
0.0
 10
322.7784690095766
 20
-0.0000000000000486
 30
0.0
 10
322.5963234863564
 20
-0.0000000000001874
 30
0.0
 10
321.5283855248179
 20
-0.0000000000000416
 30
0.0
 10
319.531247504631
 20
0.0000000000000486
 30
0.0
 10
316.6272568859279
 20
0.000000000000111
 30
0.0
 10
312.9091319573783
 20
0.0000000000001943
 30
0.0
 10
308.4580607219759
 20
0.0000000000002082
 30
0.0
 10
303.4172650444432
 20
0.0000000000002914
 30
0.0
 10
297.9142075883757
 20
0.0000000000001596
 30
0.0
 10
290.9912658010836
 20
0.0000000000000416
 30
0.0
 10
282.8242741908707
 20
0.0000000000000902
 30
0.0
 10
273.5126574501912
 20
0.0000000000000694
 30
0.0
 10
264.1862411413872
 20
0.0000000000000694
 30
0.0
 10
254.8597845125474
 20
0.0000000000000625
 30
0.0
 10
187.0339882732362
 20
0.0000000000000555
 30
0.0
 10
55.64271236803939
 20
0.0000000000000139
 30
0.0
 10
-105.9751637102179
 20
0.0000000000000069
 30
0.0
 10
-211.5481012260603
 20
0.0000000000000416
 30
0.0
 10
-256.0026947055886
 20
0.0000000000000139
 30
0.0
 10
-272.6684077441548
 20
-0.0000000000000416
 30
0.0
 10
-285.7602829902726
 20
-0.0000000000000208
 30
0.0
 10
-295.2142974058415
 20
-0.0000000000000763
 30
0.0
 10
-300.8669720923568
 20
-0.0000000000001804
 30
0.0
 10
-306.1336604866615
 20
0.0000000000000347
 30
0.0
 10
-310.8823766991485
 20
0.0000000000002776
 30
0.0
 10
-314.9597038090286
 20
0.0000000000000833
 30
0.0
 10
-318.2726146058278
 20
0.0000000000000486
 30
0.0
 10
-320.7170406226319
 20
-0.0000000000002012
 30
0.0
 10
-322.4023905458876
 20
-0.0000000000005274
 30
0.0
 10
-323.170667291111
 20
-0.0000000000003608
 30
0.0
 10
-323.388148211442
 20
-0.0000000000002845
 30
0.0
 10
-323.1106175054746
 20
-0.0000000000001388
 30
0.0
 10
-322.6638499866248
 20
-0.0000000000000208
 30
0.0
 10
-321.5891106999534
 20
0.0000000000001943
 30
0.0
 10
-322.1113659813058
 20
0.0000000000005621
 30
0.0
 10
-322.5645598592809
 20
0.000000000000118
 30
0.0
 10
-322.5874105051107
 20
0.0000000000000971
 30
0.0
  0
SPLINE
  5
7D
330
1B
100
AcDbEntity
 67
     1
  8
0
  6
Continuous
 62
     7
370
    25
100
AcDbSpline
210
0.0
220
0.0
230
1.0
 70
     8
 71
     3
 72
    17
 73
    13
 74
     0
 42
0.000000001
 43
0.00000001
 40
0.0
 40
0.0
 40
0.0
 40
0.0
 40
0.1058571141683629
 40
0.2147840915377371
 40
0.320641206932592
 40
0.429568185642606
 40
0.5354253028871888
 40
0.6443522836248947
 40
0.7502094015083468
 40
0.8591363829515878
 40
0.9649935011721836
 40
1.0
 40
1.0
 40
1.0
 40
1.0
 10
-0.0005728719639006
 20
-101.2132009255319
 30
0.0
 10
-2.106575226428878
 20
-101.2132032269898
 30
0.0
 10
-6.379654140715807
 20
-101.2132078966481
 30
0.0
 10
-12.58106540013611
 20
-101.2131368769034
 30
0.0
 10
-18.48037720821483
 20
-101.213227124761
 30
0.0
 10
-23.80381303902927
 20
-101.2131983034907
 30
0.0
 10
-28.49843013561039
 20
-101.2132334351829
 30
0.0
 10
-32.33979035093488
 20
-101.2132047646553
 30
0.0
 10
-35.31468664986476
 20
-101.2132077634089
 30
0.0
 10
-37.18709656316007
 20
-101.2131842952588
 30
0.0
 10
-38.04991500380882
 20
-101.2132304381079
 30
0.0
 10
-37.91285239445294
 20
-101.2132203403786
 30
0.0
 10
-37.87879049703547
 20
-101.2132178309573
 30
0.0
  0
SPLINE
  5
7E
330
1B
100
AcDbEntity
 67
     1
  8
0
  6
Continuous
 62
     7
370
    25
100
AcDbSpline
210
0.0
220
0.0
230
1.0
 70
     8
 71
     3
 72
    18
 73
    14
 74
     0
 42
0.000000001
 43
0.00000001
 40
0.0
 40
0.0
 40
0.0
 40
0.0
 40
0.0067892614505522
 40
0.1126395990506641
 40
0.2215596035928347
 40
0.3274099412887037
 40
0.4363299459387329
 40
0.5421802837904864
 40
0.6511002886105985
 40
0.7569506264645351
 40
0.8658706312848106
 40
0.9325630297462536
 40
1.0
 40
1.0
 40
1.0
 40
1.0
 10
37.96755434277105
 20
-101.2132035265749
 30
0.0
 10
37.9782528896633
 20
-101.2132046691309
 30
0.0
 10
38.15575084597933
 20
-101.2132236251035
 30
0.0
 10
37.49616331681887
 20
-101.2131935374187
 30
0.0
 10
35.93074281860585
 20
-101.2132354601234
 30
0.0
 10
33.2035636335686
 20
-101.213202244137
 30
0.0
 10
29.59493525383538
 20
-101.2132086036894
 30
0.0
 10
25.10075650677732
 20
-101.2131843628336
 30
0.0
 10
19.93995192583485
 20
-101.2132392140321
 30
0.0
 10
14.16359723726956
 20
-101.2131969950639
 30
0.0
 10
8.785049807972786
 20
-101.2132120627278
 30
0.0
 10
4.00732947069589
 20
-101.2131866456338
 30
0.0
 10
1.340329544800849
 20
-101.2131961479829
 30
0.0
 10
-0.0005728719639006
 20
-101.2132009255319
 30
0.0
  0
LINE
  5
81
330
1B
100
AcDbEntity
 67
     1
  8
0
  6
Continuous
 62
     7
370
    25
100
AcDbLine
 10
-39.2205087724
 20
-99.9926946643
 30
0.0
 11
-37.9926020639
 21
-101.2206013727
 31
0.0
  0
LINE
  5
82
330
1B
100
AcDbEntity
 67
     1
  8
0
  6
Continuous
 62
     7
370
    25
100
AcDbLine
 10
37.9926020803
 20
-101.2206013769
 30
0.0
 11
39.2205087897
 21
-99.9926946685
 31
0.0
  0
LINE
  5
83
330
1B
100
AcDbEntity
 67
     1
  8
0
  6
Continuous
 62
     7
370
    25
100
AcDbLine
 10
38.0
 20
-109.9999999998
 30
0.0
 11
38.0
 21
-101.2132034938
 31
0.0
  0
LINE
  5
84
330
1B
100
AcDbEntity
 67
     1
  8
0
  6
Continuous
 62
     7
370
    25
100
AcDbLine
 10
-38.0
 20
-101.2132178293
 30
0.0
 11
-38.0
 21
-109.9999999998
 31
0.0
  0
LINE
  5
85
330
1B
100
AcDbEntity
 67
     1
  8
0
  6
Continuous
 62
     7
370
    25
100
AcDbLine
 10
-38.0
 20
-110.0
 30
0.0
 11
38.0
 21
-110.0
 31
0.0
  0
VIEWPORT
  5
FE
330
1B
100
AcDbEntity
 67
     1
  8
0
100
AcDbViewport
 10
0.0
 20
0.0
 30
0.0
 40
205.6
 41
156.0
 68
     1
 69
     1
 12
-0.0000081119
 22
0.0000061269
 13
0.0
 23
0.0
 14
10.0
 24
10.0
 15
10.0
 25
10.0
 16
0.0
 26
0.0
 36
1.0
 17
0.0
 27
0.0
 37
0.0
 42
50.0
 43
0.0
 44
0.0
 45
499.21381672
 50
0.0
 51
0.0
 72
   100
 90
   557152
  1

281
     0
 71
     1
 74
     0
110
0.0
120
0.0
130
0.0
111
1.0
121
0.0
131
0.0
112
0.0
122
1.0
132
0.0
 79
     0
146
0.0
170
     0
 61
     5
348
2F
292
     1
282
     1
141
0.0
142
0.0
 63
   256
361
FF
  0
ENDSEC
  0
SECTION
  2
OBJECTS
  0
DICTIONARY
  5
C
330
0
100
AcDbDictionary
281
     1
  3
ACAD_DETAILVIEWSTYLE
350
117
  3
ACAD_GROUP
350
D
  3
ACAD_LAYOUT
350
1A
  3
ACAD_MATERIAL
350
43
  3
ACAD_MLEADERSTYLE
350
6B
  3
ACAD_MLINESTYLE
350
17
  3
ACAD_PLOTSETTINGS
350
19
  3
ACAD_PLOTSTYLENAME
350
E
  3
ACAD_SCALELIST
350
47
  3
ACAD_SECTIONVIEWSTYLE
350
118
  3
ACAD_TABLESTYLE
350
69
  3
ACAD_VISUALSTYLE
350
2A
  3
ACDB_RECOMPOSE_DATA
350
114
  3
AcDbVariableDictionary
350
110
  0
SUN
  5
6D
330
29
100
AcDbSun
 90
        1
290
     0
 63
     7
421
 16777215
 40
1.0
291
     1
 91
  2455826
 92
 54000000
292
     0
 70
     2
 71
   256
280
     1
  0
SUN
  5
101
330
100
100
AcDbSun
 90
        1
290
     0
 63
     7
421
 16777215
 40
1.0
291
     1
 91
  2455826
 92
 54000000
292
     0
 70
     2
 71
   256
280
     1
  0
SUN
  5
103
330
102
100
AcDbSun
 90
        1
290
     0
 63
     7
421
 16777215
 40
1.0
291
     1
 91
  2455826
 92
 54000000
292
     0
 70
     2
 71
   256
280
     1
  0
SUN
  5
105
330
104
100
AcDbSun
 90
        1
290
     0
 63
     7
421
 16777215
 40
1.0
291
     1
 91
  2455826
 92
 54000000
292
     0
 70
     2
 71
   256
280
     1
  0
SUN
  5
107
330
106
100
AcDbSun
 90
        1
290
     0
 63
     7
421
 16777215
 40
1.0
291
     1
 91
  2455826
 92
 54000000
292
     0
 70
     2
 71
   256
280
     1
  0
SUN
  5
109
330
108
100
AcDbSun
 90
        1
290
     0
 63
     7
421
 16777215
 40
1.0
291
     1
 91
  2455826
 92
 54000000
292
     0
 70
     2
 71
   256
280
     1
  0
SUN
  5
10B
330
10A
100
AcDbSun
 90
        1
290
     0
 63
     7
421
 16777215
 40
1.0
291
     1
 91
  2455826
 92
 54000000
292
     0
 70
     2
 71
   256
280
     1
  0
SUN
  5
10D
330
10C
100
AcDbSun
 90
        1
290
     0
 63
     7
421
 16777215
 40
1.0
291
     1
 91
  2455826
 92
 54000000
292
     0
 70
     2
 71
   256
280
     1
  0
SUN
  5
10F
330
10E
100
AcDbSun
 90
        1
290
     0
 63
     7
421
 16777215
 40
1.0
291
     1
 91
  2455826
 92
 54000000
292
     0
 70
     2
 71
   256
280
     1
  0
SUN
  5
FF
330
FE
100
AcDbSun
 90
        1
290
     0
 63
     7
421
 16777215
 40
1.0
291
     1
 91
  2455826
 92
 54000000
292
     0
 70
     2
 71
   256
280
     1
  0
DICTIONARY
  5
117
102
{ACAD_REACTORS
330
C
102
}
330
C
100
AcDbDictionary
281
     1
  0
DICTIONARY
  5
D
102
{ACAD_REACTORS
330
C
102
}
330
C
100
AcDbDictionary
281
     1
  0
DICTIONARY
  5
1A
102
{ACAD_REACTORS
330
C
102
}
330
C
100
AcDbDictionary
281
     1
  3
_Dimetrisch
350
F8
  3
_Isometrisch
350
E2
  3
_Links
350
26
  3
_Normal auf
350
9C
  3
_Rechts
350
C2
  3
_Rückseite
350
AF
  3
_Trimetrisch
350
ED
  3
_Unten
350
DA
  3
_Vorderseite
350
1E
  3
Model
350
22
  0
DICTIONARY
  5
43
102
{ACAD_REACTORS
330
C
102
}
330
C
100
AcDbDictionary
281
     1
  3
ByBlock
350
45
  3
ByLayer
350
44
  3
Global
350
46
  0
DICTIONARY
  5
6B
102
{ACAD_REACTORS
330
C
102
}
330
C
100
AcDbDictionary
281
     1
  3
Standard
350
6C
  0
DICTIONARY
  5
17
102
{ACAD_REACTORS
330
C
102
}
330
C
100
AcDbDictionary
281
     1
  3
Standard
350
18
  0
DICTIONARY
  5
19
102
{ACAD_REACTORS
330
C
102
}
330
C
100
AcDbDictionary
281
     1
  0
ACDBDICTIONARYWDFLT
  5
E
102
{ACAD_REACTORS
330
C
102
}
330
C
100
AcDbDictionary
281
     1
  3
Normal
350
F
100
AcDbDictionaryWithDefault
340
F
  0
DICTIONARY
  5
47
102
{ACAD_REACTORS
330
C
102
}
330
C
100
AcDbDictionary
281
     1
  3
A0
350
48
  3
A1
350
49
  3
A2
350
4A
  3
A3
350
4B
  3
A4
350
4C
  3
A5
350
4D
  3
A6
350
4E
  3
A7
350
4F
  3
A8
350
50
  3
A9
350
51
  3
B0
350
52
  3
B1
350
53
  3
B2
350
54
  3
B3
350
55
  3
B4
350
56
  3
B5
350
57
  3
B6
350
58
  3
B7
350
59
  3
B8
350
5A
  3
B9
350
5B
  3
C0
350
5C
  3
C1
350
5D
  3
C2
350
5E
  3
C3
350
5F
  3
C4
350
60
  3
C5
350
61
  3
C6
350
62
  3
C7
350
63
  3
C8
350
64
  3
C9
350
65
  3
D0
350
66
  3
D1
350
67
  3
D2
350
68
  0
DICTIONARY
  5
118
102
{ACAD_REACTORS
330
C
102
}
330
C
100
AcDbDictionary
281
     1
  0
DICTIONARY
  5
69
102
{ACAD_REACTORS
330
C
102
}
330
C
100
AcDbDictionary
281
     1
  3
Standard
350
6A
  0
DICTIONARY
  5
2A
102
{ACAD_REACTORS
330
C
102
}
330
C
100
AcDbDictionary
281
     1
  3
2dWireframe
350
2F
  3
Basic
350
32
  3
Brighten
350
36
  3
ColorChange
350
3A
  3
Conceptual
350
34
  3
Dim
350
35
  3
EdgeColorOff
350
3D
  3
Facepattern
350
39
  3
Flat
350
2B
  3
FlatWithEdges
350
2C
  3
Gouraud
350
2D
  3
GouraudWithEdges
350
2E
  3
Hidden
350
31
  3
JitterOff
350
3B
  3
Linepattern
350
38
  3
OverhangOff
350
3C
  3
Realistic
350
33
  3
Shaded
350
42
  3
Shaded with edges
350
41
  3
Shades of Gray
350
3E
  3
Sketchy
350
3F
  3
Thicken
350
37
  3
Wireframe
350
30
  3
X-Ray
350
40
  0
XRECORD
  5
114
102
{ACAD_REACTORS
330
C
102
}
330
C
100
AcDbXrecord
280
     1
 90
        1
330
6A
  0
DICTIONARY
  5
110
102
{ACAD_REACTORS
330
C
102
}
330
C
100
AcDbDictionary
281
     1
  3
CANNOSCALE
350
111
  3
CMLEADERSTYLE
350
116
  3
CTABLESTYLE
350
115
  0
LAYOUT
  5
F8
102
{ACAD_REACTORS
330
1A
102
}
330
1A
100
AcDbPlotSettings
  1

  2
none_device
  4
ISO_A4_(210.00_x_297.00_MM)
  6

 40
7.5
 41
20.0
 42
7.5
 43
20.0
 44
210.0
 45
297.0
 46
0.0
 47
0.0
 48
0.0
 49
0.0
140
0.0
141
0.0
142
1.0
143
2.5130714734
 70
   688
 72
     1
 73
     1
 74
     1
  7

 75
     0
 76
     0
 77
     2
 78
   300
147
0.3979194426
148
323.1432271219
149
110.0
100
AcDbLayout
  1
_Dimetrisch
 70
     1
 71
     9
 10
0.0
 20
0.0
 11
0.0
 21
0.0
 12
0.0
 22
0.0
 32
0.0
 14
0.0
 24
0.0
 34
0.0
 15
0.0
 25
0.0
 35
0.0
146
0.0
 13
0.0
 23
0.0
 33
0.0
 16
1.0
 26
0.0
 36
0.0
 17
0.0
 27
1.0
 37
0.0
 76
     0
330
F7
331
10E
  0
LAYOUT
  5
E2
102
{ACAD_REACTORS
330
1A
102
}
330
1A
100
AcDbPlotSettings
  1

  2
none_device
  4
ISO_A4_(210.00_x_297.00_MM)
  6

 40
7.5
 41
20.0
 42
7.5
 43
20.0
 44
210.0
 45
297.0
 46
0.0
 47
0.0
 48
0.0
 49
0.0
140
0.0
141
0.0
142
1.0
143
2.5130714734
 70
   688
 72
     1
 73
     1
 74
     1
  7

 75
     0
 76
     0
 77
     2
 78
   300
147
0.3979194426
148
323.1432271219
149
110.0
100
AcDbLayout
  1
_Isometrisch
 70
     1
 71
     7
 10
0.0
 20
0.0
 11
0.0
 21
0.0
 12
0.0
 22
0.0
 32
0.0
 14
0.0
 24
0.0
 34
0.0
 15
0.0
 25
0.0
 35
0.0
146
0.0
 13
0.0
 23
0.0
 33
0.0
 16
1.0
 26
0.0
 36
0.0
 17
0.0
 27
1.0
 37
0.0
 76
     0
330
E1
331
10A
  0
LAYOUT
  5
26
102
{ACAD_REACTORS
330
1A
102
}
330
1A
100
AcDbPlotSettings
  1

  2
none_device
  4
ISO_A4_(210.00_x_297.00_MM)
  6

 40
7.5
 41
20.0
 42
7.5
 43
20.0
 44
210.0
 45
297.0
 46
0.0
 47
0.0
 48
0.0
 49
0.0
140
0.0
141
0.0
142
1.0
143
2.5130714734
 70
   688
 72
     1
 73
     1
 74
     1
  7

 75
     0
 76
     0
 77
     2
 78
   300
147
0.3979194426
148
323.1432271219
149
110.0
100
AcDbLayout
  1
_Links
 70
     1
 71
     2
 10
0.0
 20
0.0
 11
0.0
 21
0.0
 12
0.0
 22
0.0
 32
0.0
 14
0.0
 24
0.0
 34
0.0
 15
0.0
 25
0.0
 35
0.0
146
0.0
 13
0.0
 23
0.0
 33
0.0
 16
1.0
 26
0.0
 36
0.0
 17
0.0
 27
1.0
 37
0.0
 76
     0
330
23
331
100
  0
LAYOUT
  5
9C
102
{ACAD_REACTORS
330
1A
102
}
330
1A
100
AcDbPlotSettings
  1

  2
none_device
  4
ISO_A4_(210.00_x_297.00_MM)
  6

 40
7.5
 41
20.0
 42
7.5
 43
20.0
 44
210.0
 45
297.0
 46
0.0
 47
0.0
 48
0.0
 49
0.0
140
0.0
141
0.0
142
1.0
143
2.5130714734
 70
   688
 72
     1
 73
     1
 74
     1
  7

 75
     0
 76
     0
 77
     2
 78
   300
147
0.3979194426
148
323.1432271219
149
110.0
100
AcDbLayout
  1
_Normal auf
 70
     1
 71
     3
 10
0.0
 20
0.0
 11
0.0
 21
0.0
 12
0.0
 22
0.0
 32
0.0
 14
0.0
 24
0.0
 34
0.0
 15
0.0
 25
0.0
 35
0.0
146
0.0
 13
0.0
 23
0.0
 33
0.0
 16
1.0
 26
0.0
 36
0.0
 17
0.0
 27
1.0
 37
0.0
 76
     0
330
9B
331
102
  0
LAYOUT
  5
C2
102
{ACAD_REACTORS
330
1A
102
}
330
1A
100
AcDbPlotSettings
  1

  2
none_device
  4
ISO_A4_(210.00_x_297.00_MM)
  6

 40
7.5
 41
20.0
 42
7.5
 43
20.0
 44
210.0
 45
297.0
 46
0.0
 47
0.0
 48
0.0
 49
0.0
140
0.0
141
0.0
142
1.0
143
2.5130714734
 70
   688
 72
     1
 73
     1
 74
     1
  7

 75
     0
 76
     0
 77
     2
 78
   300
147
0.3979194426
148
323.1432271219
149
110.0
100
AcDbLayout
  1
_Rechts
 70
     1
 71
     5
 10
0.0
 20
0.0
 11
0.0
 21
0.0
 12
0.0
 22
0.0
 32
0.0
 14
0.0
 24
0.0
 34
0.0
 15
0.0
 25
0.0
 35
0.0
146
0.0
 13
0.0
 23
0.0
 33
0.0
 16
1.0
 26
0.0
 36
0.0
 17
0.0
 27
1.0
 37
0.0
 76
     0
330
C1
331
106
  0
LAYOUT
  5
AF
102
{ACAD_REACTORS
330
1A
102
}
330
1A
100
AcDbPlotSettings
  1

  2
none_device
  4
ISO_A4_(210.00_x_297.00_MM)
  6

 40
7.5
 41
20.0
 42
7.5
 43
20.0
 44
210.0
 45
297.0
 46
0.0
 47
0.0
 48
0.0
 49
0.0
140
0.0
141
0.0
142
1.0
143
2.5130714734
 70
   688
 72
     1
 73
     1
 74
     1
  7

 75
     0
 76
     0
 77
     2
 78
   300
147
0.3979194426
148
323.1432271219
149
110.0
100
AcDbLayout
  1
_Rückseite
 70
     1
 71
     4
 10
0.0
 20
0.0
 11
0.0
 21
0.0
 12
0.0
 22
0.0
 32
0.0
 14
0.0
 24
0.0
 34
0.0
 15
0.0
 25
0.0
 35
0.0
146
0.0
 13
0.0
 23
0.0
 33
0.0
 16
1.0
 26
0.0
 36
0.0
 17
0.0
 27
1.0
 37
0.0
 76
     0
330
AE
331
104
  0
LAYOUT
  5
ED
102
{ACAD_REACTORS
330
1A
102
}
330
1A
100
AcDbPlotSettings
  1

  2
none_device
  4
ISO_A4_(210.00_x_297.00_MM)
  6

 40
7.5
 41
20.0
 42
7.5
 43
20.0
 44
210.0
 45
297.0
 46
0.0
 47
0.0
 48
0.0
 49
0.0
140
0.0
141
0.0
142
1.0
143
2.5130714734
 70
   688
 72
     1
 73
     1
 74
     1
  7

 75
     0
 76
     0
 77
     2
 78
   300
147
0.3979194426
148
323.1432271219
149
110.0
100
AcDbLayout
  1
_Trimetrisch
 70
     1
 71
     8
 10
0.0
 20
0.0
 11
0.0
 21
0.0
 12
0.0
 22
0.0
 32
0.0
 14
0.0
 24
0.0
 34
0.0
 15
0.0
 25
0.0
 35
0.0
146
0.0
 13
0.0
 23
0.0
 33
0.0
 16
1.0
 26
0.0
 36
0.0
 17
0.0
 27
1.0
 37
0.0
 76
     0
330
EC
331
10C
  0
LAYOUT
  5
DA
102
{ACAD_REACTORS
330
1A
102
}
330
1A
100
AcDbPlotSettings
  1

  2
none_device
  4
ISO_A4_(210.00_x_297.00_MM)
  6

 40
7.5
 41
20.0
 42
7.5
 43
20.0
 44
210.0
 45
297.0
 46
0.0
 47
0.0
 48
0.0
 49
0.0
140
0.0
141
0.0
142
1.0
143
2.5130714734
 70
   688
 72
     1
 73
     1
 74
     1
  7

 75
     0
 76
     0
 77
     2
 78
   300
147
0.3979194426
148
323.1432271219
149
110.0
100
AcDbLayout
  1
_Unten
 70
     1
 71
     6
 10
0.0
 20
0.0
 11
0.0
 21
0.0
 12
0.0
 22
0.0
 32
0.0
 14
0.0
 24
0.0
 34
0.0
 15
0.0
 25
0.0
 35
0.0
146
0.0
 13
0.0
 23
0.0
 33
0.0
 16
1.0
 26
0.0
 36
0.0
 17
0.0
 27
1.0
 37
0.0
 76
     0
330
D9
331
108
  0
LAYOUT
  5
1E
102
{ACAD_REACTORS
330
1A
102
}
330
1A
100
AcDbPlotSettings
  1

  2
none_device
  4
ISO_A4_(210.00_x_297.00_MM)
  6

 40
7.5
 41
20.0
 42
7.5
 43
20.0
 44
210.0
 45
297.0
 46
0.0
 47
0.0
 48
0.0
 49
0.0
140
0.0
141
0.0
142
1.0
143
2.5130714734
 70
   688
 72
     1
 73
     1
 74
     1
  7

 75
     0
 76
     0
 77
     2
 78
   300
147
0.3979194426
148
323.1432271219
149
110.0
100
AcDbLayout
  1
_Vorderseite
 70
     1
 71
     1
 10
-373.40465659
 20
-128.8480360505
 11
372.9775710111
 21
398.8969733644
 12
0.0
 22
0.0
 32
0.0
 14
-323.1432271219
 24
-110.0
 34
0.0
 15
322.716141543
 25
0.0
 35
0.0
146
0.0
 13
0.0
 23
0.0
 33
0.0
 16
1.0
 26
0.0
 36
0.0
 17
0.0
 27
1.0
 37
0.0
 76
     0
330
1B
331
FE
  0
LAYOUT
  5
22
102
{ACAD_REACTORS
330
1A
102
}
330
1A
100
AcDbPlotSettings
  1

  2
none_device
  4
ANSI_A_(11.00_x_8.50_Inches)
  6

 40
6.35
 41
19.05
 42
6.35000508
 43
19.05000254
 44
279.4
 45
215.9
 46
133.3500009386
 47
88.8999961027
 48
0.0
 49
0.0
140
0.0
141
0.0
142
0.0168827404
143
1.0
 70
  1696
 72
     0
 73
     0
 74
     0
  7

 75
     0
 76
     0
 77
     2
 78
   300
147
0.0179189148
148
-1300.4909072572
149
0.0
100
AcDbLayout
  1
Model
 70
     1
 71
     0
 10
0.0
 20
0.0
 11
420.0
 21
297.0
 12
0.0
 22
0.0
 32
0.0
 14
-322.518738371
 24
-155.0186089623
 34
0.0
 15
322.5187221471
 25
155.018621216
 35
0.0
146
0.0
 13
0.0
 23
0.0
 33
0.0
 16
1.0
 26
0.0
 36
0.0
 17
0.0
 27
1.0
 37
0.0
 76
     0
330
1F
331
29
  0
MATERIAL
  5
45
102
{ACAD_REACTORS
330
43
102
}
330
43
100
AcDbMaterial
  1
ByBlock
 72
     1
 94
      127
  0
MATERIAL
  5
44
102
{ACAD_REACTORS
330
43
102
}
330
43
100
AcDbMaterial
  1
ByLayer
 72
     1
 94
      127
  0
MATERIAL
  5
46
102
{ACAD_REACTORS
330
43
102
}
330
43
100
AcDbMaterial
  1
Global
 72
     1
 94
      127
  0
MLEADERSTYLE
  5
6C
102
{ACAD_REACTORS
330
6B
102
}
330
6B
100
AcDbMLeaderStyle
179
     2
170
     2
171
     1
172
     0
 90
        2
 40
0.0
 41
0.0
173
     1
 91
-1056964608
340
14
 92
       -2
290
     1
 42
2.0
291
     1
 43
8.0
  3
Standard
341
0
 44
4.0
300

342
11
174
     1
178
     6
175
     1
176
     0
 93
-1056964608
 45
4.0
292
     0
297
     0
 46
4.0
343
0
 94
-1056964608
 47
1.0
 49
1.0
140
1.0
293
     1
141
0.0
294
     1
177
     0
142
1.0
295
     0
296
     0
143
3.75
271
     0
272
     9
273
     9
298
     0
  0
MLINESTYLE
  5
18
102
{ACAD_REACTORS
330
17
102
}
330
17
100
AcDbMlineStyle
  2
Standard
 70
     0
  3

 62
   256
 51
90.0
 52
90.0
 71
     2
 49
0.5
 62
   256
  6
BYLAYER
 49
-0.5
 62
   256
  6
BYLAYER
  0
ACDBPLACEHOLDER
  5
F
102
{ACAD_REACTORS
330
E
102
}
330
E
  0
SCALE
  5
48
102
{ACAD_REACTORS
330
47
102
}
330
47
100
AcDbScale
 70
     0
300
1:1
140
1.0
141
1.0
290
     1
  0
SCALE
  5
49
102
{ACAD_REACTORS
330
47
102
}
330
47
100
AcDbScale
 70
     0
300
1:2
140
1.0
141
2.0
290
     0
  0
SCALE
  5
4A
102
{ACAD_REACTORS
330
47
102
}
330
47
100
AcDbScale
 70
     0
300
1:4
140
1.0
141
4.0
290
     0
  0
SCALE
  5
4B
102
{ACAD_REACTORS
330
47
102
}
330
47
100
AcDbScale
 70
     0
300
1:5
140
1.0
141
5.0
290
     0
  0
SCALE
  5
4C
102
{ACAD_REACTORS
330
47
102
}
330
47
100
AcDbScale
 70
     0
300
1:8
140
1.0
141
8.0
290
     0
  0
SCALE
  5
4D
102
{ACAD_REACTORS
330
47
102
}
330
47
100
AcDbScale
 70
     0
300
1:10
140
1.0
141
10.0
290
     0
  0
SCALE
  5
4E
102
{ACAD_REACTORS
330
47
102
}
330
47
100
AcDbScale
 70
     0
300
1:16
140
1.0
141
16.0
290
     0
  0
SCALE
  5
4F
102
{ACAD_REACTORS
330
47
102
}
330
47
100
AcDbScale
 70
     0
300
1:20
140
1.0
141
20.0
290
     0
  0
SCALE
  5
50
102
{ACAD_REACTORS
330
47
102
}
330
47
100
AcDbScale
 70
     0
300
1:30
140
1.0
141
30.0
290
     0
  0
SCALE
  5
51
102
{ACAD_REACTORS
330
47
102
}
330
47
100
AcDbScale
 70
     0
300
1:40
140
1.0
141
40.0
290
     0
  0
SCALE
  5
52
102
{ACAD_REACTORS
330
47
102
}
330
47
100
AcDbScale
 70
     0
300
1:50
140
1.0
141
50.0
290
     0
  0
SCALE
  5
53
102
{ACAD_REACTORS
330
47
102
}
330
47
100
AcDbScale
 70
     0
300
1:100
140
1.0
141
100.0
290
     0
  0
SCALE
  5
54
102
{ACAD_REACTORS
330
47
102
}
330
47
100
AcDbScale
 70
     0
300
2:1
140
2.0
141
1.0
290
     0
  0
SCALE
  5
55
102
{ACAD_REACTORS
330
47
102
}
330
47
100
AcDbScale
 70
     0
300
4:1
140
4.0
141
1.0
290
     0
  0
SCALE
  5
56
102
{ACAD_REACTORS
330
47
102
}
330
47
100
AcDbScale
 70
     0
300
8:1
140
8.0
141
1.0
290
     0
  0
SCALE
  5
57
102
{ACAD_REACTORS
330
47
102
}
330
47
100
AcDbScale
 70
     0
300
10:1
140
10.0
141
1.0
290
     0
  0
SCALE
  5
58
102
{ACAD_REACTORS
330
47
102
}
330
47
100
AcDbScale
 70
     0
300
100:1
140
100.0
141
1.0
290
     0
  0
SCALE
  5
59
102
{ACAD_REACTORS
330
47
102
}
330
47
100
AcDbScale
 70
     0
300
1/128" = 1'-0"
140
0.0078125
141
12.0
290
     0
  0
SCALE
  5
5A
102
{ACAD_REACTORS
330
47
102
}
330
47
100
AcDbScale
 70
     0
300
1/64" = 1'-0"
140
0.015625
141
12.0
290
     0
  0
SCALE
  5
5B
102
{ACAD_REACTORS
330
47
102
}
330
47
100
AcDbScale
 70
     0
300
1/32" = 1'-0"
140
0.03125
141
12.0
290
     0
  0
SCALE
  5
5C
102
{ACAD_REACTORS
330
47
102
}
330
47
100
AcDbScale
 70
     0
300
1/16" = 1'-0"
140
0.0625
141
12.0
290
     0
  0
SCALE
  5
5D
102
{ACAD_REACTORS
330
47
102
}
330
47
100
AcDbScale
 70
     0
300
3/32" = 1'-0"
140
0.09375
141
12.0
290
     0
  0
SCALE
  5
5E
102
{ACAD_REACTORS
330
47
102
}
330
47
100
AcDbScale
 70
     0
300
1/8" = 1'-0"
140
0.125
141
12.0
290
     0
  0
SCALE
  5
5F
102
{ACAD_REACTORS
330
47
102
}
330
47
100
AcDbScale
 70
     0
300
3/16" = 1'-0"
140
0.1875
141
12.0
290
     0
  0
SCALE
  5
60
102
{ACAD_REACTORS
330
47
102
}
330
47
100
AcDbScale
 70
     0
300
1/4" = 1'-0"
140
0.25
141
12.0
290
     0
  0
SCALE
  5
61
102
{ACAD_REACTORS
330
47
102
}
330
47
100
AcDbScale
 70
     0
300
3/8" = 1'-0"
140
0.375
141
12.0
290
     0
  0
SCALE
  5
62
102
{ACAD_REACTORS
330
47
102
}
330
47
100
AcDbScale
 70
     0
300
1/2" = 1'-0"
140
0.5
141
12.0
290
     0
  0
SCALE
  5
63
102
{ACAD_REACTORS
330
47
102
}
330
47
100
AcDbScale
 70
     0
300
3/4" = 1'-0"
140
0.75
141
12.0
290
     0
  0
SCALE
  5
64
102
{ACAD_REACTORS
330
47
102
}
330
47
100
AcDbScale
 70
     0
300
1" = 1'-0"
140
1.0
141
12.0
290
     0
  0
SCALE
  5
65
102
{ACAD_REACTORS
330
47
102
}
330
47
100
AcDbScale
 70
     0
300
1-1/2" = 1'-0"
140
1.5
141
12.0
290
     0
  0
SCALE
  5
66
102
{ACAD_REACTORS
330
47
102
}
330
47
100
AcDbScale
 70
     0
300
3" = 1'-0"
140
3.0
141
12.0
290
     0
  0
SCALE
  5
67
102
{ACAD_REACTORS
330
47
102
}
330
47
100
AcDbScale
 70
     0
300
6" = 1'-0"
140
6.0
141
12.0
290
     0
  0
SCALE
  5
68
102
{ACAD_REACTORS
330
47
102
}
330
47
100
AcDbScale
 70
     0
300
1'-0" = 1'-0"
140
12.0
141
12.0
290
     0
  0
TABLESTYLE
  5
6A
102
{ACAD_REACTORS
330
69
102
}
102
{ACAD_XDICTIONARY
360
112
102
}
330
69
100
AcDbTableStyle
  3
Standard
 70
     0
 71
     0
 40
0.06
 41
0.06
280
     0
281
     0
  7
STANDARD
140
4.5
170
     2
 62
     0
 63
   257
283
     0
 90
        4
 91
        0
  1

274
    -2
284
     1
 64
     0
275
    -2
285
     1
 65
     0
276
    -2
286
     1
 66
     0
277
    -2
287
     1
 67
     0
278
    -2
288
     1
 68
     0
279
    -2
289
     1
 69
     0
  7
STANDARD
140
6.0
170
     5
 62
     0
 63
   257
283
     0
 90
        4
 91
        0
  1

274
    -2
284
     1
 64
     0
275
    -2
285
     1
 65
     0
276
    -2
286
     1
 66
     0
277
    -2
287
     1
 67
     0
278
    -2
288
     1
 68
     0
279
    -2
289
     1
 69
     0
  7
STANDARD
140
4.5
170
     5
 62
     0
 63
   257
283
     0
 90
        4
 91
        0
  1

274
    -2
284
     1
 64
     0
275
    -2
285
     1
 65
     0
276
    -2
286
     1
 66
     0
277
    -2
287
     1
 67
     0
278
    -2
288
     1
 68
     0
279
    -2
289
     1
 69
     0
  0
VISUALSTYLE
  5
2F
102
{ACAD_REACTORS
330
2A
102
}
330
2A
100
AcDbVisualStyle
  2
2dWireframe
 70
     4
177
     3
291
     0
 70
    58
 90
        0
176
     1
 90
        2
176
     1
 90
        0
176
     1
 90
        0
176
     1
 40
0.6
176
     1
 40
30.0
176
     1
 62
     7
420
 16777215
176
     1
 90
        1
176
     1
 90
        4
176
     1
 62
     7
176
     1
 62
   257
176
     1
 90
        1
176
     1
 90
        1
176
     1
 40
1.0
176
     1
 90
        0
176
     1
 62
   257
176
     1
 40
1.0
176
     1
 90
        1
176
     1
 90
        6
176
     1
 90
        2
176
     1
 62
     7
176
     1
 90
        5
176
     1
 90
        0
176
     1
 90
        0
176
     1
290
     0
176
     1
 90
        1
176
     1
 40
0.0
176
     1
 90
        0
176
     1
290
     1
176
     1
290
     1
176
     1
290
     0
176
     1
290
     0
176
     1
290
     0
176
     1
290
     0
176
     1
290
     0
176
     1
290
     0
176
     1
290
     0
176
     1
 90
       50
176
     1
 40
0.0
176
     1
 40
1.0
176
     1
 90
        0
176
     1
 62
    18
420
        0
176
     1
 90
       50
176
     1
 90
        3
176
     1
 62
     5
420
      255
176
     1
290
     0
176
     1
 90
       50
176
     1
 90
       50
176
     1
 90
       50
176
     1
290
     0
176
     1
 90
       50
176
     1
 62
   256
176
     0
 40
1.0
176
     0
 90
        2
176
     1
  1
strokes_ogs.tif
176
     1
290
     0
176
     1
 40
1.0
176
     1
 40
1.0
176
     1
  0
VISUALSTYLE
  5
32
102
{ACAD_REACTORS
330
2A
102
}
330
2A
100
AcDbVisualStyle
  2
Basic
 70
     7
177
     3
291
     1
 70
    58
 90
        1
176
     1
 90
        0
176
     1
 90
        1
176
     1
 90
        0
176
     1
 40
0.6
176
     1
 40
30.0
176
     1
 62
     7
420
 16777215
176
     1
 90
        0
176
     1
 90
        4
176
     1
 62
     7
176
     1
 62
   257
176
     1
 90
        1
176
     1
 90
        1
176
     1
 40
1.0
176
     1
 90
        8
176
     1
 62
     7
176
     1
 40
1.0
176
     1
 90
        1
176
     1
 90
        6
176
     1
 90
        2
176
     1
 62
     7
176
     1
 90
        5
176
     1
 90
        0
176
     1
 90
        0
176
     1
290
     0
176
     1
 90
        1
176
     1
 40
0.0
176
     1
 90
        0
176
     1
290
     0
176
     1
290
     1
176
     1
290
     1
176
     1
290
     0
176
     1
290
     0
176
     1
290
     0
176
     1
290
     0
176
     1
290
     0
176
     1
290
     0
176
     1
 90
       50
176
     1
 40
0.0
176
     1
 40
1.0
176
     1
 90
        0
176
     1
 62
    18
420
        0
176
     1
 90
       50
176
     1
 90
        3
176
     1
 62
     5
420
      255
176
     1
290
     0
176
     1
 90
       50
176
     1
 90
       50
176
     1
 90
       50
176
     1
290
     0
176
     1
 90
       50
176
     1
 62
   256
176
     0
 40
1.0
176
     0
 90
        2
176
     1
  1
strokes_ogs.tif
176
     1
290
     0
176
     1
 40
1.0
176
     1
 40
1.0
176
     1
  0
VISUALSTYLE
  5
36
102
{ACAD_REACTORS
330
2A
102
}
330
2A
100
AcDbVisualStyle
  2
Brighten
 70
    12
177
     3
291
     1
 70
    58
 90
        2
176
     1
 90
        2
176
     1
 90
        0
176
     1
 90
        0
176
     1
 40
0.6
176
     1
 40
30.0
176
     1
 62
     7
420
 16777215
176
     1
 90
        1
176
     1
 90
        4
176
     1
 62
     7
176
     1
 62
   257
176
     1
 90
        1
176
     1
 90
        1
176
     1
 40
1.0
176
     1
 90
        8
176
     1
 62
     7
176
     1
 40
1.0
176
     1
 90
        1
176
     1
 90
        6
176
     1
 90
        2
176
     1
 62
     7
176
     1
 90
        5
176
     1
 90
        0
176
     1
 90
        0
176
     1
290
     0
176
     1
 90
        1
176
     1
 40
50.0
176
     1
 90
        0
176
     1
290
     0
176
     1
290
     1
176
     1
290
     1
176
     1
290
     0
176
     1
290
     0
176
     1
290
     0
176
     1
290
     0
176
     1
290
     0
176
     1
290
     0
176
     1
 90
       50
176
     1
 40
0.0
176
     1
 40
1.0
176
     1
 90
        0
176
     1
 62
    18
420
        0
176
     1
 90
       50
176
     1
 90
        3
176
     1
 62
     5
420
      255
176
     1
290
     0
176
     1
 90
       50
176
     1
 90
       50
176
     1
 90
       50
176
     1
290
     0
176
     1
 90
       50
176
     1
 62
   256
176
     0
 40
1.0
176
     0
 90
        2
176
     1
  1
strokes_ogs.tif
176
     1
290
     0
176
     1
 40
1.0
176
     1
 40
1.0
176
     1
  0
VISUALSTYLE
  5
3A
102
{ACAD_REACTORS
330
2A
102
}
330
2A
100
AcDbVisualStyle
  2
ColorChange
 70
    16
177
     3
291
     1
 70
    58
 90
        2
176
     1
 90
        2
176
     1
 90
        3
176
     1
 90
        0
176
     1
 40
0.6
176
     1
 40
30.0
176
     1
 62
     8
420
  8421504
176
     1
 90
        1
176
     1
 90
        4
176
     1
 62
     7
176
     1
 62
   257
176
     1
 90
        1
176
     1
 90
        1
176
     1
 40
1.0
176
     1
 90
        8
176
     1
 62
     8
420
  8421504
176
     1
 40
1.0
176
     1
 90
        1
176
     1
 90
        6
176
     1
 90
        2
176
     1
 62
     7
176
     1
 90
        5
176
     1
 90
        0
176
     1
 90
        0
176
     1
290
     0
176
     1
 90
        1
176
     1
 40
0.0
176
     1
 90
        0
176
     1
290
     0
176
     1
290
     1
176
     1
290
     1
176
     1
290
     0
176
     1
290
     0
176
     1
290
     0
176
     1
290
     0
176
     1
290
     0
176
     1
290
     0
176
     1
 90
       50
176
     1
 40
0.0
176
     1
 40
1.0
176
     1
 90
        0
176
     1
 62
    18
420
        0
176
     1
 90
       50
176
     1
 90
        3
176
     1
 62
     5
420
      255
176
     1
290
     0
176
     1
 90
       50
176
     1
 90
       50
176
     1
 90
       50
176
     1
290
     0
176
     1
 90
       50
176
     1
 62
   256
176
     0
 40
1.0
176
     0
 90
        2
176
     1
  1
strokes_ogs.tif
176
     1
290
     0
176
     1
 40
1.0
176
     1
 40
1.0
176
     1
  0
VISUALSTYLE
  5
34
102
{ACAD_REACTORS
330
2A
102
}
330
2A
100
AcDbVisualStyle
  2
Conceptual
 70
     9
177
     3
291
     0
 70
    58
 90
        3
176
     1
 90
        2
176
     1
 90
        0
176
     1
 90
        0
176
     1
 40
0.6
176
     1
 40
30.0
176
     1
 62
     7
420
 16777215
176
     1
 90
        2
176
     1
 90
        2
176
     1
 62
     7
176
     1
 62
   257
176
     1
 90
        1
176
     1
 90
        1
176
     1
 40
179.0
176
     1
 90
        8
176
     1
 62
     7
176
     1
 40
1.0
176
     1
 90
        1
176
     1
 90
        6
176
     1
 90
        2
176
     1
 62
     7
176
     1
 90
        3
176
     1
 90
        0
176
     1
 90
        0
176
     1
290
     0
176
     1
 90
        1
176
     1
 40
0.0
176
     1
 90
        0
176
     1
290
     0
176
     1
290
     1
176
     1
290
     1
176
     1
290
     0
176
     1
290
     0
176
     1
290
     0
176
     1
290
     0
176
     1
290
     0
176
     1
290
     0
176
     1
 90
       50
176
     1
 40
0.0
176
     1
 40
1.0
176
     1
 90
        0
176
     1
 62
    18
420
        0
176
     1
 90
       50
176
     1
 90
        3
176
     1
 62
     5
420
      255
176
     1
290
     0
176
     1
 90
       50
176
     1
 90
       50
176
     1
 90
       50
176
     1
290
     0
176
     1
 90
       50
176
     1
 62
   256
176
     0
 40
1.0
176
     0
 90
        2
176
     1
  1
strokes_ogs.tif
176
     1
290
     0
176
     1
 40
1.0
176
     1
 40
1.0
176
     1
  0
VISUALSTYLE
  5
35
102
{ACAD_REACTORS
330
2A
102
}
330
2A
100
AcDbVisualStyle
  2
Dim
 70
    11
177
     3
291
     1
 70
    58
 90
        2
176
     1
 90
        2
176
     1
 90
        0
176
     1
 90
        0
176
     1
 40
0.6
176
     1
 40
30.0
176
     1
 62
     7
420
 16777215
176
     1
 90
        1
176
     1
 90
        4
176
     1
 62
     7
176
     1
 62
   257
176
     1
 90
        1
176
     1
 90
        1
176
     1
 40
1.0
176
     1
 90
        8
176
     1
 62
     7
176
     1
 40
1.0
176
     1
 90
        1
176
     1
 90
        6
176
     1
 90
        2
176
     1
 62
     7
176
     1
 90
        5
176
     1
 90
        0
176
     1
 90
        0
176
     1
290
     0
176
     1
 90
        1
176
     1
 40
-50.0
176
     1
 90
        0
176
     1
290
     0
176
     1
290
     1
176
     1
290
     1
176
     1
290
     0
176
     1
290
     0
176
     1
290
     0
176
     1
290
     0
176
     1
290
     0
176
     1
290
     0
176
     1
 90
       50
176
     1
 40
0.0
176
     1
 40
1.0
176
     1
 90
        0
176
     1
 62
    18
420
        0
176
     1
 90
       50
176
     1
 90
        3
176
     1
 62
     5
420
      255
176
     1
290
     0
176
     1
 90
       50
176
     1
 90
       50
176
     1
 90
       50
176
     1
290
     0
176
     1
 90
       50
176
     1
 62
   256
176
     0
 40
1.0
176
     0
 90
        2
176
     1
  1
strokes_ogs.tif
176
     1
290
     0
176
     1
 40
1.0
176
     1
 40
1.0
176
     1
  0
VISUALSTYLE
  5
3D
102
{ACAD_REACTORS
330
2A
102
}
330
2A
100
AcDbVisualStyle
  2
EdgeColorOff
 70
    22
177
     3
291
     1
 70
    58
 90
        2
176
     0
 90
        2
176
     0
 90
        0
176
     0
 90
        0
176
     0
 40
0.6
176
     0
 40
30.0
176
     0
 62
     7
420
 16777215
176
     0
 90
        1
176
     0
 90
        4
176
     0
 62
     7
176
     0
 62
   257
176
     0
 90
        1
176
     0
 90
        1
176
     0
 40
1.0
176
     0
 90
        8
176
     2
 62
     7
176
     0
 40
1.0
176
     0
 90
        1
176
     0
 90
        6
176
     0
 90
        2
176
     0
 62
     7
176
     0
 90
        5
176
     0
 90
        0
176
     0
 90
        0
176
     0
290
     0
176
     0
 90
        1
176
     0
 40
0.0
176
     0
 90
        0
176
     0
290
     0
176
     0
290
     1
176
     0
290
     1
176
     0
290
     0
176
     0
290
     0
176
     0
290
     0
176
     0
290
     0
176
     0
290
     0
176
     0
290
     0
176
     0
 90
       50
176
     0
 40
0.0
176
     0
 40
1.0
176
     0
 90
        0
176
     0
 62
    18
420
        0
176
     0
 90
       50
176
     0
 90
        3
176
     0
 62
     5
420
      255
176
     0
290
     0
176
     0
 90
       50
176
     0
 90
       50
176
     0
 90
       50
176
     0
290
     0
176
     0
 90
       50
176
     0
 62
   256
176
     0
 40
1.0
176
     0
 90
        2
176
     0
  1
strokes_ogs.tif
176
     0
290
     0
176
     0
 40
1.0
176
     0
 40
1.0
176
     0
  0
VISUALSTYLE
  5
39
102
{ACAD_REACTORS
330
2A
102
}
330
2A
100
AcDbVisualStyle
  2
Facepattern
 70
    15
177
     3
291
     1
 70
    58
 90
        2
176
     1
 90
        2
176
     1
 90
        0
176
     1
 90
        0
176
     1
 40
0.6
176
     1
 40
30.0
176
     1
 62
     7
420
 16777215
176
     1
 90
        1
176
     1
 90
        4
176
     1
 62
     7
176
     1
 62
   257
176
     1
 90
        1
176
     1
 90
        1
176
     1
 40
1.0
176
     1
 90
        8
176
     1
 62
     7
176
     1
 40
1.0
176
     1
 90
        1
176
     1
 90
        6
176
     1
 90
        2
176
     1
 62
     7
176
     1
 90
        5
176
     1
 90
        0
176
     1
 90
        0
176
     1
290
     0
176
     1
 90
        1
176
     1
 40
0.0
176
     1
 90
        0
176
     1
290
     0
176
     1
290
     1
176
     1
290
     1
176
     1
290
     0
176
     1
290
     0
176
     1
290
     0
176
     1
290
     0
176
     1
290
     0
176
     1
290
     0
176
     1
 90
       50
176
     1
 40
0.0
176
     1
 40
1.0
176
     1
 90
        0
176
     1
 62
    18
420
        0
176
     1
 90
       50
176
     1
 90
        3
176
     1
 62
     5
420
      255
176
     1
290
     0
176
     1
 90
       50
176
     1
 90
       50
176
     1
 90
       50
176
     1
290
     0
176
     1
 90
       50
176
     1
 62
   256
176
     0
 40
1.0
176
     0
 90
        2
176
     1
  1
strokes_ogs.tif
176
     1
290
     0
176
     1
 40
1.0
176
     1
 40
1.0
176
     1
  0
VISUALSTYLE
  5
2B
102
{ACAD_REACTORS
330
2A
102
}
330
2A
100
AcDbVisualStyle
  2
Flat
 70
     0
177
     3
291
     1
 70
    58
 90
        2
176
     1
 90
        1
176
     1
 90
        1
176
     1
 90
        2
176
     1
 40
0.6
176
     1
 40
30.0
176
     1
 62
     7
420
 16777215
176
     1
 90
        0
176
     1
 90
        0
176
     1
 62
     7
176
     1
 62
   257
176
     1
 90
        1
176
     1
 90
        1
176
     1
 40
1.0
176
     1
 90
        8
176
     1
 62
     7
176
     1
 40
1.0
176
     1
 90
        1
176
     1
 90
        6
176
     1
 90
        2
176
     1
 62
     7
176
     1
 90
        5
176
     1
 90
        0
176
     1
 90
        0
176
     1
290
     0
176
     1
 90
       13
176
     1
 40
0.0
176
     1
 90
        0
176
     1
290
     0
176
     1
290
     1
176
     1
290
     1
176
     1
290
     0
176
     1
290
     0
176
     1
290
     0
176
     1
290
     0
176
     1
290
     0
176
     1
290
     0
176
     1
 90
       50
176
     1
 40
0.0
176
     1
 40
1.0
176
     1
 90
        0
176
     1
 62
    18
420
        0
176
     1
 90
       50
176
     1
 90
        3
176
     1
 62
     5
420
      255
176
     1
290
     0
176
     1
 90
       50
176
     1
 90
       50
176
     1
 90
       50
176
     1
290
     0
176
     1
 90
       50
176
     1
 62
   256
176
     0
 40
1.0
176
     0
 90
        2
176
     1
  1
strokes_ogs.tif
176
     1
290
     0
176
     1
 40
1.0
176
     1
 40
1.0
176
     1
  0
VISUALSTYLE
  5
2C
102
{ACAD_REACTORS
330
2A
102
}
330
2A
100
AcDbVisualStyle
  2
FlatWithEdges
 70
     1
177
     3
291
     1
 70
    58
 90
        2
176
     1
 90
        1
176
     1
 90
        1
176
     1
 90
        2
176
     1
 40
0.6
176
     1
 40
30.0
176
     1
 62
     7
420
 16777215
176
     1
 90
        1
176
     1
 90
        0
176
     1
 62
     7
176
     1
 62
   257
176
     1
 90
        1
176
     1
 90
        1
176
     1
 40
1.0
176
     1
 90
        0
176
     1
 62
   257
176
     1
 40
1.0
176
     1
 90
        1
176
     1
 90
        6
176
     1
 90
        2
176
     1
 62
     7
176
     1
 90
        5
176
     1
 90
        0
176
     1
 90
        0
176
     1
290
     0
176
     1
 90
       13
176
     1
 40
0.0
176
     1
 90
        0
176
     1
290
     0
176
     1
290
     1
176
     1
290
     1
176
     1
290
     0
176
     1
290
     0
176
     1
290
     0
176
     1
290
     0
176
     1
290
     0
176
     1
290
     0
176
     1
 90
       50
176
     1
 40
0.0
176
     1
 40
1.0
176
     1
 90
        0
176
     1
 62
    18
420
        0
176
     1
 90
       50
176
     1
 90
        3
176
     1
 62
     5
420
      255
176
     1
290
     0
176
     1
 90
       50
176
     1
 90
       50
176
     1
 90
       50
176
     1
290
     0
176
     1
 90
       50
176
     1
 62
   256
176
     0
 40
1.0
176
     0
 90
        2
176
     1
  1
strokes_ogs.tif
176
     1
290
     0
176
     1
 40
1.0
176
     1
 40
1.0
176
     1
  0
VISUALSTYLE
  5
2D
102
{ACAD_REACTORS
330
2A
102
}
330
2A
100
AcDbVisualStyle
  2
Gouraud
 70
     2
177
     3
291
     1
 70
    58
 90
        2
176
     1
 90
        2
176
     1
 90
        1
176
     1
 90
        2
176
     1
 40
0.6
176
     1
 40
30.0
176
     1
 62
     7
420
 16777215
176
     1
 90
        0
176
     1
 90
        0
176
     1
 62
     7
176
     1
 62
   257
176
     1
 90
        1
176
     1
 90
        1
176
     1
 40
1.0
176
     1
 90
        0
176
     1
 62
     7
176
     1
 40
1.0
176
     1
 90
        1
176
     1
 90
        6
176
     1
 90
        2
176
     1
 62
     7
176
     1
 90
        5
176
     1
 90
        0
176
     1
 90
        0
176
     1
290
     0
176
     1
 90
       13
176
     1
 40
0.0
176
     1
 90
        0
176
     1
290
     0
176
     1
290
     1
176
     1
290
     1
176
     1
290
     0
176
     1
290
     0
176
     1
290
     0
176
     1
290
     0
176
     1
290
     0
176
     1
290
     0
176
     1
 90
       50
176
     1
 40
0.0
176
     1
 40
1.0
176
     1
 90
        0
176
     1
 62
    18
420
        0
176
     1
 90
       50
176
     1
 90
        3
176
     1
 62
     5
420
      255
176
     1
290
     0
176
     1
 90
       50
176
     1
 90
       50
176
     1
 90
       50
176
     1
290
     0
176
     1
 90
       50
176
     1
 62
   256
176
     0
 40
1.0
176
     0
 90
        2
176
     1
  1
strokes_ogs.tif
176
     1
290
     0
176
     1
 40
1.0
176
     1
 40
1.0
176
     1
  0
VISUALSTYLE
  5
2E
102
{ACAD_REACTORS
330
2A
102
}
330
2A
100
AcDbVisualStyle
  2
GouraudWithEdges
 70
     3
177
     3
291
     1
 70
    58
 90
        2
176
     1
 90
        2
176
     1
 90
        1
176
     1
 90
        2
176
     1
 40
0.6
176
     1
 40
30.0
176
     1
 62
     7
420
 16777215
176
     1
 90
        1
176
     1
 90
        0
176
     1
 62
     7
176
     1
 62
   257
176
     1
 90
        1
176
     1
 90
        1
176
     1
 40
1.0
176
     1
 90
        0
176
     1
 62
   257
176
     1
 40
1.0
176
     1
 90
        1
176
     1
 90
        6
176
     1
 90
        2
176
     1
 62
     7
176
     1
 90
        5
176
     1
 90
        0
176
     1
 90
        0
176
     1
290
     0
176
     1
 90
       13
176
     1
 40
0.0
176
     1
 90
        0
176
     1
290
     0
176
     1
290
     1
176
     1
290
     1
176
     1
290
     0
176
     1
290
     0
176
     1
290
     0
176
     1
290
     0
176
     1
290
     0
176
     1
290
     0
176
     1
 90
       50
176
     1
 40
0.0
176
     1
 40
1.0
176
     1
 90
        0
176
     1
 62
    18
420
        0
176
     1
 90
       50
176
     1
 90
        3
176
     1
 62
     5
420
      255
176
     1
290
     0
176
     1
 90
       50
176
     1
 90
       50
176
     1
 90
       50
176
     1
290
     0
176
     1
 90
       50
176
     1
 62
   256
176
     0
 40
1.0
176
     0
 90
        2
176
     1
  1
strokes_ogs.tif
176
     1
290
     0
176
     1
 40
1.0
176
     1
 40
1.0
176
     1
  0
VISUALSTYLE
  5
31
102
{ACAD_REACTORS
330
2A
102
}
330
2A
100
AcDbVisualStyle
  2
Hidden
 70
     6
177
     3
291
     0
 70
    58
 90
        1
176
     1
 90
        2
176
     1
 90
        2
176
     1
 90
        0
176
     1
 40
0.6
176
     1
 40
30.0
176
     1
 62
     7
420
 16777215
176
     1
 90
        2
176
     1
 90
        2
176
     1
 62
     7
176
     1
 62
   257
176
     1
 90
        2
176
     1
 90
        1
176
     1
 40
40.0
176
     1
 90
        0
176
     1
 62
   257
176
     1
 40
1.0
176
     1
 90
        1
176
     1
 90
        6
176
     1
 90
        2
176
     1
 62
     7
176
     1
 90
        3
176
     1
 90
        0
176
     1
 90
        0
176
     1
290
     0
176
     1
 90
        1
176
     1
 40
0.0
176
     1
 90
        0
176
     1
290
     0
176
     1
290
     1
176
     1
290
     1
176
     1
290
     0
176
     1
290
     0
176
     1
290
     0
176
     1
290
     0
176
     1
290
     0
176
     1
290
     0
176
     1
 90
       50
176
     1
 40
0.0
176
     1
 40
1.0
176
     1
 90
        0
176
     1
 62
    18
420
        0
176
     1
 90
       50
176
     1
 90
        3
176
     1
 62
     5
420
      255
176
     1
290
     0
176
     1
 90
       50
176
     1
 90
       50
176
     1
 90
       50
176
     1
290
     0
176
     1
 90
       50
176
     1
 62
   256
176
     0
 40
1.0
176
     0
 90
        2
176
     1
  1
strokes_ogs.tif
176
     1
290
     0
176
     1
 40
1.0
176
     1
 40
1.0
176
     1
  0
VISUALSTYLE
  5
3B
102
{ACAD_REACTORS
330
2A
102
}
330
2A
100
AcDbVisualStyle
  2
JitterOff
 70
    20
177
     3
291
     1
 70
    58
 90
        2
176
     0
 90
        2
176
     0
 90
        0
176
     0
 90
        0
176
     0
 40
0.6
176
     0
 40
30.0
176
     0
 62
     7
420
 16777215
176
     0
 90
        1
176
     0
 90
        4
176
     0
 62
     7
176
     0
 62
   257
176
     0
 90
        1
176
     0
 90
        1
176
     0
 40
1.0
176
     0
 90
       10
176
     2
 62
     7
176
     0
 40
1.0
176
     0
 90
        1
176
     0
 90
        6
176
     0
 90
        2
176
     0
 62
     7
176
     0
 90
        5
176
     0
 90
        0
176
     0
 90
        0
176
     0
290
     0
176
     0
 90
        1
176
     0
 40
0.0
176
     0
 90
        0
176
     0
290
     0
176
     0
290
     1
176
     0
290
     1
176
     0
290
     0
176
     0
290
     0
176
     0
290
     0
176
     0
290
     0
176
     0
290
     0
176
     0
290
     0
176
     0
 90
       50
176
     0
 40
0.0
176
     0
 40
1.0
176
     0
 90
        0
176
     0
 62
    18
420
        0
176
     0
 90
       50
176
     0
 90
        3
176
     0
 62
     5
420
      255
176
     0
290
     0
176
     0
 90
       50
176
     0
 90
       50
176
     0
 90
       50
176
     0
290
     0
176
     0
 90
       50
176
     0
 62
   256
176
     0
 40
1.0
176
     0
 90
        2
176
     0
  1
strokes_ogs.tif
176
     0
290
     0
176
     0
 40
1.0
176
     0
 40
1.0
176
     0
  0
VISUALSTYLE
  5
38
102
{ACAD_REACTORS
330
2A
102
}
330
2A
100
AcDbVisualStyle
  2
Linepattern
 70
    14
177
     3
291
     1
 70
    58
 90
        2
176
     1
 90
        2
176
     1
 90
        0
176
     1
 90
        0
176
     1
 40
0.6
176
     1
 40
30.0
176
     1
 62
     7
420
 16777215
176
     1
 90
        1
176
     1
 90
        4
176
     1
 62
     7
176
     1
 62
   257
176
     1
 90
        7
176
     1
 90
        7
176
     1
 40
1.0
176
     1
 90
        8
176
     1
 62
     7
176
     1
 40
1.0
176
     1
 90
        1
176
     1
 90
        6
176
     1
 90
        2
176
     1
 62
     7
176
     1
 90
        5
176
     1
 90
        0
176
     1
 90
        0
176
     1
290
     0
176
     1
 90
        1
176
     1
 40
0.0
176
     1
 90
        0
176
     1
290
     0
176
     1
290
     1
176
     1
290
     1
176
     1
290
     0
176
     1
290
     0
176
     1
290
     0
176
     1
290
     0
176
     1
290
     0
176
     1
290
     0
176
     1
 90
       50
176
     1
 40
0.0
176
     1
 40
1.0
176
     1
 90
        0
176
     1
 62
    18
420
        0
176
     1
 90
       50
176
     1
 90
        3
176
     1
 62
     5
420
      255
176
     1
290
     0
176
     1
 90
       50
176
     1
 90
       50
176
     1
 90
       50
176
     1
290
     0
176
     1
 90
       50
176
     1
 62
   256
176
     0
 40
1.0
176
     0
 90
        2
176
     1
  1
strokes_ogs.tif
176
     1
290
     0
176
     1
 40
1.0
176
     1
 40
1.0
176
     1
  0
VISUALSTYLE
  5
3C
102
{ACAD_REACTORS
330
2A
102
}
330
2A
100
AcDbVisualStyle
  2
OverhangOff
 70
    21
177
     3
291
     1
 70
    58
 90
        2
176
     0
 90
        2
176
     0
 90
        0
176
     0
 90
        0
176
     0
 40
0.6
176
     0
 40
30.0
176
     0
 62
     7
420
 16777215
176
     0
 90
        1
176
     0
 90
        4
176
     0
 62
     7
176
     0
 62
   257
176
     0
 90
        1
176
     0
 90
        1
176
     0
 40
1.0
176
     0
 90
        9
176
     2
 62
     7
176
     0
 40
1.0
176
     0
 90
        1
176
     0
 90
        6
176
     0
 90
        2
176
     0
 62
     7
176
     0
 90
        5
176
     0
 90
        0
176
     0
 90
        0
176
     0
290
     0
176
     0
 90
        1
176
     0
 40
0.0
176
     0
 90
        0
176
     0
290
     0
176
     0
290
     1
176
     0
290
     1
176
     0
290
     0
176
     0
290
     0
176
     0
290
     0
176
     0
290
     0
176
     0
290
     0
176
     0
290
     0
176
     0
 90
       50
176
     0
 40
0.0
176
     0
 40
1.0
176
     0
 90
        0
176
     0
 62
    18
420
        0
176
     0
 90
       50
176
     0
 90
        3
176
     0
 62
     5
420
      255
176
     0
290
     0
176
     0
 90
       50
176
     0
 90
       50
176
     0
 90
       50
176
     0
290
     0
176
     0
 90
       50
176
     0
 62
   256
176
     0
 40
1.0
176
     0
 90
        2
176
     0
  1
strokes_ogs.tif
176
     0
290
     0
176
     0
 40
1.0
176
     0
 40
1.0
176
     0
  0
VISUALSTYLE
  5
33
102
{ACAD_REACTORS
330
2A
102
}
330
2A
100
AcDbVisualStyle
  2
Realistic
 70
     8
177
     3
291
     0
 70
    58
 90
        2
176
     1
 90
        3
176
     1
 90
        0
176
     1
 90
        2
176
     1
 40
0.6
176
     1
 40
30.0
176
     1
 62
     7
420
 16777215
176
     1
 90
        0
176
     1
 90
        0
176
     1
 62
     7
176
     1
 62
   257
176
     1
 90
        1
176
     1
 90
        1
176
     1
 40
1.0
176
     1
 90
        8
176
     1
 62
   257
176
     1
 40
1.0
176
     1
 90
        1
176
     1
 90
        6
176
     1
 90
        2
176
     1
 62
     7
176
     1
 90
        3
176
     1
 90
        0
176
     1
 90
        0
176
     1
290
     0
176
     1
 90
       13
176
     1
 40
0.0
176
     1
 90
        0
176
     1
290
     0
176
     1
290
     1
176
     1
290
     1
176
     1
290
     0
176
     1
290
     0
176
     1
290
     0
176
     1
290
     0
176
     1
290
     0
176
     1
290
     0
176
     1
 90
       50
176
     1
 40
0.0
176
     1
 40
1.0
176
     1
 90
        0
176
     1
 62
    18
420
        0
176
     1
 90
       50
176
     1
 90
        3
176
     1
 62
     5
420
      255
176
     1
290
     0
176
     1
 90
       50
176
     1
 90
       50
176
     1
 90
       50
176
     1
290
     0
176
     1
 90
       50
176
     1
 62
   256
176
     0
 40
1.0
176
     0
 90
        2
176
     1
  1
strokes_ogs.tif
176
     1
290
     0
176
     1
 40
1.0
176
     1
 40
1.0
176
     1
  0
VISUALSTYLE
  5
42
102
{ACAD_REACTORS
330
2A
102
}
330
2A
100
AcDbVisualStyle
  2
Shaded
 70
    27
177
     3
291
     0
 70
    58
 90
        2
176
     1
 90
        2
176
     1
 90
        1
176
     1
 90
        2
176
     1
 40
0.6
176
     1
 40
30.0
176
     1
 62
     7
420
 16777215
176
     1
 90
        0
176
     1
 90
        4
176
     1
 62
     7
176
     1
 62
   257
176
     1
 90
        1
176
     1
 90
        1
176
     1
 40
1.0
176
     1
 90
        8
176
     1
 62
   257
176
     1
 40
1.0
176
     1
 90
        1
176
     1
 90
        6
176
     1
 90
        2
176
     1
 62
     8
420
  7895160
176
     1
 90
        3
176
     1
 90
        0
176
     1
 90
        0
176
     1
290
     0
176
     1
 90
        5
176
     1
 40
0.0
176
     1
 90
        0
176
     1
290
     0
176
     1
290
     1
176
     1
290
     1
176
     1
290
     0
176
     1
290
     0
176
     1
290
     0
176
     1
290
     0
176
     1
290
     0
176
     1
290
     0
176
     1
 90
       50
176
     1
 40
0.0
176
     1
 40
1.0
176
     1
 90
        0
176
     1
 62
    18
420
        0
176
     1
 90
       50
176
     1
 90
        3
176
     1
 62
     5
420
      255
176
     1
290
     0
176
     1
 90
       50
176
     1
 90
       50
176
     1
 90
       50
176
     1
290
     0
176
     1
 90
       50
176
     1
 62
   256
176
     0
 40
1.0
176
     0
 90
        2
176
     1
  1
strokes_ogs.tif
176
     1
290
     0
176
     1
 40
1.0
176
     1
 40
1.0
176
     1
  0
VISUALSTYLE
  5
41
102
{ACAD_REACTORS
330
2A
102
}
330
2A
100
AcDbVisualStyle
  2
Shaded with edges
 70
    26
177
     3
291
     0
 70
    58
 90
        2
176
     1
 90
        2
176
     1
 90
        1
176
     1
 90
        2
176
     1
 40
0.6
176
     1
 40
30.0
176
     1
 62
     7
420
 16777215
176
     1
 90
        1
176
     1
 90
       10
176
     1
 62
     7
176
     1
 62
   257
176
     1
 90
        2
176
     1
 90
        1
176
     1
 40
1.0
176
     1
 90
        8
176
     1
 62
   257
176
     1
 40
1.0
176
     1
 90
        1
176
     1
 90
        6
176
     1
 90
        2
176
     1
 62
     7
176
     1
 90
        3
176
     1
 90
        0
176
     1
 90
        0
176
     1
290
     0
176
     1
 90
        5
176
     1
 40
0.0
176
     1
 90
        0
176
     1
290
     0
176
     1
290
     1
176
     1
290
     1
176
     1
290
     0
176
     1
290
     0
176
     1
290
     0
176
     1
290
     0
176
     1
290
     0
176
     1
290
     0
176
     1
 90
       50
176
     1
 40
0.0
176
     1
 40
1.0
176
     1
 90
        0
176
     1
 62
    18
420
        0
176
     1
 90
       50
176
     1
 90
        3
176
     1
 62
     5
420
      255
176
     1
290
     0
176
     1
 90
       50
176
     1
 90
       50
176
     1
 90
       50
176
     1
290
     0
176
     1
 90
       50
176
     1
 62
   256
176
     0
 40
1.0
176
     0
 90
        2
176
     1
  1
strokes_ogs.tif
176
     1
290
     0
176
     1
 40
1.0
176
     1
 40
1.0
176
     1
  0
VISUALSTYLE
  5
3E
102
{ACAD_REACTORS
330
2A
102
}
330
2A
100
AcDbVisualStyle
  2
Shades of Gray
 70
    23
177
     3
291
     0
 70
    58
 90
        2
176
     1
 90
        2
176
     1
 90
        3
176
     1
 90
        0
176
     1
 40
0.6
176
     1
 40
30.0
176
     1
 62
     7
420
 16777215
176
     1
 90
        2
176
     1
 90
        2
176
     1
 62
     7
176
     1
 62
     7
176
     1
 90
        1
176
     1
 90
        1
176
     1
 40
40.0
176
     1
 90
        8
176
     1
 62
     7
176
     1
 40
1.0
176
     1
 90
        1
176
     1
 90
        6
176
     1
 90
        2
176
     1
 62
     7
176
     1
 90
        3
176
     1
 90
        0
176
     1
 90
        0
176
     1
290
     0
176
     1
 90
        1
176
     1
 40
0.0
176
     1
 90
        0
176
     1
290
     0
176
     1
290
     1
176
     1
290
     1
176
     1
290
     0
176
     1
290
     0
176
     1
290
     0
176
     1
290
     0
176
     1
290
     0
176
     1
290
     0
176
     1
 90
       50
176
     1
 40
0.0
176
     1
 40
1.0
176
     1
 90
        0
176
     1
 62
    18
420
        0
176
     1
 90
       50
176
     1
 90
        3
176
     1
 62
     5
420
      255
176
     1
290
     0
176
     1
 90
       50
176
     1
 90
       50
176
     1
 90
       50
176
     1
290
     0
176
     1
 90
       50
176
     1
 62
   256
176
     0
 40
1.0
176
     0
 90
        2
176
     1
  1
strokes_ogs.tif
176
     1
290
     0
176
     1
 40
1.0
176
     1
 40
1.0
176
     1
  0
VISUALSTYLE
  5
3F
102
{ACAD_REACTORS
330
2A
102
}
330
2A
100
AcDbVisualStyle
  2
Sketchy
 70
    24
177
     3
291
     0
 70
    58
 90
        1
176
     1
 90
        2
176
     1
 90
        2
176
     1
 90
        0
176
     1
 40
0.6
176
     1
 40
30.0
176
     1
 62
     7
420
 16777215
176
     1
 90
        2
176
     1
 90
        2
176
     1
 62
     7
176
     1
 62
     7
176
     1
 90
        1
176
     1
 90
        1
176
     1
 40
40.0
176
     1
 90
       11
176
     1
 62
     7
176
     1
 40
1.0
176
     1
 90
        1
176
     1
 90
        6
176
     1
 90
        2
176
     1
 62
     7
176
     1
 90
        6
176
     1
 90
        0
176
     1
 90
        0
176
     1
290
     0
176
     1
 90
        1
176
     1
 40
0.0
176
     1
 90
        0
176
     1
290
     0
176
     1
290
     1
176
     1
290
     1
176
     1
290
     0
176
     1
290
     0
176
     1
290
     0
176
     1
290
     0
176
     1
290
     0
176
     1
290
     0
176
     1
 90
       50
176
     1
 40
0.0
176
     1
 40
1.0
176
     1
 90
        0
176
     1
 62
    18
420
        0
176
     1
 90
       50
176
     1
 90
        3
176
     1
 62
     5
420
      255
176
     1
290
     0
176
     1
 90
       50
176
     1
 90
       50
176
     1
 90
       50
176
     1
290
     0
176
     1
 90
       50
176
     1
 62
   256
176
     0
 40
1.0
176
     0
 90
        2
176
     1
  1
strokes_ogs.tif
176
     1
290
     0
176
     1
 40
1.0
176
     1
 40
1.0
176
     1
  0
VISUALSTYLE
  5
37
102
{ACAD_REACTORS
330
2A
102
}
330
2A
100
AcDbVisualStyle
  2
Thicken
 70
    13
177
     3
291
     1
 70
    58
 90
        2
176
     1
 90
        2
176
     1
 90
        0
176
     1
 90
        0
176
     1
 40
0.6
176
     1
 40
30.0
176
     1
 62
     7
420
 16777215
176
     1
 90
        1
176
     1
 90
        4
176
     1
 62
     7
176
     1
 62
   257
176
     1
 90
        1
176
     1
 90
        1
176
     1
 40
1.0
176
     1
 90
       12
176
     1
 62
     7
176
     1
 40
1.0
176
     1
 90
        1
176
     1
 90
        6
176
     1
 90
        2
176
     1
 62
     7
176
     1
 90
        5
176
     1
 90
        0
176
     1
 90
        0
176
     1
290
     0
176
     1
 90
        1
176
     1
 40
0.0
176
     1
 90
        0
176
     1
290
     0
176
     1
290
     1
176
     1
290
     1
176
     1
290
     0
176
     1
290
     0
176
     1
290
     0
176
     1
290
     0
176
     1
290
     0
176
     1
290
     0
176
     1
 90
       50
176
     1
 40
0.0
176
     1
 40
1.0
176
     1
 90
        0
176
     1
 62
    18
420
        0
176
     1
 90
       50
176
     1
 90
        3
176
     1
 62
     5
420
      255
176
     1
290
     0
176
     1
 90
       50
176
     1
 90
       50
176
     1
 90
       50
176
     1
290
     0
176
     1
 90
       50
176
     1
 62
   256
176
     0
 40
1.0
176
     0
 90
        2
176
     1
  1
strokes_ogs.tif
176
     1
290
     0
176
     1
 40
1.0
176
     1
 40
1.0
176
     1
  0
VISUALSTYLE
  5
30
102
{ACAD_REACTORS
330
2A
102
}
330
2A
100
AcDbVisualStyle
  2
Wireframe
 70
     5
177
     3
291
     0
 70
    58
 90
        0
176
     1
 90
        2
176
     1
 90
        0
176
     1
 90
        0
176
     1
 40
0.6
176
     1
 40
30.0
176
     1
 62
     7
420
 16777215
176
     1
 90
        1
176
     1
 90
        4
176
     1
 62
     7
176
     1
 62
   257
176
     1
 90
        1
176
     1
 90
        1
176
     1
 40
1.0
176
     1
 90
        0
176
     1
 62
   257
176
     1
 40
1.0
176
     1
 90
        1
176
     1
 90
        6
176
     1
 90
        2
176
     1
 62
     7
176
     1
 90
        3
176
     1
 90
        0
176
     1
 90
        0
176
     1
290
     0
176
     1
 90
        1
176
     1
 40
0.0
176
     1
 90
        0
176
     1
290
     0
176
     1
290
     1
176
     1
290
     1
176
     1
290
     0
176
     1
290
     0
176
     1
290
     0
176
     1
290
     0
176
     1
290
     0
176
     1
290
     0
176
     1
 90
       50
176
     1
 40
0.0
176
     1
 40
1.0
176
     1
 90
        0
176
     1
 62
    18
420
        0
176
     1
 90
       50
176
     1
 90
        3
176
     1
 62
     5
420
      255
176
     1
290
     0
176
     1
 90
       50
176
     1
 90
       50
176
     1
 90
       50
176
     1
290
     0
176
     1
 90
       50
176
     1
 62
   256
176
     0
 40
1.0
176
     0
 90
        2
176
     1
  1
strokes_ogs.tif
176
     1
290
     0
176
     1
 40
1.0
176
     1
 40
1.0
176
     1
  0
VISUALSTYLE
  5
40
102
{ACAD_REACTORS
330
2A
102
}
330
2A
100
AcDbVisualStyle
  2
X-Ray
 70
    25
177
     3
291
     0
 70
    58
 90
        2
176
     1
 90
        2
176
     1
 90
        1
176
     1
 90
        1
176
     1
 40
0.5
176
     1
 40
30.0
176
     1
 62
     7
420
 16777215
176
     1
 90
        1
176
     1
 90
        0
176
     1
 62
     7
176
     1
 62
   257
176
     1
 90
        1
176
     1
 90
        1
176
     1
 40
1.0
176
     1
 90
        8
176
     1
 62
     7
176
     1
 40
1.0
176
     1
 90
        1
176
     1
 90
        6
176
     1
 90
        2
176
     1
 62
     7
176
     1
 90
        3
176
     1
 90
        0
176
     1
 90
        0
176
     1
290
     0
176
     1
 90
       13
176
     1
 40
0.0
176
     1
 90
        0
176
     1
290
     0
176
     1
290
     1
176
     1
290
     1
176
     1
290
     0
176
     1
290
     0
176
     1
290
     0
176
     1
290
     0
176
     1
290
     0
176
     1
290
     0
176
     1
 90
       50
176
     1
 40
0.0
176
     1
 40
1.0
176
     1
 90
        0
176
     1
 62
    18
420
        0
176
     1
 90
       50
176
     1
 90
        3
176
     1
 62
     5
420
      255
176
     1
290
     0
176
     1
 90
       50
176
     1
 90
       50
176
     1
 90
       50
176
     1
290
     0
176
     1
 90
       50
176
     1
 62
   256
176
     0
 40
1.0
176
     0
 90
        2
176
     1
  1
strokes_ogs.tif
176
     1
290
     0
176
     1
 40
1.0
176
     1
 40
1.0
176
     1
  0
DICTIONARYVAR
  5
111
102
{ACAD_REACTORS
330
110
102
}
330
110
100
DictionaryVariables
280
     0
  1
1:1
  0
DICTIONARYVAR
  5
116
102
{ACAD_REACTORS
330
110
102
}
330
110
100
DictionaryVariables
280
     0
  1
Standard
  0
DICTIONARYVAR
  5
115
102
{ACAD_REACTORS
330
110
102
}
330
110
100
DictionaryVariables
280
     0
  1
Standard
  0
DICTIONARY
  5
112
330
6A
100
AcDbDictionary
280
     1
281
     1
  3
ACAD_ROUNDTRIP_2008_TABLESTYLE_CELLSTYLEMAP
360
113
  0
CELLSTYLEMAP
  5
113
102
{ACAD_REACTORS
330
112
102
}
330
112
100
AcDbCellStyleMap
 90
        3
300
CELLSTYLE
  1
TABLEFORMAT_BEGIN
 90
        5
170
     1
 91
        0
 92
    32768
 62
   257
 93
        1
300
CONTENTFORMAT
  1
CONTENTFORMAT_BEGIN
 90
        0
 91
        0
 92
        4
 93
        0
300

 40
0.0
140
1.0
 94
        5
 62
     0
340
11
144
6.0
309
CONTENTFORMAT_END
171
     1
301
MARGIN
  1
CELLMARGIN_BEGIN
 40
1.5
 40
1.5
 40
1.5
 40
1.5
 40
1.5
 40
1.5
309
CELLMARGIN_END
 94
        6
 95
        1
302
GRIDFORMAT
  1
GRIDFORMAT_BEGIN
 90
        0
 91
        1
 62
     0
 92
       -2
340
14
 93
        0
 40
0.045
309
GRIDFORMAT_END
 95
        2
302
GRIDFORMAT
  1
GRIDFORMAT_BEGIN
 90
        0
 91
        1
 62
     0
 92
       -2
340
14
 93
        0
 40
0.045
309
GRIDFORMAT_END
 95
        4
302
GRIDFORMAT
  1
GRIDFORMAT_BEGIN
 90
        0
 91
        1
 62
     0
 92
       -2
340
14
 93
        0
 40
0.045
309
GRIDFORMAT_END
 95
        8
302
GRIDFORMAT
  1
GRIDFORMAT_BEGIN
 90
        0
 91
        1
 62
     0
 92
       -2
340
14
 93
        0
 40
0.045
309
GRIDFORMAT_END
 95
       16
302
GRIDFORMAT
  1
GRIDFORMAT_BEGIN
 90
        0
 91
        1
 62
     0
 92
       -2
340
14
 93
        0
 40
0.045
309
GRIDFORMAT_END
 95
       32
302
GRIDFORMAT
  1
GRIDFORMAT_BEGIN
 90
        0
 91
        1
 62
     0
 92
       -2
340
14
 93
        0
 40
0.045
309
GRIDFORMAT_END
309
TABLEFORMAT_END
  1
CELLSTYLE_BEGIN
 90
        1
 91
        1
300
_TITLE
309
CELLSTYLE_END
300
CELLSTYLE
  1
TABLEFORMAT_BEGIN
 90
        5
170
     1
 91
        0
 92
        0
 62
   257
 93
        1
300
CONTENTFORMAT
  1
CONTENTFORMAT_BEGIN
 90
        0
 91
        0
 92
        4
 93
        0
300

 40
0.0
140
1.0
 94
        5
 62
     0
340
11
144
4.5
309
CONTENTFORMAT_END
171
     1
301
MARGIN
  1
CELLMARGIN_BEGIN
 40
1.5
 40
1.5
 40
1.5
 40
1.5
 40
1.5
 40
1.5
309
CELLMARGIN_END
 94
        6
 95
        1
302
GRIDFORMAT
  1
GRIDFORMAT_BEGIN
 90
        0
 91
        1
 62
     0
 92
       -2
340
14
 93
        0
 40
0.045
309
GRIDFORMAT_END
 95
        2
302
GRIDFORMAT
  1
GRIDFORMAT_BEGIN
 90
        0
 91
        1
 62
     0
 92
       -2
340
14
 93
        0
 40
0.045
309
GRIDFORMAT_END
 95
        4
302
GRIDFORMAT
  1
GRIDFORMAT_BEGIN
 90
        0
 91
        1
 62
     0
 92
       -2
340
14
 93
        0
 40
0.045
309
GRIDFORMAT_END
 95
        8
302
GRIDFORMAT
  1
GRIDFORMAT_BEGIN
 90
        0
 91
        1
 62
     0
 92
       -2
340
14
 93
        0
 40
0.045
309
GRIDFORMAT_END
 95
       16
302
GRIDFORMAT
  1
GRIDFORMAT_BEGIN
 90
        0
 91
        1
 62
     0
 92
       -2
340
14
 93
        0
 40
0.045
309
GRIDFORMAT_END
 95
       32
302
GRIDFORMAT
  1
GRIDFORMAT_BEGIN
 90
        0
 91
        1
 62
     0
 92
       -2
340
14
 93
        0
 40
0.045
309
GRIDFORMAT_END
309
TABLEFORMAT_END
  1
CELLSTYLE_BEGIN
 90
        2
 91
        1
300
_HEADER
309
CELLSTYLE_END
300
CELLSTYLE
  1
TABLEFORMAT_BEGIN
 90
        5
170
     1
 91
        0
 92
        0
 62
   257
 93
        1
300
CONTENTFORMAT
  1
CONTENTFORMAT_BEGIN
 90
        0
 91
        0
 92
        4
 93
        0
300

 40
0.0
140
1.0
 94
        2
 62
     0
340
11
144
4.5
309
CONTENTFORMAT_END
171
     1
301
MARGIN
  1
CELLMARGIN_BEGIN
 40
1.5
 40
1.5
 40
1.5
 40
1.5
 40
1.5
 40
1.5
309
CELLMARGIN_END
 94
        6
 95
        1
302
GRIDFORMAT
  1
GRIDFORMAT_BEGIN
 90
        0
 91
        1
 62
     0
 92
       -2
340
14
 93
        0
 40
0.045
309
GRIDFORMAT_END
 95
        2
302
GRIDFORMAT
  1
GRIDFORMAT_BEGIN
 90
        0
 91
        1
 62
     0
 92
       -2
340
14
 93
        0
 40
0.045
309
GRIDFORMAT_END
 95
        4
302
GRIDFORMAT
  1
GRIDFORMAT_BEGIN
 90
        0
 91
        1
 62
     0
 92
       -2
340
14
 93
        0
 40
0.045
309
GRIDFORMAT_END
 95
        8
302
GRIDFORMAT
  1
GRIDFORMAT_BEGIN
 90
        0
 91
        1
 62
     0
 92
       -2
340
14
 93
        0
 40
0.045
309
GRIDFORMAT_END
 95
       16
302
GRIDFORMAT
  1
GRIDFORMAT_BEGIN
 90
        0
 91
        1
 62
     0
 92
       -2
340
14
 93
        0
 40
0.045
309
GRIDFORMAT_END
 95
       32
302
GRIDFORMAT
  1
GRIDFORMAT_BEGIN
 90
        0
 91
        1
 62
     0
 92
       -2
340
14
 93
        0
 40
0.045
309
GRIDFORMAT_END
309
TABLEFORMAT_END
  1
CELLSTYLE_BEGIN
 90
        3
 91
        2
300
_DATA
309
CELLSTYLE_END
  0
ENDSEC
  0
EOF
