  0
SECTION
  2
HEADER
  9
$ACADVER
  1
AC1015
  9
$ACADMAINTVER
 70
     6
  9
$DWGCODEPAGE
  3
ANSI_1252
  9
$INSBASE
 10
0.0
 20
0.0
 30
0.0
  9
$EXTMIN
 10
-915.0
 20
-580.0
 30
0.0
  9
$EXTMAX
 10
915.0
 20
580.0
 30
0.0
  9
$LIMMIN
 10
0.0
 20
0.0
  9
$LIMMAX
 10
420.0
 20
297.0
  9
$ORTHOMODE
 70
     0
  9
$REGENMODE
 70
     1
  9
$FILLMODE
 70
     1
  9
$QTEXTMODE
 70
     0
  9
$MIRRTEXT
 70
     1
  9
$LTSCALE
 40
1.0
  9
$ATTMODE
 70
     1
  9
$TEXTSIZE
 40
3.5
  9
$TRACEWID
 40
1.0
  9
$TEXTSTYLE
  7
STANDARD
  9
$CLAYER
  8
0
  9
$CELTYPE
  6
ByLayer
  9
$CECOLOR
 62
   256
  9
$CELTSCALE
 40
1.0
  9
$DISPSILH
 70
     0
  9
$DIMSCALE
 40
1.0
  9
$DIMASZ
 40
8.0
  9
$DIMEXO
 40
1.0
  9
$DIMDLI
 40
3.75
  9
$DIMRND
 40
0.0
  9
$DIMDLE
 40
0.0
  9
$DIMEXE
 40
1.0
  9
$DIMTP
 40
0.0
  9
$DIMTM
 40
0.0
  9
$DIMTXT
 40
16.9333333333
  9
$DIMCEN
 40
2.5
  9
$DIMTSZ
 40
0.0
  9
$DIMTOL
 70
     0
  9
$DIMLIM
 70
     0
  9
$DIMTIH
 70
     1
  9
$DIMTOH
 70
     1
  9
$DIMSE1
 70
     0
  9
$DIMSE2
 70
     0
  9
$DIMTAD
 70
     1
  9
$DIMZIN
 70
     0
  9
$DIMBLK
  1

  9
$DIMASO
 70
     1
  9
$DIMSHO
 70
     1
  9
$DIMPOST
  1

  9
$DIMAPOST
  1

  9
$DIMALT
 70
     0
  9
$DIMALTD
 70
     3
  9
$DIMALTF
 40
0.0393700787
  9
$DIMLFAC
 40
1.0
  9
$DIMTOFL
 70
     1
  9
$DIMTVP
 40
0.0
  9
$DIMTIX
 70
     0
  9
$DIMSOXD
 70
     0
  9
$DIMSAH
 70
     0
  9
$DIMBLK1
  1

  9
$DIMBLK2
  1

  9
$DIMSTYLE
  2
ISO-25
  9
$DIMCLRD
 70
     0
  9
$DIMCLRE
 70
     0
  9
$DIMCLRT
 70
     0
  9
$DIMTFAC
 40
1.0
  9
$DIMGAP
 40
1.524
  9
$DIMJUST
 70
     0
  9
$DIMSD1
 70
     0
  9
$DIMSD2
 70
     0
  9
$DIMTOLJ
 70
     0
  9
$DIMTZIN
 70
     0
  9
$DIMALTZ
 70
     0
  9
$DIMALTTZ
 70
     0
  9
$DIMUPT
 70
     0
  9
$DIMDEC
 70
     2
  9
$DIMTDEC
 70
     2
  9
$DIMALTU
 70
     2
  9
$DIMALTTD
 70
     3
  9
$DIMTXSTY
  7
STANDARD
  9
$DIMAUNIT
 70
     0
  9
$DIMADEC
 70
     2
  9
$DIMALTRND
 40
0.0
  9
$DIMAZIN
 70
     0
  9
$DIMDSEP
 70
    44
  9
$DIMATFIT
 70
     3
  9
$DIMFRAC
 70
     0
  9
$DIMLDRBLK
  1

  9
$DIMLUNIT
 70
     2
  9
$DIMLWD
 70
    -2
  9
$DIMLWE
 70
    -2
  9
$DIMTMOVE
 70
     0
  9
$LUNITS
 70
     2
  9
$LUPREC
 70
     2
  9
$SKETCHINC
 40
1.0
  9
$FILLETRAD
 40
10.0
  9
$AUNITS
 70
     0
  9
$AUPREC
 70
     2
  9
$MENU
  1
.
  9
$ELEVATION
 40
0.0
  9
$PELEVATION
 40
0.0
  9
$THICKNESS
 40
0.0
  9
$LIMCHECK
 70
     0
  9
$CHAMFERA
 40
0.0
  9
$CHAMFERB
 40
0.0
  9
$CHAMFERC
 40
0.0
  9
$CHAMFERD
 40
0.0
  9
$SKPOLY
 70
     0
  9
$TDCREATE
 40
2458232.525772662
  9
$TDUCREATE
 40
2458232.442439329
  9
$TDUPDATE
 40
2458232.525802697
  9
$TDUUPDATE
 40
2458232.442469364
  9
$TDINDWG
 40
0.0000000116
  9
$TDUSRTIMER
 40
0.0000000116
  9
$USRTIMER
 70
     1
  9
$ANGBASE
 50
0.0
  9
$ANGDIR
 70
     0
  9
$PDMODE
 70
     0
  9
$PDSIZE
 40
-1.0
  9
$PLINEWID
 40
0.0
  9
$SPLFRAME
 70
     0
  9
$SPLINETYPE
 70
     6
  9
$SPLINESEGS
 70
     8
  9
$HANDSEED
  5
132
  9
$SURFTAB1
 70
     6
  9
$SURFTAB2
 70
     6
  9
$SURFTYPE
 70
     6
  9
$SURFU
 70
     6
  9
$SURFV
 70
     6
  9
$UCSBASE
  2

  9
$UCSNAME
  2

  9
$UCSORG
 10
0.0
 20
0.0
 30
0.0
  9
$UCSXDIR
 10
1.0
 20
0.0
 30
0.0
  9
$UCSYDIR
 10
0.0
 20
1.0
 30
0.0
  9
$UCSORTHOREF
  2

  9
$UCSORTHOVIEW
 70
     0
  9
$UCSORGTOP
 10
0.0
 20
0.0
 30
0.0
  9
$UCSORGBOTTOM
 10
0.0
 20
0.0
 30
0.0
  9
$UCSORGLEFT
 10
0.0
 20
0.0
 30
0.0
  9
$UCSORGRIGHT
 10
0.0
 20
0.0
 30
0.0
  9
$UCSORGFRONT
 10
0.0
 20
0.0
 30
0.0
  9
$UCSORGBACK
 10
0.0
 20
0.0
 30
0.0
  9
$PUCSBASE
  2

  9
$PUCSNAME
  2

  9
$PUCSORG
 10
0.0
 20
0.0
 30
0.0
  9
$PUCSXDIR
 10
1.0
 20
0.0
 30
0.0
  9
$PUCSYDIR
 10
0.0
 20
1.0
 30
0.0
  9
$PUCSORTHOREF
  2

  9
$PUCSORTHOVIEW
 70
     0
  9
$PUCSORGTOP
 10
0.0
 20
0.0
 30
0.0
  9
$PUCSORGBOTTOM
 10
0.0
 20
0.0
 30
0.0
  9
$PUCSORGLEFT
 10
0.0
 20
0.0
 30
0.0
  9
$PUCSORGRIGHT
 10
0.0
 20
0.0
 30
0.0
  9
$PUCSORGFRONT
 10
0.0
 20
0.0
 30
0.0
  9
$PUCSORGBACK
 10
0.0
 20
0.0
 30
0.0
  9
$USERI1
 70
     0
  9
$USERI2
 70
     0
  9
$USERI3
 70
     0
  9
$USERI4
 70
     0
  9
$USERI5
 70
     0
  9
$USERR1
 40
0.0
  9
$USERR2
 40
0.0
  9
$USERR3
 40
0.0
  9
$USERR4
 40
0.0
  9
$USERR5
 40
0.0
  9
$WORLDVIEW
 70
     1
  9
$SHADEDGE
 70
     3
  9
$SHADEDIF
 70
    70
  9
$TILEMODE
 70
     1
  9
$MAXACTVP
 70
    64
  9
$PINSBASE
 10
0.0
 20
0.0
 30
0.0
  9
$PLIMCHECK
 70
     0
  9
$PEXTMIN
 10
-915.0
 20
-520.0
 30
0.0
  9
$PEXTMAX
 10
915.0
 20
0.0
 30
0.0
  9
$PLIMMIN
 10
-1057.4124513619
 20
-573.4046692607
  9
$PLIMMAX
 10
1057.4124513619
 20
921.9260700389
  9
$UNITMODE
 70
     0
  9
$VISRETAIN
 70
     1
  9
$PLINEGEN
 70
     0
  9
$PSLTSCALE
 70
     1
  9
$TREEDEPTH
 70
  3020
  9
$CMLSTYLE
  2
Standard
  9
$CMLJUST
 70
     0
  9
$CMLSCALE
 40
20.0
  9
$PROXYGRAPHICS
 70
     1
  9
$MEASUREMENT
 70
     1
  9
$CELWEIGHT
370
    -1
  9
$ENDCAPS
280
     0
  9
$JOINSTYLE
280
     0
  9
$LWDISPLAY
290
     1
  9
$INSUNITS
 70
     4
  9
$HYPERLINKBASE
  1

  9
$STYLESHEET
  1

  9
$XEDIT
290
     1
  9
$CEPSNTYPE
380
     0
  9
$PSTYLEMODE
290
     1
  9
$FINGERPRINTGUID
  2
{409144AF-C117-4014-BC17-030E43EF2C77}
  9
$VERSIONGUID
  2
{FAEB1C32-E019-11D5-929B-00C0DF256EC4}
  9
$EXTNAMES
290
     1
  9
$PSVPSCALE
 40
0.0
  9
$OLESTARTUP
290
     0
  0
ENDSEC
  0
SECTION
  2
CLASSES
  0
CLASS
  1
ACDBDICTIONARYWDFLT
  2
AcDbDictionaryWithDefault
  3
ObjectDBX Classes
 90
        0
280
     0
281
     0
  0
CLASS
  1
VISUALSTYLE
  2
AcDbVisualStyle
  3
ObjectDBX Classes
 90
     4095
280
     0
281
     0
  0
CLASS
  1
MATERIAL
  2
AcDbMaterial
  3
ObjectDBX Classes
 90
     1153
280
     0
281
     0
  0
CLASS
  1
SCALE
  2
AcDbScale
  3
ObjectDBX Classes
 90
     1153
280
     0
281
     0
  0
CLASS
  1
TABLESTYLE
  2
AcDbTableStyle
  3
ObjectDBX Classes
 90
     4095
280
     0
281
     0
  0
CLASS
  1
MLEADERSTYLE
  2
AcDbMLeaderStyle
  3
ACDB_MLEADERSTYLE_CLASS
 90
     4095
280
     0
281
     0
  0
CLASS
  1
SUN
  2
AcDbSun
  3
SCENEOE
 90
     1153
280
     0
281
     0
  0
CLASS
  1
ACDBPLACEHOLDER
  2
AcDbPlaceHolder
  3
ObjectDBX Classes
 90
        0
280
     0
281
     0
  0
CLASS
  1
LAYOUT
  2
AcDbLayout
  3
ObjectDBX Classes
 90
        0
280
     0
281
     0
  0
ENDSEC
  0
SECTION
  2
TABLES
  0
TABLE
  2
VPORT
  5
8
330
0
100
AcDbSymbolTable
 70
     1
  0
VPORT
  5
29
330
8
100
AcDbSymbolTableRecord
100
AcDbViewportTableRecord
  2
*Active
 70
     0
 10
0.0
 20
0.0
 11
1.0
 21
1.0
 12
0.0
 22
0.0
 13
0.0
 23
0.0
 14
10.0
 24
10.0
 15
10.0
 25
10.0
 16
0.0
 26
0.0
 36
1.0
 17
0.0
 27
0.0
 37
0.0
 40
1183.2
 41
1.5775862069
 42
50.0
 43
0.0
 44
0.0
 50
0.0
 51
0.0
 71
     0
 72
   100
 73
     1
 74
     3
 75
     0
 76
     0
 77
     0
 78
     0
281
     0
 65
     1
110
0.0
120
0.0
130
0.0
111
1.0
121
0.0
131
0.0
112
0.0
122
1.0
132
0.0
 79
     0
146
0.0
  0
ENDTAB
  0
TABLE
  2
LTYPE
  5
5
330
0
100
AcDbSymbolTable
 70
     6
  0
LTYPE
  5
14
330
5
100
AcDbSymbolTableRecord
100
AcDbLinetypeTableRecord
  2
ByBlock
 70
     0
  3

 72
    65
 73
     0
 40
0.0
  0
LTYPE
  5
15
330
5
100
AcDbSymbolTableRecord
100
AcDbLinetypeTableRecord
  2
ByLayer
 70
     0
  3

 72
    65
 73
     0
 40
0.0
  0
LTYPE
  5
16
330
5
100
AcDbSymbolTableRecord
100
AcDbLinetypeTableRecord
  2
Continuous
 70
     0
  3
Solid line
 72
    65
 73
     0
 40
0.0
  0
LTYPE
  5
6E
330
5
100
AcDbSymbolTableRecord
100
AcDbLinetypeTableRecord
  2
HIDDEN
 70
     0
  3
Hidden __ __ __ __ __ __ __ __ __ __ __ __ __ __
 72
    65
 73
     2
 40
1.905
 49
1.27
 74
     0
 49
-0.635
 74
     0
  0
LTYPE
  5
6F
330
5
100
AcDbSymbolTableRecord
100
AcDbLinetypeTableRecord
  2
PHANTOM
 70
     0
  3
Phantom ______  __  __  ______  __  __  ______
 72
    65
 73
     6
 40
12.7
 49
6.35
 74
     0
 49
-1.27
 74
     0
 49
1.27
 74
     0
 49
-1.27
 74
     0
 49
1.27
 74
     0
 49
-1.27
 74
     0
  0
LTYPE
  5
70
330
5
100
AcDbSymbolTableRecord
100
AcDbLinetypeTableRecord
  2
CENTER
 70
     0
  3
Center ____ _ ____ _ ____ _ ____ _ ____ _ ____
 72
    65
 73
     4
 40
10.16
 49
6.35
 74
     0
 49
-1.27
 74
     0
 49
1.27
 74
     0
 49
-1.27
 74
     0
  0
LTYPE
  5
71
330
5
100
AcDbSymbolTableRecord
100
AcDbLinetypeTableRecord
  2
CENTERX2
 70
     0
  3
Center (2x) ________  __  ________  __  _____
 72
    65
 73
     4
 40
20.32
 49
12.7
 74
     0
 49
-2.54
 74
     0
 49
2.54
 74
     0
 49
-2.54
 74
     0
  0
LTYPE
  5
72
330
5
100
AcDbSymbolTableRecord
100
AcDbLinetypeTableRecord
  2
DOT2
 70
     0
  3
Dot (.5x) ........................................
 72
    65
 73
     2
 40
0.635
 49
0.0
 74
     0
 49
-0.635
 74
     0
  0
ENDTAB
  0
TABLE
  2
LAYER
  5
2
330
0
100
AcDbSymbolTable
 70
     1
  0
LAYER
  5
10
330
2
100
AcDbSymbolTableRecord
100
AcDbLayerTableRecord
  2
0
 70
     0
 62
     7
  6
Continuous
370
    -3
390
F
  0
ENDTAB
  0
TABLE
  2
STYLE
  5
3
330
0
100
AcDbSymbolTable
 70
     1
  0
STYLE
  5
11
330
3
100
AcDbSymbolTableRecord
100
AcDbTextStyleTableRecord
  2
STANDARD
 70
     0
 40
0.0
 41
1.0
 50
0.0
 71
     0
 42
3.5
  3
GOTHIC.TTF
  4

1001
ACAD
1000
CENTURY GOTHIC
1071
       34
  0
ENDTAB
  0
TABLE
  2
VIEW
  5
6
330
0
100
AcDbSymbolTable
 70
     0
  0
ENDTAB
  0
TABLE
  2
UCS
  5
7
330
0
100
AcDbSymbolTable
 70
     0
  0
ENDTAB
  0
TABLE
  2
APPID
  5
9
330
0
100
AcDbSymbolTable
 70
     1
  0
APPID
  5
12
330
9
100
AcDbSymbolTableRecord
100
AcDbRegAppTableRecord
  2
ACAD
 70
     0
  0
ENDTAB
  0
TABLE
  2
DIMSTYLE
  5
A
330
0
100
AcDbSymbolTable
 70
     1
100
AcDbDimStyleTable
  0
DIMSTYLE
105
27
330
A
100
AcDbSymbolTableRecord
100
AcDbDimStyleTableRecord
  2
ISO-25
 70
     0
 41
2.5
 42
0.625
 43
3.75
 44
1.25
 73
     0
 74
     0
 77
     1
 78
     8
140
2.5
141
2.5
143
0.0393700787
147
0.625
171
     3
172
     1
178
     0
271
     2
272
     2
274
     3
278
    44
283
     0
284
     8
340
11
  0
ENDTAB
  0
TABLE
  2
BLOCK_RECORD
  5
1
330
0
100
AcDbSymbolTable
 70
     8
  0
BLOCK_RECORD
  5
1F
330
1
100
AcDbSymbolTableRecord
100
AcDbBlockTableRecord
  2
*Model_Space
340
22
  0
BLOCK_RECORD
  5
1B
330
1
100
AcDbSymbolTableRecord
100
AcDbBlockTableRecord
  2
*Paper_Space
340
1E
  0
BLOCK_RECORD
  5
23
330
1
100
AcDbSymbolTableRecord
100
AcDbBlockTableRecord
  2
*Paper_Space0
340
26
  0
BLOCK_RECORD
  5
98
330
1
100
AcDbSymbolTableRecord
100
AcDbBlockTableRecord
  2
*Paper_Space1
340
99
  0
BLOCK_RECORD
  5
A7
330
1
100
AcDbSymbolTableRecord
100
AcDbBlockTableRecord
  2
*Paper_Space2
340
A8
  0
BLOCK_RECORD
  5
B5
330
1
100
AcDbSymbolTableRecord
100
AcDbBlockTableRecord
  2
*Paper_Space3
340
B6
  0
BLOCK_RECORD
  5
C2
330
1
100
AcDbSymbolTableRecord
100
AcDbBlockTableRecord
  2
*Paper_Space4
340
C3
  0
BLOCK_RECORD
  5
DD
330
1
100
AcDbSymbolTableRecord
100
AcDbBlockTableRecord
  2
*Paper_Space5
340
DE
  0
BLOCK_RECORD
  5
FA
330
1
100
AcDbSymbolTableRecord
100
AcDbBlockTableRecord
  2
*Paper_Space6
340
FB
  0
BLOCK_RECORD
  5
10B
330
1
100
AcDbSymbolTableRecord
100
AcDbBlockTableRecord
  2
*Paper_Space7
340
10C
  0
ENDTAB
  0
ENDSEC
  0
SECTION
  2
BLOCKS
  0
BLOCK
  5
20
330
1F
100
AcDbEntity
  8
0
100
AcDbBlockBegin
  2
*Model_Space
 70
     0
 10
0.0
 20
0.0
 30
0.0
  3
*Model_Space
  1

  0
ENDBLK
  5
21
330
1F
100
AcDbEntity
  8
0
100
AcDbBlockEnd
  0
BLOCK
  5
1C
330
1B
100
AcDbEntity
 67
     1
  8
0
100
AcDbBlockBegin
  2
*Paper_Space
 70
     0
 10
0.0
 20
0.0
 30
0.0
  3
*Paper_Space
  1

  0
ENDBLK
  5
1D
330
1B
100
AcDbEntity
 67
     1
  8
0
100
AcDbBlockEnd
  0
BLOCK
  5
24
330
23
100
AcDbEntity
  8
0
100
AcDbBlockBegin
  2
*Paper_Space0
 70
     0
 10
0.0
 20
0.0
 30
0.0
  3
*Paper_Space0
  1

  0
SPLINE
  5
89
330
23
100
AcDbEntity
  8
0
  6
Continuous
 62
     7
370
    25
100
AcDbSpline
210
0.0
220
0.0
230
1.0
 70
     8
 71
     3
 72
    46
 73
    42
 74
     0
 42
0.000000001
 43
0.00000001
 40
0.0
 40
0.0
 40
0.0
 40
0.0
 40
0.0319938295049341
 40
0.0628383420764411
 40
0.0925515979971373
 40
0.1211488000593429
 40
0.1486426773761945
 40
0.1750438135854319
 40
0.2047679161621405
 40
0.2329976745375437
 40
0.2597418164350464
 40
0.2850067866821405
 40
0.309215973999316
 40
0.3318993562094533
 40
0.3530584127424293
 40
0.3726933720378995
 40
0.3908034407296797
 40
0.4071042873827855
 40
0.4219305749083521
 40
0.4362073966597781
 40
0.4519395885319149
 40
0.4695297054105987
 40
0.4887139302275381
 40
0.5094943432231777
 40
0.5318180087831591
 40
0.5556697927943738
 40
0.5805804322866475
 40
0.6069611773074952
 40
0.6348123456302663
 40
0.6641360681524713
 40
0.6901750444635272
 40
0.71728107938288
 40
0.7454594422272287
 40
0.7747169488602228
 40
0.8050621639877071
 40
0.8365056413923954
 40
0.8671699668446643
 40
0.8988349066546043
 40
0.9315157120799906
 40
0.9652303653301466
 40
1.0
 40
1.0
 40
1.0
 40
1.0
 10
205.0000000000001
 20
-485.0
 30
0.0
 10
211.5324983757258
 20
-482.6976821184213
 30
0.0
 10
224.36282765795
 20
-478.1757527073441
 30
0.0
 10
242.9321614048418
 20
-470.6381772090311
 30
0.0
 10
260.569246058903
 20
-462.7964011903028
 30
0.0
 10
277.2716628908206
 20
-454.6632276861566
 30
0.0
 10
293.0652961682503
 20
-446.3249026073008
 30
0.0
 10
308.7998945933363
 20
-437.3719576428782
 30
0.0
 10
324.3690967662
 20
-427.8241616197727
 30
0.0
 10
339.6675452940974
 20
-417.7138531499534
 30
0.0
 10
353.8451910476873
 20
-407.6753967820295
 30
0.0
 10
367.0161746286913
 20
-397.7352499202598
 30
0.0
 10
379.2080267070369
 20
-387.9682421649878
 30
0.0
 10
390.4492061048402
 20
-378.4455261056753
 30
0.0
 10
400.703588148037
 20
-369.2972778454848
 30
0.0
 10
410.0139297611839
 20
-360.5837792304355
 30
0.0
 10
418.3778082570169
 20
-352.4025186570769
 30
0.0
 10
425.8459430089575
 20
-344.7975222390497
 30
0.0
 10
432.6038426899262
 20
-337.6605170956364
 30
0.0
 10
439.1562067676825
 20
-330.5004141508105
 30
0.0
 10
445.9781374717498
 20
-322.7779891720696
 30
0.0
 10
453.3361484145013
 20
-314.1143057298324
 30
0.0
 10
461.1957092979823
 20
-304.4463624876221
 30
0.0
 10
469.4551301817835
 20
-293.7873435856058
 30
0.0
 10
478.0421970539769
 20
-282.1094367556893
 30
0.0
 10
486.8211793159664
 20
-269.4694253315676
 30
0.0
 10
495.7166850266443
 20
-255.8487856762652
 30
0.0
 10
504.6514776833422
 20
-241.2284870637116
 30
0.0
 10
513.5905872212628
 20
-225.5014241905503
 30
0.0
 10
521.9649733379865
 20
-209.5495156424851
 30
0.0
 10
529.7481177726061
 20
-193.4810328636769
 30
0.0
 10
536.9275029954706
 20
-177.4046936648607
 30
0.0
 10
543.8473083944626
 20
-160.459516918554
 30
0.0
 10
550.4378304116293
 20
-142.6336120720799
 30
0.0
 10
556.6254455338135
 20
-123.9175400090555
 30
0.0
 10
562.2187546902708
 20
-104.6974628024468
 30
0.0
 10
567.1794555375076
 20
-85.01020006943477
 30
0.0
 10
571.4797984507238
 20
-64.89323414408959
 30
0.0
 10
575.1181736432452
 20
-43.9768125608227
 30
0.0
 10
578.0943088060734
 20
-22.27252473727428
 30
0.0
 10
579.3582792310025
 20
-7.50003030263885
 30
0.0
 10
579.9999999999999
 20
0.0
 30
0.0
  0
SPLINE
  5
8A
330
23
100
AcDbEntity
  8
0
  6
Continuous
 62
     7
370
    25
100
AcDbSpline
210
0.0
220
0.0
230
1.0
 70
     8
 71
     3
 72
    46
 73
    42
 74
     0
 42
0.000000001
 43
0.00000001
 40
0.0
 40
0.0
 40
0.0
 40
0.0
 40
0.031993829504934
 40
0.0628383420764412
 40
0.0925515979971373
 40
0.121148800059343
 40
0.1486426773761946
 40
0.1750438135854317
 40
0.2047679161621405
 40
0.2329976745375437
 40
0.2597418164350464
 40
0.2850067866821405
 40
0.3092159739993158
 40
0.3318993562094532
 40
0.3530584127424291
 40
0.3726933720378994
 40
0.3908034407296795
 40
0.4071042873827852
 40
0.4219305749083521
 40
0.4362073966597781
 40
0.4519395885319148
 40
0.4695297054105985
 40
0.4887139302275383
 40
0.5094943432231778
 40
0.5318180087831591
 40
0.5556697927943737
 40
0.5805804322866474
 40
0.6069611773074954
 40
0.6348123456302666
 40
0.6641360681524715
 40
0.6901750444635271
 40
0.71728107938288
 40
0.7454594422272289
 40
0.774716948860223
 40
0.8050621639877072
 40
0.8365056413923955
 40
0.8671699668446644
 40
0.8988349066546042
 40
0.9315157120799905
 40
0.9652303653301466
 40
0.9999999999999999
 40
0.9999999999999999
 40
0.9999999999999999
 40
0.9999999999999999
 10
-579.9999999999997
 20
0.0
 30
0.0
 10
-579.4160069626693
 20
-6.90167767930705
 30
0.0
 10
-578.2689997172764
 20
-20.45710351061464
 30
0.0
 10
-575.6479165323476
 20
-40.32580057745605
 30
0.0
 10
-572.4977826530393
 20
-59.3688271952196
 30
0.0
 10
-568.8303801524834
 20
-77.58062002773858
 30
0.0
 10
-564.7356933375601
 20
-94.96452226832605
 30
0.0
 10
-560.0313146764038
 20
-112.4459876687768
 30
0.0
 10
-554.7096058088993
 20
-129.9171032578813
 30
0.0
 10
-548.7753461969322
 20
-147.2677639822863
 30
0.0
 10
-542.6285237530246
 20
-163.5156198164592
 30
0.0
 10
-536.3234728704766
 20
-178.7644775275504
 30
0.0
 10
-529.9395434721297
 20
-193.0221471488008
 30
0.0
 10
-523.5527604588457
 20
-206.2982624744943
 30
0.0
 10
-517.2800166425413
 20
-218.5250969925914
 30
0.0
 10
-511.1904149274415
 20
-229.7288584154089
 30
0.0
 10
-505.3776954173886
 20
-239.8826645963292
 30
0.0
 10
-499.897232734074
 20
-249.0245208612324
 30
0.0
 10
-494.6909315205659
 20
-257.3612155413419
 30
0.0
 10
-489.4105435880804
 20
-265.5048051964289
 30
0.0
 10
-483.6537857287952
 20
-274.05081742629
 30
0.0
 10
-477.1210013282915
 20
-283.3525626279971
 30
0.0
 10
-469.7425261526183
 20
-293.3924793556258
 30
0.0
 10
-461.5055249287234
 20
-304.0688330462294
 30
0.0
 10
-452.3649047790029
 20
-315.318734764656
 30
0.0
 10
-442.3414581020306
 20
-326.9965314349247
 30
0.0
 10
-431.3982817434134
 20
-339.0339205892433
 30
0.0
 10
-419.4975175156823
 20
-351.3609422138847
 30
0.0
 10
-406.5267064000107
 20
-363.9707100527025
 30
0.0
 10
-393.1961495083878
 20
-376.0905277954332
 30
0.0
 10
-379.6039580828812
 20
-387.6674793957206
 30
0.0
 10
-365.8521992921765
 20
-398.662086454454
 30
0.0
 10
-351.1942388006922
 20
-409.6241535931637
 30
0.0
 10
-335.601024739016
 20
-420.4892140753263
 30
0.0
 10
-319.0448911155848
 20
-431.1883903899638
 30
0.0
 10
-301.8513936093909
 20
-441.4392498003845
 30
0.0
 10
-284.0465259255157
 20
-451.1954557009444
 30
0.0
 10
-265.6595792293495
 20
-460.4207176704002
 30
0.0
 10
-246.332299576028
 20
-469.2065430210893
 30
0.0
 10
-226.0758347378957
 20
-477.5497511987847
 30
0.0
 10
-212.097057969503
 20
-482.4912098008448
 30
0.0
 10
-204.9999999999999
 20
-485.0
 30
0.0
  0
SPLINE
  5
8D
330
23
100
AcDbEntity
  8
0
  6
Continuous
 62
     7
370
    25
100
AcDbSpline
210
0.0
220
0.0
230
1.0
 70
    24
 71
     3
 72
    15
 73
    11
 74
     0
 42
0.000000001
 43
0.00000001
 40
0.7499999999991444
 40
0.7499999999991444
 40
0.7499999999991444
 40
0.7499999999991444
 40
0.7916666666666666
 40
0.8333333333333334
 40
0.875
 40
0.9166666666666666
 40
0.9583333333333334
 40
0.9916666666666667
 40
0.99375
 40
1.0
 40
1.0
 40
1.0
 40
1.0
 10
579.9999999999999
 20
0.0
 30
0.0
 10
579.9999999998599
 20
0.0
 30
0.0
 10
566.3829905510386
 20
0.0
 30
0.0
 10
508.4287905721989
 20
0.0
 30
0.0
 10
414.9362729484781
 20
0.0
 30
0.0
 10
292.5577161630735
 20
0.0
 30
0.0
 10
161.9714882824754
 20
0.0
 30
0.0
 10
68.62610483457168
 20
0.0
 30
0.0
 10
17.80845506728423
 20
0.0
 30
0.0
 10
7.632195028836402
 20
0.0
 30
0.0
 10
0.0000000000005313
 20
0.0
 30
0.0
  0
SPLINE
  5
8F
330
23
100
AcDbEntity
  8
0
  6
Continuous
 62
     7
370
    25
100
AcDbSpline
210
0.0
220
0.0
230
1.0
 70
    24
 71
     3
 72
    15
 73
    11
 74
     0
 42
0.000000001
 43
0.00000001
 40
0.0
 40
0.0
 40
0.0
 40
0.0
 40
0.0062500000000001
 40
0.0083333333333333
 40
0.0416666666666666
 40
0.0833333333333334
 40
0.1250000000000001
 40
0.1666666666666666
 40
0.2083333333333334
 40
0.25
 40
0.25
 40
0.25
 40
0.25
 10
0.0000000000001609
 20
-485.0000000000001
 30
0.0
 10
-2.69758617398498
 20
-485.0000000000002
 30
0.0
 10
-6.294367739298437
 20
-485.0000000000002
 30
0.0
 10
-24.25577843290866
 20
-485.0000000000002
 30
0.0
 10
-57.24854327225388
 20
-484.9999999999999
 30
0.0
 10
-103.4040203679825
 20
-484.9999999999999
 30
0.0
 10
-146.6585102662722
 20
-484.9999999999999
 30
0.0
 10
-179.7032794263804
 20
-485.0
 30
0.0
 10
-200.1870914880074
 20
-485.0000000000001
 30
0.0
 10
-204.9999999999999
 20
-485.0
 30
0.0
 10
-204.9999999999999
 20
-485.0
 30
0.0
  0
SPLINE
  5
91
330
23
100
AcDbEntity
  8
0
  6
Continuous
 62
     7
370
    25
100
AcDbSpline
210
0.0
220
0.0
230
1.0
 70
    24
 71
     3
 72
    15
 73
    11
 74
     0
 42
0.000000001
 43
0.00000001
 40
0.0
 40
0.0
 40
0.0
 40
0.0
 40
0.0062500000000001
 40
0.0083333333333333
 40
0.0416666666666666
 40
0.0833333333333334
 40
0.1250000000000001
 40
0.1666666666666666
 40
0.2083333333333334
 40
0.25
 40
0.25
 40
0.25
 40
0.25
 10
0.0000000000001609
 20
-520.0000000000002
 30
0.0
 10
-2.69758617398498
 20
-520.0000000000002
 30
0.0
 10
-6.294367739298437
 20
-520.0000000000001
 30
0.0
 10
-24.25577843290866
 20
-520.0
 30
0.0
 10
-57.24854327225388
 20
-519.9999999999999
 30
0.0
 10
-103.4040203679825
 20
-519.9999999999999
 30
0.0
 10
-146.6585102662722
 20
-520.0
 30
0.0
 10
-179.7032794263804
 20
-520.0000000000001
 30
0.0
 10
-200.1870914880074
 20
-520.0000000000001
 30
0.0
 10
-204.9999999999999
 20
-520.0
 30
0.0
 10
-204.9999999999999
 20
-520.0
 30
0.0
  0
LINE
  5
93
330
23
100
AcDbEntity
  8
0
  6
Continuous
 62
     7
370
    25
100
AcDbLine
 10
205.0
 20
-520.0
 30
0.0
 11
205.0
 21
-485.0
 31
0.0
  0
LINE
  5
94
330
23
100
AcDbEntity
  8
0
  6
Continuous
 62
     7
370
    25
100
AcDbLine
 10
-205.0
 20
-485.0
 30
0.0
 11
-205.0
 21
-520.0
 31
0.0
  0
LINE
  5
95
330
23
100
AcDbEntity
  8
0
  6
Continuous
 62
     7
370
    25
100
AcDbLine
 10
-580.0
 20
0.0
 30
0.0
 11
0.0
 21
0.0
 31
0.0
  0
LINE
  5
96
330
23
100
AcDbEntity
  8
0
  6
Continuous
 62
     7
370
    25
100
AcDbLine
 10
205.0
 20
-485.0
 30
0.0
 11
0.0
 21
-485.0
 31
0.0
  0
LINE
  5
97
330
23
100
AcDbEntity
  8
0
  6
Continuous
 62
     7
370
    25
100
AcDbLine
 10
205.0
 20
-520.0
 30
0.0
 11
0.0
 21
-520.0
 31
0.0
  0
VIEWPORT
  5
122
330
23
100
AcDbEntity
  8
0
100
AcDbViewport
 10
0.0
 20
0.0
 30
0.0
 40
205.6
 41
156.0
 68
     1
 69
     1
 12
0.0
 22
0.0
 13
0.0
 23
0.0
 14
10.0
 24
10.0
 15
10.0
 25
10.0
 16
0.0
 26
0.0
 36
1.0
 17
0.0
 27
0.0
 37
0.0
 42
50.0
 43
0.0
 44
0.0
 45
1416.2918287938
 50
0.0
 51
0.0
 72
   100
 90
   557152
  1

281
     0
 71
     1
 74
     0
110
0.0
120
0.0
130
0.0
111
1.0
121
0.0
131
0.0
112
0.0
122
1.0
132
0.0
 79
     0
146
0.0
  0
ENDBLK
  5
25
330
23
100
AcDbEntity
  8
0
100
AcDbBlockEnd
  0
BLOCK
  5
9A
330
98
100
AcDbEntity
  8
0
100
AcDbBlockBegin
  2
*Paper_Space1
 70
     0
 10
0.0
 20
0.0
 30
0.0
  3
*Paper_Space1
  1

  0
SPLINE
  5
9C
330
98
100
AcDbEntity
  8
0
  6
Continuous
 62
     7
370
    25
100
AcDbSpline
210
0.0
220
0.0
230
1.0
 70
     8
 71
     3
 72
    51
 73
    47
 74
     0
 42
0.000000001
 43
0.00000001
 40
0.0
 40
0.0
 40
0.0
 40
0.0
 40
0.0303168732688979
 40
0.0592933080585491
 40
0.0869889044410128
 40
0.1134595876365861
 40
0.1387576252897532
 40
0.1629316613330294
 40
0.1860267669828804
 40
0.2102345957228557
 40
0.2332377071622576
 40
0.255081815581576
 40
0.2758079877570484
 40
0.2954528598768922
 40
0.3189419776764054
 40
0.3407895963323472
 40
0.3610440382041865
 40
0.3797451405850595
 40
0.3969252076449548
 40
0.4123428703621526
 40
0.4263371872416664
 40
0.4396667867087956
 40
0.454292434575092
 40
0.4706218592625211
 40
0.4884059746973575
 40
0.5076535914406748
 40
0.5283796276304821
 40
0.5506063495359259
 40
0.5691431029714803
 40
0.5886444651094886
 40
0.6091338559827343
 40
0.6306392592520981
 40
0.6531935896574175
 40
0.6746399338769914
 40
0.697017364633182
 40
0.720362573790912
 40
0.7447164026200556
 40
0.7701239695025069
 40
0.7966347706147531
 40
0.8243027525356832
 40
0.8507316176717349
 40
0.8782302434294226
 40
0.906850153645701
 40
0.9366460312397583
 40
0.9676756842390363
 40
1.0
 40
1.0
 40
1.0
 40
1.0
 10
469.0
 20
-484.9999999999999
 30
0.0
 10
475.9163918067628
 20
-483.281186879476
 30
0.0
 10
489.443372192063
 20
-479.9195567091621
 30
0.0
 10
509.1203923991808
 20
-474.3456840522406
 30
0.0
 10
527.7924113237473
 20
-468.5680491385438
 30
0.0
 10
545.4878397925962
 20
-462.5794009393662
 30
0.0
 10
562.2469323511326
 20
-456.4255281915401
 30
0.0
 10
578.1055343572813
 20
-450.1375725207981
 30
0.0
 10
593.5640797271193
 20
-443.5508706447995
 30
0.0
 10
608.5947550684235
 20
-436.6757344770505
 30
0.0
 10
623.16977854278
 20
-429.5260354792435
 30
0.0
 10
636.825044352201
 20
-422.3723511431579
 30
0.0
 10
649.6009647357681
 20
-415.2521014392985
 30
0.0
 10
662.5265062928044
 20
-407.6160874517823
 30
0.0
 10
675.4613225021492
 20
-399.4869341548463
 30
0.0
 10
688.2685749765194
 20
-390.8988247445016
 30
0.0
 10
699.9127167576104
 20
-382.6077452643353
 30
0.0
 10
710.4569505509734
 20
-374.6720437389029
 30
0.0
 10
719.9107631455935
 20
-367.184787290985
 30
0.0
 10
728.340770286503
 20
-360.1918626146241
 30
0.0
 10
735.9401272349525
 20
-353.6188807026097
 30
0.0
 10
743.2728804316625
 20
-347.0251666441212
 30
0.0
 10
750.8744027274456
 20
-339.9122300948534
 30
0.0
 10
759.0660527236128
 20
-331.9010965168579
 30
0.0
 10
767.8181354649831
 20
-322.9140278808076
 30
0.0
 10
777.0301934876949
 20
-312.9384709327016
 30
0.0
 10
786.6394175844383
 20
-301.9158489453937
 30
0.0
 10
795.8003405497997
 20
-290.7325853532012
 30
0.0
 10
804.4572329951891
 20
-279.5174958596028
 30
0.0
 10
812.5695856278826
 20
-268.4039806888339
 30
0.0
 10
820.7640647786842
 20
-256.4931837853427
 30
0.0
 10
828.9997291746907
 20
-243.7470844029654
 30
0.0
 10
836.9668140965953
 20
-230.5675806730266
 30
0.0
 10
844.6446665323073
 20
-216.9819714195251
 30
0.0
 10
852.0173700830975
 20
-203.017612100393
 30
0.0
 10
859.2808430617631
 20
-188.2304831740014
 30
0.0
 10
866.3977174612497
 20
-172.5860024537765
 30
0.0
 10
873.329354148795
 20
-156.048458360322
 30
0.0
 10
880.0358771949935
 20
-138.5810156715058
 30
0.0
 10
886.2857833244955
 20
-120.6904296185141
 30
0.0
 10
892.0797391937341
 20
-102.4038161004859
 30
0.0
 10
897.4197693084576
 20
-83.74667714149614
 30
0.0
 10
902.4351102930779
 20
-64.18116216425099
 30
0.0
 10
907.0778700761732
 20
-43.67268364281118
 30
0.0
 10
911.36182502725
 20
-22.19560830246381
 30
0.0
 10
913.7708651215755
 20
-7.498648777680527
 30
0.0
 10
914.9999999999995
 20
0.0
 30
0.0
  0
SPLINE
  5
9D
330
98
100
AcDbEntity
  8
0
  6
Continuous
 62
     7
370
    25
100
AcDbSpline
210
0.0
220
0.0
230
1.0
 70
     8
 71
     3
 72
    51
 73
    47
 74
     0
 42
0.000000001
 43
0.00000001
 40
0.0
 40
0.0
 40
0.0
 40
0.0
 40
0.0303662264782993
 40
0.0593906116511707
 40
0.0871325836090727
 40
0.1136479439307391
 40
0.1389888838438406
 40
0.1632040164716892
 40
0.1863384257222301
 40
0.2105874841019427
 40
0.2336298453147001
 40
0.2555113979503858
 40
0.2762734273000363
 40
0.2959528259875718
 40
0.3194844213243898
 40
0.341373479432849
 40
0.3616690162796587
 40
0.3804115860958059
 40
0.3976342143996949
 40
0.4130954289615205
 40
0.4271356824793794
 40
0.4404581184959201
 40
0.4550579765340078
 40
0.4713644302166068
 40
0.4891280557647024
 40
0.5083567524952739
 40
0.5290644684096003
 40
0.5512724555247458
 40
0.5697935211782765
 40
0.5892777905038863
 40
0.6097481816641998
 40
0.6312321900094511
 40
0.6537622640178241
 40
0.675183707779532
 40
0.6975332143004894
 40
0.7208472092727483
 40
0.7451663057049176
 40
0.7705354365161771
 40
0.7970039596075088
 40
0.8246257342396842
 40
0.8510087634686626
 40
0.8784582390297981
 40
0.9070257413029339
 40
0.9367660509299381
 40
0.9677371148358225
 40
0.9999999999999999
 40
0.9999999999999999
 40
0.9999999999999999
 40
0.9999999999999999
 10
-914.9999999999999
 20
0.0
 30
0.0
 10
-913.8485935079511
 20
-7.044889065440707
 30
0.0
 10
-911.5966595750082
 20
-20.82336334870966
 30
0.0
 10
-907.6434577577536
 20
-40.92326149662287
 30
0.0
 10
-903.4080985180533
 20
-60.0377713356087
 30
0.0
 10
-898.8855525380727
 20
-78.19582704361291
 30
0.0
 10
-894.1242696583196
 20
-95.43379531528662
 30
0.0
 10
-889.1578489819061
 20
-111.7848582389432
 30
0.0
 10
-883.8628918960974
 20
-127.7622062492681
 30
0.0
 10
-878.2472167477753
 20
-143.3373042164547
 30
0.0
 10
-872.3221301594135
 20
-158.4813782190855
 30
0.0
 10
-866.318678161078
 20
-172.7086731263906
 30
0.0
 10
-860.2770572699159
 20
-186.056429101992
 30
0.0
 10
-853.7344691476987
 20
-199.597839446137
 30
0.0
 10
-846.7015857193525
 20
-213.1912989421438
 30
0.0
 10
-839.200670221335
 20
-226.697757241166
 30
0.0
 10
-831.8988681506922
 20
-239.0203264322566
 30
0.0
 10
-824.8589499897698
 20
-250.2173289978381
 30
0.0
 10
-818.17395672244
 20
-260.2904949056683
 30
0.0
 10
-811.8946929516624
 20
-269.3025877994742
 30
0.0
 10
-805.9705607340292
 20
-277.4418918474976
 30
0.0
 10
-800.0131025779903
 20
-285.3041536739007
 30
0.0
 10
-793.5712772039257
 20
-293.4654174382585
 30
0.0
 10
-786.2867532102912
 20
-302.2883520066463
 30
0.0
 10
-778.0765632090903
 20
-311.7536193085155
 30
0.0
 10
-768.9199668600387
 20
-321.7617159168703
 30
0.0
 10
-758.7535988136073
 20
-332.2543608690391
 30
0.0
 10
-748.3891731649879
 20
-342.3145928915417
 30
0.0
 10
-737.9504550279008
 20
-351.8754643591759
 30
0.0
 10
-727.5670975029068
 20
-360.8849969875159
 30
0.0
 10
-716.39692746337
 20
-370.0421535552559
 30
0.0
 10
-704.3987536450275
 20
-379.3088859465229
 30
0.0
 10
-691.9467212215043
 20
-388.3427406323458
 30
0.0
 10
-679.0663764208324
 20
-397.1205628978491
 30
0.0
 10
-665.7837197131333
 20
-405.6239817217358
 30
0.0
 10
-651.6731825673132
 20
-414.0847170938036
 30
0.0
 10
-636.6972668877495
 20
-422.4680096133218
 30
0.0
 10
-620.8172426296026
 20
-430.7379101068809
 30
0.0
 10
-603.9931567405672
 20
-438.8573136272313
 30
0.0
 10
-586.7099911770615
 20
-446.5535557522691
 30
0.0
 10
-568.9948600792824
 20
-453.8249521208296
 30
0.0
 10
-550.8733502955065
 20
-460.6713587373125
 30
0.0
 10
-531.8209576077677
 20
-467.2653079270904
 30
0.0
 10
-511.7992867697287
 20
-473.5614750403726
 30
0.0
 10
-490.783978466417
 20
-479.5756421849057
 30
0.0
 10
-476.3595528199084
 20
-483.1674216252181
 30
0.0
 10
-469.0000000000001
 20
-485.0000000000001
 30
0.0
  0
SPLINE
  5
A0
330
98
100
AcDbEntity
  8
0
  6
Continuous
 62
     7
370
    25
100
AcDbSpline
210
0.0
220
0.0
230
1.0
 70
    24
 71
     3
 72
    21
 73
    17
 74
     0
 42
0.000000001
 43
0.00000001
 40
0.4999999999999979
 40
0.4999999999999979
 40
0.4999999999999979
 40
0.4999999999999979
 40
0.5416666666666667
 40
0.5833333333333333
 40
0.625
 40
0.6666666666666667
 40
0.7083333333333333
 40
0.7499999999991444
 40
0.7916666666666666
 40
0.8333333333333334
 40
0.875
 40
0.9166666666666666
 40
0.9583333333333334
 40
0.9916666666666667
 40
0.99375
 40
1.0
 40
1.0
 40
1.0
 40
1.0
 10
914.9999999999995
 20
0.0
 30
0.0
 10
914.9999999999991
 20
0.0
 30
0.0
 10
893.5179937147624
 20
0.0
 30
0.0
 10
802.0902471957966
 20
0.0
 30
0.0
 10
654.5977409445815
 20
0.0
 30
0.0
 10
461.5350177400209
 20
0.0
 30
0.0
 10
240.8089121167193
 20
0.0
 30
0.0
 10
-0.000000000000137
 20
0.0
 30
0.0
 10
-240.8089121167197
 20
0.0
 30
0.0
 10
-461.5350177400215
 20
0.0
 30
0.0
 10
-654.597740944582
 20
0.0
 30
0.0
 10
-802.0902471957969
 20
0.0
 30
0.0
 10
-887.4228106135001
 20
0.0
 30
0.0
 10
-910.9446252146282
 20
0.0
 30
0.0
 10
-914.6777699057214
 20
0.0
 30
0.0
 10
-915.0
 20
0.0
 30
0.0
 10
-914.9999999999999
 20
0.0
 30
0.0
  0
LINE
  5
A3
330
98
100
AcDbEntity
  8
0
  6
Continuous
 62
     7
370
    25
100
AcDbLine
 10
469.0
 20
-520.0
 30
0.0
 11
469.0
 21
-485.0
 31
0.0
  0
LINE
  5
A4
330
98
100
AcDbEntity
  8
0
  6
Continuous
 62
     7
370
    25
100
AcDbLine
 10
-469.0
 20
-485.0
 30
0.0
 11
-469.0
 21
-520.0
 31
0.0
  0
LINE
  5
A5
330
98
100
AcDbEntity
  8
0
  6
Continuous
 62
     7
370
    25
100
AcDbLine
 10
469.0
 20
-485.0
 30
0.0
 11
-469.0
 21
-485.0
 31
0.0
  0
LINE
  5
A6
330
98
100
AcDbEntity
  8
0
  6
Continuous
 62
     7
370
    25
100
AcDbLine
 10
469.0
 20
-520.0
 30
0.0
 11
-469.0
 21
-520.0
 31
0.0
  0
VIEWPORT
  5
124
330
98
100
AcDbEntity
  8
0
100
AcDbViewport
 10
0.0
 20
0.0
 30
0.0
 40
205.6
 41
156.0
 68
     1
 69
     1
 12
0.0
 22
0.0
 13
0.0
 23
0.0
 14
10.0
 24
10.0
 15
10.0
 25
10.0
 16
0.0
 26
0.0
 36
1.0
 17
0.0
 27
0.0
 37
0.0
 42
50.0
 43
0.0
 44
0.0
 45
1416.2918287938
 50
0.0
 51
0.0
 72
   100
 90
   557152
  1

281
     0
 71
     1
 74
     0
110
0.0
120
0.0
130
0.0
111
1.0
121
0.0
131
0.0
112
0.0
122
1.0
132
0.0
 79
     0
146
0.0
  0
ENDBLK
  5
9B
330
98
100
AcDbEntity
  8
0
100
AcDbBlockEnd
  0
BLOCK
  5
A9
330
A7
100
AcDbEntity
  8
0
100
AcDbBlockBegin
  2
*Paper_Space2
 70
     0
 10
0.0
 20
0.0
 30
0.0
  3
*Paper_Space2
  1

  0
SPLINE
  5
AB
330
A7
100
AcDbEntity
  8
0
  6
Continuous
 62
     7
370
    25
100
AcDbSpline
210
0.0
220
0.0
230
1.0
 70
     8
 71
     3
 72
    51
 73
    47
 74
     0
 42
0.000000001
 43
0.00000001
 40
0.0
 40
0.0
 40
0.0
 40
0.0
 40
0.030316873268898
 40
0.0592933080585492
 40
0.0869889044410128
 40
0.1134595876365859
 40
0.1387576252897531
 40
0.1629316613330293
 40
0.1860267669828802
 40
0.2102345957228555
 40
0.2332377071622573
 40
0.2550818155815757
 40
0.2758079877570483
 40
0.2954528598768919
 40
0.3189419776764051
 40
0.3407895963323471
 40
0.361044038204186
 40
0.3797451405850593
 40
0.3969252076449545
 40
0.4123428703621525
 40
0.4263371872416664
 40
0.4396667867087953
 40
0.4542924345750921
 40
0.4706218592625209
 40
0.4884059746973575
 40
0.5076535914406747
 40
0.5283796276304819
 40
0.5506063495359259
 40
0.5691431029714805
 40
0.588644465109489
 40
0.6091338559827345
 40
0.6306392592520983
 40
0.6531935896574178
 40
0.6746399338769921
 40
0.6970173646331826
 40
0.7203625737909125
 40
0.7447164026200563
 40
0.7701239695025075
 40
0.7966347706147536
 40
0.8243027525356836
 40
0.8507316176717352
 40
0.8782302434294228
 40
0.906850153645701
 40
0.9366460312397583
 40
0.9676756842390363
 40
1.0
 40
1.0
 40
1.0
 40
1.0
 10
469.0000000000001
 20
-485.0000000000002
 30
0.0
 10
475.9163918067629
 20
-483.281186879476
 30
0.0
 10
489.443372192063
 20
-479.9195567091622
 30
0.0
 10
509.1203923991811
 20
-474.3456840522409
 30
0.0
 10
527.7924113237476
 20
-468.568049138544
 30
0.0
 10
545.4878397925961
 20
-462.5794009393663
 30
0.0
 10
562.2469323511326
 20
-456.4255281915401
 30
0.0
 10
578.1055343572815
 20
-450.1375725207986
 30
0.0
 10
593.5640797271195
 20
-443.5508706447995
 30
0.0
 10
608.5947550684234
 20
-436.6757344770505
 30
0.0
 10
623.16977854278
 20
-429.5260354792438
 30
0.0
 10
636.825044352201
 20
-422.3723511431581
 30
0.0
 10
649.6009647357681
 20
-415.2521014392984
 30
0.0
 10
662.526506292804
 20
-407.6160874517823
 30
0.0
 10
675.4613225021493
 20
-399.4869341548462
 30
0.0
 10
688.2685749765194
 20
-390.898824744502
 30
0.0
 10
699.9127167576099
 20
-382.607745264335
 30
0.0
 10
710.4569505509736
 20
-374.6720437389032
 30
0.0
 10
719.910763145593
 20
-367.1847872909848
 30
0.0
 10
728.3407702865034
 20
-360.1918626146241
 30
0.0
 10
735.9401272349525
 20
-353.6188807026099
 30
0.0
 10
743.2728804316624
 20
-347.0251666441209
 30
0.0
 10
750.8744027274454
 20
-339.9122300948536
 30
0.0
 10
759.066052723613
 20
-331.901096516858
 30
0.0
 10
767.818135464983
 20
-322.9140278808077
 30
0.0
 10
777.0301934876948
 20
-312.9384709327016
 30
0.0
 10
786.6394175844385
 20
-301.9158489453939
 30
0.0
 10
795.8003405498002
 20
-290.7325853532013
 30
0.0
 10
804.4572329951891
 20
-279.5174958596028
 30
0.0
 10
812.5695856278832
 20
-268.403980688834
 30
0.0
 10
820.7640647786849
 20
-256.4931837853427
 30
0.0
 10
828.9997291746909
 20
-243.7470844029653
 30
0.0
 10
836.9668140965958
 20
-230.5675806730263
 30
0.0
 10
844.644666532308
 20
-216.9819714195251
 30
0.0
 10
852.0173700830977
 20
-203.0176121003928
 30
0.0
 10
859.2808430617637
 20
-188.2304831740012
 30
0.0
 10
866.3977174612502
 20
-172.5860024537765
 30
0.0
 10
873.3293541487957
 20
-156.0484583603219
 30
0.0
 10
880.0358771949939
 20
-138.5810156715056
 30
0.0
 10
886.2857833244957
 20
-120.690429618514
 30
0.0
 10
892.079739193735
 20
-102.4038161004859
 30
0.0
 10
897.4197693084576
 20
-83.74667714149625
 30
0.0
 10
902.4351102930784
 20
-64.18116216425112
 30
0.0
 10
907.0778700761736
 20
-43.67268364281124
 30
0.0
 10
911.36182502725
 20
-22.19560830246378
 30
0.0
 10
913.7708651215758
 20
-7.498648777680527
 30
0.0
 10
914.9999999999999
 20
0.0
 30
0.0
  0
SPLINE
  5
AC
330
A7
100
AcDbEntity
  8
0
  6
Continuous
 62
     7
370
    25
100
AcDbSpline
210
0.0
220
0.0
230
1.0
 70
     8
 71
     3
 72
    51
 73
    47
 74
     0
 42
0.000000001
 43
0.00000001
 40
0.0
 40
0.0
 40
0.0
 40
0.0
 40
0.0303662264782993
 40
0.0593906116511708
 40
0.0871325836090728
 40
0.1136479439307392
 40
0.1389888838438408
 40
0.1632040164716893
 40
0.1863384257222303
 40
0.2105874841019428
 40
0.2336298453147006
 40
0.2555113979503861
 40
0.2762734273000366
 40
0.295952825987572
 40
0.3194844213243901
 40
0.3413734794328495
 40
0.361669016279659
 40
0.3804115860958061
 40
0.3976342143996952
 40
0.413095428961521
 40
0.4271356824793797
 40
0.4404581184959203
 40
0.4550579765340081
 40
0.4713644302166068
 40
0.4891280557647023
 40
0.5083567524952738
 40
0.5290644684096001
 40
0.5512724555247456
 40
0.5697935211782763
 40
0.5892777905038863
 40
0.6097481816641995
 40
0.6312321900094507
 40
0.6537622640178238
 40
0.6751837077795317
 40
0.6975332143004892
 40
0.720847209272748
 40
0.7451663057049175
 40
0.7705354365161767
 40
0.7970039596075086
 40
0.8246257342396842
 40
0.8510087634686627
 40
0.8784582390297981
 40
0.9070257413029338
 40
0.9367660509299379
 40
0.9677371148358224
 40
0.9999999999999999
 40
0.9999999999999999
 40
0.9999999999999999
 40
0.9999999999999999
 10
-914.9999999999997
 20
0.0
 30
0.0
 10
-913.8485935079509
 20
-7.044889065440707
 30
0.0
 10
-911.5966595750082
 20
-20.82336334870974
 30
0.0
 10
-907.6434577577536
 20
-40.92326149662284
 30
0.0
 10
-903.4080985180519
 20
-60.03777133560864
 30
0.0
 10
-898.8855525380724
 20
-78.19582704361297
 30
0.0
 10
-894.1242696583192
 20
-95.43379531528662
 30
0.0
 10
-889.1578489819059
 20
-111.7848582389433
 30
0.0
 10
-883.8628918960969
 20
-127.7622062492681
 30
0.0
 10
-878.2472167477752
 20
-143.3373042164548
 30
0.0
 10
-872.3221301594127
 20
-158.4813782190855
 30
0.0
 10
-866.3186781610772
 20
-172.7086731263906
 30
0.0
 10
-860.277057269916
 20
-186.0564291019921
 30
0.0
 10
-853.7344691476981
 20
-199.597839446137
 30
0.0
 10
-846.7015857193524
 20
-213.1912989421439
 30
0.0
 10
-839.2006702213343
 20
-226.697757241166
 30
0.0
 10
-831.8988681506916
 20
-239.0203264322566
 30
0.0
 10
-824.8589499897696
 20
-250.2173289978382
 30
0.0
 10
-818.1739567224396
 20
-260.2904949056681
 30
0.0
 10
-811.8946929516623
 20
-269.3025877994741
 30
0.0
 10
-805.9705607340289
 20
-277.4418918474977
 30
0.0
 10
-800.0131025779899
 20
-285.3041536739008
 30
0.0
 10
-793.5712772039258
 20
-293.4654174382586
 30
0.0
 10
-786.2867532102911
 20
-302.2883520066464
 30
0.0
 10
-778.0765632090902
 20
-311.7536193085153
 30
0.0
 10
-768.9199668600388
 20
-321.7617159168703
 30
0.0
 10
-758.753598813607
 20
-332.2543608690391
 30
0.0
 10
-748.3891731649884
 20
-342.3145928915417
 30
0.0
 10
-737.9504550279005
 20
-351.8754643591757
 30
0.0
 10
-727.5670975029072
 20
-360.8849969875157
 30
0.0
 10
-716.3969274633697
 20
-370.042153555256
 30
0.0
 10
-704.3987536450277
 20
-379.3088859465227
 30
0.0
 10
-691.946721221504
 20
-388.3427406323457
 30
0.0
 10
-679.0663764208326
 20
-397.120562897849
 30
0.0
 10
-665.7837197131337
 20
-405.6239817217359
 30
0.0
 10
-651.6731825673133
 20
-414.0847170938035
 30
0.0
 10
-636.6972668877498
 20
-422.4680096133219
 30
0.0
 10
-620.8172426296026
 20
-430.7379101068808
 30
0.0
 10
-603.9931567405673
 20
-438.8573136272311
 30
0.0
 10
-586.7099911770615
 20
-446.5535557522692
 30
0.0
 10
-568.9948600792821
 20
-453.8249521208295
 30
0.0
 10
-550.8733502955064
 20
-460.6713587373126
 30
0.0
 10
-531.8209576077675
 20
-467.2653079270902
 30
0.0
 10
-511.7992867697286
 20
-473.5614750403724
 30
0.0
 10
-490.7839784664172
 20
-479.5756421849058
 30
0.0
 10
-476.3595528199084
 20
-483.167421625218
 30
0.0
 10
-469.0
 20
-484.9999999999999
 30
0.0
  0
SPLINE
  5
B0
330
A7
100
AcDbEntity
  8
0
  6
Continuous
 62
     7
370
    25
100
AcDbSpline
210
0.0
220
0.0
230
1.0
 70
    24
 71
     3
 72
    21
 73
    17
 74
     0
 42
0.000000001
 43
0.00000001
 40
0.0
 40
0.0
 40
0.0
 40
0.0
 40
0.0062500000000001
 40
0.0083333333333333
 40
0.0416666666666666
 40
0.0833333333333334
 40
0.1250000000000001
 40
0.1666666666666666
 40
0.2083333333333334
 40
0.25
 40
0.2916666666666666
 40
0.3333333333333334
 40
0.375
 40
0.4166666666666666
 40
0.4583333333333334
 40
0.4999999999999979
 40
0.4999999999999979
 40
0.4999999999999979
 40
0.4999999999999979
 10
469.0000000000001
 20
-485.0000000000001
 30
0.0
 10
469.0000000000001
 20
-485.0000000000002
 30
0.0
 10
468.8348350664301
 20
-485.0000000000002
 30
0.0
 10
466.9213434160229
 20
-485.0000000000002
 30
0.0
 10
454.864806751619
 20
-484.9999999999999
 30
0.0
 10
411.1260392730368
 20
-484.9999999999999
 30
0.0
 10
335.5260551945454
 20
-484.9999999999999
 30
0.0
 10
236.5682222077268
 20
-485.0
 30
0.0
 10
123.4310161560018
 20
-485.0000000000001
 30
0.0
 10
0.0000000000000954
 20
-484.9999999999999
 30
0.0
 10
-123.4310161560015
 20
-485.0000000000001
 30
0.0
 10
-236.5682222077267
 20
-484.9999999999999
 30
0.0
 10
-335.5260551945452
 20
-485.0
 30
0.0
 10
-411.126039273037
 20
-485.0
 30
0.0
 10
-457.9890044286618
 20
-485.0000000000001
 30
0.0
 10
-469.0000000000003
 20
-485.0
 30
0.0
 10
-469.0
 20
-485.0
 30
0.0
  0
SPLINE
  5
B1
330
A7
100
AcDbEntity
  8
0
  6
Continuous
 62
     7
370
    25
100
AcDbSpline
210
0.0
220
0.0
230
1.0
 70
    24
 71
     3
 72
    21
 73
    17
 74
     0
 42
0.000000001
 43
0.00000001
 40
0.0
 40
0.0
 40
0.0
 40
0.0
 40
0.0062500000000001
 40
0.0083333333333333
 40
0.0416666666666666
 40
0.0833333333333334
 40
0.1250000000000001
 40
0.1666666666666666
 40
0.2083333333333334
 40
0.25
 40
0.2916666666666666
 40
0.3333333333333334
 40
0.375
 40
0.4166666666666666
 40
0.4583333333333334
 40
0.4999999999999979
 40
0.4999999999999979
 40
0.4999999999999979
 40
0.4999999999999979
 10
469.0000000000001
 20
-520.0000000000002
 30
0.0
 10
469.0000000000001
 20
-520.0000000000002
 30
0.0
 10
468.8348350664301
 20
-520.0000000000001
 30
0.0
 10
466.9213434160229
 20
-520.0
 30
0.0
 10
454.864806751619
 20
-519.9999999999999
 30
0.0
 10
411.1260392730368
 20
-519.9999999999999
 30
0.0
 10
335.5260551945454
 20
-520.0
 30
0.0
 10
236.5682222077268
 20
-520.0000000000001
 30
0.0
 10
123.4310161560018
 20
-520.0000000000001
 30
0.0
 10
0.0000000000000954
 20
-519.9999999999999
 30
0.0
 10
-123.4310161560015
 20
-520.0000000000001
 30
0.0
 10
-236.5682222077267
 20
-519.9999999999999
 30
0.0
 10
-335.5260551945452
 20
-519.9999999999999
 30
0.0
 10
-411.126039273037
 20
-520.0000000000001
 30
0.0
 10
-457.9890044286618
 20
-520.0
 30
0.0
 10
-469.0000000000003
 20
-520.0
 30
0.0
 10
-469.0
 20
-520.0
 30
0.0
  0
LINE
  5
B2
330
A7
100
AcDbEntity
  8
0
  6
Continuous
 62
     7
370
    25
100
AcDbLine
 10
469.0
 20
-520.0
 30
0.0
 11
469.0
 21
-485.0
 31
0.0
  0
LINE
  5
B3
330
A7
100
AcDbEntity
  8
0
  6
Continuous
 62
     7
370
    25
100
AcDbLine
 10
-469.0
 20
-485.0
 30
0.0
 11
-469.0
 21
-520.0
 31
0.0
  0
LINE
  5
B4
330
A7
100
AcDbEntity
  8
0
  6
Continuous
 62
     7
370
    25
100
AcDbLine
 10
-915.0
 20
0.0
 30
0.0
 11
915.0
 21
0.0
 31
0.0
  0
VIEWPORT
  5
126
330
A7
100
AcDbEntity
  8
0
100
AcDbViewport
 10
0.0
 20
0.0
 30
0.0
 40
205.6
 41
156.0
 68
     1
 69
     1
 12
0.0
 22
0.0
 13
0.0
 23
0.0
 14
10.0
 24
10.0
 15
10.0
 25
10.0
 16
0.0
 26
0.0
 36
1.0
 17
0.0
 27
0.0
 37
0.0
 42
50.0
 43
0.0
 44
0.0
 45
1416.2918287938
 50
0.0
 51
0.0
 72
   100
 90
   557152
  1

281
     0
 71
     1
 74
     0
110
0.0
120
0.0
130
0.0
111
1.0
121
0.0
131
0.0
112
0.0
122
1.0
132
0.0
 79
     0
146
0.0
  0
ENDBLK
  5
AA
330
A7
100
AcDbEntity
  8
0
100
AcDbBlockEnd
  0
BLOCK
  5
B7
330
B5
100
AcDbEntity
  8
0
100
AcDbBlockBegin
  2
*Paper_Space3
 70
     0
 10
0.0
 20
0.0
 30
0.0
  3
*Paper_Space3
  1

  0
SPLINE
  5
B9
330
B5
100
AcDbEntity
  8
0
  6
Continuous
 62
     7
370
    25
100
AcDbSpline
210
0.0
220
0.0
230
1.0
 70
     8
 71
     3
 72
    46
 73
    42
 74
     0
 42
0.000000001
 43
0.00000001
 40
0.0
 40
0.0
 40
0.0
 40
0.0
 40
0.0319938295049341
 40
0.0628383420764411
 40
0.0925515979971373
 40
0.1211488000593428
 40
0.1486426773761944
 40
0.1750438135854318
 40
0.2047679161621405
 40
0.2329976745375435
 40
0.2597418164350463
 40
0.2850067866821405
 40
0.3092159739993159
 40
0.3318993562094532
 40
0.3530584127424291
 40
0.3726933720378993
 40
0.3908034407296795
 40
0.4071042873827853
 40
0.4219305749083519
 40
0.436207396659778
 40
0.4519395885319148
 40
0.4695297054105984
 40
0.4887139302275383
 40
0.5094943432231777
 40
0.5318180087831591
 40
0.5556697927943737
 40
0.5805804322866475
 40
0.6069611773074954
 40
0.6348123456302663
 40
0.6641360681524714
 40
0.6901750444635273
 40
0.71728107938288
 40
0.7454594422272288
 40
0.7747169488602229
 40
0.8050621639877072
 40
0.8365056413923952
 40
0.8671699668446643
 40
0.8988349066546042
 40
0.9315157120799905
 40
0.9652303653301466
 40
0.9999999999999999
 40
0.9999999999999999
 40
0.9999999999999999
 40
0.9999999999999999
 10
204.9999999999999
 20
-485.0
 30
0.0
 10
211.5324983757256
 20
-482.6976821184213
 30
0.0
 10
224.3628276579498
 20
-478.1757527073443
 30
0.0
 10
242.9321614048415
 20
-470.6381772090305
 30
0.0
 10
260.5692460589027
 20
-462.7964011903027
 30
0.0
 10
277.2716628908205
 20
-454.6632276861568
 30
0.0
 10
293.06529616825
 20
-446.3249026073005
 30
0.0
 10
308.799894593336
 20
-437.3719576428779
 30
0.0
 10
324.3690967661996
 20
-427.8241616197726
 30
0.0
 10
339.6675452940972
 20
-417.7138531499533
 30
0.0
 10
353.8451910476869
 20
-407.6753967820293
 30
0.0
 10
367.016174628691
 20
-397.7352499202597
 30
0.0
 10
379.2080267070365
 20
-387.9682421649876
 30
0.0
 10
390.4492061048399
 20
-378.4455261056752
 30
0.0
 10
400.7035881480367
 20
-369.2972778454846
 30
0.0
 10
410.0139297611836
 20
-360.5837792304355
 30
0.0
 10
418.3778082570165
 20
-352.4025186570769
 30
0.0
 10
425.8459430089573
 20
-344.7975222390497
 30
0.0
 10
432.6038426899257
 20
-337.6605170956364
 30
0.0
 10
439.1562067676821
 20
-330.5004141508104
 30
0.0
 10
445.9781374717496
 20
-322.7779891720697
 30
0.0
 10
453.3361484145012
 20
-314.1143057298323
 30
0.0
 10
461.1957092979819
 20
-304.446362487622
 30
0.0
 10
469.455130181783
 20
-293.7873435856056
 30
0.0
 10
478.0421970539768
 20
-282.1094367556895
 30
0.0
 10
486.8211793159662
 20
-269.4694253315677
 30
0.0
 10
495.716685026644
 20
-255.8487856762652
 30
0.0
 10
504.6514776833419
 20
-241.2284870637115
 30
0.0
 10
513.5905872212628
 20
-225.5014241905503
 30
0.0
 10
521.9649733379862
 20
-209.5495156424851
 30
0.0
 10
529.7481177726063
 20
-193.4810328636771
 30
0.0
 10
536.9275029954699
 20
-177.4046936648605
 30
0.0
 10
543.8473083944629
 20
-160.4595169185542
 30
0.0
 10
550.4378304116289
 20
-142.6336120720798
 30
0.0
 10
556.6254455338136
 20
-123.9175400090556
 30
0.0
 10
562.2187546902702
 20
-104.6974628024467
 30
0.0
 10
567.1794555375074
 20
-85.01020006943483
 30
0.0
 10
571.4797984507233
 20
-64.89323414408955
 30
0.0
 10
575.1181736432447
 20
-43.97681256082264
 30
0.0
 10
578.0943088060733
 20
-22.27252473727437
 30
0.0
 10
579.3582792310021
 20
-7.500030302638905
 30
0.0
 10
579.9999999999997
 20
0.0
 30
0.0
  0
SPLINE
  5
BA
330
B5
100
AcDbEntity
  8
0
  6
Continuous
 62
     7
370
    25
100
AcDbSpline
210
0.0
220
0.0
230
1.0
 70
     8
 71
     3
 72
    46
 73
    42
 74
     0
 42
0.000000001
 43
0.00000001
 40
0.0
 40
0.0
 40
0.0
 40
0.0
 40
0.031993829504934
 40
0.0628383420764411
 40
0.0925515979971372
 40
0.1211488000593428
 40
0.1486426773761945
 40
0.1750438135854319
 40
0.2047679161621405
 40
0.2329976745375435
 40
0.2597418164350463
 40
0.2850067866821404
 40
0.3092159739993158
 40
0.3318993562094532
 40
0.3530584127424289
 40
0.3726933720378994
 40
0.3908034407296794
 40
0.4071042873827853
 40
0.4219305749083518
 40
0.4362073966597779
 40
0.4519395885319149
 40
0.4695297054105985
 40
0.4887139302275381
 40
0.5094943432231777
 40
0.5318180087831589
 40
0.5556697927943735
 40
0.5805804322866472
 40
0.6069611773074952
 40
0.6348123456302661
 40
0.6641360681524712
 40
0.6901750444635268
 40
0.7172810793828797
 40
0.7454594422272285
 40
0.7747169488602225
 40
0.8050621639877069
 40
0.836505641392395
 40
0.8671699668446641
 40
0.898834906654604
 40
0.9315157120799904
 40
0.9652303653301467
 40
1.0
 40
1.0
 40
1.0
 40
1.0
 10
-579.9999999999999
 20
0.0
 30
0.0
 10
-579.4160069626696
 20
-6.90167767930705
 30
0.0
 10
-578.2689997172766
 20
-20.45710351061461
 30
0.0
 10
-575.647916532348
 20
-40.32580057745599
 30
0.0
 10
-572.4977826530397
 20
-59.36882719521957
 30
0.0
 10
-568.8303801524839
 20
-77.58062002773858
 30
0.0
 10
-564.7356933375603
 20
-94.9645222683261
 30
0.0
 10
-560.0313146764039
 20
-112.4459876687768
 30
0.0
 10
-554.7096058088994
 20
-129.9171032578813
 30
0.0
 10
-548.7753461969326
 20
-147.2677639822864
 30
0.0
 10
-542.6285237530246
 20
-163.515619816459
 30
0.0
 10
-536.3234728704771
 20
-178.7644775275505
 30
0.0
 10
-529.9395434721298
 20
-193.0221471488007
 30
0.0
 10
-523.5527604588458
 20
-206.2982624744942
 30
0.0
 10
-517.2800166425419
 20
-218.5250969925914
 30
0.0
 10
-511.1904149274417
 20
-229.7288584154088
 30
0.0
 10
-505.377695417389
 20
-239.8826645963293
 30
0.0
 10
-499.8972327340738
 20
-249.0245208612321
 30
0.0
 10
-494.6909315205665
 20
-257.3612155413421
 30
0.0
 10
-489.4105435880808
 20
-265.5048051964289
 30
0.0
 10
-483.6537857287954
 20
-274.0508174262899
 30
0.0
 10
-477.1210013282915
 20
-283.352562627997
 30
0.0
 10
-469.7425261526187
 20
-293.392479355626
 30
0.0
 10
-461.5055249287236
 20
-304.0688330462294
 30
0.0
 10
-452.3649047790033
 20
-315.3187347646559
 30
0.0
 10
-442.3414581020307
 20
-326.9965314349249
 30
0.0
 10
-431.3982817434136
 20
-339.0339205892432
 30
0.0
 10
-419.4975175156825
 20
-351.3609422138849
 30
0.0
 10
-406.5267064000111
 20
-363.9707100527027
 30
0.0
 10
-393.196149508388
 20
-376.0905277954331
 30
0.0
 10
-379.6039580828816
 20
-387.6674793957205
 30
0.0
 10
-365.8521992921766
 20
-398.6620864544539
 30
0.0
 10
-351.1942388006926
 20
-409.6241535931639
 30
0.0
 10
-335.6010247390161
 20
-420.4892140753262
 30
0.0
 10
-319.0448911155854
 20
-431.1883903899641
 30
0.0
 10
-301.8513936093911
 20
-441.4392498003847
 30
0.0
 10
-284.0465259255161
 20
-451.1954557009444
 30
0.0
 10
-265.6595792293497
 20
-460.4207176704001
 30
0.0
 10
-246.3322995760282
 20
-469.2065430210897
 30
0.0
 10
-226.075834737896
 20
-477.5497511987846
 30
0.0
 10
-212.0970579695032
 20
-482.4912098008448
 30
0.0
 10
-205.0000000000001
 20
-485.0
 30
0.0
  0
SPLINE
  5
BD
330
B5
100
AcDbEntity
  8
0
  6
Continuous
 62
     7
370
    25
100
AcDbSpline
210
0.0
220
0.0
230
1.0
 70
    24
 71
     3
 72
    19
 73
    15
 74
     0
 42
0.000000001
 43
0.00000001
 40
0.25
 40
0.25
 40
0.25
 40
0.25
 40
0.2916666666666666
 40
0.3333333333333334
 40
0.375
 40
0.4166666666666666
 40
0.4583333333333334
 40
0.4999999999999979
 40
0.5416666666666667
 40
0.5833333333333333
 40
0.625
 40
0.6666666666666667
 40
0.7083333333333333
 40
0.7499999999991444
 40
0.7499999999991444
 40
0.7499999999991444
 40
0.7499999999991444
 10
579.9999999999997
 20
0.0
 30
0.0
 10
579.9999999999997
 20
0.0
 30
0.0
 10
566.3829905514351
 20
0.0
 30
0.0
 10
508.4287905721986
 20
0.0
 30
0.0
 10
414.9362729484779
 20
0.0
 30
0.0
 10
292.5577161630735
 20
0.0
 30
0.0
 10
152.6439005767184
 20
0.0
 30
0.0
 10
-0.0000000000000664
 20
0.0
 30
0.0
 10
-152.6439005767183
 20
0.0
 30
0.0
 10
-292.5577161630735
 20
0.0
 30
0.0
 10
-414.936272948478
 20
0.0
 30
0.0
 10
-508.4287905721993
 20
0.0
 30
0.0
 10
-566.3829905518319
 20
0.0
 30
0.0
 10
-580.0000000001397
 20
0.0
 30
0.0
 10
-579.9999999999999
 20
0.0
 30
0.0
  0
SPLINE
  5
BE
330
B5
100
AcDbEntity
  8
0
  6
Continuous
 62
     7
370
    25
100
AcDbSpline
210
0.0
220
0.0
230
1.0
 70
    24
 71
     3
 72
    19
 73
    15
 74
     0
 42
0.000000001
 43
0.00000001
 40
0.25
 40
0.25
 40
0.25
 40
0.25
 40
0.2916666666666666
 40
0.3333333333333334
 40
0.375
 40
0.4166666666666666
 40
0.4583333333333334
 40
0.4999999999999979
 40
0.5416666666666667
 40
0.5833333333333333
 40
0.625
 40
0.6666666666666667
 40
0.7083333333333333
 40
0.7499999999991444
 40
0.7499999999991444
 40
0.7499999999991444
 40
0.7499999999991444
 10
204.9999999999999
 20
-485.0
 30
0.0
 10
204.9999999999999
 20
-485.0
 30
0.0
 10
200.1870914880074
 20
-485.0000000000001
 30
0.0
 10
179.7032794263807
 20
-484.9999999999999
 30
0.0
 10
146.6585102662724
 20
-485.0
 30
0.0
 10
103.4040203679828
 20
-485.0
 30
0.0
 10
53.95172347970212
 20
-485.0000000000001
 30
0.0
 10
-0.000000000000087
 20
-484.9999999999999
 30
0.0
 10
-53.95172347970221
 20
-484.9999999999999
 30
0.0
 10
-103.404020367983
 20
-484.9999999999999
 30
0.0
 10
-146.6585102662725
 20
-485.0
 30
0.0
 10
-179.7032794263807
 20
-484.9999999999999
 30
0.0
 10
-200.187091488077
 20
-485.0
 30
0.0
 10
-204.9999999999997
 20
-485.0
 30
0.0
 10
-205.0000000000001
 20
-485.0
 30
0.0
  0
SPLINE
  5
BF
330
B5
100
AcDbEntity
  8
0
  6
Continuous
 62
     7
370
    25
100
AcDbSpline
210
0.0
220
0.0
230
1.0
 70
    24
 71
     3
 72
    19
 73
    15
 74
     0
 42
0.000000001
 43
0.00000001
 40
0.25
 40
0.25
 40
0.25
 40
0.25
 40
0.2916666666666666
 40
0.3333333333333334
 40
0.375
 40
0.4166666666666666
 40
0.4583333333333334
 40
0.4999999999999979
 40
0.5416666666666667
 40
0.5833333333333333
 40
0.625
 40
0.6666666666666667
 40
0.7083333333333333
 40
0.7499999999991444
 40
0.7499999999991444
 40
0.7499999999991444
 40
0.7499999999991444
 10
204.9999999999999
 20
-520.0
 30
0.0
 10
204.9999999999999
 20
-520.0
 30
0.0
 10
200.1870914880074
 20
-520.0000000000001
 30
0.0
 10
179.7032794263807
 20
-519.9999999999999
 30
0.0
 10
146.6585102662724
 20
-519.9999999999999
 30
0.0
 10
103.4040203679828
 20
-520.0000000000001
 30
0.0
 10
53.95172347970212
 20
-520.0
 30
0.0
 10
-0.000000000000087
 20
-520.0
 30
0.0
 10
-53.95172347970221
 20
-520.0
 30
0.0
 10
-103.404020367983
 20
-519.9999999999999
 30
0.0
 10
-146.6585102662725
 20
-520.0000000000001
 30
0.0
 10
-179.7032794263807
 20
-519.9999999999999
 30
0.0
 10
-200.1870914880768
 20
-520.0
 30
0.0
 10
-204.9999999999996
 20
-520.0
 30
0.0
 10
-205.0000000000001
 20
-520.0
 30
0.0
  0
LINE
  5
C0
330
B5
100
AcDbEntity
  8
0
  6
Continuous
 62
     7
370
    25
100
AcDbLine
 10
205.0
 20
-520.0
 30
0.0
 11
205.0
 21
-485.0
 31
0.0
  0
LINE
  5
C1
330
B5
100
AcDbEntity
  8
0
  6
Continuous
 62
     7
370
    25
100
AcDbLine
 10
-205.0
 20
-485.0
 30
0.0
 11
-205.0
 21
-520.0
 31
0.0
  0
VIEWPORT
  5
128
330
B5
100
AcDbEntity
  8
0
100
AcDbViewport
 10
0.0
 20
0.0
 30
0.0
 40
205.6
 41
156.0
 68
     1
 69
     1
 12
0.0
 22
0.0
 13
0.0
 23
0.0
 14
10.0
 24
10.0
 15
10.0
 25
10.0
 16
0.0
 26
0.0
 36
1.0
 17
0.0
 27
0.0
 37
0.0
 42
50.0
 43
0.0
 44
0.0
 45
1416.2918287938
 50
0.0
 51
0.0
 72
   100
 90
   557152
  1

281
     0
 71
     1
 74
     0
110
0.0
120
0.0
130
0.0
111
1.0
121
0.0
131
0.0
112
0.0
122
1.0
132
0.0
 79
     0
146
0.0
  0
ENDBLK
  5
B8
330
B5
100
AcDbEntity
  8
0
100
AcDbBlockEnd
  0
BLOCK
  5
C4
330
C2
100
AcDbEntity
  8
0
100
AcDbBlockBegin
  2
*Paper_Space4
 70
     0
 10
0.0
 20
0.0
 30
0.0
  3
*Paper_Space4
  1

  0
CIRCLE
  5
C6
330
C2
100
AcDbEntity
  8
0
  6
Continuous
 62
     7
370
    25
100
AcDbCircle
 10
0.0
 20
0.0
 30
0.0
 40
73.99999999999987
  0
CIRCLE
  5
C7
330
C2
100
AcDbEntity
  8
0
  6
Continuous
 62
     7
370
    25
100
AcDbCircle
 10
-243.5
 20
81.0
 30
0.0
 40
5.5
  0
CIRCLE
  5
C8
330
C2
100
AcDbEntity
  8
0
  6
Continuous
 62
     7
370
    25
100
AcDbCircle
 10
243.5
 20
-81.0
 30
0.0
 40
5.500000000000085
  0
CIRCLE
  5
C9
330
C2
100
AcDbEntity
  8
0
  6
Continuous
 62
     7
370
    25
100
AcDbCircle
 10
-243.5
 20
-81.0
 30
0.0
 40
5.5
  0
CIRCLE
  5
CA
330
C2
100
AcDbEntity
  8
0
  6
Continuous
 62
     7
370
    25
100
AcDbCircle
 10
243.5
 20
81.0
 30
0.0
 40
5.500000000000085
  0
CIRCLE
  5
CB
330
C2
100
AcDbEntity
  8
0
  6
Continuous
 62
     7
370
    25
100
AcDbCircle
 10
-109.0
 20
0.0
 30
0.0
 40
3.5
  0
CIRCLE
  5
CC
330
C2
100
AcDbEntity
  8
0
  6
Continuous
 62
     7
370
    25
100
AcDbCircle
 10
-77.0746391493
 20
-77.0746391493
 30
0.0
 40
3.500000000000014
  0
CIRCLE
  5
CD
330
C2
100
AcDbEntity
  8
0
  6
Continuous
 62
     7
370
    25
100
AcDbCircle
 10
0.0
 20
-109.0
 30
0.0
 40
3.5
  0
CIRCLE
  5
CE
330
C2
100
AcDbEntity
  8
0
  6
Continuous
 62
     7
370
    25
100
AcDbCircle
 10
77.0746391493
 20
-77.0746391493
 30
0.0
 40
3.5
  0
CIRCLE
  5
CF
330
C2
100
AcDbEntity
  8
0
  6
Continuous
 62
     7
370
    25
100
AcDbCircle
 10
109.0
 20
0.0
 30
0.0
 40
3.5
  0
CIRCLE
  5
D0
330
C2
100
AcDbEntity
  8
0
  6
Continuous
 62
     7
370
    25
100
AcDbCircle
 10
77.0746391493
 20
77.0746391493
 30
0.0
 40
3.500000000000014
  0
CIRCLE
  5
D1
330
C2
100
AcDbEntity
  8
0
  6
Continuous
 62
     7
370
    25
100
AcDbCircle
 10
0.0
 20
109.0
 30
0.0
 40
3.5
  0
CIRCLE
  5
D2
330
C2
100
AcDbEntity
  8
0
  6
Continuous
 62
     7
370
    25
100
AcDbCircle
 10
-77.0746391493
 20
77.0746391493
 30
0.0
 40
3.499999999999986
  0
SPLINE
  5
D3
330
C2
100
AcDbEntity
  8
0
  6
Continuous
 62
     7
370
    25
100
AcDbSpline
210
0.0
220
0.0
230
1.0
 70
    11
 71
     3
 72
    35
 73
    31
 74
     0
 42
0.000000001
 43
0.00000001
 40
0.0
 40
0.0
 40
0.0
 40
0.0
 40
0.0062500000000001
 40
0.0083333333333333
 40
0.0416666666666666
 40
0.0833333333333334
 40
0.1250000000000001
 40
0.1666666666666666
 40
0.2083333333333334
 40
0.25
 40
0.2916666666666666
 40
0.3333333333333334
 40
0.375
 40
0.4166666666666666
 40
0.4583333333333334
 40
0.4999999999999979
 40
0.5416666666666667
 40
0.5833333333333333
 40
0.625
 40
0.6666666666666667
 40
0.7083333333333333
 40
0.7499999999991444
 40
0.7916666666666666
 40
0.8333333333333334
 40
0.875
 40
0.9166666666666666
 40
0.9583333333333334
 40
0.9916666666666667
 40
0.99375
 40
1.0
 40
1.0
 40
1.0
 40
1.0
 10
-469.0000000000001
 20
0.0000000000001609
 30
0.0
 10
-469.0000000000001
 20
-2.69758617398498
 30
0.0
 10
-468.8348350664301
 20
-6.294367739298437
 30
0.0
 10
-466.9213434160229
 20
-24.25577843290866
 30
0.0
 10
-454.864806751619
 20
-57.24854327225388
 30
0.0
 10
-411.1260392730368
 20
-103.4040203679825
 30
0.0
 10
-335.5260551945454
 20
-146.6585102662722
 30
0.0
 10
-236.5682222077268
 20
-179.7032794263804
 30
0.0
 10
-123.4310161560018
 20
-200.1870914880074
 30
0.0
 10
-0.0000000000000954
 20
-207.4064542559962
 30
0.0
 10
123.4310161560015
 20
-200.1870914880074
 30
0.0
 10
236.5682222077267
 20
-179.7032794263807
 30
0.0
 10
335.5260551945452
 20
-146.6585102662724
 30
0.0
 10
411.126039273037
 20
-103.4040203679828
 30
0.0
 10
457.989004428661
 20
-53.95172347970212
 30
0.0
 10
474.5054977856697
 20
0.000000000000087
 30
0.0
 10
457.9890044286606
 20
53.95172347970221
 30
0.0
 10
411.1260392730369
 20
103.404020367983
 30
0.0
 10
335.5260551945453
 20
146.6585102662725
 30
0.0
 10
236.5682222077266
 20
179.7032794263807
 30
0.0
 10
123.4310161560015
 20
200.1870914880075
 30
0.0
 10
-0.0000000000001023
 20
207.4064542559965
 30
0.0
 10
-123.4310161560018
 20
200.1870914880074
 30
0.0
 10
-236.5682222077268
 20
179.7032794263807
 30
0.0
 10
-335.5260551945454
 20
146.6585102662724
 30
0.0
 10
-411.126039273037
 20
103.4040203679829
 30
0.0
 10
-454.864806751619
 20
57.24854327225423
 30
0.0
 10
-466.9213434160226
 20
24.25577843290893
 30
0.0
 10
-468.83483506643
 20
6.29436773929871
 30
0.0
 10
-469.0000000000001
 20
2.697586173985254
 30
0.0
 10
-469.0000000000001
 20
0.0000000000001609
 30
0.0
  0
SPLINE
  5
D5
330
C2
100
AcDbEntity
  8
0
  6
Continuous
 62
     7
370
    25
100
AcDbSpline
210
0.0
220
0.0
230
1.0
 70
     8
 71
     3
 72
    33
 73
    29
 74
     0
 42
0.000000001
 43
0.00000001
 40
0.367177205580064
 40
0.367177205580064
 40
0.367177205580064
 40
0.367177205580064
 40
0.3750000000000043
 40
0.4166666666666708
 40
0.4583333333333378
 40
0.491666666666671
 40
0.4937500000000042
 40
0.5000000000000042
 40
0.5000000000000042
 40
0.5000000000000042
 40
0.5062500000000043
 40
0.5083333333333375
 40
0.541666666666671
 40
0.5833333333333377
 40
0.6250000000000042
 40
0.666666666666671
 40
0.7083333333333377
 40
0.75000000000086
 40
0.791666666666671
 40
0.8333333333333375
 40
0.8750000000000042
 40
0.916666666666671
 40
0.9583333333333375
 40
1.000000000000006
 40
1.041666666666671
 40
1.083333333333338
 40
1.125000000000004
 40
1.13282279441994
 40
1.13282279441994
 40
1.13282279441994
 40
1.13282279441994
 10
-17.49999999999971
 20
-19.26192897709469
 30
0.0
 10
-17.80808801054679
 20
-18.98295844966448
 30
0.0
 10
-19.71228970074746
 20
-17.17085994346022
 30
0.0
 10
-22.68307394511977
 20
-13.2964790145815
 30
0.0
 10
-25.16940286794932
 20
-7.340730675064589
 30
0.0
 10
-25.87730251076449
 20
-3.109223230002229
 30
0.0
 10
-25.99020496686513
 20
-0.8067873425949056
 30
0.0
 10
-26.0
 20
-0.345766003969254
 30
0.0
 10
-26.0
 20
-0.0000000000000091
 30
0.0
 10
-26.0
 20
0.3457660039692297
 30
0.0
 10
-25.99020496686513
 20
0.8067873425948815
 30
0.0
 10
-25.87730251076449
 20
3.109223230002206
 30
0.0
 10
-25.16940286794932
 20
7.340730675064567
 30
0.0
 10
-22.68307394511979
 20
13.29647901458148
 30
0.0
 10
-18.60931566140196
 20
18.60931566140195
 30
0.0
 10
-13.29647901458149
 20
22.68307394511979
 30
0.0
 10
-6.915320079384801
 20
25.34699779100858
 30
0.0
 10
0.0000000000000061
 20
26.3265011044957
 30
0.0
 10
6.915320079384797
 20
25.34699779100858
 30
0.0
 10
13.29647901458148
 20
22.68307394511979
 30
0.0
 10
18.60931566140195
 20
18.60931566140196
 30
0.0
 10
22.68307394511979
 20
13.29647901458149
 30
0.0
 10
25.34699779100858
 20
6.91532007938481
 30
0.0
 10
26.32650110449571
 20
0.0000000000000178
 30
0.0
 10
25.34699779100858
 20
-6.91532007938479
 30
0.0
 10
22.68307394511979
 20
-13.29647901458148
 30
0.0
 10
19.71228970074762
 20
-17.17085994346002
 30
0.0
 10
17.80808801054713
 20
-18.98295844966415
 30
0.0
 10
17.50000000000023
 20
-19.26192897709423
 30
0.0
  0
LWPOLYLINE
  5
D8
330
C2
100
AcDbEntity
  8
0
  6
Continuous
 62
     7
370
    25
100
AcDbPolyline
 90
      163
 70
   128
 43
0.0
 10
-915.0
 20
0.0
 10
-914.420064904
 20
20.5101893999
 10
-912.6887425102
 20
40.9894737741
 10
-909.8187571602
 20
61.4069480968
 10
-905.8228331952
 20
81.7317073424
 10
-900.7136949568
 20
101.9328464851
 10
-894.5040667863
 20
121.9794604993
 10
-887.2066730252
 20
141.8406443591
 10
-877.9381132237
 20
163.4378095111
 10
-867.3815459336
 20
184.747702066
 10
-855.5471899917
 20
205.7545210799
 10
-842.4451915739
 20
226.4427396455
 10
-828.0856968557
 20
246.7968308554
 10
-812.4788520128
 20
266.8012678021
 10
-795.634803221
 20
286.4405235783
 10
-777.5660066859
 20
305.6970153363
 10
-758.3001715651
 20
324.5395850112
 10
-737.8711911322
 20
342.9315706387
 10
-716.7076503447
 20
360.5210527181
 10
-694.4869713599
 20
377.6057722598
 10
-671.2412806746
 20
394.1509816033
 10
-647.0027047857
 20
410.1219330882
 10
-619.7544801575
 20
426.6868515515
 10
-591.454888278
 20
442.5159255753
 10
-562.1729621866
 20
457.5835098116
 10
-531.9777349228
 20
471.8639589124
 10
-500.9382395262
 20
485.3316275297
 10
-469.1235090363
 20
497.9608703155
 10
-438.4775367403
 20
509.0780119617
 10
-407.2412644896
 20
519.4147095987
 10
-375.439544392
 20
528.9643705662
 10
-343.0968714825
 20
537.7205634084
 10
-310.2377407961
 20
545.6768566698
 10
-272.9847920113
 20
553.6042037121
 10
-235.1531018206
 20
560.5182311662
 10
-196.7878842244
 20
566.4088089571
 10
-157.9715942426
 20
571.2618393912
 10
-118.7944463523
 20
575.0623980905
 10
-79.3466550306
 20
577.7955606771
 10
-39.7184347547
 20
579.4464027729
 10
-0.0000000016
 20
580.0
 10
37.7459338053
 20
579.4999480794
 10
75.4144459344
 20
578.0083310088
 10
112.928114708
 20
575.5379568256
 10
150.2095184481
 20
572.101633567
 10
187.181235477
 20
567.7121692702
 10
223.7658441169
 20
562.3823719725
 10
257.8372339689
 20
556.5072193115
 10
291.4554265341
 20
549.815624745
 10
324.5954944614
 20
542.3140657873
 10
357.2329427159
 20
534.008973894
 10
389.3432762627
 20
524.9067805207
 10
420.9020000667
 20
515.013917123
 10
451.8846190931
 20
504.3368151566
 10
482.2633948838
 20
492.8833703583
 10
511.9891729055
 20
480.671147003
 10
541.004115749
 20
467.7216293515
 10
568.7530400639
 20
454.3064887431
 10
595.7056579615
 20
440.2212496052
 10
621.8071520121
 20
425.4862762746
 10
647.0027047857
 20
410.1219330882
 10
669.4721942939
 20
395.3591001701
 10
691.0930548029
 20
380.1020447941
 10
711.8398085478
 20
364.3783234264
 10
731.6869777633
 20
348.2154925335
 10
750.6090846846
 20
331.6411085818
 10
768.5806515465
 20
314.6827280375
 10
785.576200584
 20
297.3679073671
 10
803.1144499052
 20
277.9420451466
 10
819.4214815223
 20
258.1420037199
 10
834.4868949451
 20
237.9835363355
 10
848.3005439981
 20
217.482169901
 10
860.8522825054
 20
196.6534313237
 10
872.1319642914
 20
175.512847511
 10
882.1294431804
 20
154.0759453703
 10
890.8339129882
 20
132.3607409816
 10
898.2302095442
 20
110.4016862417
 10
904.3014017877
 20
88.2398967405
 10
908.9579711366
 20
66.3163177898
 10
912.3039572301
 20
44.2758286382
 10
914.3233151554
 20
22.1573993526
 10
915.0
 20
0.0
 10
914.420064904
 20
-20.5101893999
 10
912.6887425102
 20
-40.9894737741
 10
909.8187571602
 20
-61.4069480968
 10
905.8228331952
 20
-81.7317073424
 10
900.7136949568
 20
-101.9328464851
 10
894.5040667863
 20
-121.9794604993
 10
887.2066730252
 20
-141.8406443591
 10
877.9381132237
 20
-163.4378095111
 10
867.3815459336
 20
-184.747702066
 10
855.5471899917
 20
-205.7545210799
 10
842.4451915739
 20
-226.4427396455
 10
828.0856968557
 20
-246.7968308554
 10
812.4788520128
 20
-266.8012678021
 10
795.634803221
 20
-286.4405235783
 10
777.5660066859
 20
-305.6970153363
 10
758.3001715651
 20
-324.5395850112
 10
737.8711911322
 20
-342.9315706387
 10
716.7076503447
 20
-360.5210527181
 10
694.4869713599
 20
-377.6057722598
 10
671.2412806746
 20
-394.1509816033
 10
647.0027047857
 20
-410.1219330882
 10
619.7544801575
 20
-426.6868515515
 10
591.454888278
 20
-442.5159255753
 10
562.1729621865
 20
-457.5835098116
 10
531.9777349228
 20
-471.8639589124
 10
500.9382395261
 20
-485.3316275297
 10
469.1235090361
 20
-497.9608703155
 10
438.47753674
 20
-509.0780119618
 10
407.2412644891
 20
-519.4147095988
 10
375.4395443914
 20
-528.9643705663
 10
343.0968714817
 20
-537.7205634086
 10
310.2377407951
 20
-545.6768566701
 10
272.9847920101
 20
-553.6042037124
 10
235.1531018193
 20
-560.5182311664
 10
196.787884223
 20
-566.4088089573
 10
157.9715942411
 20
-571.2618393914
 10
118.7944463507
 20
-575.0623980907
 10
79.346655029
 20
-577.7955606772
 10
39.7184347531
 20
-579.446402773
 10
0.0
 20
-580.0
 10
-37.7459338069
 20
-579.4999480793
 10
-75.4144459361
 20
-578.0083310087
 10
-112.9281147096
 20
-575.5379568254
 10
-150.2095184496
 20
-572.1016335668
 10
-187.1812354785
 20
-567.71216927
 10
-223.7658441182
 20
-562.3823719722
 10
-257.8372339701
 20
-556.5072193112
 10
-291.4554265351
 20
-549.8156247448
 10
-324.5954944623
 20
-542.3140657871
 10
-357.2329427166
 20
-534.0089738938
 10
-389.3432762633
 20
-524.9067805205
 10
-420.9020000671
 20
-515.0139171229
 10
-451.8846190934
 20
-504.3368151565
 10
-482.2633948839
 20
-492.8833703583
 10
-511.9891729056
 20
-480.671147003
 10
-541.004115749
 20
-467.7216293515
 10
-568.7530400639
 20
-454.3064887431
 10
-595.7056579615
 20
-440.2212496052
 10
-621.8071520121
 20
-425.4862762746
 10
-647.0027047857
 20
-410.1219330882
 10
-669.4721942939
 20
-395.3591001701
 10
-691.0930548029
 20
-380.1020447941
 10
-711.8398085478
 20
-364.3783234264
 10
-731.6869777633
 20
-348.2154925335
 10
-750.6090846846
 20
-331.6411085818
 10
-768.5806515465
 20
-314.6827280375
 10
-785.576200584
 20
-297.3679073671
 10
-803.1144499052
 20
-277.9420451466
 10
-819.4214815223
 20
-258.1420037199
 10
-834.4868949451
 20
-237.9835363355
 10
-848.3005439981
 20
-217.482169901
 10
-860.8522825054
 20
-196.6534313237
 10
-872.1319642914
 20
-175.512847511
 10
-882.1294431804
 20
-154.0759453703
 10
-890.8339129882
 20
-132.3607409816
 10
-898.2302095442
 20
-110.4016862417
 10
-904.3014017877
 20
-88.2398967405
 10
-908.9579711366
 20
-66.3163177898
 10
-912.3039572301
 20
-44.2758286382
 10
-914.3233151554
 20
-22.1573993526
 10
-915.0
 20
0.0
  0
SPLINE
  5
D9
330
C2
100
AcDbEntity
  8
0
  6
Continuous
 62
     7
370
    25
100
AcDbSpline
210
0.0
220
0.0
230
1.0
 70
     8
 71
     3
 72
    13
 73
     9
 74
     0
 42
0.000000001
 43
0.00000001
 40
0.1328227944199402
 40
0.1328227944199402
 40
0.1328227944199402
 40
0.1328227944199402
 40
0.1666666666666666
 40
0.2083333333333334
 40
0.25
 40
0.2916666666666666
 40
0.3333333333333334
 40
0.3671772055800639
 40
0.3671772055800639
 40
0.3671772055800639
 40
0.3671772055800639
 10
-17.49999999999971
 20
-19.26192897709469
 30
0.0
 10
-16.16711424205042
 20
-20.46884333328487
 30
0.0
 10
-12.89713105849341
 20
-22.84978857389391
 30
0.0
 10
-6.91532007938479
 20
-25.34699779100858
 30
0.0
 10
0.0000000000000104
 20
-26.3265011044957
 30
0.0
 10
6.915320079384809
 20
-25.34699779100857
 30
0.0
 10
12.89713105849364
 20
-22.84978857389381
 30
0.0
 10
16.1671142420508
 20
-20.4688433332846
 30
0.0
 10
17.50000000000021
 20
-19.26192897709424
 30
0.0
  0
LINE
  5
DA
330
C2
100
AcDbEntity
  8
0
  6
Continuous
 62
     7
370
    25
100
AcDbLine
 10
17.5
 20
-45.0
 30
0.0
 11
17.5
 21
-19.2619289771
 31
0.0
  0
LINE
  5
DB
330
C2
100
AcDbEntity
  8
0
  6
Continuous
 62
     7
370
    25
100
AcDbLine
 10
-17.5
 20
-45.0
 30
0.0
 11
-17.5
 21
-19.2619289771
 31
0.0
  0
ARC
  5
DC
330
C2
100
AcDbEntity
  8
0
  6
Continuous
 62
     7
370
    25
100
AcDbCircle
 10
0.0
 20
-45.0
 30
0.0
 40
17.5
100
AcDbArc
 50
180.0
 51
0.0
  0
VIEWPORT
  5
12A
330
C2
100
AcDbEntity
  8
0
100
AcDbViewport
 10
0.0
 20
0.0
 30
0.0
 40
205.6
 41
156.0
 68
     1
 69
     1
 12
0.0
 22
0.0
 13
0.0
 23
0.0
 14
10.0
 24
10.0
 15
10.0
 25
10.0
 16
0.0
 26
0.0
 36
1.0
 17
0.0
 27
0.0
 37
0.0
 42
50.0
 43
0.0
 44
0.0
 45
1416.2918287938
 50
0.0
 51
0.0
 72
   100
 90
   557152
  1

281
     0
 71
     1
 74
     0
110
0.0
120
0.0
130
0.0
111
1.0
121
0.0
131
0.0
112
0.0
122
1.0
132
0.0
 79
     0
146
0.0
  0
ENDBLK
  5
C5
330
C2
100
AcDbEntity
  8
0
100
AcDbBlockEnd
  0
BLOCK
  5
DF
330
DD
100
AcDbEntity
  8
0
100
AcDbBlockBegin
  2
*Paper_Space5
 70
     0
 10
0.0
 20
0.0
 30
0.0
  3
*Paper_Space5
  1

  0
SPLINE
  5
E1
330
DD
100
AcDbEntity
  8
0
  6
Continuous
 62
     7
370
    25
100
AcDbSpline
210
0.0
220
0.0
230
1.0
 70
     8
 71
     3
 72
   193
 73
   189
 74
     0
 42
0.000000001
 43
0.00000001
 40
0.0
 40
0.0
 40
0.0
 40
0.0
 40
0.0058946021417269
 40
0.0111307313514212
 40
0.0157027661531125
 40
0.019605001956536
 40
0.0228320796227063
 40
0.0257567975126522
 40
0.0287702062221704
 40
0.0316112303387015
 40
0.0345283278011078
 40
0.0375222820211807
 40
0.0405939144168052
 40
0.0436184094249517
 40
0.0461567743146783
 40
0.0482137134343145
 40
0.0497120063078348
 40
0.0506874847366069
 40
0.0516258702174871
 40
0.0526750279899755
 40
0.0538353410380308
 40
0.0551072397243296
 40
0.057730487362646
 40
0.0607310452377259
 40
0.0639396235318876
 40
0.06993876143345
 40
0.0762917670933321
 40
0.0830090878343932
 40
0.090623568901321
 40
0.0986851260948816
 40
0.1072109186759112
 40
0.1162196979393032
 40
0.1257047965913763
 40
0.1380198510514652
 40
0.1506410109286785
 40
0.1635729801090077
 40
0.1768182388280934
 40
0.1903783253038359
 40
0.2042539346625487
 40
0.2184450154730191
 40
0.2329508639543681
 40
0.2477701523039079
 40
0.2628987638743171
 40
0.2783286995303727
 40
0.2940495568776377
 40
0.3089795262919493
 40
0.323360148191714
 40
0.3371609981137851
 40
0.3503551608110454
 40
0.3629190718910624
 40
0.374834222577475
 40
0.3860873866040525
 40
0.3958109212412835
 40
0.4049592675842434
 40
0.4135242273729953
 40
0.4215085973525871
 40
0.429053790437175
 40
0.4362030109556004
 40
0.4442363474698445
 40
0.4516207813994106
 40
0.4543121156246006
 40
0.4572338481153294
 40
0.4606698052973197
 40
0.4646220816401318
 40
0.4700037089027742
 40
0.4761250540904553
 40
0.4829912593117192
 40
0.490460744481369
 40
0.4978260570911923
 40
0.5049909998592895
 40
0.517278314484571
 40
0.5289036815281395
 40
0.5398554671936601
 40
0.5502289840020147
 40
0.5601679439760523
 40
0.5696617807149224
 40
0.5742545077631027
 40
0.5782348068502854
 40
0.5816770273692813
 40
0.585606563368306
 40
0.590349431666098
 40
0.5946467413775504
 40
0.5994450930744017
 40
0.6044041481823083
 40
0.6092576120520865
 40
0.614005026878338
 40
0.6199059319662678
 40
0.6255175527548424
 40
0.6306445706166078
 40
0.6358923659317001
 40
0.641627367403082
 40
0.6477813424266083
 40
0.6538414550953653
 40
0.6639615693378934
 40
0.6736094095681452
 40
0.6829820283895601
 40
0.6924293784928177
 40
0.6961973786524805
 40
0.7000116545315936
 40
0.7038717831509506
 40
0.7079739530573758
 40
0.7125883696463389
 40
0.7176110055652067
 40
0.7223883918784332
 40
0.7268069819470595
 40
0.7324890561777607
 40
0.7374521550321149
 40
0.7417037188589722
 40
0.745248576809905
 40
0.7471441832572061
 40
0.7491869964748755
 40
0.7515069804222885
 40
0.7541029624112482
 40
0.757101952410498
 40
0.7606268566990416
 40
0.7646742211148522
 40
0.7690135103605042
 40
0.7730195118483275
 40
0.7766605401143296
 40
0.7905913823520228
 40
0.7951044248960729
 40
0.7995642185106274
 40
0.8038776571475342
 40
0.8079753421273165
 40
0.8121864109237732
 40
0.8167742056528126
 40
0.8214677226843334
 40
0.8252509113678337
 40
0.8285423858003811
 40
0.8319843058995776
 40
0.8358134040201478
 40
0.8398931210003682
 40
0.8441732655756089
 40
0.8484896842897542
 40
0.852362409495182
 40
0.8560083152950934
 40
0.8597538090863104
 40
0.8638414279683103
 40
0.8683774672544176
 40
0.8725124536585961
 40
0.8761887935401097
 40
0.8796818829327859
 40
0.8832731972356075
 40
0.886961445169717
 40
0.8901084402955406
 40
0.8933634628804358
 40
0.8967549435326345
 40
0.9002373945628098
 40
0.9032529271870066
 40
0.9056371471623174
 40
0.9073987725702309
 40
0.9098636152793023
 40
0.9129411018293146
 40
0.9162239907332141
 40
0.9195750007948897
 40
0.9224878535628905
 40
0.9254903156530343
 40
0.9287995585167635
 40
0.9328047799253014
 40
0.9364308729985235
 40
0.9395282779845635
 40
0.942381061678446
 40
0.9456770208908079
 40
0.9488698969268429
 40
0.9520179388520271
 40
0.9557048001250392
 40
0.9579578052536981
 40
0.9599083648816572
 40
0.9615677020092811
 40
0.9634700533933866
 40
0.9658045401631312
 40
0.9682286276025729
 40
0.9702234638176378
 40
0.9720701859311024
 40
0.9743337482680375
 40
0.9770493759022765
 40
0.9794394248140857
 40
0.9813260383864549
 40
0.9830099692538423
 40
0.9850538210334893
 40
0.9872982123791922
 40
0.9892215870890616
 40
0.990785949956484
 40
0.9923688968893802
 40
0.9943129537944553
 40
0.996551493546131
 40
0.9985906454785892
 40
1.0
 40
1.0
 40
1.0
 40
1.0
 10
558.3841700798079
 20
-397.2226634041056
 30
0.0
 10
555.7657359728775
 20
-398.2126694549416
 30
0.0
 10
550.8213672258628
 20
-400.0820901763392
 30
0.0
 10
543.6415476675816
 20
-402.5968252415772
 30
0.0
 10
537.2613363214449
 20
-404.7250795394394
 30
0.0
 10
531.7234366076228
 20
-406.486480345064
 30
0.0
 10
526.891574728803
 20
-407.9638759284705
 30
0.0
 10
522.4298181452729
 20
-409.2812963819538
 30
0.0
 10
518.118292298176
 20
-410.5117146234167
 30
0.0
 10
513.7716206872879
 20
-411.7106898244693
 30
0.0
 10
509.3988514974669
 20
-412.8766436851475
 30
0.0
 10
504.8745235442156
 20
-414.0411482565136
 30
0.0
 10
500.2599977110244
 20
-415.1859339957225
 30
0.0
 10
495.8438615690288
 20
-416.2410263925589
 30
0.0
 10
491.9229016017494
 20
-417.1456464828246
 30
0.0
 10
488.7709077870836
 20
-417.8518491517563
 30
0.0
 10
486.4178769421534
 20
-418.3670747839771
 30
0.0
 10
484.6380349557244
 20
-418.7505469121588
 30
0.0
 10
483.087096975383
 20
-419.0805097011337
 30
0.0
 10
481.4352547042843
 20
-419.4273294198259
 30
0.0
 10
479.6034834383465
 20
-419.8062798544287
 30
0.0
 10
476.9363945688775
 20
-420.3490504404735
 30
0.0
 10
473.2837834209378
 20
-421.0728466985944
 30
0.0
 10
468.5815413171069
 20
-421.968881545834
 30
0.0
 10
462.0447136588244
 20
-423.1606481536104
 30
0.0
 10
453.6446446877832
 20
-424.5916654127427
 30
0.0
 10
443.2534918181739
 20
-426.2007136012311
 30
0.0
 10
431.8850326615947
 20
-427.7813938093304
 30
0.0
 10
419.4786244987611
 20
-429.2995683426064
 30
0.0
 10
405.972954771701
 20
-430.7162225972658
 30
0.0
 10
391.6006964424942
 20
-431.9693895048555
 30
0.0
 10
376.3516841124431
 20
-433.0261768218481
 30
0.0
 10
358.8951266694793
 20
-433.9212543535909
 30
0.0
 10
339.3296183332869
 20
-434.5274499166374
 30
0.0
 10
317.7679293622503
 20
-434.7229740599394
 30
0.0
 10
295.6740822078418
 20
-434.4542599843611
 30
0.0
 10
273.0764435742368
 20
-433.712172518398
 30
0.0
 10
250.0051069705844
 20
-432.4878249615986
 30
0.0
 10
226.4913488579535
 20
-430.7725385066366
 30
0.0
 10
202.5676082629239
 20
-428.5577785992219
 30
0.0
 10
178.2673891587373
 20
-425.8355208502454
 30
0.0
 10
153.6270237326191
 20
-422.5970414397869
 30
0.0
 10
128.6852762938571
 20
-418.8394795000824
 30
0.0
 10
103.4811988160153
 20
-414.5673350776195
 30
0.0
 10
78.63727992779651
 20
-409.8938396738905
 30
0.0
 10
54.60376299592673
 20
-404.9441235637291
 30
0.0
 10
31.82007864117714
 20
-399.8703830966048
 30
0.0
 10
10.16943422613398
 20
-394.7053460149623
 30
0.0
 10
-10.32798747256358
 20
-389.5066385651156
 30
0.0
 10
-29.65931073895284
 20
-384.3271265159935
 30
0.0
 10
-47.82007421268774
 20
-379.2147548152896
 30
0.0
 10
-64.38200352240197
 20
-374.3401021209081
 30
0.0
 10
-79.41943645165911
 20
-369.7397525325905
 30
0.0
 10
-93.00568224817773
 20
-365.4415242705781
 30
0.0
 10
-105.6324955995559
 20
-361.3230217589816
 30
0.0
 10
-117.3852271679865
 20
-357.3818063598198
 30
0.0
 10
-128.3633578470071
 20
-353.605724244592
 30
0.0
 10
-139.2826674885893
 20
-349.7606823852591
 30
0.0
 10
-150.0361828440782
 20
-345.883049272254
 30
0.0
 10
-158.5924985351358
 20
-342.7241481388764
 30
0.0
 10
-164.7038565019625
 20
-340.4335488594839
 30
0.0
 10
-168.9458500057328
 20
-338.8302725265922
 30
0.0
 10
-173.7632429689113
 20
-336.9923532154464
 30
0.0
 10
-179.708186946665
 20
-334.6995928336087
 30
0.0
 10
-186.8704845887135
 20
-331.8997161072678
 30
0.0
 10
-195.3356518461325
 20
-328.535575290686
 30
0.0
 10
-204.7035498294784
 20
-324.74377405671
 30
0.0
 10
-214.5717779750052
 20
-320.6689674818059
 30
0.0
 10
-224.5017282677988
 20
-316.4845037395583
 30
0.0
 10
-236.5173277641553
 20
-311.3208913072276
 30
0.0
 10
-250.3028534449008
 20
-305.2413249241137
 30
0.0
 10
-265.5736270370178
 20
-298.2931812491545
 30
0.0
 10
-279.8297826784186
 20
-291.6156832114532
 30
0.0
 10
-293.1946167956057
 20
-285.1838074917671
 30
0.0
 10
-305.7861596752634
 20
-278.9671594609517
 30
0.0
 10
-315.8168347653826
 20
-273.8930520307167
 30
0.0
 10
-323.2950929594855
 20
-270.0431960742333
 30
0.0
 10
-328.2439318502992
 20
-267.4681853920731
 30
0.0
 10
-332.8939904458169
 20
-265.0262485914557
 30
0.0
 10
-337.8564614566283
 20
-262.3962747417109
 30
0.0
 10
-343.1570627538404
 20
-259.5565421667259
 30
0.0
 10
-348.7907057184072
 20
-256.5041325789186
 30
0.0
 10
-354.4948087247116
 20
-253.378223116667
 30
0.0
 10
-360.369490443644
 20
-250.1190649861087
 30
0.0
 10
-366.1439977460393
 20
-246.8755294052137
 30
0.0
 10
-372.2129693971074
 20
-243.4251887298684
 30
0.0
 10
-378.4716399123052
 20
-239.8191196917151
 30
0.0
 10
-384.7844962407179
 20
-236.1305674911733
 30
0.0
 10
-390.9107795030326
 20
-232.5036241300006
 30
0.0
 10
-397.059182778386
 20
-228.8159287045783
 30
0.0
 10
-403.5429828577648
 20
-224.8735456900502
 30
0.0
 10
-410.2790460986326
 20
-220.7167369444153
 30
0.0
 10
-418.5841467641964
 20
-215.5131908770406
 30
0.0
 10
-428.0704550398816
 20
-209.4485910684209
 30
0.0
 10
-438.6082353398002
 20
-202.543617565553
 30
0.0
 10
-448.7469607639039
 20
-195.739905108744
 30
0.0
 10
-456.6673877153804
 20
-190.2971545477471
 30
0.0
 10
-462.5722044529339
 20
-186.1707999648191
 30
0.0
 10
-466.5133884377046
 20
-183.389863168524
 30
0.0
 10
-470.5428902201569
 20
-180.5184896844419
 30
0.0
 10
-474.8139571098619
 20
-177.4435948767951
 30
0.0
 10
-479.4392692507114
 20
-174.0758829860758
 30
0.0
 10
-484.2476434783537
 20
-170.5306896744131
 30
0.0
 10
-488.9492586731956
 20
-167.0193573126839
 30
0.0
 10
-493.8270448280739
 20
-163.3318712371019
 30
0.0
 10
-498.7182333323665
 20
-159.5840927422092
 30
0.0
 10
-503.5035027932834
 20
-155.864498894875
 30
0.0
 10
-507.5648557470912
 20
-152.6677603255244
 30
0.0
 10
-510.6243726748647
 20
-150.233641773674
 30
0.0
 10
-512.9714096604531
 20
-148.3522570858598
 30
0.0
 10
-514.9248642659026
 20
-146.7777740579903
 30
0.0
 10
-517.0862501614611
 20
-145.0250582304448
 30
0.0
 10
-519.5316138384696
 20
-143.0283332354922
 30
0.0
 10
-522.3312837408628
 20
-140.7241796307819
 30
0.0
 10
-525.5523922590424
 20
-138.0484890372547
 30
0.0
 10
-529.1517923615662
 20
-135.0259441504302
 30
0.0
 10
-532.862058134376
 20
-131.8722408563758
 30
0.0
 10
-536.4147065218503
 20
-128.8154047611329
 30
0.0
 10
-542.7473973794524
 20
-123.3046041609913
 30
0.0
 10
-549.0877497920497
 20
-117.6399207580692
 30
0.0
 10
-555.5084779148314
 20
-111.7380200317439
 30
0.0
 10
-559.1886816779717
 20
-108.3072158232783
 30
0.0
 10
-562.7107397145633
 20
-104.9777091059997
 30
0.0
 10
-566.1226443230606
 20
-101.7083363003313
 30
0.0
 10
-569.5652711734203
 20
-98.36452707050833
 30
0.0
 10
-573.1202450275163
 20
-94.86102621835906
 30
0.0
 10
-576.5157550521798
 20
-91.46215462491377
 30
0.0
 10
-579.534483443597
 20
-88.39645561739815
 30
0.0
 10
-582.199952682152
 20
-85.65623202037747
 30
0.0
 10
-584.8450677952816
 20
-82.90477326961118
 30
0.0
 10
-587.6531937740377
 20
-79.94597619301553
 30
0.0
 10
-590.6285521083267
 20
-76.76621810058192
 30
0.0
 10
-593.6792613494131
 20
-73.45594299525688
 30
0.0
 10
-596.6357102088699
 20
-70.19647791505956
 30
0.0
 10
-599.3984964394476
 20
-67.10319313911015
 30
0.0
 10
-601.9886485570316
 20
-64.16124144412188
 30
0.0
 10
-604.5919452191532
 20
-61.16165479355215
 30
0.0
 10
-607.351503786545
 20
-57.93253592349357
 30
0.0
 10
-610.1477446565389
 20
-54.60345949907492
 30
0.0
 10
-612.8079622554769
 20
-51.3796969774746
 30
0.0
 10
-615.2050432439303
 20
-48.42711544673251
 30
0.0
 10
-617.4497452083071
 20
-45.61989696281749
 30
0.0
 10
-619.6615954310066
 20
-42.81121602190216
 30
0.0
 10
-621.7585837846801
 20
-40.1055583107614
 30
0.0
 10
-623.7421201086341
 20
-37.50735941252717
 30
0.0
 10
-625.6443700085699
 20
-34.97964088542901
 30
0.0
 10
-627.5941910239204
 20
-32.34881363464975
 30
0.0
 10
-629.4789736169042
 20
-29.76406070605331
 30
0.0
 10
-631.1421934955534
 20
-27.44703985881231
 30
0.0
 10
-632.4593839900308
 20
-25.58759934367352
 30
0.0
 10
-633.6529172952319
 20
-23.88537711797048
 30
0.0
 10
-634.9574318152737
 20
-22.00515979614098
 30
0.0
 10
-636.510534165365
 20
-19.73488665286494
 30
0.0
 10
-638.1851954026612
 20
-17.24628374190132
 30
0.0
 10
-639.7981358576541
 20
-14.80706946936233
 30
0.0
 10
-641.335784951902
 20
-12.44206080223564
 30
0.0
 10
-642.8389685824096
 20
-10.09191821833327
 30
0.0
 10
-644.4779174740178
 20
-7.483504365120019
 30
0.0
 10
-646.172632509026
 20
-4.728962532980802
 30
0.0
 10
-647.7941638458831
 20
-2.032962284102657
 30
0.0
 10
-649.20725020105
 20
0.3653449935745456
 30
0.0
 10
-650.5400797465866
 20
2.670116002225997
 30
0.0
 10
-651.8530355254886
 20
4.985912948309884
 30
0.0
 10
-653.1711259924695
 20
7.36114891116052
 30
0.0
 10
-654.5060587165019
 20
9.819190647560482
 30
0.0
 10
-655.6774368893572
 20
12.02830711286892
 30
0.0
 10
-656.668690819577
 20
13.93817124159852
 30
0.0
 10
-657.3916306733212
 20
15.35293542173175
 30
0.0
 10
-658.0594297548304
 20
16.67774803530361
 30
0.0
 10
-658.7592066419394
 20
18.08512182699818
 30
0.0
 10
-659.5332006790013
 20
19.66775225693182
 30
0.0
 10
-660.3002424538242
 20
21.26637159637518
 30
0.0
 10
-660.9965563386988
 20
22.74424191944025
 30
0.0
 10
-661.6601042332793
 20
24.17557748591262
 30
0.0
 10
-662.382707395696
 20
25.76209417380618
 30
0.0
 10
-663.1416356318409
 20
27.46531364317603
 30
0.0
 10
-663.8418508753992
 20
29.07374263346663
 30
0.0
 10
-664.4231101446725
 20
30.43600665229479
 30
0.0
 10
-664.957325911052
 20
31.70968006412189
 30
0.0
 10
-665.5125802427377
 20
33.05789705656698
 30
0.0
 10
-666.0754735548089
 20
34.45436931305068
 30
0.0
 10
-666.583449649353
 20
35.74185487889584
 30
0.0
 10
-667.0286628608652
 20
36.89148975124348
 30
0.0
 10
-667.4592757054579
 20
38.02276617315822
 30
0.0
 10
-667.9210244020455
 20
39.25948533315363
 30
0.0
 10
-668.4088233791389
 20
40.59467082642612
 30
0.0
 10
-668.7357195797603
 20
41.51832960329219
 30
0.0
 10
-668.7532419532769
 20
41.53729539378106
 30
0.0
 10
-668.7604030929388
 20
41.54504643700383
 30
0.0
  0
SPLINE
  5
E2
330
DD
100
AcDbEntity
  8
0
  6
Continuous
 62
     7
370
    25
100
AcDbSpline
210
0.0
220
0.0
230
1.0
 70
     8
 71
     3
 72
    55
 73
    51
 74
     0
 42
0.000000001
 43
0.00000001
 40
0.0
 40
0.0
 40
0.0
 40
0.0
 40
0.004976661054287
 40
0.0136954846508421
 40
0.0221289753136943
 40
0.0410135539356232
 40
0.0592456944866561
 40
0.0778941274060797
 40
0.0978221337730936
 40
0.1210528345498824
 40
0.1440593407952469
 40
0.1647774183490615
 40
0.1832624258288826
 40
0.2000366674659856
 40
0.2162865371347065
 40
0.2336466773248613
 40
0.2547989354332431
 40
0.2751476444174281
 40
0.2943961712465463
 40
0.3111528133253085
 40
0.3243531148003383
 40
0.3412228731897316
 40
0.3607324555767673
 40
0.3861172573919724
 40
0.4164129083896537
 40
0.4416791339049604
 40
0.4686392334762129
 40
0.496441737445486
 40
0.5205486514120228
 40
0.546236299199541
 40
0.5622199371560905
 40
0.5750096632947663
 40
0.5891039266939765
 40
0.6037784696882513
 40
0.6183723082254657
 40
0.6332744217734272
 40
0.6504641645156866
 40
0.6723350156757079
 40
0.694761327612692
 40
0.7147607923799592
 40
0.7334065693153367
 40
0.7516813011410426
 40
0.7897498062122975
 40
0.8276133037708886
 40
0.8633579734007408
 40
0.8815458602972042
 40
0.9042657967024208
 40
0.9315556357459497
 40
0.9634509820290765
 40
1.0
 40
1.0
 40
1.0
 40
1.0
 10
671.9904835972535
 20
-306.717353263805
 30
0.0
 10
671.9888880662062
 20
-306.7177871571525
 30
0.0
 10
671.984497256639
 20
-306.7189812066599
 30
0.0
 10
671.7589711062961
 20
-307.3104229806042
 30
0.0
 10
671.4676946172655
 20
-308.0463118056688
 30
0.0
 10
670.9919207014594
 20
-309.2166665285395
 30
0.0
 10
670.3707893089776
 20
-310.6588429647965
 30
0.0
 10
669.7080170301487
 20
-312.1242189094041
 30
0.0
 10
668.9389607237235
 20
-313.7405261090648
 30
0.0
 10
668.0578155916888
 20
-315.4938511908443
 30
0.0
 10
667.1029058780276
 20
-317.2892286706073
 30
0.0
 10
666.1556971962691
 20
-318.9798526321172
 30
0.0
 10
665.2518906168974
 20
-320.521375995932
 30
0.0
 10
664.3750326642544
 20
-321.9586620472205
 30
0.0
 10
663.4738372750439
 20
-323.3829992020706
 30
0.0
 10
662.4433670376027
 20
-324.953510926391
 30
0.0
 10
661.2721868750431
 20
-326.6669033927593
 30
0.0
 10
659.9970420188071
 20
-328.453598945647
 30
0.0
 10
658.7496269464194
 20
-330.1324776101023
 30
0.0
 10
657.6104933925982
 20
-331.6113650770321
 30
0.0
 10
656.4857695881806
 20
-333.0292051903745
 30
0.0
 10
655.2435778934968
 20
-334.549983312376
 30
0.0
 10
653.6369407265394
 20
-336.4495307059971
 30
0.0
 10
651.5630847960425
 20
-338.8001338038056
 30
0.0
 10
649.1851621574517
 20
-341.3600792034565
 30
0.0
 10
646.5912022467953
 20
-344.014091276571
 30
0.0
 10
643.9399834736522
 20
-346.6023969777613
 30
0.0
 10
641.1623283748663
 20
-349.1855624844566
 30
0.0
 10
638.2964089996955
 20
-351.7320242217064
 30
0.0
 10
635.736707028529
 20
-353.9101338871129
 30
0.0
 10
633.5467735184953
 20
-355.7075395984518
 30
0.0
 10
631.7720448515612
 20
-357.1287265727468
 30
0.0
 10
630.0060035108802
 20
-358.5107428593782
 30
0.0
 10
628.1176802075714
 20
-359.9525860004343
 30
0.0
 10
626.146260438033
 20
-361.4208449081033
 30
0.0
 10
624.011075565805
 20
-362.9717858787967
 30
0.0
 10
621.4726118150277
 20
-364.7662040232363
 30
0.0
 10
618.4944916908869
 20
-366.8029514592786
 30
0.0
 10
615.2812447597007
 20
-368.919962138965
 30
0.0
 10
612.1273082282423
 20
-370.9248740574942
 30
0.0
 10
609.1022973067882
 20
-372.7859600184993
 30
0.0
 10
605.0179276175099
 20
-375.2215041715174
 30
0.0
 10
599.6893214635271
 20
-378.2512588014751
 30
0.0
 10
593.0633551005398
 20
-381.7841226235628
 30
0.0
 10
587.3717001906967
 20
-384.6363479523323
 30
0.0
 10
582.4507238359361
 20
-386.9919129125433
 30
0.0
 10
577.9664497897396
 20
-389.0656020512878
 30
0.0
 10
572.4516854402614
 20
-391.5069136777021
 30
0.0
 10
565.8560219750113
 20
-394.2943868113139
 30
0.0
 10
560.9851801949856
 20
-396.20330740713
 30
0.0
 10
558.3841700798079
 20
-397.2226634041056
 30
0.0
  0
SPLINE
  5
E3
330
DD
100
AcDbEntity
  8
0
  6
Continuous
 62
     7
370
    25
100
AcDbSpline
210
0.0
220
0.0
230
1.0
 70
     8
 71
     3
 72
   367
 73
   363
 74
     0
 42
0.000000001
 43
0.00000001
 40
0.0
 40
0.0
 40
0.0
 40
0.0
 40
0.0020847720958208
 40
0.0038149061186938
 40
0.0052021755688574
 40
0.0062665841005135
 40
0.0071683214715172
 40
0.0087222539664214
 40
0.0104353337422828
 40
0.0120117948269181
 40
0.0130948073227741
 40
0.014412625129439
 40
0.0161481370356998
 40
0.0175247495122903
 40
0.0186025216424466
 40
0.0200006461166368
 40
0.0232212039345161
 40
0.0258576728397199
 40
0.029122864192286
 40
0.0316500394154253
 40
0.0350832665036091
 40
0.0401262182086331
 40
0.0451616193366116
 40
0.0497173070497419
 40
0.0509816792638832
 40
0.0524165349788859
 40
0.0535364205216909
 40
0.0543709507499835
 40
0.0552089161201857
 40
0.0561369924661562
 40
0.057344846685029
 40
0.0588210218356058
 40
0.0600195296436359
 40
0.0608766806932475
 40
0.0616664854970772
 40
0.0638909849916422
 40
0.0668880284954155
 40
0.0687586593198217
 40
0.0711791061784432
 40
0.0740536865226091
 40
0.0760617753057754
 40
0.078608231320231
 40
0.0813974736295204
 40
0.0835872360073496
 40
0.0860199745999994
 40
0.0891291729570335
 40
0.0912659629618612
 40
0.0936153369300617
 40
0.0967281874287619
 40
0.0982893395396182
 40
0.0994402001370337
 40
0.1005474439623494
 40
0.1017643856971463
 40
0.1032673128834421
 40
0.1049816960620961
 40
0.107020967632653
 40
0.1085666777943251
 40
0.1099760885370727
 40
0.1114164162707129
 40
0.1130726733379858
 40
0.1151603834739961
 40
0.1172505887200398
 40
0.1190270940786148
 40
0.1204583480685809
 40
0.1218823312574921
 40
0.1233608694832758
 40
0.1251093148688208
 40
0.1271777379145934
 40
0.1292470026221552
 40
0.1311441420937167
 40
0.1328202894342389
 40
0.1343259079871037
 40
0.1357967176201812
 40
0.1386685892568264
 40
0.1421807576023556
 40
0.1453096866277068
 40
0.1468490274226451
 40
0.1485182082490026
 40
0.1503583178247626
 40
0.1523875953768595
 40
0.1542617985338028
 40
0.1557546178650234
 40
0.1578037790128706
 40
0.159947682395831
 40
0.1625704482188411
 40
0.167687335692466
 40
0.1712691503848922
 40
0.1761676591782999
 40
0.1805092169272773
 40
0.184599460305013
 40
0.189430612482564
 40
0.1932995849514497
 40
0.1966417465240937
 40
0.1995241079691598
 40
0.2018837607717336
 40
0.2052885052219051
 40
0.2084300225246798
 40
0.210689677355687
 40
0.2120471988867321
 40
0.2136557257719109
 40
0.2155096994261174
 40
0.2171462225214583
 40
0.2184029707157341
 40
0.2197636584345395
 40
0.2215686491857952
 40
0.2234430970961367
 40
0.2248810443298282
 40
0.2261609246814848
 40
0.2275549990272744
 40
0.2291261151144287
 40
0.2310406361214088
 40
0.2333173851404999
 40
0.2354147612345214
 40
0.236953696685914
 40
0.2382471107297501
 40
0.2403433782703214
 40
0.2425497104760241
 40
0.2445684469106056
 40
0.246456722525101
 40
0.2484173378729224
 40
0.2559993871194725
 40
0.263753714947259
 40
0.2700944173916765
 40
0.2776556324924958
 40
0.2843404271445875
 40
0.2920313743803804
 40
0.2977197978959909
 40
0.3023237680002828
 40
0.3073386009519299
 40
0.3121936146818893
 40
0.3172575237695565
 40
0.3221265097532003
 40
0.327360931509694
 40
0.3323625789773761
 40
0.3376030088007371
 40
0.3425975468412255
 40
0.3471791363235203
 40
0.3517762285074129
 40
0.3564981716593839
 40
0.3613250116165572
 40
0.3652760369386028
 40
0.3690574337705727
 40
0.3722754429063074
 40
0.3763055115611086
 40
0.379984079505753
 40
0.3840715243510287
 40
0.3882816612520248
 40
0.3921927659175918
 40
0.3984391200293156
 40
0.4040403349308321
 40
0.4079719860962641
 40
0.4133799955508433
 40
0.4181292413921035
 40
0.42274024718874
 40
0.4265307660112319
 40
0.4305338834879229
 40
0.4348044464598121
 40
0.4386446885181914
 40
0.4421000741694416
 40
0.4459392810946773
 40
0.4501455452368427
 40
0.4542626056486825
 40
0.4580616831747698
 40
0.4613809639677406
 40
0.4645071250179643
 40
0.4659472141371049
 40
0.4674370299143413
 40
0.4691730971237142
 40
0.4711925880025923
 40
0.473493115426376
 40
0.475926787400576
 40
0.4780243792650499
 40
0.4805062535901642
 40
0.4830374794073624
 40
0.4856757849586131
 40
0.4880463629828002
 40
0.4899323062164567
 40
0.4910815972914448
 40
0.4922682034895048
 40
0.4936887881153721
 40
0.4953419327718029
 40
0.4972259797497779
 40
0.5007749243895252
 40
0.5044957765103951
 40
0.5082738058933781
 40
0.5121078343412554
 40
0.5151587882968123
 40
0.5182371263424151
 40
0.5210314730917097
 40
0.5233691688049745
 40
0.5249138007701515
 40
0.5261713180526572
 40
0.5273919722793665
 40
0.5290917465671001
 40
0.5312828871250633
 40
0.5347034334090205
 40
0.5380793741635813
 40
0.541345966475427
 40
0.547643952278091
 40
0.5535072920521458
 40
0.5591488604475635
 40
0.56481679189731
 40
0.5705106106419011
 40
0.5762291889991498
 40
0.5864983680097948
 40
0.5968340067425478
 40
0.607226208506345
 40
0.6174319702411333
 40
0.6271514169755744
 40
0.6364021754929389
 40
0.6448130660602428
 40
0.6528314419053413
 40
0.6604746077010093
 40
0.6679479125896987
 40
0.6723283325743172
 40
0.6767071946578449
 40
0.6810759919266163
 40
0.6829934672093148
 40
0.6847385817438237
 40
0.68631419472653
 40
0.6878547104418148
 40
0.6897549621502945
 40
0.6929209396223139
 40
0.6964417412763788
 40
0.7001164083723272
 40
0.7038742748583254
 40
0.7072922762209743
 40
0.7103575141171865
 40
0.7120736175110584
 40
0.7138411191838315
 40
0.7157685491985969
 40
0.717466469403401
 40
0.7188847074171828
 40
0.7207346201707551
 40
0.7226999166099795
 40
0.7244150900931228
 40
0.7265889473994027
 40
0.7288047853312454
 40
0.7305150566416777
 40
0.7327624018858113
 40
0.7349039607126718
 40
0.7367093537191393
 40
0.7391556207043422
 40
0.7409314475374092
 40
0.7431900269227621
 40
0.7457441603899683
 40
0.7479196726392767
 40
0.750648121885266
 40
0.7522211391655995
 40
0.7535643912768816
 40
0.7547815804638308
 40
0.7564895032665037
 40
0.7575294700173424
 40
0.7583214445199918
 40
0.7591092614168959
 40
0.7601863208313796
 40
0.7615068957866051
 40
0.7632325437709999
 40
0.7645589988085799
 40
0.7657992632443087
 40
0.7670880048827309
 40
0.7686075654714539
 40
0.7700414599601216
 40
0.7710953247749077
 40
0.7724504382684323
 40
0.7741476419235797
 40
0.7753951449225804
 40
0.7763518743450328
 40
0.7774858156856431
 40
0.7787766324839672
 40
0.7803654491942654
 40
0.7820792881481309
 40
0.783527516389004
 40
0.7847402864566413
 40
0.7860871170321705
 40
0.7879576111330869
 40
0.7899661699095976
 40
0.7915572758642971
 40
0.7929298644706937
 40
0.7942791899799885
 40
0.7958932534110161
 40
0.7974285786510155
 40
0.7987715525234331
 40
0.7998671803789839
 40
0.8011377633653172
 40
0.802629223733836
 40
0.804497818849701
 40
0.8062227246483308
 40
0.8074751092903626
 40
0.8086539125355715
 40
0.8099696457488798
 40
0.8116194897599645
 40
0.8143748910927854
 40
0.8165026448390731
 40
0.818191976865512
 40
0.820095831976279
 40
0.8224966993036437
 40
0.8250724368693684
 40
0.8271451152409596
 40
0.8289158479841615
 40
0.8306830777158567
 40
0.8326178364126574
 40
0.8348688293022719
 40
0.8371453250600066
 40
0.8390989387516081
 40
0.8407853011497611
 40
0.8423887057390954
 40
0.8440429797622631
 40
0.845865601892911
 40
0.8497626816338578
 40
0.8535887497005771
 40
0.8567857293665031
 40
0.8597483907195189
 40
0.862841926987408
 40
0.8664966024725849
 40
0.8702654551792437
 40
0.8740339884434558
 40
0.8774254435956057
 40
0.8805084439999462
 40
0.8835140825345429
 40
0.8865378665807899
 40
0.8895873175815855
 40
0.8926643699352098
 40
0.8964550358048922
 40
0.9005880966584221
 40
0.9046220679668503
 40
0.9086156568685743
 40
0.9180512001704112
 40
0.927391444685265
 40
0.9366438122038896
 40
0.9410307379933107
 40
0.94517477457544
 40
0.9491719493741947
 40
0.9537928305335222
 40
0.9623842014682178
 40
0.9640625650836928
 40
0.9657356314651349
 40
0.9673511025212255
 40
0.9685600710384864
 40
0.9694352165255177
 40
0.9704985387394667
 40
0.9718812812344786
 40
0.9737633023759027
 40
0.9755655444175353
 40
0.976791156009532
 40
0.9777995225456707
 40
0.9789296005106334
 40
0.9802112421841945
 40
0.9813889685647466
 40
0.9822558999342577
 40
0.9832344720842786
 40
0.9852087554688519
 40
0.986603067370993
 40
0.9878486157890545
 40
0.9895116310881273
 40
0.9916344715857943
 40
0.9930417134337585
 40
0.9940405863782826
 40
0.9949950255767428
 40
0.9962658493953043
 40
0.9979200496388498
 40
1.0
 40
1.0
 40
1.0
 40
1.0
 10
-763.2488427913305
 20
154.1691223743339
 30
0.0
 10
-763.011286305179
 20
152.6641736488697
 30
0.0
 10
-762.576583780921
 20
149.910281214966
 30
0.0
 10
-761.957907551294
 20
146.1552659694403
 30
0.0
 10
-761.4493602735379
 20
143.1420557933596
 30
0.0
 10
-761.0328495089631
 20
140.7253324482659
 30
0.0
 10
-760.5888198503412
 20
138.1898047395019
 30
0.0
 10
-760.0527676445696
 20
135.1889610217242
 30
0.0
 10
-759.4141661367835
 20
131.705406218125
 30
0.0
 10
-758.8232632347247
 20
128.5633815432762
 30
0.0
 10
-758.2751820096852
 20
125.7075933720186
 30
0.0
 10
-757.695245493272
 20
122.7398354499119
 30
0.0
 10
-757.0605419425284
 20
119.5643057358795
 30
0.0
 10
-756.4470789949568
 20
116.5636697418036
 30
0.0
 10
-755.8734933594616
 20
113.8069107061085
 30
0.0
 10
-755.0112084524853
 20
109.734341363524
 30
0.0
 10
-753.8789224084126
 20
104.5547016365171
 30
0.0
 10
-752.4020733969463
 20
98.05999570222082
 30
0.0
 10
-750.9857595489868
 20
92.0669944057321
 30
0.0
 10
-749.3823393596575
 20
85.52733208881666
 30
0.0
 10
-747.4030500814993
 20
77.74604816840572
 30
0.0
 10
-744.856485149843
 20
68.22852034171592
 30
0.0
 10
-741.9490207504284
 20
57.97204471347897
 30
0.0
 10
-739.6866544018619
 20
50.40139170799554
 30
0.0
 10
-738.1325719733406
 20
45.35982746050652
 30
0.0
 10
-737.3039541678182
 20
42.70948639841269
 30
0.0
 10
-736.5598036240152
 20
40.36066853088607
 30
0.0
 10
-735.9412804862473
 20
38.42791314185676
 30
0.0
 10
-735.3609402063659
 20
36.62990274830089
 30
0.0
 10
-734.6920707948312
 20
34.57610688595047
 30
0.0
 10
-733.8719543238194
 20
32.08485897747828
 30
0.0
 10
-732.9798591210105
 20
29.41105128310975
 30
0.0
 10
-732.1588278990596
 20
26.98259305045891
 30
0.0
 10
-731.4917646627639
 20
25.02933690984507
 30
0.0
 10
-730.5778744102718
 20
22.37471865982718
 30
0.0
 10
-729.1409357287599
 20
18.2611162415561
 30
0.0
 10
-727.4084852392559
 20
13.42335035179729
 30
0.0
 10
-725.5933506330481
 20
8.468897671998544
 30
0.0
 10
-723.7791794009519
 20
3.614029277693886
 30
0.0
 10
-721.891893585304
 20
-1.316674443735399
 30
0.0
 10
-719.9363530391934
 20
-6.315574453679057
 30
0.0
 10
-717.9724545336927
 20
-11.23635647569624
 30
0.0
 10
-715.9211172504123
 20
-16.25903480705018
 30
0.0
 10
-713.8657771521326
 20
-21.18611404363918
 30
0.0
 10
-711.6898028988319
 20
-26.30250925216923
 30
0.0
 10
-709.4877009547107
 20
-31.36356360579559
 30
0.0
 10
-707.276120574978
 20
-36.33970586521831
 30
0.0
 10
-705.0347479243135
 20
-41.29383352264018
 30
0.0
 10
-702.9200644618373
 20
-45.86879343924502
 30
0.0
 10
-701.1470132434861
 20
-49.6359731928406
 30
0.0
 10
-699.9750982056673
 20
-52.10032200323103
 30
0.0
 10
-698.9021889147924
 20
-54.33724933436565
 30
0.0
 10
-697.7131160399437
 20
-56.79478906746932
 30
0.0
 10
-696.3249161105118
 20
-59.6348841713823
 30
0.0
 10
-694.6649921714447
 20
-62.99069350008518
 30
0.0
 10
-692.9742001947888
 20
-66.36221477001206
 30
0.0
 10
-691.3655108730878
 20
-69.52859969896161
 30
0.0
 10
-689.9392961858886
 20
-72.30618616928797
 30
0.0
 10
-688.466797589105
 20
-75.14495627843559
 30
0.0
 10
-686.759839960557
 20
-78.39994703900332
 30
0.0
 10
-684.820757702118
 20
-82.04947167783696
 30
0.0
 10
-682.821620709961
 20
-85.75804729744421
 30
0.0
 10
-681.0261423335835
 20
-89.04505797496206
 30
0.0
 10
-679.4450920307628
 20
-91.90823205883173
 30
0.0
 10
-677.9561974451486
 20
-94.57878058104247
 30
0.0
 10
-676.3480428261561
 20
-97.43546365114936
 30
0.0
 10
-674.5043993524909
 20
-100.6757136817472
 30
0.0
 10
-672.4372580216396
 20
-104.2636314310806
 30
0.0
 10
-670.2991712345034
 20
-107.9252513109475
 30
0.0
 10
-668.2831121864488
 20
-111.3342572460943
 30
0.0
 10
-666.4551054522499
 20
-114.3904041270915
 30
0.0
 10
-664.7699193668827
 20
-117.1796946220831
 30
0.0
 10
-662.6393360715273
 20
-120.6735841124503
 30
0.0
 10
-659.7522735682533
 20
-125.3446268957566
 30
0.0
 10
-656.2205602450899
 20
-130.9486382423841
 30
0.0
 10
-653.1198141363028
 20
-135.7714155150211
 30
0.0
 10
-650.7027616763528
 20
-139.4786751090865
 30
0.0
 10
-648.7899507150623
 20
-142.3851467830465
 30
0.0
 10
-646.6740492524888
 20
-145.5678403354524
 30
0.0
 10
-644.4546106196907
 20
-148.8692669618335
 30
0.0
 10
-642.3524709612657
 20
-151.9614531615167
 30
0.0
 10
-640.2313112598721
 20
-155.0519408530494
 30
0.0
 10
-637.9923678401686
 20
-158.2816488413298
 30
0.0
 10
-635.2908808953887
 20
-162.1332611665771
 30
0.0
 10
-631.3432996774502
 20
-167.6877977855077
 30
0.0
 10
-626.768993341524
 20
-173.9897046002868
 30
0.0
 10
-621.1928603081942
 20
-181.4949927825452
 30
0.0
 10
-615.8859425553285
 20
-188.4801716026126
 30
0.0
 10
-610.2871055952384
 20
-195.6764240571007
 30
0.0
 10
-604.642516045571
 20
-202.7772800228388
 30
0.0
 10
-599.1735805364801
 20
-209.5063392750865
 30
0.0
 10
-593.9134920440374
 20
-215.8416459653628
 30
0.0
 10
-589.5126605897078
 20
-221.0502577262693
 30
0.0
 10
-585.7256123997837
 20
-225.4668526757922
 30
0.0
 10
-581.8712524450798
 20
-229.9062959129126
 30
0.0
 10
-577.9010016009336
 20
-234.4178361064955
 30
0.0
 10
-573.9371254840618
 20
-238.8546478790983
 30
0.0
 10
-570.8760286746256
 20
-242.238822111615
 30
0.0
 10
-568.5000318764402
 20
-244.8441063436852
 30
0.0
 10
-566.3027123977718
 20
-247.2373731364405
 30
0.0
 10
-563.9689510043719
 20
-249.759553490139
 30
0.0
 10
-561.7866880996653
 20
-252.0996793773739
 30
0.0
 10
-559.8254578539163
 20
-254.1892933991936
 30
0.0
 10
-557.7840337350726
 20
-256.3517939417027
 30
0.0
 10
-555.4493422376453
 20
-258.8077924576343
 30
0.0
 10
-553.068078270141
 20
-261.2926878359465
 30
0.0
 10
-550.9230914965868
 20
-263.514930870435
 30
0.0
 10
-548.9995328216812
 20
-265.4960692884517
 30
0.0
 10
-547.0090747096103
 20
-267.5343284252853
 30
0.0
 10
-544.71442032718
 20
-269.8691793041453
 30
0.0
 10
-541.9970511299623
 20
-272.6136487413639
 30
0.0
 10
-539.0180184131958
 20
-275.5957543600936
 30
0.0
 10
-536.2026829275931
 20
-278.3881134524997
 30
0.0
 10
-533.8468170198566
 20
-280.7069921942774
 30
0.0
 10
-531.4894532589259
 20
-283.013678862225
 30
0.0
 10
-528.8044367701488
 20
-285.6225605746078
 30
0.0
 10
-525.7583733469821
 20
-288.5560838761749
 30
0.0
 10
-522.8028838661876
 20
-291.3778353626146
 30
0.0
 10
-519.9563846334507
 20
-294.073975798869
 30
0.0
 10
-514.397626480164
 20
-299.2982478641366
 30
0.0
 10
-505.9031567069914
 20
-307.12940227091
 30
0.0
 10
-495.1449650205398
 20
-316.7520023948272
 30
0.0
 10
-484.2665800524721
 20
-326.2211512200579
 30
0.0
 10
-473.8269202282619
 20
-335.0716696537967
 30
0.0
 10
-462.580073685474
 20
-344.3569348557823
 30
0.0
 10
-452.1947645216237
 20
-352.7077273564706
 30
0.0
 10
-442.8068996495687
 20
-360.0768874313752
 30
0.0
 10
-434.759128452702
 20
-366.2795512755869
 30
0.0
 10
-427.1059230990372
 20
-372.079035592165
 30
0.0
 10
-419.1579495460784
 20
-377.999148880478
 30
0.0
 10
-411.2422837098826
 20
-383.7950077676689
 30
0.0
 10
-403.0695143438191
 20
-389.6781287924101
 30
0.0
 10
-394.8831349441699
 20
-395.4705973204803
 30
0.0
 10
-386.4399421915742
 20
-401.3423275578122
 30
0.0
 10
-378.0788359758469
 20
-407.0577387599609
 30
0.0
 10
-369.8928851009024
 20
-412.5584097920897
 30
0.0
 10
-362.0239512836383
 20
-417.7623545946835
 30
0.0
 10
-354.2551140133905
 20
-422.8222751014115
 30
0.0
 10
-346.3138466479398
 20
-427.9150931717006
 30
0.0
 10
-338.6851260290747
 20
-432.7306167377043
 30
0.0
 10
-331.5555737760557
 20
-437.1660070854792
 30
0.0
 10
-325.3054260661128
 20
-441.0047250880871
 30
0.0
 10
-318.9895549182881
 20
-444.8389395742159
 30
0.0
 10
-312.7033979610803
 20
-448.6093919428379
 30
0.0
 10
-305.8790035348835
 20
-452.6503174960306
 30
0.0
 10
-298.9295619243274
 20
-456.7121413960219
 30
0.0
 10
-291.8105627487897
 20
-460.815517871809
 30
0.0
 10
-283.3931465790776
 20
-465.6015126095098
 30
0.0
 10
-274.1167508098668
 20
-470.7867752608771
 30
0.0
 10
-264.7654419190818
 20
-475.9111914954049
 30
0.0
 10
-255.8763019095722
 20
-480.7051604389735
 30
0.0
 10
-247.454970185649
 20
-485.1762784672914
 30
0.0
 10
-238.5725344072765
 20
-489.8122867271247
 30
0.0
 10
-230.6368487002424
 20
-493.8892659509496
 30
0.0
 10
-223.1000297532945
 20
-497.7066002847343
 30
0.0
 10
-215.739904407731
 20
-501.3850864419738
 30
0.0
 10
-208.3580361869111
 20
-505.0226230534538
 30
0.0
 10
-201.270354716709
 20
-508.4669278065561
 30
0.0
 10
-194.41320357035
 20
-511.7573385635785
 30
0.0
 10
-187.303824250259
 20
-515.1255309419662
 30
0.0
 10
-179.8089486027485
 20
-518.6265559782858
 30
0.0
 10
-172.2878319942109
 20
-522.0888095257797
 30
0.0
 10
-165.2030492720436
 20
-525.304038752048
 30
0.0
 10
-158.7572404385111
 20
-528.1913366579622
 30
0.0
 10
-153.7985403633074
 20
-530.3864718621173
 30
0.0
 10
-149.978490032503
 20
-532.0633272985584
 30
0.0
 10
-147.0315248746467
 20
-533.3498969876424
 30
0.0
 10
-143.7140806834888
 20
-534.7894991967639
 30
0.0
 10
-139.8767500114872
 20
-536.4429828079961
 30
0.0
 10
-135.5877630678559
 20
-538.2760108964259
 30
0.0
 10
-131.2375430671877
 20
-540.1184855539803
 30
0.0
 10
-126.7165003547245
 20
-542.0166578761684
 30
0.0
 10
-122.0587836305714
 20
-543.9541790988823
 30
0.0
 10
-117.1337996440757
 20
-545.9825737730044
 30
0.0
 10
-112.366860725511
 20
-547.9264577943603
 30
0.0
 10
-108.0070582104855
 20
-549.686847391484
 30
0.0
 10
-104.5603874248777
 20
-551.0667335495784
 30
0.0
 10
-101.8408788565801
 20
-552.1488174867247
 30
0.0
 10
-99.41160360191529
 20
-553.1108086199675
 30
0.0
 10
-96.65663995576718
 20
-554.1959407585489
 30
0.0
 10
-93.44550790564097
 20
-555.4527440642956
 30
0.0
 10
-88.84854139747442
 20
-557.238748439724
 30
0.0
 10
-82.89333480155794
 20
-559.5261928055439
 30
0.0
 10
-75.68245684303335
 20
-562.2533085119663
 30
0.0
 10
-68.2604060545109
 20
-565.0149487540552
 30
0.0
 10
-61.2529522602886
 20
-567.5787842834399
 30
0.0
 10
-54.68472402478095
 20
-569.9449045481234
 30
0.0
 10
-48.78569473768296
 20
-572.0403077025371
 30
0.0
 10
-43.34276754211652
 20
-573.94741983822
 30
0.0
 10
-38.90590254217469
 20
-575.4832520154724
 30
0.0
 10
-35.48500203910238
 20
-576.6564321163585
 30
0.0
 10
-32.80483409064716
 20
-577.5693687767939
 30
0.0
 10
-30.02160610265725
 20
-578.5117017969396
 30
0.0
 10
-26.61541857390484
 20
-579.6567232486099
 30
0.0
 10
-21.73570768098088
 20
-581.2813537958884
 30
0.0
 10
-15.72212423190689
 20
-583.2554785149606
 30
0.0
 10
-8.963646861420871
 20
-585.4358121993499
 30
0.0
 10
-0.2419938307953728
 20
-588.200884859624
 30
0.0
 10
10.20766078836033
 20
-591.4296873877664
 30
0.0
 10
22.34668887281249
 20
-595.0546183548421
 30
0.0
 10
34.10795690783588
 20
-598.4501050974773
 30
0.0
 10
45.77525086357928
 20
-601.7038506449397
 30
0.0
 10
57.52643913621108
 20
-604.8638257878501
 30
0.0
 10
72.48154282767858
 20
-608.7334488672233
 30
0.0
 10
90.70689575701962
 20
-613.1861068358019
 30
0.0
 10
112.2802624340319
 20
-618.0401276244421
 30
0.0
 10
133.9222678837168
 20
-622.4703684628702
 30
0.0
 10
155.276135394007
 20
-626.3869791135924
 30
0.0
 10
175.9897602867164
 20
-629.736921065679
 30
0.0
 10
195.5546223281419
 20
-632.4803022899274
 30
0.0
 10
214.0061176516719
 20
-634.6802219792049
 30
0.0
 10
231.3801940984003
 20
-636.3957371733786
 30
0.0
 10
248.1454769376024
 20
-637.7065670014381
 30
0.0
 10
262.3030589967437
 20
-638.51677407404
 30
0.0
 10
274.0975763840432
 20
-638.9871725977788
 30
0.0
 10
283.6413386096307
 20
-639.2414549418022
 30
0.0
 10
291.3986857594562
 20
-639.34208655499
 30
0.0
 10
297.239201470779
 20
-639.3585412015415
 30
0.0
 10
301.0456856316836
 20
-639.3464317305886
 30
0.0
 10
304.5746926647444
 20
-639.3157806665521
 30
0.0
 10
308.207399300524
 20
-639.2652785293961
 30
0.0
 10
312.9778801316871
 20
-639.1712221873153
 30
0.0
 10
319.1662266998294
 20
-638.9956007140077
 30
0.0
 10
326.6524540418578
 20
-638.6956487960279
 30
0.0
 10
334.5884136966355
 20
-638.2750332139694
 30
0.0
 10
342.4678828283289
 20
-637.7486422109647
 30
0.0
 10
349.8799836381608
 20
-637.1514486661787
 30
0.0
 10
355.7796382027455
 20
-636.6015747720843
 30
0.0
 10
360.5088719961342
 20
-636.1157412175272
 30
0.0
 10
364.4127976368954
 20
-635.687080629251
 30
0.0
 10
368.2909885720935
 20
-635.2319015567775
 30
0.0
 10
371.916234800659
 20
-634.7791635118965
 30
0.0
 10
375.4813453117872
 20
-634.3105977576423
 30
0.0
 10
379.2300952753048
 20
-633.7919366100899
 30
0.0
 10
383.1901100944611
 20
-633.2116431364885
 30
0.0
 10
387.3805758604102
 20
-632.5639824204745
 30
0.0
 10
391.7406449345152
 20
-631.8527391886633
 30
0.0
 10
396.0923945258763
 20
-631.100139799777
 30
0.0
 10
400.486404322268
 20
-630.3010624237356
 30
0.0
 10
404.8186240358013
 20
-629.4738836742565
 30
0.0
 10
409.2150329936754
 20
-628.5894658273163
 30
0.0
 10
413.7376771455735
 20
-627.6374605274921
 30
0.0
 10
417.9947048911876
 20
-626.698127985476
 30
0.0
 10
422.5657639800122
 20
-625.642543531856
 30
0.0
 10
427.1914726865923
 20
-624.5284585665141
 30
0.0
 10
432.0941202008286
 20
-623.2888000951796
 30
0.0
 10
437.3049133621441
 20
-621.9085942245001
 30
0.0
 10
441.8166253508107
 20
-620.6565482716286
 30
0.0
 10
445.7360270907849
 20
-619.5246491624985
 30
0.0
 10
448.6009928300602
 20
-618.6750997293035
 30
0.0
 10
451.5526053592819
 20
-617.7796137061653
 30
0.0
 10
454.2865811965007
 20
-616.928568896184
 30
0.0
 10
456.7238442179309
 20
-616.1516085414877
 30
0.0
 10
458.5251904201348
 20
-615.5682844100071
 30
0.0
 10
460.3475887808831
 20
-614.9701802239838
 30
0.0
 10
462.5284813954515
 20
-614.2431186378585
 30
0.0
 10
465.3469093058306
 20
-613.2845990617418
 30
0.0
 10
468.3299902627631
 20
-612.2443828608749
 30
0.0
 10
471.2497200352177
 20
-611.2007549816221
 30
0.0
 10
473.8651635060223
 20
-610.2465081501791
 30
0.0
 10
476.6048640660184
 20
-609.226740929508
 30
0.0
 10
479.4656907427366
 20
-608.1382824852328
 30
0.0
 10
482.1617004924781
 20
-607.0888964669164
 30
0.0
 10
484.7400427786009
 20
-606.0660683374849
 30
0.0
 10
487.486669610811
 20
-604.9564911540257
 30
0.0
 10
490.3563320526025
 20
-603.7704835254824
 30
0.0
 10
492.950891490143
 20
-602.674559425909
 30
0.0
 10
495.1595375611865
 20
-601.7265077167979
 30
0.0
 10
497.3943545134741
 20
-600.7525993102399
 30
0.0
 10
500.0396659587604
 20
-599.5795263139706
 30
0.0
 10
503.0565359201551
 20
-598.2139878596821
 30
0.0
 10
506.1664162933756
 20
-596.7732138273224
 30
0.0
 10
509.0177276868567
 20
-595.4227915557196
 30
0.0
 10
511.6193124073866
 20
-594.1677999955932
 30
0.0
 10
514.4774579310705
 20
-592.7647556636664
 30
0.0
 10
517.846420085364
 20
-591.0746119103936
 30
0.0
 10
521.3564648085451
 20
-589.2672066555735
 30
0.0
 10
524.5245536029258
 20
-587.5964588285544
 30
0.0
 10
527.2519298359218
 20
-586.129975062571
 30
0.0
 10
529.9917027734446
 20
-584.6305983152728
 30
0.0
 10
532.827566695428
 20
-583.0486044530818
 30
0.0
 10
535.6395409402725
 20
-581.4479550014416
 30
0.0
 10
538.1149538629878
 20
-580.01292963254
 30
0.0
 10
540.417024740938
 20
-578.6577534931889
 30
0.0
 10
542.8018397933898
 20
-577.2329807180478
 30
0.0
 10
545.6523753677726
 20
-575.5005993119108
 30
0.0
 10
548.7648678786455
 20
-573.5696525533455
 30
0.0
 10
551.7155646153175
 20
-571.6987336119724
 30
0.0
 10
554.2327552116824
 20
-570.0738692700992
 30
0.0
 10
556.4927365159367
 20
-568.5937424901073
 30
0.0
 10
558.9812089100692
 20
-566.939729997085
 30
0.0
 10
562.3991630612245
 20
-564.627995352167
 30
0.0
 10
566.2708179471477
 20
-561.9414360371901
 30
0.0
 10
570.1326965935059
 20
-559.1854105838717
 30
0.0
 10
573.4690098846536
 20
-556.7522332834664
 30
0.0
 10
576.9404841902455
 20
-554.1687267923841
 30
0.0
 10
580.8915492201689
 20
-551.1568150961455
 30
0.0
 10
584.9002409658042
 20
-548.0158114720894
 30
0.0
 10
588.5150805883794
 20
-545.1105659402566
 30
0.0
 10
591.6506954604158
 20
-542.5373996726528
 30
0.0
 10
594.6763943003153
 20
-540.0068267477599
 30
0.0
 10
597.9534995464278
 20
-537.211379846993
 30
0.0
 10
601.4788072240616
 20
-534.1365360834233
 30
0.0
 10
604.9734632770525
 20
-531.0149313130422
 30
0.0
 10
608.1336961286564
 20
-528.1290229361967
 30
0.0
 10
610.9103279007479
 20
-525.5450539336684
 30
0.0
 10
613.5079113328275
 20
-523.0863063049072
 30
0.0
 10
616.1560795449216
 20
-520.5373717526497
 30
0.0
 10
619.9672925137388
 20
-516.8031439203525
 30
0.0
 10
624.8295493847946
 20
-511.8985178825561
 30
0.0
 10
630.290926829874
 20
-506.1706208414537
 30
0.0
 10
635.1830982351626
 20
-500.8563376556222
 30
0.0
 10
639.6452291465546
 20
-495.8587564988372
 30
0.0
 10
644.2502517431448
 20
-490.5443320030057
 30
0.0
 10
649.1427391603072
 20
-484.7075249044124
 30
0.0
 10
654.2384440014447
 20
-478.403142685446
 30
0.0
 10
659.1032438011987
 20
-472.1589190646162
 30
0.0
 10
663.5640401304374
 20
-466.23024821988
 30
0.0
 10
667.6093498873528
 20
-460.6819519315667
 30
0.0
 10
671.4225393656943
 20
-455.2950645743978
 30
0.0
 10
675.147389762787
 20
-449.876590890798
 30
0.0
 10
678.8260790449814
 20
-444.3649461263231
 30
0.0
 10
682.7308293186846
 20
-438.3375079597063
 30
0.0
 10
686.9593733858882
 20
-431.5878130789628
 30
0.0
 10
691.4290109127927
 20
-424.1711384172924
 30
0.0
 10
695.8401189865959
 20
-416.5516994847986
 30
0.0
 10
701.9867471306248
 20
-405.5045232052398
 30
0.0
 10
709.5931143972333
 20
-390.8806004355411
 30
0.0
 10
718.2609283552274
 20
-372.5442681962411
 30
0.0
 10
724.811466628594
 20
-357.2688564847872
 30
0.0
 10
729.5697463639431
 20
-345.3276768747616
 30
0.0
 10
732.7861638431942
 20
-336.8652256912756
 30
0.0
 10
735.9316560871716
 20
-328.1992379993613
 30
0.0
 10
739.9879415278557
 20
-316.4518367682139
 30
0.0
 10
743.2541024697474
 20
-306.2114346172403
 30
0.0
 10
745.7241423388733
 20
-297.9587507951273
 30
0.0
 10
746.7309794178117
 20
-294.5220544415561
 30
0.0
 10
747.6244445753401
 20
-291.4068454561782
 30
0.0
 10
748.3474164110604
 20
-288.8391072468211
 30
0.0
 10
748.9552321679568
 20
-286.6503875607222
 30
0.0
 10
749.5881730765976
 20
-284.3415179299889
 30
0.0
 10
750.4001786312464
 20
-281.3302982179918
 30
0.0
 10
751.3311637950266
 20
-277.800199790189
 30
0.0
 10
752.2121326710758
 20
-274.3734848391825
 30
0.0
 10
752.9215675236139
 20
-271.5546633464532
 30
0.0
 10
753.5040903006069
 20
-269.2030347245534
 30
0.0
 10
754.0877299637012
 20
-266.8103721223586
 30
0.0
 10
754.6899741668313
 20
-264.2977465289574
 30
0.0
 10
755.238559579319
 20
-261.9671777051204
 30
0.0
 10
755.7300559140392
 20
-259.8470911088689
 30
0.0
 10
756.3423511653731
 20
-257.1689769065086
 30
0.0
 10
757.023810610266
 20
-254.1205242145362
 30
0.0
 10
757.7305494547636
 20
-250.8753252526011
 30
0.0
 10
758.3766541180333
 20
-247.8459672109636
 30
0.0
 10
759.1144132104271
 20
-244.3051348946776
 30
0.0
 10
759.8534528805768
 20
-240.646478730125
 30
0.0
 10
760.4798528507458
 20
-237.4524358830164
 30
0.0
 10
760.9354523089495
 20
-235.0810081513519
 30
0.0
 10
761.3652936559329
 20
-232.8057380942862
 30
0.0
 10
761.872588513822
 20
-230.0659975012597
 30
0.0
 10
762.5119251896732
 20
-226.5299011257943
 30
0.0
 10
762.9686920237167
 20
-223.8885591719562
 30
0.0
 10
763.2231146333015
 20
-222.4173115624199
 30
0.0
  0
LWPOLYLINE
  5
E4
330
DD
100
AcDbEntity
  8
0
  6
Continuous
 62
     7
370
    25
100
AcDbPolyline
 90
      163
 70
   128
 43
0.0
 10
-647.0027047857
 20
373.5067111589
 10
-661.0955227547
 20
364.8976368
 10
-674.3523338045
 20
355.8311770331
 10
-686.7602822499
 20
346.3251415428
 10
-698.3065124057
 20
336.3973400137
 10
-708.9781685868
 20
326.0655821304
 10
-718.762395108
 20
315.3476775777
 10
-727.6463362842
 20
304.26143604
 10
-736.3639767302
 20
291.6619219254
 10
-743.9677259452
 20
278.6539037691
 10
-750.4536367837
 20
265.2480029513
 10
-755.8179044937
 20
251.4546993285
 10
-760.0567243234
 20
237.2844727574
 10
-763.166291521
 20
222.7478030947
 10
-765.1428013344
 20
207.855170197
 10
-765.9826286805
 20
192.6188361277
 10
-765.6833348135
 20
177.0628307258
 10
-764.2429619733
 20
161.2159549255
 10
-761.7157208245
 20
145.3968138124
 10
-758.0840490744
 20
129.3521907147
 10
-753.3460932804
 20
113.1093839346
 10
-747.5
 20
96.6956917743
 10
-739.9457617653
 20
78.8109890622
 10
-731.1277740246
 20
60.7974886585
 10
-721.0767165087
 20
42.693838665
 10
-709.8232689486
 20
24.5386871836
 10
-697.3981110752
 20
6.370682316
 10
-683.8319226192
 20
-11.7715278359
 10
-670.0229540381
 20
-28.8194003347
 10
-655.2447231049
 20
-45.7896552591
 10
-639.5101411986
 20
-62.6694567274
 10
-622.8319811987
 20
-79.4461804206
 10
-605.2230159847
 20
-96.1072020199
 10
-584.4866841302
 20
-114.5499820237
 10
-562.6245951507
 20
-132.815365451
 10
-539.6615571278
 20
-150.8807606256
 10
-515.6459059904
 20
-168.7067543382
 10
-490.6308798782
 20
-186.2504284819
 10
-464.6697169309
 20
-203.4688649495
 10
-437.815655288
 20
-220.3191456338
 10
-410.1219330894
 20
-236.7583524279
 10
-383.0779372282
 20
-251.9622724799
 10
-355.387544319
 20
-266.7298277731
 10
-327.114556405
 20
-281.0346427574
 10
-298.3227755297
 20
-294.8503418826
 10
-269.0760037364
 20
-308.1505495985
 10
-239.4380430685
 20
-320.9088903552
 10
-211.1915719726
 20
-332.4187087379
 10
-182.6882481437
 20
-343.4102552529
 10
-153.9502781748
 20
-353.8759986019
 10
-124.9995303973
 20
-363.8085651584
 10
-95.8578731422
 20
-373.2005812962
 10
-66.5471747409
 20
-382.0446733888
 10
-37.0893035246
 20
-390.3334678101
 10
-7.5094566741
 20
-398.0588646807
 10
22.145188489
 20
-405.2079687289
 10
51.8185430738
 20
-411.7659404522
 10
80.9259325223
 20
-417.6170490978
 10
109.9440795176
 20
-422.8695652964
 10
138.8198225224
 20
-427.5094251559
 10
167.5
 20
-431.5225647839
 10
193.8272276669
 20
-434.6684532615
 10
219.9038520653
 20
-437.2661843279
 10
245.6923723305
 20
-439.3166065172
 10
271.1552875977
 20
-440.8205683639
 10
296.2550970023
 20
-441.7789184022
 10
320.9542996797
 20
-442.1925051664
 10
345.2153947651
 20
-442.062177191
 10
371.3529686968
 20
-441.2916459495
 10
396.8845248949
 20
-439.8657851778
 10
421.7915698734
 20
-437.7867798938
 10
446.0559500211
 20
-435.0568265338
 10
469.6595117269
 20
-431.6781215344
 10
492.5841013796
 20
-427.6528613322
 10
514.8115653681
 20
-422.9832423636
 10
536.3215232739
 20
-417.6722077373
 10
557.0788912394
 20
-411.7276307814
 10
577.0426240842
 20
-405.1593837187
 10
595.8376271918
 20
-398.1109203658
 10
613.788575988
 20
-390.4797483942
 10
630.8565690077
 20
-382.2752259449
 10
647.0027047857
 20
-373.5067111589
 10
661.0955227547
 20
-364.8976368
 10
674.3523338045
 20
-355.8311770331
 10
686.7602822499
 20
-346.3251415428
 10
698.3065124057
 20
-336.3973400137
 10
708.9781685868
 20
-326.0655821304
 10
718.762395108
 20
-315.3476775777
 10
727.6463362842
 20
-304.26143604
 10
736.3639767302
 20
-291.6619219254
 10
743.9677259452
 20
-278.6539037691
 10
750.4536367837
 20
-265.2480029513
 10
755.8179044937
 20
-251.4546993285
 10
760.0567243234
 20
-237.2844727574
 10
763.166291521
 20
-222.7478030947
 10
765.1428013344
 20
-207.855170197
 10
765.9826286805
 20
-192.6188361277
 10
765.6833348135
 20
-177.0628307258
 10
764.2429619733
 20
-161.2159549255
 10
761.7157208245
 20
-145.3968138124
 10
758.0840490744
 20
-129.3521907147
 10
753.3460932804
 20
-113.1093839346
 10
747.5
 20
-96.6956917743
 10
739.9457617653
 20
-78.8109890622
 10
731.1277740246
 20
-60.7974886585
 10
721.0767165087
 20
-42.693838665
 10
709.8232689486
 20
-24.5386871836
 10
697.3981110751
 20
-6.370682316
 10
683.8319226191
 20
11.771527836
 10
670.0229540379
 20
28.8194003348
 10
655.2447231046
 20
45.7896552593
 10
639.5101411982
 20
62.6694567277
 10
622.8319811983
 20
79.446180421
 10
605.2230159842
 20
96.1072020203
 10
584.4866841296
 20
114.5499820243
 10
562.6245951499
 20
132.8153654516
 10
539.661557127
 20
150.8807606263
 10
515.6459059895
 20
168.706754339
 10
490.6308798772
 20
186.2504284826
 10
464.6697169298
 20
203.4688649502
 10
437.8156552869
 20
220.3191456345
 10
410.1219330882
 20
236.7583524286
 10
383.077937227
 20
251.9622724805
 10
355.3875443178
 20
266.7298277737
 10
327.1145564038
 20
281.0346427579
 10
298.3227755285
 20
294.8503418831
 10
269.0760037352
 20
308.150549599
 10
239.4380430674
 20
320.9088903556
 10
211.1915719716
 20
332.4187087383
 10
182.6882481428
 20
343.4102552533
 10
153.950278174
 20
353.8759986021
 10
124.9995303966
 20
363.8085651586
 10
95.8578731417
 20
373.2005812963
 10
66.5471747406
 20
382.044673389
 10
37.0893035244
 20
390.3334678102
 10
7.5094566739
 20
398.0588646807
 10
-22.1451884891
 20
405.207968729
 10
-51.8185430739
 20
411.7659404522
 10
-80.9259325224
 20
417.6170490978
 10
-109.9440795176
 20
422.8695652964
 10
-138.8198225224
 20
427.5094251559
 10
-167.5
 20
431.5225647839
 10
-193.8272276669
 20
434.6684532615
 10
-219.9038520653
 20
437.2661843279
 10
-245.6923723305
 20
439.3166065172
 10
-271.1552875977
 20
440.8205683639
 10
-296.2550970023
 20
441.7789184022
 10
-320.9542996797
 20
442.1925051664
 10
-345.2153947651
 20
442.062177191
 10
-371.3529686968
 20
441.2916459495
 10
-396.8845248949
 20
439.8657851778
 10
-421.7915698734
 20
437.7867798938
 10
-446.0559500211
 20
435.0568265338
 10
-469.6595117269
 20
431.6781215344
 10
-492.5841013796
 20
427.6528613322
 10
-514.8115653681
 20
422.9832423636
 10
-536.3215232739
 20
417.6722077373
 10
-557.0788912394
 20
411.7276307814
 10
-577.0426240842
 20
405.1593837187
 10
-595.8376271918
 20
398.1109203658
 10
-613.788575988
 20
390.4797483942
 10
-630.8565690077
 20
382.2752259449
 10
-647.0027047857
 20
373.5067111589
  0
SPLINE
  5
E5
330
DD
100
AcDbEntity
  8
0
  6
Continuous
 62
     7
370
    25
100
AcDbSpline
210
0.0
220
0.0
230
1.0
 70
     8
 71
     3
 72
    39
 73
    35
 74
     0
 42
0.000000001
 43
0.00000001
 40
0.0
 40
0.0
 40
0.0
 40
0.0
 40
0.0320481364753065
 40
0.0643676667609545
 40
0.0966093227205746
 40
0.1287614911361367
 40
0.1610989532988853
 40
0.193101334655095
 40
0.2253076409858062
 40
0.2575152439309003
 40
0.2895869540244569
 40
0.3218977745556788
 40
0.3539724139288108
 40
0.3861648902409003
 40
0.4184444543192782
 40
0.4505235381044863
 40
0.4828226136888157
 40
0.5149524297924806
 40
0.5470486597491427
 40
0.5793337902204858
 40
0.6113481717364997
 40
0.6436140054370226
 40
0.6758590766970615
 40
0.7080501358404578
 40
0.7404186369578076
 40
0.7728560952529377
 40
0.8051192922619492
 40
0.8372365445201273
 40
0.8695819409285034
 40
0.9017034186737249
 40
0.9338458156811474
 40
0.9661100185972038
 40
0.9980988446107157
 40
1.0
 40
1.0
 40
1.0
 40
1.0
 10
-29.00614021566988
 20
-350.6814301983454
 30
0.0
 10
-27.70205338844514
 20
-349.9854843355745
 30
0.0
 10
-25.08283631206909
 20
-348.5876991191698
 30
0.0
 10
-20.58426284570487
 20
-346.890213939478
 30
0.0
 10
-15.7742425103732
 20
-345.5131905987261
 30
0.0
 10
-10.68994049334954
 20
-344.5063854745208
 30
0.0
 10
-5.437929240122343
 20
-343.8912407004073
 30
0.0
 10
-0.0912333784638883
 20
-343.6844534195739
 30
0.0
 10
5.243421511771679
 20
-343.8901109310434
 30
0.0
 10
10.48216663442722
 20
-344.5028581733557
 30
0.0
 10
15.53859381395698
 20
-345.5057271355499
 30
0.0
 10
20.32471835669361
 20
-346.8700907280079
 30
0.0
 10
24.7778897020581
 20
-348.5782110973826
 30
0.0
 10
28.81228068152729
 20
-350.6082059434412
 30
0.0
 10
32.3410240874521
 20
-352.9381978261744
 30
0.0
 10
35.32559728634232
 20
-355.5191416393547
 30
0.0
 10
37.72240977984239
 20
-358.2973298097315
 30
0.0
 10
39.49680354701039
 20
-361.2323396625513
 30
0.0
 10
40.60192440931147
 20
-364.2776319018737
 30
0.0
 10
41.00268144912597
 20
-367.3779166684881
 30
0.0
 10
40.68518098565072
 20
-370.4854933615154
 30
0.0
 10
39.65725864035116
 20
-373.537217522038
 30
0.0
 10
37.94336772588398
 20
-376.4861186082292
 30
0.0
 10
35.5850736142804
 20
-379.2815788078381
 30
0.0
 10
32.62290746095309
 20
-381.881550715757
 30
0.0
 10
29.08416612828881
 20
-384.2282705062019
 30
0.0
 10
25.03011780432049
 20
-386.2605105725023
 30
0.0
 10
20.55375374874403
 20
-387.9609772479311
 30
0.0
 10
15.73976468413787
 20
-389.3084698182568
 30
0.0
 10
10.66314446407761
 20
-390.2809306370664
 30
0.0
 10
5.405089800623666
 20
-390.8680089670128
 30
0.0
 10
0.0780053543261369
 20
-390.9971114831899
 30
0.0
 10
-3.61145856598425
 20
-390.9151283171275
 30
0.0
 10
-5.445107089790087
 20
-390.6821358815817
 30
0.0
 10
-5.547970845649179
 20
-390.6690655048461
 30
0.0
  0
SPLINE
  5
E6
330
DD
100
AcDbEntity
  8
0
  6
Continuous
 62
     7
370
    25
100
AcDbSpline
210
0.0
220
0.0
230
1.0
 70
     8
 71
     3
 72
    20
 73
    16
 74
     0
 42
0.000000001
 43
0.00000001
 40
0.0
 40
0.0
 40
0.0
 40
0.0
 40
0.0544997346136911
 40
0.1333900227943063
 40
0.2121915490382063
 40
0.2907305627211534
 40
0.3697702190419841
 40
0.4481436098145329
 40
0.5268517266570767
 40
0.6057761938346506
 40
0.6842625455681457
 40
0.7633709917501494
 40
0.8421125539808367
 40
0.9209010740956353
 40
1.0
 40
1.0
 40
1.0
 40
1.0
 10
-25.95853882556371
 20
-385.2740091332505
 30
0.0
 10
-26.90484475130429
 20
-384.816107984937
 30
0.0
 10
-29.22096188287678
 20
-383.6953787732441
 30
0.0
 10
-32.34475278501655
 20
-381.5790347798293
 30
0.0
 10
-35.3367978051613
 20
-379.0291063422872
 30
0.0
 10
-37.7304378563533
 20
-376.2759049151754
 30
0.0
 10
-39.50219070070911
 20
-373.3817609104873
 30
0.0
 10
-40.6040754969743
 20
-370.3785008320982
 30
0.0
 10
-41.00325293497539
 20
-367.3193906647303
 30
0.0
 10
-40.6830475435976
 20
-364.2541371420622
 30
0.0
 10
-39.65020617173442
 20
-361.2342407133416
 30
0.0
 10
-37.93751212477999
 20
-358.3168962548141
 30
0.0
 10
-35.57317438910851
 20
-355.5500462769164
 30
0.0
 10
-32.64562899905097
 20
-352.9561241898657
 30
0.0
 10
-30.22089214958836
 20
-351.4406546635751
 30
0.0
 10
-29.00614021566988
 20
-350.6814301983454
 30
0.0
  0
SPLINE
  5
E7
330
DD
100
AcDbEntity
  8
0
  6
Continuous
 62
     7
370
    25
100
AcDbSpline
210
0.0
220
0.0
230
1.0
 70
     8
 71
     3
 72
     9
 73
     5
 74
     0
 42
0.000000001
 43
0.00000001
 40
0.0
 40
0.0
 40
0.0
 40
0.0
 40
0.5
 40
1.0
 40
1.0
 40
1.0
 40
1.0
 10
323.6372375126277
 20
162.3296045299402
 30
0.0
 10
334.5994153196698
 20
156.4118133983017
 30
0.0
 10
356.1699410116765
 20
144.3719694688413
 30
0.0
 10
377.0258221908626
 20
131.9195700436201
 30
0.0
 10
387.2768478194172
 20
125.5912394979179
 30
0.0
  0
SPLINE
  5
E8
330
DD
100
AcDbEntity
  8
0
  6
Continuous
 62
     7
370
    25
100
AcDbSpline
210
0.0
220
0.0
230
1.0
 70
     8
 71
     3
 72
    40
 73
    36
 74
     0
 42
0.000000001
 43
0.00000001
 40
0.0
 40
0.0
 40
0.0
 40
0.0
 40
0.0624999999999976
 40
0.0624999999999976
 40
0.1249999999999953
 40
0.1249999999999953
 40
0.1874999999999929
 40
0.1874999999999929
 40
0.2499999999999905
 40
0.2499999999999905
 40
0.2812499999999885
 40
0.2812499999999885
 40
0.3124999999999863
 40
0.3124999999999863
 40
0.3749999999999822
 40
0.3749999999999822
 40
0.4374999999999781
 40
0.4374999999999781
 40
0.4999999999999739
 40
0.4999999999999739
 40
0.5624999999999698
 40
0.5624999999999698
 40
0.6249999999999656
 40
0.6249999999999656
 40
0.7499999999999675
 40
0.7499999999999675
 40
0.8124999999999682
 40
0.8124999999999682
 40
0.8437499999999721
 40
0.8437499999999721
 40
0.8749999999999761
 40
0.8749999999999761
 40
0.937499999999988
 40
0.937499999999988
 40
1.0
 40
1.0
 40
1.0
 40
1.0
 10
387.2768478194171
 20
125.5912394979179
 30
0.0
 10
387.5114691024128
 20
125.4463992560092
 30
0.0
 10
387.7504868726613
 20
125.3375055717002
 30
0.0
 10
388.2371215321406
 20
125.1888460599915
 30
0.0
 10
388.4875531426141
 20
125.1495160738261
 30
0.0
 10
388.9769789971422
 20
125.1446249964339
 30
0.0
 10
389.2174913226378
 20
125.1777846467908
 30
0.0
 10
389.6907627301831
 20
125.3150478748395
 30
0.0
 10
389.9194890961263
 20
125.4185870185014
 30
0.0
 10
390.2435071002052
 20
125.6195805648944
 30
0.0
 10
390.3487810666927
 20
125.6943821003103
 30
0.0
 10
390.5539485474781
 20
125.8596045408801
 30
0.0
 10
390.6541573503475
 20
125.9504356862096
 30
0.0
 10
390.9409593458029
 20
126.2407902792348
 30
0.0
 10
391.1157430732102
 20
126.4592519798932
 30
0.0
 10
391.4344589206797
 20
126.9437899203168
 30
0.0
 10
391.578517981271
 20
127.2114032288014
 30
0.0
 10
391.8257583620523
 20
127.7734485011664
 30
0.0
 10
391.9306251478708
 20
128.0700511429688
 30
0.0
 10
392.1030801706938
 20
128.6943329000546
 30
0.0
 10
392.1694164377528
 20
129.018868914376
 30
0.0
 10
392.2602663346457
 20
129.6757520218952
 30
0.0
 10
392.2854779063888
 20
130.0104847845329
 30
0.0
 10
392.2973111176268
 20
131.0343486300379
 30
0.0
 10
392.2215105422817
 20
131.7079667325894
 30
0.0
 10
391.9710184419875
 20
132.6896799923664
 30
0.0
 10
391.8668543202473
 20
133.0017891094186
 30
0.0
 10
391.6790029710044
 20
133.447145311296
 30
0.0
 10
391.6110822044301
 20
133.5917696263138
 30
0.0
 10
391.4640517883603
 20
133.8729947319912
 30
0.0
 10
391.3843784141868
 20
134.0104332047177
 30
0.0
 10
391.1317948594548
 20
134.4027122236302
 30
0.0
 10
390.9463449164797
 20
134.6371672280434
 30
0.0
 10
390.5404136529128
 20
135.05114119972
 30
0.0
 10
390.3178269356944
 20
135.2316416154571
 30
0.0
 10
390.082980802927
 20
135.3765937066336
 30
0.0
  0
SPLINE
  5
E9
330
DD
100
AcDbEntity
  8
0
  6
Continuous
 62
     7
370
    25
100
AcDbSpline
210
0.0
220
0.0
230
1.0
 70
     8
 71
     3
 72
     9
 73
     5
 74
     0
 42
0.000000001
 43
0.00000001
 40
0.0
 40
0.0
 40
0.0
 40
0.0
 40
0.5
 40
1.0
 40
1.0
 40
1.0
 40
1.0
 10
390.082980802927
 20
135.3765937066334
 30
0.0
 10
379.8309700461101
 20
141.7043555498949
 30
0.0
 10
358.9741031661867
 20
154.1561859421927
 30
0.0
 10
337.4045631749176
 20
166.1965989045767
 30
0.0
 10
326.4433704961381
 20
172.114958738656
 30
0.0
  0
SPLINE
  5
EA
330
DD
100
AcDbEntity
  8
0
  6
Continuous
 62
     7
370
    25
100
AcDbSpline
210
0.0
220
0.0
230
1.0
 70
     8
 71
     3
 72
    40
 73
    36
 74
     0
 42
0.000000001
 43
0.00000001
 40
0.0
 40
0.0
 40
0.0
 40
0.0
 40
0.0624999999999989
 40
0.0624999999999989
 40
0.1249999999999978
 40
0.1249999999999978
 40
0.1874999999999966
 40
0.1874999999999966
 40
0.2499999999999955
 40
0.2499999999999955
 40
0.3124999999999944
 40
0.3124999999999944
 40
0.3749999999999932
 40
0.3749999999999932
 40
0.4374999999999921
 40
0.4374999999999921
 40
0.499999999999991
 40
0.499999999999991
 40
0.5624999999999899
 40
0.5624999999999899
 40
0.6249999999999888
 40
0.6249999999999888
 40
0.6874999999999877
 40
0.6874999999999877
 40
0.7499999999999865
 40
0.7499999999999865
 40
0.7812499999999859
 40
0.7812499999999859
 40
0.8124999999999853
 40
0.8124999999999853
 40
0.8749999999999902
 40
0.8749999999999902
 40
0.9374999999999951
 40
0.9374999999999951
 40
1.0
 40
1.0
 40
1.0
 40
1.0
 10
326.4433704961381
 20
172.1149587386563
 30
0.0
 10
326.192416142414
 20
172.2504584247573
 30
0.0
 10
325.9355318688293
 20
172.3480315965766
 30
0.0
 10
325.4107779604863
 20
172.4720664125155
 30
0.0
 10
325.1399560174459
 20
172.4979077340939
 30
0.0
 10
324.6099116433316
 20
172.4771445318474
 30
0.0
 10
324.3489418371658
 20
172.4317277943312
 30
0.0
 10
323.835365568352
 20
172.2732351583688
 30
0.0
 10
323.5872632171676
 20
172.1610908182129
 30
0.0
 10
323.1174712643509
 20
171.8803648472656
 30
0.0
 10
322.8923045129403
 20
171.7094224113646
 30
0.0
 10
322.4753397137017
 20
171.3184034235159
 30
0.0
 10
322.2844612666457
 20
171.1000170191104
 30
0.0
 10
321.9369876024371
 20
170.6193221607637
 30
0.0
 10
321.7795071656558
 20
170.3544692636836
 30
0.0
 10
321.5102422403302
 20
169.7982041359854
 30
0.0
 10
321.3970702873666
 20
169.5055955222812
 30
0.0
 10
321.214187174657
 20
168.8911445285611
 30
0.0
 10
321.1446724477393
 20
168.5673036427081
 30
0.0
 10
321.0562378221557
 20
167.9147414179247
 30
0.0
 10
321.03618138519
 20
167.5832133653964
 30
0.0
 10
321.0462061005536
 20
166.9091490111224
 30
0.0
 10
321.0770812332004
 20
166.5659827439768
 30
0.0
 10
321.1884212711168
 20
165.8988490153224
 30
0.0
 10
321.2687144908611
 20
165.5710062167637
 30
0.0
 10
321.4280293758375
 20
165.088303113366
 30
0.0
 10
321.4879110043408
 20
164.9285505067069
 30
0.0
 10
321.6180905382882
 20
164.6198990813054
 30
0.0
 10
321.6886647551351
 20
164.4700304014115
 30
0.0
 10
321.9166400220014
 20
164.0337048432227
 30
0.0
 10
322.0910254280504
 20
163.7592049287276
 30
0.0
 10
322.4819298837069
 20
163.253117541308
 30
0.0
 10
322.6927078055862
 20
163.0285148590246
 30
0.0
 10
323.1438667792723
 20
162.634887264515
 30
0.0
 10
323.3862384709213
 20
162.4651031442856
 30
0.0
 10
323.6372375126277
 20
162.3296045299403
 30
0.0
  0
LWPOLYLINE
  5
EB
330
DD
100
AcDbEntity
  8
0
  6
Continuous
 62
     7
370
    25
100
AcDbPolyline
 90
        3
 70
   128
 43
0.0
 10
24.5982256404
 20
-384.311141506
 10
20.7924932868
 20
-383.6029323896
 10
18.5894345057
 20
-383.2518118712
  0
SPLINE
  5
EC
330
DD
100
AcDbEntity
  8
0
  6
Continuous
 62
     7
370
    25
100
AcDbSpline
210
0.0
220
0.0
230
1.0
 70
     8
 71
     3
 72
    14
 73
    10
 74
     0
 42
0.000000001
 43
0.00000001
 40
0.0
 40
0.0
 40
0.0
 40
0.0
 40
0.1590481764566868
 40
0.320387107091021
 40
0.481002937551068
 40
0.6390982436958522
 40
0.7968171728340625
 40
0.957496979652061
 40
1.0
 40
1.0
 40
1.0
 40
1.0
 10
-18.38477631085011
 20
-369.0781720731794
 30
0.0
 10
-19.51066681971443
 20
-369.810260331557
 30
0.0
 10
-21.77866392016854
 20
-371.2849810385927
 30
0.0
 10
-24.15722381531286
 20
-373.9168835048938
 30
0.0
 10
-25.68337170664105
 20
-376.7202465500633
 30
0.0
 10
-26.20602976687388
 20
-379.6258142935477
 30
0.0
 10
-25.63929089870448
 20
-382.50687200058
 30
0.0
 10
-24.64789009099468
 20
-384.6571577383914
 30
0.0
 10
-23.59508541312841
 20
-385.7396888679514
 30
0.0
 10
-23.37485332329135
 20
-385.9661393178675
 30
0.0
  0
SPLINE
  5
ED
330
DD
100
AcDbEntity
  8
0
  6
Continuous
 62
     7
370
    25
100
AcDbSpline
210
0.0
220
0.0
230
1.0
 70
     8
 71
     3
 72
    22
 73
    18
 74
     0
 42
0.000000001
 43
0.00000001
 40
0.0
 40
0.0
 40
0.0
 40
0.0
 40
0.0472581190539064
 40
0.1157875014852251
 40
0.1829642331803468
 40
0.250553957675578
 40
0.3187497581945873
 40
0.3878138318981232
 40
0.4554800240682305
 40
0.5229945207163602
 40
0.5921167447306253
 40
0.6603108137237264
 40
0.7278553739938051
 40
0.7950989569434738
 40
0.8635234410207624
 40
0.9326100374957922
 40
1.0
 40
1.0
 40
1.0
 40
1.0
 10
22.35848284307763
 20
-387.194955561328
 30
0.0
 10
22.9495123580063
 20
-386.6011735462869
 30
0.0
 10
24.39759857488585
 20
-385.1463434065168
 30
0.0
 10
25.66594464001876
 20
-382.5629674573877
 30
0.0
 10
26.20107769612709
 20
-379.6079543985479
 30
0.0
 10
25.6776519434731
 20
-376.643875065861
 30
0.0
 10
24.15579137867509
 20
-373.77820738609
 30
0.0
 10
21.73316944961285
 20
-371.136862892032
 30
0.0
 10
18.49706650310723
 20
-368.8302621356105
 30
0.0
 10
14.51163752709265
 20
-366.9738400451378
 30
0.0
 10
9.974647812427763
 20
-365.601591348492
 30
0.0
 10
5.060916204289251
 20
-364.756454662176
 30
0.0
 10
-0.010638310496228
 20
-364.4965065366675
 30
0.0
 10
-5.090860160037937
 20
-364.8236325714346
 30
0.0
 10
-9.989324922217234
 20
-365.731668600863
 30
0.0
 10
-14.56824051462305
 20
-367.1203217512518
 30
0.0
 10
-17.12318513672202
 20
-368.4309865577574
 30
0.0
 10
-18.38477631085011
 20
-369.0781720731794
 30
0.0
  0
SPLINE
  5
EE
330
DD
100
AcDbEntity
  8
0
  6
Continuous
 62
     7
370
    25
100
AcDbSpline
210
0.0
220
0.0
230
1.0
 70
     8
 71
     3
 72
    15
 73
    11
 74
     0
 42
0.000000001
 43
0.00000001
 40
0.0
 40
0.0
 40
0.0
 40
0.0
 40
0.1348271437381487
 40
0.273730380304997
 40
0.4084952683609552
 40
0.5470065989663008
 40
0.6834642263083637
 40
0.8242234067819502
 40
0.956514578756548
 40
1.0
 40
1.0
 40
1.0
 40
1.0
 10
1.245871927672918
 20
-372.8505171341561
 30
0.0
 10
2.691778864226396
 20
-372.934104814713
 30
0.0
 10
5.627305381031419
 20
-373.1038071977292
 30
0.0
 10
9.830013307661604
 20
-373.9027056866356
 30
0.0
 10
13.79501043913882
 20
-375.0632330675356
 30
0.0
 10
17.35576314488844
 20
-376.5822491776976
 30
0.0
 10
20.45133214722183
 20
-378.4660108184341
 30
0.0
 10
22.84023581765997
 20
-380.6072988701429
 30
0.0
 10
24.34608905549774
 20
-382.3905180831061
 30
0.0
 10
24.79236676848926
 20
-383.4518147917288
 30
0.0
 10
24.90277153846296
 20
-383.7143692854406
 30
0.0
  0
LWPOLYLINE
  5
F1
330
DD
100
AcDbEntity
  8
0
  6
Continuous
 62
     7
370
    25
100
AcDbPolyline
 90
        3
 70
   128
 43
0.0
 10
19.4454364826
 20
-382.7576524484
 10
21.3324459894
 20
-381.8137275523
 10
23.1477180881
 20
-381.1263570414
  0
LINE
  5
F5
330
DD
100
AcDbEntity
  8
0
  6
Continuous
 62
     7
370
    25
100
AcDbLine
 10
1.2458719277
 20
-372.8505171342
 30
0.0
 11
1.2458719277
 21
-390.9190336047
 31
0.0
  0
LINE
  5
F6
330
DD
100
AcDbEntity
  8
0
  6
Continuous
 62
     7
370
    25
100
AcDbLine
 10
19.4454364826
 20
-382.7576524484
 30
0.0
 11
5.5600361681
 21
-390.7735234274
 31
0.0
  0
LINE
  5
F7
330
DD
100
AcDbEntity
  8
0
  6
Continuous
 62
    60
370
    25
100
AcDbLine
 10
19.4454364826
 20
-377.9650322354
 30
0.0
 11
19.4454364826
 21
-382.7576524484
 31
0.0
  0
LINE
  5
F8
330
DD
100
AcDbEntity
  8
0
  6
Continuous
 62
    60
370
    25
100
AcDbLine
 10
391.9617249327
 20
128.295761488
 30
0.0
 11
387.2768478194
 21
125.5912394979
 31
0.0
  0
LINE
  5
F9
330
DD
100
AcDbEntity
  8
0
  6
Continuous
 62
    60
370
    25
100
AcDbLine
 10
333.6930557528
 20
168.134704835
 30
0.0
 11
323.6372375126
 21
162.3296045299
 31
0.0
  0
VIEWPORT
  5
12C
330
DD
100
AcDbEntity
  8
0
100
AcDbViewport
 10
0.0
 20
0.0
 30
0.0
 40
205.6
 41
156.0
 68
     1
 69
     1
 12
0.0
 22
0.0
 13
0.0
 23
0.0
 14
10.0
 24
10.0
 15
10.0
 25
10.0
 16
0.0
 26
0.0
 36
1.0
 17
0.0
 27
0.0
 37
0.0
 42
50.0
 43
0.0
 44
0.0
 45
1416.2918287938
 50
0.0
 51
0.0
 72
   100
 90
   557152
  1

281
     0
 71
     1
 74
     0
110
0.0
120
0.0
130
0.0
111
1.0
121
0.0
131
0.0
112
0.0
122
1.0
132
0.0
 79
     0
146
0.0
  0
ENDBLK
  5
E0
330
DD
100
AcDbEntity
  8
0
100
AcDbBlockEnd
  0
BLOCK
  5
FC
330
FA
100
AcDbEntity
  8
0
100
AcDbBlockBegin
  2
*Paper_Space6
 70
     0
 10
0.0
 20
0.0
 30
0.0
  3
*Paper_Space6
  1

  0
SPLINE
  5
FE
330
FA
100
AcDbEntity
  8
0
  6
Continuous
 62
     7
370
    25
100
AcDbSpline
210
0.0
220
0.0
230
1.0
 70
     8
 71
     3
 72
   206
 73
   202
 74
     0
 42
0.000000001
 43
0.00000001
 40
0.0
 40
0.0
 40
0.0
 40
0.0
 40
0.0033093217169192
 40
0.0060928024126072
 40
0.008346382434474
 40
0.0102129998930099
 40
0.012052987594978
 40
0.0138828001599963
 40
0.016697283311636
 40
0.0193735266312706
 40
0.0217239225055448
 40
0.0241263143364491
 40
0.0269745300677494
 40
0.0302924762586292
 40
0.0340865863961116
 40
0.0381840303222327
 40
0.0432243924622909
 40
0.0481592766062464
 40
0.0529876223811499
 40
0.0576677973348321
 40
0.060202305636608
 40
0.0622933111226797
 40
0.0639365486432016
 40
0.0651914422402868
 40
0.0666634880531695
 40
0.0688311039685303
 40
0.0715019961901883
 40
0.0746480743565852
 40
0.0779092601599852
 40
0.0811886588426961
 40
0.0844866526158563
 40
0.0878036150116203
 40
0.0970255396231796
 40
0.1062620461510762
 40
0.1109279900477097
 40
0.1155603400726967
 40
0.1201574489187384
 40
0.1245807456079455
 40
0.1283518847822915
 40
0.1314186101568083
 40
0.1337715176114136
 40
0.1378542955761705
 40
0.1419958248884586
 40
0.146196586069171
 40
0.1506509039476115
 40
0.1555826909849985
 40
0.1609000551882134
 40
0.1666960063017131
 40
0.1729803021324797
 40
0.1797632670542834
 40
0.1872099601901482
 40
0.195199240556214
 40
0.203743625691449
 40
0.2128554735539098
 40
0.2225464637751179
 40
0.2328278437722847
 40
0.2437102529598408
 40
0.2551777557506916
 40
0.2672621318298423
 40
0.2799707881503898
 40
0.2929094423746862
 40
0.3056258700586658
 40
0.3219170783263292
 40
0.3377810280004315
 40
0.3532020844503663
 40
0.3692157041814249
 40
0.3846850069996756
 40
0.3995923757811888
 40
0.4139209843253471
 40
0.4276548308322166
 40
0.4393750341551521
 40
0.4505940273287958
 40
0.4612986475492948
 40
0.4714777045403201
 40
0.4776027144416209
 40
0.4834446693793697
 40
0.4887267936031821
 40
0.4934186756737815
 40
0.4975184721192311
 40
0.5008095161217819
 40
0.5035827114220108
 40
0.5058374261274742
 40
0.5069231184472226
 40
0.5078285361656781
 40
0.5088196430548367
 40
0.5103374442148503
 40
0.5124361970216065
 40
0.5150907045196089
 40
0.518234942309885
 40
0.5215410703201563
 40
0.5249644947104961
 40
0.5285050860659076
 40
0.5321626835438702
 40
0.5408896755566105
 40
0.5502143304836109
 40
0.5601277307961957
 40
0.5702516192346776
 40
0.5803470460273437
 40
0.6000782640265577
 40
0.6196530912818127
 40
0.625197153957036
 40
0.6304092519025336
 40
0.6351770127374405
 40
0.6395025861829583
 40
0.6433880997561419
 40
0.6468356097801421
 40
0.6498470574988982
 40
0.6523257169835526
 40
0.6552035213416051
 40
0.6586006400816482
 40
0.6625063175002334
 40
0.6667380308396085
 40
0.6712180181295071
 40
0.6769915922302974
 40
0.6830919127283394
 40
0.6889927576778098
 40
0.6945141782845637
 40
0.6996597323686486
 40
0.7045669776736896
 40
0.7095391123925243
 40
0.7145841945861012
 40
0.7198452132400007
 40
0.7250322866215042
 40
0.7304221927860624
 40
0.7362026253531425
 40
0.7418781571524493
 40
0.7470287666681918
 40
0.7532119113891361
 40
0.7598160192965717
 40
0.7667673087067254
 40
0.773586325221237
 40
0.7797011216801055
 40
0.7846119253902601
 40
0.7897893668635076
 40
0.7951850302295744
 40
0.8007255950017208
 40
0.8060012460090497
 40
0.809247690957426
 40
0.8124938661096227
 40
0.8157908812486219
 40
0.8190088914927648
 40
0.8219133193243594
 40
0.8247105764074946
 40
0.8278370737904353
 40
0.8309989342030263
 40
0.8343363289008485
 40
0.8377914490182983
 40
0.8413626084608978
 40
0.8450342770344568
 40
0.8483892829968503
 40
0.8508607654851085
 40
0.8529624930506208
 40
0.8548916994402174
 40
0.8571504505826933
 40
0.8597387680149127
 40
0.8625130505989143
 40
0.8654468354286184
 40
0.8694524998068646
 40
0.8729840651747921
 40
0.8763612375358081
 40
0.8800160008709028
 40
0.8834987320233479
 40
0.8867079769720762
 40
0.8898877789247747
 40
0.8930380386866964
 40
0.8962041843744328
 40
0.8986254397349036
 40
0.9014336262449161
 40
0.904423167282739
 40
0.907013683478014
 40
0.9093766574613157
 40
0.9118349424510142
 40
0.9159556910892053
 40
0.9202226905703331
 40
0.9240671743082253
 40
0.927985291777624
 40
0.9315739541087976
 40
0.9354492597669624
 40
0.9392295254124391
 40
0.9426992691258302
 40
0.94663299929931
 40
0.9500199024910478
 40
0.9536497807720001
 40
0.9573871165656491
 40
0.9599507965525581
 40
0.9624967650842259
 40
0.9650272870933763
 40
0.9678293358575445
 40
0.9714822577254166
 40
0.9747536888009557
 40
0.9775599980824335
 40
0.9801242496922863
 40
0.9825431289923674
 40
0.9849677493768757
 40
0.9874709699477213
 40
0.9901291305749086
 40
0.9932027959206531
 40
0.9965404828375495
 40
0.9981715515145507
 40
0.9997045037530893
 40
1.0
 40
1.0
 40
1.0
 40
1.0
 10
702.0247046832782
 20
-271.4503512137609
 30
0.0
 10
700.7605248387819
 20
-272.0973255116091
 30
0.0
 10
698.4330394307791
 20
-273.2884718854027
 30
0.0
 10
695.1500569279665
 20
-274.9027693152944
 30
0.0
 10
692.3832036125368
 20
-276.232091148215
 30
0.0
 10
689.945316707106
 20
-277.3787332991253
 30
0.0
 10
687.6521944765097
 20
-278.4375183725419
 30
0.0
 10
684.9307830408511
 20
-279.6711820912517
 30
0.0
 10
681.8081605582131
 20
-281.0543826988784
 30
0.0
 10
678.3977131426115
 20
-282.5243818403246
 30
0.0
 10
675.1214615931539
 20
-283.9018230102112
 30
0.0
 10
671.7084847776368
 20
-285.3035230715374
 30
0.0
 10
667.76790353631
 20
-286.8803586688242
 30
0.0
 10
663.0974890318003
 20
-288.6928841698679
 30
0.0
 10
657.7346943893277
 20
-290.7021346425512
 30
0.0
 10
651.4387539061576
 20
-292.9706976054247
 30
0.0
 10
644.4985151262817
 20
-295.3611358458349
 30
0.0
 10
637.0925583190256
 20
-297.7906934138036
 30
0.0
 10
629.7726109302007
 20
-300.080827525783
 30
0.0
 10
623.6063739750518
 20
-301.9237556796463
 30
0.0
 10
618.7819320512416
 20
-303.3169784118003
 30
0.0
 10
615.5000062245103
 20
-304.2439555055665
 30
0.0
 10
612.8656526985334
 20
-304.9747726862184
 30
0.0
 10
610.5279873427089
 20
-305.6141961969068
 30
0.0
 10
607.8922822058497
 20
-306.3255437851039
 30
0.0
 10
604.475520661609
 20
-307.2313130373524
 30
0.0
 10
600.1233181941801
 20
-308.3578373929324
 30
0.0
 10
595.1397956449509
 20
-309.6111514074602
 30
0.0
 10
589.781014152012
 20
-310.9166130191901
 30
0.0
 10
584.2971164873404
 20
-312.2096282634826
 30
0.0
 10
578.7422689495746
 20
-313.4768148817398
 30
0.0
 10
569.7898460755317
 20
-315.4519097887656
 30
0.0
 10
557.3258477318428
 20
-318.0300950920238
 30
0.0
 10
543.8793007933715
 20
-320.5560394419137
 30
0.0
 10
532.9901239405434
 20
-322.4555038814165
 30
0.0
 10
524.7736808405051
 20
-323.8176961783204
 30
0.0
 10
516.6523768759856
 20
-325.0965665165252
 30
0.0
 10
509.0020317946238
 20
-326.2409112692497
 30
0.0
 10
502.2385153648151
 20
-327.2054451964074
 30
0.0
 10
496.6991393850016
 20
-327.9639169638294
 30
0.0
 10
490.9546579721014
 20
-328.7250448160063
 30
0.0
 10
484.5377961711284
 20
-329.5420079950318
 30
0.0
 10
476.971647685219
 20
-330.4562527105741
 30
0.0
 10
469.151300411385
 20
-331.3509316765305
 30
0.0
 10
460.8185326739717
 20
-332.249843971314
 30
0.0
 10
451.7694405101879
 20
-333.1633868741887
 30
0.0
 10
441.8624071454304
 20
-334.0903911754667
 30
0.0
 10
431.0869709665537
 20
-335.0144532828921
 30
0.0
 10
419.369719700442
 20
-335.9222202036223
 30
0.0
 10
406.5925780783173
 20
-336.8005102036575
 30
0.0
 10
392.7190307937928
 20
-337.6255897698947
 30
0.0
 10
377.7124939567722
 20
-338.371175081988
 30
0.0
 10
361.6338170676873
 20
-339.005620819438
 30
0.0
 10
344.4628539982027
 20
-339.5015374936038
 30
0.0
 10
326.1822752318011
 20
-339.8317173422615
 30
0.0
 10
306.7777163282072
 20
-339.9674252283604
 30
0.0
 10
286.2542891384994
 20
-339.8789407670565
 30
0.0
 10
264.6064170050094
 20
-339.5360283402808
 30
0.0
 10
241.832866806805
 20
-338.9075050499032
 30
0.0
 10
218.172233365074
 20
-337.9703133821455
 30
0.0
 10
194.1662799186647
 20
-336.7291160205866
 30
0.0
 10
167.9871965100717
 20
-335.0660597872972
 30
0.0
 10
140.0788502116384
 20
-332.9265126482761
 30
0.0
 10
110.62249009124
 20
-330.2485490069923
 30
0.0
 10
81.48450547221364
 20
-327.2030798005554
 30
0.0
 10
52.75071546005255
 20
-323.8131643343126
 30
0.0
 10
24.50601402701708
 20
-320.105744007631
 30
0.0
 10
-2.538305100993815
 20
-316.2132758480914
 30
0.0
 10
-28.36080646178682
 20
-312.1847502994131
 30
0.0
 10
-52.10646561083468
 20
-308.2068632318703
 30
0.0
 10
-73.85392603506921
 20
-304.3380380118631
 30
0.0
 10
-93.68273245009578
 20
-300.6257445283198
 30
0.0
 10
-112.4869251262428
 20
-296.9378677110104
 30
0.0
 10
-128.2101631666724
 20
-293.7206208085151
 30
0.0
 10
-141.0375122523765
 20
-291.0105581066531
 30
0.0
 10
-150.9901804676276
 20
-288.858993389672
 30
0.0
 10
-160.0859267567009
 20
-286.8510009327308
 30
0.0
 10
-168.1548602082188
 20
-285.0363876959397
 30
0.0
 10
-175.0630365020707
 20
-283.4575718536065
 30
0.0
 10
-180.8601991582004
 20
-282.1147860375464
 30
0.0
 10
-185.5951919209346
 20
-281.005997728041
 30
0.0
 10
-189.0685735863835
 20
-280.1852985951499
 30
0.0
 10
-191.4774310045704
 20
-279.6127375739688
 30
0.0
 10
-193.1677639209061
 20
-279.2095421716304
 30
0.0
 10
-195.1006876618498
 20
-278.746933186415
 30
0.0
 10
-197.7065692078557
 20
-278.1205000628872
 30
0.0
 10
-201.2486296852335
 20
-277.2635896772176
 30
0.0
 10
-205.702070627518
 20
-276.1772000262656
 30
0.0
 10
-210.8262706506164
 20
-274.9145083681622
 30
0.0
 10
-216.3701767991486
 20
-273.5330701913393
 30
0.0
 10
-222.1225531782746
 20
-272.0830121529177
 30
0.0
 10
-228.0566301055559
 20
-270.5692526170018
 30
0.0
 10
-236.9300654608481
 20
-268.2778374446471
 30
0.0
 10
-248.9707383827286
 20
-265.1030337095264
 30
0.0
 10
-264.3741531049232
 20
-260.9173662639118
 30
0.0
 10
-280.4258873710176
 20
-256.4156821117519
 30
0.0
 10
-296.7653567192046
 20
-251.6837482757933
 30
0.0
 10
-318.244162156247
 20
-245.2625809077954
 30
0.0
 10
-344.4619765882732
 20
-237.0563087800106
 30
0.0
 10
-367.8343840299227
 20
-229.2945602707325
 30
0.0
 10
-383.4436867641818
 20
-223.9133625180335
 30
0.0
 10
-391.3900910441808
 20
-221.1299136432517
 30
0.0
 10
-398.6755534005528
 20
-218.5400398162686
 30
0.0
 10
-405.2538677189267
 20
-216.1699108113117
 30
0.0
 10
-411.1367158652146
 20
-214.0244821548096
 30
0.0
 10
-416.3348888528488
 20
-212.1080912842425
 30
0.0
 10
-420.8089664003074
 20
-210.4428209446545
 30
0.0
 10
-424.9831633739453
 20
-208.8764948751133
 30
0.0
 10
-429.3324928297009
 20
-207.2314653749449
 30
0.0
 10
-434.3704414981538
 20
-205.3082001367072
 30
0.0
 10
-440.0521130939572
 20
-203.1155816224528
 30
0.0
 10
-446.2374336347293
 20
-200.6995635170095
 30
0.0
 10
-453.3017388713331
 20
-197.904135792119
 30
0.0
 10
-461.2278413713275
 20
-194.719226351344
 30
0.0
 10
-469.780197504252
 20
-191.2208134620217
 30
0.0
 10
-478.1441726762285
 20
-187.7368798343024
 30
0.0
 10
-485.9896556638309
 20
-184.4117620451515
 30
0.0
 10
-493.3077399156063
 20
-181.2592720154348
 30
0.0
 10
-500.3137533043192
 20
-178.1943258881615
 30
0.0
 10
-507.2193841699357
 20
-175.1269383943467
 30
0.0
 10
-514.2325061393544
 20
-171.9630618299027
 30
0.0
 10
-521.2856180234196
 20
-168.7295952430262
 30
0.0
 10
-528.4342784301859
 20
-165.3981149072841
 30
0.0
 10
-535.750031834129
 20
-161.9312561647276
 30
0.0
 10
-543.2110901220874
 20
-158.3320293044898
 30
0.0
 10
-550.4908803343211
 20
-154.754925652849
 30
0.0
 10
-557.8666678952297
 20
-151.0664043511147
 30
0.0
 10
-565.5591636387402
 20
-147.1474861994132
 30
0.0
 10
-573.92159354903
 20
-142.7960880664138
 30
0.0
 10
-582.4306773971853
 20
-138.2665280287844
 30
0.0
 10
-590.6146745594193
 20
-133.8067171296185
 30
0.0
 10
-597.846759808085
 20
-129.7766285739446
 30
0.0
 10
-604.3264642225447
 20
-126.0954941361564
 30
0.0
 10
-610.4441414493269
 20
-122.5574220619933
 30
0.0
 10
-616.7255565512831
 20
-118.8551773786148
 30
0.0
 10
-622.9578277726112
 20
-115.1081583860978
 30
0.0
 10
-628.2828283948601
 20
-111.8420316171747
 30
0.0
 10
-632.6814549130165
 20
-109.1007165161258
 30
0.0
 10
-636.3080041130479
 20
-106.812626058732
 30
0.0
 10
-639.8923435554291
 20
-104.5226383535172
 30
0.0
 10
-643.3190853384821
 20
-102.3054890799455
 30
0.0
 10
-646.5304208065395
 20
-100.2025926962619
 30
0.0
 10
-649.6749064252481
 20
-98.12007570183867
 30
0.0
 10
-652.8753820872128
 20
-95.97521055785369
 30
0.0
 10
-656.2288863048545
 20
-93.6990127098179
 30
0.0
 10
-659.6586839128348
 20
-91.33979664896974
 30
0.0
 10
-663.1881952369895
 20
-88.87742197880277
 30
0.0
 10
-666.7871903385807
 20
-86.32897048098826
 30
0.0
 10
-670.3074294167524
 20
-83.7971016764924
 30
0.0
 10
-673.4214132665898
 20
-81.52261528050525
 30
0.0
 10
-675.9894629871434
 20
-79.62232538613284
 30
0.0
 10
-678.073646743729
 20
-78.06404168684489
 30
0.0
 10
-680.0667211231344
 20
-76.56009386436888
 30
0.0
 10
-682.1918783628331
 20
-74.94092718184669
 30
0.0
 10
-684.5562738819766
 20
-73.11898806005334
 30
0.0
 10
-687.0987577512936
 20
-71.1347613896492
 30
0.0
 10
-690.0377482892947
 20
-68.80932045492405
 30
0.0
 10
-693.1541634207724
 20
-66.30098055959313
 30
0.0
 10
-696.3231863579643
 20
-63.70143081633894
 30
0.0
 10
-699.3201278429596
 20
-61.1992317905305
 30
0.0
 10
-702.2552149081238
 20
-58.70309287604508
 30
0.0
 10
-705.0829415188375
 20
-56.25146495945274
 30
0.0
 10
-707.722294979531
 20
-53.92042381633055
 30
0.0
 10
-710.2201273653469
 20
-51.67432059290211
 30
0.0
 10
-712.6556379928124
 20
-49.4441345696417
 30
0.0
 10
-714.8497280285972
 20
-47.3975271424929
 30
0.0
 10
-716.9141422055962
 20
-45.43956453700188
 30
0.0
 10
-718.8993314731962
 20
-43.52667278024658
 30
0.0
 10
-720.8868050773322
 20
-41.5768872819818
 30
0.0
 10
-722.7270150187688
 20
-39.73941675246687
 30
0.0
 10
-724.4055547685339
 20
-38.03649305725376
 30
0.0
 10
-726.3917297584004
 20
-35.98943421103515
 30
0.0
 10
-728.728030996541
 20
-33.5279049209351
 30
0.0
 10
-731.2661641225528
 20
-30.77548608952302
 30
0.0
 10
-733.6666549129443
 20
-28.09589735858398
 30
0.0
 10
-735.8368748104092
 20
-25.60312197699744
 30
0.0
 10
-737.9296519640269
 20
-23.1294292978399
 30
0.0
 10
-739.8986304325623
 20
-20.73255999248052
 30
0.0
 10
-741.7665324825839
 20
-18.38629693629537
 30
0.0
 10
-743.5451099574069
 20
-16.08220578441072
 30
0.0
 10
-745.1781036883277
 20
-13.89639300831286
 30
0.0
 10
-746.7431054435317
 20
-11.72970778392918
 30
0.0
 10
-748.1963188779029
 20
-9.64873851046627
 30
0.0
 10
-749.4537161950914
 20
-7.78051511924463
 30
0.0
 10
-750.5168927681598
 20
-6.147933010984152
 30
0.0
 10
-751.3846092071485
 20
-4.777914618885493
 30
0.0
 10
-752.2359481489427
 20
-3.39489911851526
 30
0.0
 10
-753.146488929278
 20
-1.868945679819989
 30
0.0
 10
-754.0617502412694
 20
-0.2739635126460527
 30
0.0
 10
-754.9082689422004
 20
1.268314410675681
 30
0.0
 10
-755.5947120438638
 20
2.571333232948558
 30
0.0
 10
-756.1696206855808
 20
3.704856119385258
 30
0.0
 10
-756.6754996896157
 20
4.739727732956944
 30
0.0
 10
-757.142945701552
 20
5.732314171711995
 30
0.0
 10
-757.5884827741677
 20
6.71671599753404
 30
0.0
 10
-758.0314229951819
 20
7.739635751890017
 30
0.0
 10
-758.4701973590231
 20
8.804618136063397
 30
0.0
 10
-758.8116985496536
 20
9.693248410489602
 30
0.0
 10
-758.9932649945566
 20
10.17702591996417
 30
0.0
 10
-759.1052582882377
 20
10.49319506165936
 30
0.0
 10
-759.089016045728
 20
10.43434566259938
 30
0.0
 10
-759.0863911308119
 20
10.42483498910024
 30
0.0
  0
SPLINE
  5
FF
330
FA
100
AcDbEntity
  8
0
  6
Continuous
 62
     7
370
    25
100
AcDbSpline
210
0.0
220
0.0
230
1.0
 70
     8
 71
     3
 72
    49
 73
    45
 74
     0
 42
0.000000001
 43
0.00000001
 40
0.0
 40
0.0
 40
0.0
 40
0.0
 40
0.0050060949206451
 40
0.0167719946917919
 40
0.029603021604336
 40
0.0458964613371777
 40
0.0623887875708086
 40
0.1054082014931661
 40
0.1481076948231143
 40
0.1879013155367793
 40
0.2236809152119667
 40
0.2576681484895689
 40
0.2927830349470524
 40
0.325886466082998
 40
0.3598546652658988
 40
0.383749311675156
 40
0.4098435779160545
 40
0.4361880232228945
 40
0.4592687828107275
 40
0.4784821246790836
 40
0.4962618047956759
 40
0.5132810426459947
 40
0.530483615828857
 40
0.5469274998872586
 40
0.5681116234067014
 40
0.5938410872904031
 40
0.6165884154457657
 40
0.6348109599670748
 40
0.651803154390893
 40
0.6692342724990079
 40
0.7015601499534508
 40
0.7301603926268516
 40
0.7620853622756415
 40
0.7946936305832162
 40
0.822142103023906
 40
0.8452343922438688
 40
0.8706587843473393
 40
0.8935701876761719
 40
0.9049371833296218
 40
0.9169994687597408
 40
0.9299460040528118
 40
0.9473821514336614
 40
0.9707190316359748
 40
1.0
 40
1.0
 40
1.0
 40
1.0
 10
760.0304338857029
 20
-223.4383207020131
 30
0.0
 10
760.0361657846419
 20
-223.4212208770293
 30
0.0
 10
760.0553694513922
 20
-223.3639310776136
 30
0.0
 10
759.9984327491385
 20
-223.5145207681392
 30
0.0
 10
759.931096697732
 20
-223.6827369425075
 30
0.0
 10
759.8102640645538
 20
-223.9778216329397
 30
0.0
 10
759.5988607867276
 20
-224.4685299997644
 30
0.0
 10
759.2563491485305
 20
-225.2091721979448
 30
0.0
 10
758.7291763753708
 20
-226.2372631089762
 30
0.0
 10
758.1121709705869
 20
-227.3337203303614
 30
0.0
 10
757.41870627189
 20
-228.4717222570392
 30
0.0
 10
756.6375751787001
 20
-229.667207592353
 30
0.0
 10
755.7595979949432
 20
-230.9249222545695
 30
0.0
 10
754.767982665731
 20
-232.2593121133578
 30
0.0
 10
753.7713091795168
 20
-233.5235736659912
 30
0.0
 10
752.7502915525407
 20
-234.7551218945502
 30
0.0
 10
751.7451082562086
 20
-235.9183482489331
 30
0.0
 10
750.6568953413862
 20
-237.1248698760848
 30
0.0
 10
749.6015901740406
 20
-238.2495988780509
 30
0.0
 10
748.6144766809159
 20
-239.2674380879175
 30
0.0
 10
747.6815264811019
 20
-240.2022641240093
 30
0.0
 10
746.7397894388782
 20
-241.1211940503871
 30
0.0
 10
745.7806167094307
 20
-242.0333227936254
 30
0.0
 10
744.6977184865859
 20
-243.0378724648992
 30
0.0
 10
743.3728807078741
 20
-244.2335285413734
 30
0.0
 10
741.8453071906965
 20
-245.5662097379155
 30
0.0
 10
740.3115056231638
 20
-246.8598521378788
 30
0.0
 10
738.9075694591547
 20
-248.0110139203551
 30
0.0
 10
737.5840241190716
 20
-249.0704919998325
 30
0.0
 10
735.8427708120936
 20
-250.4324416263471
 30
0.0
 10
733.6989622083704
 20
-252.054953126328
 30
0.0
 10
731.0246685699894
 20
-254.0001312836968
 30
0.0
 10
728.192208200218
 20
-255.9821681333662
 30
0.0
 10
725.2588599779616
 20
-257.9530455474553
 30
0.0
 10
722.4906606998545
 20
-259.7453450413859
 30
0.0
 10
719.8622027184638
 20
-261.3954551125746
 30
0.0
 10
717.3176941182231
 20
-262.9468151994565
 30
0.0
 10
715.1273391445073
 20
-264.2444556620659
 30
0.0
 10
713.3888114188263
 20
-265.2537838134215
 30
0.0
 10
712.0045548047635
 20
-266.0464361371558
 30
0.0
 10
710.3688160892451
 20
-266.9696700819741
 30
0.0
 10
708.2466474541699
 20
-268.1459251891743
 30
0.0
 10
705.4241271165002
 20
-269.6770764220519
 30
0.0
 10
703.2400870838295
 20
-270.816359112008
 30
0.0
 10
702.0247046832782
 20
-271.4503512137609
 30
0.0
  0
SPLINE
  5
100
330
FA
100
AcDbEntity
  8
0
  6
Continuous
 62
     7
370
    25
100
AcDbSpline
210
0.0
220
0.0
230
1.0
 70
     8
 71
     3
 72
   384
 73
   380
 74
     0
 42
0.000000001
 43
0.00000001
 40
0.0
 40
0.0
 40
0.0
 40
0.0
 40
0.0024255484327225
 40
0.0042925940738501
 40
0.0056347990574913
 40
0.0067644047911148
 40
0.0077651725575341
 40
0.0089323316816738
 40
0.0102822431378874
 40
0.0118812230664662
 40
0.015050457457154
 40
0.0181614594865293
 40
0.0208936004904402
 40
0.023319232899173
 40
0.0258896210066053
 40
0.0282320107577452
 40
0.0297771013285421
 40
0.0317273290705461
 40
0.0338461965209138
 40
0.0356940051046083
 40
0.0380518273184476
 40
0.0400573587828238
 40
0.0421591569906563
 40
0.044417518609052
 40
0.046823479005838
 40
0.0495242257656459
 40
0.0514999892008527
 40
0.0536648211456438
 40
0.0558140259865886
 40
0.0574048637460329
 40
0.058335077488318
 40
0.0594458651284368
 40
0.0607985204528309
 40
0.0623103619562327
 40
0.0655102217206234
 40
0.0683643576918304
 40
0.0712583614010426
 40
0.0738660589512066
 40
0.0767194785178548
 40
0.0797365418183913
 40
0.0815731709810565
 40
0.0836498575707394
 40
0.0856210846598973
 40
0.087313616462499
 40
0.0891488057991027
 40
0.0918362576236067
 40
0.0943615356489837
 40
0.0964366296802992
 40
0.0995317279990191
 40
0.102728421893617
 40
0.1058663835539528
 40
0.1088000674957534
 40
0.1117718909024788
 40
0.1148685017511495
 40
0.1184225476853897
 40
0.1218651997157852
 40
0.1270552581372213
 40
0.1320777851851245
 40
0.1372727386819631
 40
0.1424333623264856
 40
0.1471097355507778
 40
0.1520071723641603
 40
0.1574589159201467
 40
0.1587697080385646
 40
0.1599156439941344
 40
0.1611203453191342
 40
0.162602968425077
 40
0.164305563732869
 40
0.1660191485535661
 40
0.1676350281877787
 40
0.1690628516067074
 40
0.1704576001333482
 40
0.1720882803558057
 40
0.1744462181825165
 40
0.1767873197852483
 40
0.1787787541741193
 40
0.180530247166477
 40
0.1822509569304568
 40
0.1841090883780981
 40
0.1872114014466115
 40
0.1904114572736292
 40
0.1934038967153281
 40
0.1959550124227816
 40
0.1984926588975196
 40
0.2010685726270898
 40
0.2037534931734585
 40
0.2067738260172719
 40
0.2098215884735042
 40
0.2128336539672341
 40
0.2141976931673612
 40
0.2154864519525916
 40
0.2167084197669399
 40
0.2179761568943951
 40
0.2195828832953537
 40
0.2215081332838948
 40
0.2230367356590437
 40
0.2241908641437541
 40
0.2253336009187729
 40
0.2265614867085202
 40
0.2281474548958053
 40
0.2299046384368604
 40
0.2313072909603707
 40
0.2322873599426128
 40
0.2332596234160877
 40
0.2343515447858662
 40
0.2353685010403781
 40
0.2365752057354863
 40
0.2379865781047926
 40
0.2395910903521452
 40
0.241036498988236
 40
0.2421573960758922
 40
0.2435781877285829
 40
0.245282264697761
 40
0.2471472457499263
 40
0.2485243793299274
 40
0.249744052357994
 40
0.2507458664878694
 40
0.2518408507804209
 40
0.2532837348895481
 40
0.2550023392237333
 40
0.2568123742389622
 40
0.2582955294629435
 40
0.259703676285978
 40
0.2612719595292549
 40
0.2631095815044382
 40
0.264599269030677
 40
0.2661020016047446
 40
0.2677532523546747
 40
0.2696508545728723
 40
0.2718195662316104
 40
0.273789573284181
 40
0.2754043212354209
 40
0.2772442574408259
 40
0.2794154436496986
 40
0.2811973792794949
 40
0.2823640596752937
 40
0.2833036004239984
 40
0.2845500854430037
 40
0.2860373161718262
 40
0.2873808809617956
 40
0.2885187885529111
 40
0.2894719377043604
 40
0.2905180760019364
 40
0.2935325324931799
 40
0.2962301759371674
 40
0.2985686703411038
 40
0.3016502320065392
 40
0.304131263684865
 40
0.3065765542381582
 40
0.3096413676821796
 40
0.3116086104377834
 40
0.3138146141370028
 40
0.3168654711562137
 40
0.3195629223828045
 40
0.3216982034260272
 40
0.3236178013281412
 40
0.3256030101455031
 40
0.3323230408180332
 40
0.3396612489435913
 40
0.3470869510894283
 40
0.3553105687581805
 40
0.362627660792133
 40
0.3710200413500163
 40
0.3781066001539417
 40
0.385977231521962
 40
0.3891345891787217
 40
0.3924765072290503
 40
0.3957539407111857
 40
0.3985594076889621
 40
0.400947894710878
 40
0.4031111209516063
 40
0.4051235527389558
 40
0.4081958661571644
 40
0.4117026762899941
 40
0.4156488390051513
 40
0.4199638688448885
 40
0.4230073958947603
 40
0.4260940021307767
 40
0.429053000913006
 40
0.4318804747328274
 40
0.4345506901978282
 40
0.4368702049019902
 40
0.4391180582009653
 40
0.4412598365001534
 40
0.4434939687649515
 40
0.4459656499278065
 40
0.4495977602175073
 40
0.453772440506373
 40
0.458296264685918
 40
0.4629498916119774
 40
0.4659399818036133
 40
0.4689791960794041
 40
0.4720666347967424
 40
0.4751002168002625
 40
0.4777600350727197
 40
0.4800250237354738
 40
0.4818976253072076
 40
0.4833799616662547
 40
0.4847699965618322
 40
0.4865457192972425
 40
0.4886696684272309
 40
0.4911678502016962
 40
0.4940262134830206
 40
0.4969836441203438
 40
0.5015836341552391
 40
0.5061597297675832
 40
0.5107110977091597
 40
0.5152369138970663
 40
0.5197363636162259
 40
0.5240727474028737
 40
0.5277007939465493
 40
0.5308729522331056
 40
0.5335949348916279
 40
0.5358716968457781
 40
0.5377342912101607
 40
0.5392660631443665
 40
0.5405531042535394
 40
0.5421411641257882
 40
0.544132603986316
 40
0.5465246886150559
 40
0.5492608165715491
 40
0.5523764904820313
 40
0.5558674406613281
 40
0.5597288208926827
 40
0.5640353737903858
 40
0.5687139060187645
 40
0.5737573324419194
 40
0.5791578599382914
 40
0.5848756835778492
 40
0.5921737544725906
 40
0.5990659309230333
 40
0.6055590222187008
 40
0.6120816214489759
 40
0.6181647438986131
 40
0.6238188622599005
 40
0.6290547160635254
 40
0.6338831095078773
 40
0.6379195049308513
 40
0.6416372136461899
 40
0.645021853060803
 40
0.647938772326479
 40
0.6503719524860233
 40
0.6515289330046855
 40
0.6525837864132024
 40
0.6539185043704575
 40
0.6556153618355767
 40
0.6576698886987795
 40
0.6599900349157991
 40
0.6624444517534307
 40
0.6661069745284389
 40
0.6700362427375821
 40
0.6741534924885229
 40
0.6783496782060429
 40
0.6831172441839315
 40
0.6855357842352509
 40
0.6874171388231934
 40
0.6889670501169166
 40
0.6905632276499197
 40
0.6931079979984605
 40
0.6955624925275582
 40
0.6986663703702519
 40
0.7022433304007366
 40
0.7059852354815377
 40
0.7097608301072076
 40
0.7136002764971557
 40
0.7159751258719432
 40
0.7181826268564111
 40
0.7205359167835098
 40
0.7229591565129486
 40
0.7250391800802455
 40
0.727429853128374
 40
0.7322295934215682
 40
0.7365949751401123
 40
0.7416312125771097
 40
0.7467942553189523
 40
0.7511084514043778
 40
0.7555691028214668
 40
0.7610222621861324
 40
0.7662186466988009
 40
0.7709705763591278
 40
0.7763835857811607
 40
0.781410159649082
 40
0.7863148870652606
 40
0.7896229921828519
 40
0.7928806364871579
 40
0.7960712304863979
 40
0.799654748764886
 40
0.8035496667307341
 40
0.8075335187976123
 40
0.8109791356514514
 40
0.8139911043236453
 40
0.815540505575642
 40
0.8171226408561838
 40
0.8188546594672993
 40
0.8207742262615312
 40
0.822941900918426
 40
0.8251356559573252
 40
0.8273620130191159
 40
0.8292976617730037
 40
0.831047223116114
 40
0.8328493706341846
 40
0.8342138343667337
 40
0.8358788497786733
 40
0.837764637845453
 40
0.839442709624037
 40
0.8408511639670454
 40
0.8421039948854713
 40
0.8434752110268464
 40
0.8449012802562502
 40
0.8466316276575795
 40
0.8485510729600549
 40
0.8510161627212248
 40
0.8532004655822245
 40
0.8549667487449674
 40
0.8569449073645846
 40
0.8592488870567272
 40
0.8618465368626368
 40
0.8644342923193369
 40
0.8661979182054556
 40
0.8677669110434841
 40
0.8691589870816803
 40
0.8704190839973509
 40
0.8721132661784446
 40
0.8742755162549269
 40
0.8762586022689615
 40
0.8796147575949783
 40
0.8833339289641751
 40
0.8878330674693894
 40
0.891476724515638
 40
0.8956183432171752
 40
0.8969147631924449
 40
0.8980854843990921
 40
0.8992240742354062
 40
0.9006818457114112
 40
0.9024925922451682
 40
0.9042444785924555
 40
0.905534904328503
 40
0.9065244567140678
 40
0.9076661089899505
 40
0.909067216627097
 40
0.9106964062722668
 40
0.9127174828742827
 40
0.91421430877933
 40
0.9158198209150498
 40
0.9179807555176209
 40
0.9201042647287181
 40
0.9219066087116371
 40
0.9240733846665564
 40
0.9264140361748283
 40
0.9284275682165349
 40
0.9301819904506282
 40
0.9319283734061231
 40
0.9336346712986804
 40
0.935244680973697
 40
0.9369942315172419
 40
0.9399727059576005
 40
0.9427273783919882
 40
0.9468244102086024
 40
0.9499744493117551
 40
0.9526439192925887
 40
0.9556078246885725
 40
0.9578215385678404
 40
0.9603516940294486
 40
0.9631238727055395
 40
0.9652722340052674
 40
0.9675770574110445
 40
0.9704186963992272
 40
0.9746681812075968
 40
0.978108153034111
 40
0.9814505714839702
 40
0.9850318179448952
 40
0.9873332469289129
 40
0.9897629956682826
 40
0.9919161392336955
 40
0.9928160846636808
 40
0.9939824866676866
 40
0.9955666241019475
 40
0.9975712851978921
 40
0.9999999999999999
 40
0.9999999999999999
 40
0.9999999999999999
 40
0.9999999999999999
 10
-851.556264844411
 20
103.6597137890708
 30
0.0
 10
-851.2491750546764
 20
101.868091215953
 30
0.0
 10
-850.7057054649663
 20
98.6973821358173
 30
0.0
 10
-849.9576644214646
 20
94.5381364442065
 30
0.0
 10
-849.3672053572174
 20
91.33449230309476
 30
0.0
 10
-848.884891280982
 20
88.77196916209296
 30
0.0
 10
-848.4192448357878
 20
86.34031857560265
 30
0.0
 10
-847.9141916302424
 20
83.74862141750833
 30
0.0
 10
-847.3113831244331
 20
80.71656234690423
 30
0.0
 10
-846.3948586979734
 20
76.21191419279761
 30
0.0
 10
-845.171584384396
 20
70.41554690356972
 30
0.0
 10
-843.7062872135242
 20
63.79097639934039
 30
0.0
 10
-842.305831084258
 20
57.72281004672497
 30
0.0
 10
-840.9501390840425
 20
52.05929893927075
 30
0.0
 10
-839.6189512318492
 20
46.68720251548397
 30
0.0
 10
-838.4094224256339
 20
41.96600580477139
 30
0.0
 10
-837.2885811032827
 20
37.70284867557616
 30
0.0
 10
-836.1871026492314
 20
33.60825562341979
 30
0.0
 10
-834.9971551550103
 20
29.29952645743084
 30
0.0
 10
-833.6943303889484
 20
24.69964010258791
 30
0.0
 10
-832.3825912654723
 20
20.18867319613993
 30
0.0
 10
-830.9825131938081
 20
15.50180644423155
 30
0.0
 10
-829.5715218805475
 20
10.89479371444299
 30
0.0
 10
-828.0349148187871
 20
6.00687717987991
 30
0.0
 10
-826.3190503848724
 20
0.6967942817590056
 30
0.0
 10
-824.6237458935414
 20
-4.396520501395468
 30
0.0
 10
-822.9460670018989
 20
-9.30400938756476
 30
0.0
 10
-821.370289340335
 20
-13.80719723333873
 30
0.0
 10
-819.8585692762374
 20
-18.02492173120229
 30
0.0
 10
-818.6409334005692
 20
-21.35304980427718
 30
0.0
 10
-817.6823654650113
 20
-23.93736810345992
 30
0.0
 10
-816.7776553673649
 20
-26.34972516985612
 30
0.0
 10
-815.7053793864599
 20
-29.17130944796559
 30
0.0
 10
-814.0474662391979
 20
-33.46783743258491
 30
0.0
 10
-811.9336863380754
 20
-38.81145174776113
 30
0.0
 10
-809.3642186449692
 20
-45.10584605444845
 30
0.0
 10
-806.9032106573202
 20
-50.95988676146324
 30
0.0
 10
-804.383422653011
 20
-56.78980632618838
 30
0.0
 10
-801.7674173002322
 20
-62.6803071691367
 30
0.0
 10
-799.3313584648778
 20
-68.01010600055777
 30
0.0
 10
-797.098004879818
 20
-72.78301800123438
 30
0.0
 10
-795.1724031173139
 20
-76.82191259951207
 30
0.0
 10
-793.264438729843
 20
-80.74777137399298
 30
0.0
 10
-791.411286753438
 20
-84.49579315902226
 30
0.0
 10
-789.2891309589706
 20
-88.71794262039279
 30
0.0
 10
-786.8423798700534
 20
-93.48536627087492
 30
0.0
 10
-784.2650174577948
 20
-98.38920234445206
 30
0.0
 10
-781.4994282844275
 20
-103.5430225754709
 30
0.0
 10
-778.438274720745
 20
-109.1174260409272
 30
0.0
 10
-774.9158830763669
 20
-115.3561163381359
 30
0.0
 10
-771.3845210193131
 20
-121.4407038896254
 30
0.0
 10
-767.872001401365
 20
-127.3371142536516
 30
0.0
 10
-764.3124423084058
 20
-133.1647249114936
 30
0.0
 10
-760.4366202580901
 20
-139.3507981052827
 30
0.0
 10
-756.2957552828907
 20
-145.7804761737597
 30
0.0
 10
-751.199599140093
 20
-153.4710008807442
 30
0.0
 10
-745.3506542039555
 20
-161.9962421359901
 30
0.0
 10
-738.5919409159648
 20
-171.4586117561986
 30
0.0
 10
-731.673033304317
 20
-180.7701308387255
 30
0.0
 10
-724.7533912721029
 20
-189.7237212715031
 30
0.0
 10
-717.8271141293847
 20
-198.3637352391286
 30
0.0
 10
-710.628127545286
 20
-207.0349891682665
 30
0.0
 10
-704.9240393301346
 20
-213.65457761441
 30
0.0
 10
-701.0144842803454
 20
-218.0847007150061
 30
0.0
 10
-699.1989581377896
 20
-220.1243548952777
 30
0.0
 10
-697.2866574049915
 20
-222.2551735054606
 30
0.0
 10
-695.0875048854591
 20
-224.6828055556824
 30
0.0
 10
-692.6200905341275
 20
-227.3767204770759
 30
0.0
 10
-690.0706021405507
 20
-230.127714689879
 30
0.0
 10
-687.6472763479194
 20
-232.7129588674476
 30
0.0
 10
-685.3757672682694
 20
-235.1112824056522
 30
0.0
 10
-683.0868873799028
 20
-237.5049689394918
 30
0.0
 10
-680.3076558650965
 20
-240.381993676264
 30
0.0
 10
-677.0202774995564
 20
-243.7398834517591
 30
0.0
 10
-673.5181568180158
 20
-247.2617429267696
 30
0.0
 10
-670.3071617691095
 20
-250.4448374197886
 30
0.0
 10
-667.4301836643091
 20
-253.2621534480155
 30
0.0
 10
-664.5945843335459
 20
-256.0078365107487
 30
0.0
 10
-661.0289814274993
 20
-259.4205287808855
 30
0.0
 10
-656.6422348046165
 20
-263.552711427454
 30
0.0
 10
-651.6051662239496
 20
-268.2031327935853
 30
0.0
 10
-646.829420812273
 20
-272.5272771740279
 30
0.0
 10
-642.3873836450915
 20
-276.4803744546085
 30
0.0
 10
-638.1501758933048
 20
-280.1923405231236
 30
0.0
 10
-633.8148745868704
 20
-283.9311433691601
 30
0.0
 10
-629.185389749181
 20
-287.8602542772324
 30
0.0
 10
-624.2632129605408
 20
-291.9664597939666
 30
0.0
 10
-619.1254045214466
 20
-296.175473322942
 30
0.0
 10
-614.9001112528836
 20
-299.5753101396462
 30
0.0
 10
-611.6634274319204
 20
-302.1464458308747
 30
0.0
 10
-609.4442217420461
 20
-303.895698992469
 30
0.0
 10
-607.2865689908116
 20
-305.5840734936393
 30
0.0
 10
-604.9532642293241
 20
-307.3968900078133
 30
0.0
 10
-602.2032565732245
 20
-309.5159799517896
 30
0.0
 10
-599.2906777424332
 20
-311.7378637189066
 30
0.0
 10
-596.6124041133377
 20
-313.7611522867623
 30
0.0
 10
-594.3567321955059
 20
-315.4521558103878
 30
0.0
 10
-592.2931371979068
 20
-316.9889938122612
 30
0.0
 10
-589.990470880952
 20
-318.6925136197896
 30
0.0
 10
-587.3314773669978
 20
-320.6442941118324
 30
0.0
 10
-584.5658284801285
 20
-322.655692719535
 30
0.0
 10
-582.1408330153188
 20
-324.404108427768
 30
0.0
 10
-580.160050864633
 20
-325.8229125902275
 30
0.0
 10
-578.36435947154
 20
-327.1022451520607
 30
0.0
 10
-576.5490353638052
 20
-328.3883005371364
 30
0.0
 10
-574.5955363697498
 20
-329.7643505274241
 30
0.0
 10
-572.4519039831056
 20
-331.2652881577181
 30
0.0
 10
-569.9570190806071
 20
-332.9999108755584
 30
0.0
 10
-567.3140645857891
 20
-334.822702534654
 30
0.0
 10
-564.8362993771996
 20
-336.5177335438148
 30
0.0
 10
-562.4633332519242
 20
-338.1300492940611
 30
0.0
 10
-559.9375393565471
 20
-339.8347187049645
 30
0.0
 10
-556.9624225293688
 20
-341.8262320883072
 30
0.0
 10
-554.0070843808786
 20
-343.7861420135413
 30
0.0
 10
-551.3368309926973
 20
-345.5421579499648
 30
0.0
 10
-549.179141746379
 20
-346.9516155040365
 30
0.0
 10
-547.1870811849127
 20
-348.2454529228366
 30
0.0
 10
-545.0653105617442
 20
-349.6161449400028
 30
0.0
 10
-542.5146552499618
 20
-351.2532822202979
 30
0.0
 10
-539.5305387190361
 20
-353.1533581874371
 30
0.0
 10
-536.506880143751
 20
-355.0615652519256
 30
0.0
 10
-533.6509785709154
 20
-356.8490020552586
 30
0.0
 10
-530.9365868939502
 20
-358.5355277689676
 30
0.0
 10
-528.0137938325504
 20
-360.3380656394557
 30
0.0
 10
-525.0379702708734
 20
-362.1578640824378
 30
0.0
 10
-522.0975663299399
 20
-363.9412912017231
 30
0.0
 10
-519.2683320461076
 20
-365.644722847766
 30
0.0
 10
-516.1844623916019
 20
-367.4871968107718
 30
0.0
 10
-512.6886795749257
 20
-369.557793135775
 30
0.0
 10
-508.9922368000488
 20
-371.7257872044667
 30
0.0
 10
-505.4458079403774
 20
-373.7852420977807
 30
0.0
 10
-502.0506530468142
 20
-375.7396676051857
 30
0.0
 10
-498.5818753028474
 20
-377.7198593157034
 30
0.0
 10
-495.04653584059
 20
-379.7191515764268
 30
0.0
 10
-491.9110683142916
 20
-381.4760448368373
 30
0.0
 10
-489.506517733349
 20
-382.8141051466184
 30
0.0
 10
-487.4331524356758
 20
-383.9621861399318
 30
0.0
 10
-485.1611161064289
 20
-385.2138778440254
 30
0.0
 10
-482.6351783888513
 20
-386.5966300600285
 30
0.0
 10
-480.1680213053654
 20
-387.9383622783503
 30
0.0
 10
-478.0270605608413
 20
-389.096022074104
 30
0.0
 10
-476.063079876237
 20
-390.1528461730565
 30
0.0
 10
-472.9346905128247
 20
-391.8284508876274
 30
0.0
 10
-468.7383343362096
 20
-394.0551896917965
 30
0.0
 10
-463.692996033559
 20
-396.6979338823322
 30
0.0
 10
-458.5585614703476
 20
-399.3564239505611
 30
0.0
 10
-453.60093112761
 20
-401.8919283529373
 30
0.0
 10
-448.5349615943629
 20
-404.4506850389188
 30
0.0
 10
-443.4937674509466
 20
-406.9688040296372
 30
0.0
 10
-438.7973140988815
 20
-409.2863334774626
 30
0.0
 10
-434.1702273420976
 20
-411.5443520511026
 30
0.0
 10
-429.5486732732936
 20
-413.7786651549339
 30
0.0
 10
-424.4900205071161
 20
-416.1961015350271
 30
0.0
 10
-419.4479178152656
 20
-418.5755521280898
 30
0.0
 10
-415.1209507948578
 20
-420.5960511073815
 30
0.0
 10
-411.2458029984874
 20
-422.3896845384344
 30
0.0
 10
-404.4196681575896
 20
-425.5225482012543
 30
0.0
 10
-394.0813934933605
 20
-430.1786005700761
 30
0.0
 10
-380.1582230955242
 20
-436.2632525685718
 30
0.0
 10
-365.1900999516928
 20
-442.6032175836671
 30
0.0
 10
-350.1308246368783
 20
-448.7755608971077
 30
0.0
 10
-334.3615982510892
 20
-455.0331125421846
 30
0.0
 10
-319.2698734981622
 20
-460.8305961101024
 30
0.0
 10
-303.6957743179099
 20
-466.6261210891788
 30
0.0
 10
-291.5766679971313
 20
-470.999926160672
 30
0.0
 10
-281.9144140888118
 20
-474.4098338115538
 30
0.0
 10
-275.3305827988535
 20
-476.7027275074355
 30
0.0
 10
-268.9681796456464
 20
-478.8888228927859
 30
0.0
 10
-263.2347820982725
 20
-480.8344877721029
 30
0.0
 10
-258.2479253765657
 20
-482.5089424529189
 30
0.0
 10
-253.7911917103697
 20
-483.9915217693752
 30
0.0
 10
-248.864805835289
 20
-485.6163691217668
 30
0.0
 10
-243.0158973323925
 20
-487.5254445281302
 30
0.0
 10
-235.8334003302898
 20
-489.8382502313612
 30
0.0
 10
-227.7810243274001
 20
-492.3914910939035
 30
0.0
 10
-220.0249428152116
 20
-494.8088734335461
 30
0.0
 10
-212.8445718234936
 20
-497.0126323771663
 30
0.0
 10
-206.5829721945456
 20
-498.9097645359613
 30
0.0
 10
-200.4530200382194
 20
-500.7433581712952
 30
0.0
 10
-194.596461981446
 20
-502.4736543733027
 30
0.0
 10
-189.1699728193358
 20
-504.0580310897662
 30
0.0
 10
-184.1374312446877
 20
-505.5115748469109
 30
0.0
 10
-179.4685408927543
 20
-506.8467134357408
 30
0.0
 10
-174.8532231695599
 20
-508.1538828211051
 30
0.0
 10
-170.0697618623306
 20
-509.4956219707969
 30
0.0
 10
-164.249396704725
 20
-511.1111775351601
 30
0.0
 10
-157.0806331898758
 20
-513.0739495681028
 30
0.0
 10
-148.4780647276751
 20
-515.3879927664847
 30
0.0
 10
-139.1289375938269
 20
-517.8534766620662
 30
0.0
 10
-130.5547810487712
 20
-520.0672838715908
 30
0.0
 10
-122.9944129223367
 20
-521.9847857257041
 30
0.0
 10
-116.5204152362009
 20
-523.6035464684849
 30
0.0
 10
-109.9940904360076
 20
-525.211692408205
 30
0.0
 10
-103.7185823007942
 20
-526.7353146328412
 30
0.0
 10
-98.02361784566105
 20
-528.0988519890603
 30
0.0
 10
-93.15447558988798
 20
-529.2505728623751
 30
0.0
 10
-89.1273180024505
 20
-530.1933726349806
 30
0.0
 10
-85.72927544755923
 20
-530.9822325707006
 30
0.0
 10
-82.40655843204706
 20
-531.7480573584497
 30
0.0
 10
-78.6220447709462
 20
-532.6133710097622
 30
0.0
 10
-74.04063276287087
 20
-533.6505404815723
 30
0.0
 10
-68.67644791352372
 20
-534.8505742836504
 30
0.0
 10
-62.70420455115007
 20
-536.1681426318864
 30
0.0
 10
-55.20919096042474
 20
-537.7964642621477
 30
0.0
 10
-46.45914763490583
 20
-539.6592467952006
 30
0.0
 10
-36.5339340490145
 20
-541.719519607661
 30
0.0
 10
-26.63738416539902
 20
-543.7214563315013
 30
0.0
 10
-16.77206182337029
 20
-545.6649465727868
 30
0.0
 10
-7.039668079357047
 20
-547.5308541808337
 30
0.0
 10
2.06022964966357
 20
-549.228143575538
 30
0.0
 10
10.20997534951587
 20
-550.709732733349
 30
0.0
 10
17.19082580577158
 20
-551.950515442975
 30
0.0
 10
23.18954097416953
 20
-552.9955403876896
 30
0.0
 10
28.23189051666697
 20
-553.8587816019079
 30
0.0
 10
32.40159073586471
 20
-554.5621971888314
 30
0.0
 10
35.84549383999955
 20
-555.1360887104038
 30
0.0
 10
39.08745331152758
 20
-555.6707732049568
 30
0.0
 10
42.65943455385621
 20
-556.2536378542204
 30
0.0
 10
47.0411085905745
 20
-556.9590674351635
 30
0.0
 10
52.26637573929175
 20
-557.7862938074119
 30
0.0
 10
58.32180229081568
 20
-558.725851422853
 30
0.0
 10
65.19281328345738
 20
-559.767089516527
 30
0.0
 10
72.90350355289227
 20
-560.9038565054595
 30
0.0
 10
81.5073533381801
 20
-562.1326007030106
 30
0.0
 10
91.0076945857569
 20
-563.4402282367219
 30
0.0
 10
101.4064882361247
 20
-564.8116954789225
 30
0.0
 10
112.6443213524808
 20
-566.2229904441316
 30
0.0
 10
124.6859531766964
 20
-567.6525206858767
 30
0.0
 10
138.4449021762992
 20
-569.1836672740927
 30
0.0
 10
153.3601757255977
 20
-570.711256418815
 30
0.0
 10
168.8994065137953
 20
-572.1487786434359
 30
0.0
 10
183.891709495264
 20
-573.3917213016535
 30
0.0
 10
198.3047140953495
 20
-574.4480409591416
 30
0.0
 10
212.1090247899585
 20
-575.3268336758033
 30
0.0
 10
224.9588808442371
 20
-576.0256214294172
 30
0.0
 10
236.8721109425788
 20
-576.5672460777797
 30
0.0
 10
247.5682590039132
 20
-576.962256914848
 30
0.0
 10
257.1182870010268
 20
-577.2406498440499
 30
0.0
 10
265.5756609858085
 20
-577.4278857577859
 30
0.0
 10
273.1845135701494
 20
-577.5460614906193
 30
0.0
 10
279.8187591038019
 20
-577.6091348041655
 30
0.0
 10
284.7602356524611
 20
-577.6303813617725
 30
0.0
 10
288.2861864662644
 20
-577.6330663166357
 30
0.0
 10
290.9758071441202
 20
-577.6292203741193
 30
0.0
 10
294.0799895868312
 20
-577.6173877602084
 30
0.0
 10
297.9453418236851
 20
-577.5908271354964
 30
0.0
 10
302.5612260747682
 20
-577.5413798986211
 30
0.0
 10
307.7529545447818
 20
-577.4621853777925
 30
0.0
 10
314.1596985123792
 20
-577.3326373414549
 30
0.0
 10
321.7761905917512
 20
-577.129382984024
 30
0.0
 10
330.6276077149156
 20
-576.8203468530156
 30
0.0
 10
339.8791643187251
 20
-576.4139762910461
 30
0.0
 10
349.7961582796751
 20
-575.8831618848213
 30
0.0
 10
358.4170661889708
 20
-575.3294731173231
 30
0.0
 10
365.2810615105997
 20
-574.8275610192786
 30
0.0
 10
369.7086354188748
 20
-574.4797489388343
 30
0.0
 10
373.5116828325869
 20
-574.1642500685969
 30
0.0
 10
377.8146266150678
 20
-573.7896861655935
 30
0.0
 10
382.798899580282
 20
-573.328626495138
 30
0.0
 10
388.9181391827101
 20
-572.721412713284
 30
0.0
 10
395.8104628284204
 20
-571.9848308590456
 30
0.0
 10
403.6643079786879
 20
-571.0714301992592
 30
0.0
 10
412.0148532164545
 20
-570.011216237966
 30
0.0
 10
420.5473574513922
 20
-568.8313375294076
 30
0.0
 10
428.0386608302246
 20
-567.7067486599515
 30
0.0
 10
434.3433732580208
 20
-566.697370575219
 30
0.0
 10
439.5288035471426
 20
-565.8282331860559
 30
0.0
 10
444.7416878312726
 20
-564.9147891774602
 30
0.0
 10
449.8530135183771
 20
-563.9775517435128
 30
0.0
 10
454.9833067565036
 20
-562.9966685407377
 30
0.0
 10
461.8704758751504
 20
-561.6254194874526
 30
0.0
 10
470.4331412321035
 20
-559.809370541687
 30
0.0
 10
480.9120323051625
 20
-557.4066521371107
 30
0.0
 10
491.6100590255511
 20
-554.7580098466101
 30
0.0
 10
502.2150582876813
 20
-551.9133350233382
 30
0.0
 10
512.3472319236658
 20
-548.9926107714323
 30
0.0
 10
522.6125945136433
 20
-545.8369233376734
 30
0.0
 10
533.4732228277769
 20
-542.2542789488721
 30
0.0
 10
544.4224478018638
 20
-538.3667746727148
 30
0.0
 10
555.2754949716477
 20
-534.2480852646548
 30
0.0
 10
565.9009967721805
 20
-529.9395326089207
 30
0.0
 10
576.5258032027394
 20
-525.3360633073254
 30
0.0
 10
585.595829537979
 20
-521.1565427781404
 30
0.0
 10
593.3796256211749
 20
-517.3858079164801
 30
0.0
 10
599.9475448909117
 20
-514.0764332298772
 30
0.0
 10
606.6445345393453
 20
-510.5707862879926
 30
0.0
 10
613.702939469332
 20
-506.726733163481
 30
0.0
 10
621.2077841339297
 20
-502.459120357035
 30
0.0
 10
628.5352854898051
 20
-498.1007370417923
 30
0.0
 10
635.215092894352
 20
-493.9574475433504
 30
0.0
 10
640.2829287606252
 20
-490.6984621996701
 30
0.0
 10
644.1405156354759
 20
-488.1541511818158
 30
0.0
 10
647.1772689063436
 20
-486.1163125679914
 30
0.0
 10
650.425736098527
 20
-483.8963316745252
 30
0.0
 10
654.0139777264507
 20
-481.3946411815104
 30
0.0
 10
657.8571615985128
 20
-478.6548649215118
 30
0.0
 10
661.85667128665
 20
-475.7353717998865
 30
0.0
 10
665.6819876906105
 20
-472.8755445595433
 30
0.0
 10
669.2103622134481
 20
-470.1779854934595
 30
0.0
 10
672.4600207147851
 20
-467.6439621618562
 30
0.0
 10
675.3493839074947
 20
-465.3477513955536
 30
0.0
 10
678.1690955309477
 20
-463.0688003839799
 30
0.0
 10
681.0185655847506
 20
-460.7284707035028
 30
0.0
 10
684.0275966549624
 20
-458.210192440822
 30
0.0
 10
686.8672642759824
 20
-455.7884785894432
 30
0.0
 10
689.3275952865985
 20
-453.65584985877
 30
0.0
 10
691.5993915972872
 20
-451.6588904530091
 30
0.0
 10
693.8670179430911
 20
-449.6379453361607
 30
0.0
 10
696.3838104540366
 20
-447.3618220885123
 30
0.0
 10
699.1836070639251
 20
-444.7876330256906
 30
0.0
 10
702.5274623530436
 20
-441.6541013534211
 30
0.0
 10
706.0805397871909
 20
-438.2475904786877
 30
0.0
 10
709.5108562929114
 20
-434.8782943747344
 30
0.0
 10
712.6463834627431
 20
-431.734829468372
 30
0.0
 10
715.813910472407
 20
-428.4972418099676
 30
0.0
 10
719.3766254288114
 20
-424.7744022805913
 30
0.0
 10
723.2030182032531
 20
-420.6739316192215
 30
0.0
 10
726.7038970187133
 20
-416.8211237939117
 30
0.0
 10
729.6503376491577
 20
-413.5054026481519
 30
0.0
 10
731.9789027062668
 20
-410.8399410147046
 30
0.0
 10
734.0418525107781
 20
-408.4425184284346
 30
0.0
 10
736.149417736712
 20
-405.9598325459062
 30
0.0
 10
738.606668043979
 20
-403.0212444019822
 30
0.0
 10
741.3789945970994
 20
-399.6400393435341
 30
0.0
 10
744.8961909375715
 20
-395.2588011975667
 30
0.0
 10
749.0729470583386
 20
-389.9123292535251
 30
0.0
 10
754.2863005184779
 20
-382.9941289799133
 30
0.0
 10
759.4902265788618
 20
-375.7928633752844
 30
0.0
 10
764.7269297433388
 20
-368.2388540410348
 30
0.0
 10
768.4953571248572
 20
-362.5819670945567
 30
0.0
 10
771.1836287392289
 20
-358.4326331540769
 30
0.0
 10
772.6373858194466
 20
-356.1601475531229
 30
0.0
 10
774.1428794128101
 20
-353.7786549665119
 30
0.0
 10
775.8853684709235
 20
-350.9851611664443
 30
0.0
 10
777.8455606668923
 20
-347.7892678330552
 30
0.0
 10
779.7160284177653
 20
-344.6830258073948
 30
0.0
 10
781.2533890235048
 20
-342.0894285984385
 30
0.0
 10
782.5487879735375
 20
-339.8779668625534
 30
0.0
 10
783.8732886836212
 20
-337.591554536602
 30
0.0
 10
785.4211722847452
 20
-334.8838593260585
 30
0.0
 10
787.2723436526846
 20
-331.5939329385396
 30
0.0
 10
789.1315421578556
 20
-328.2258903811618
 30
0.0
 10
790.9554475154536
 20
-324.8600838279497
 30
0.0
 10
792.803991274898
 20
-321.3925140518758
 30
0.0
 10
794.8408474724177
 20
-317.4947173438953
 30
0.0
 10
796.9082848452589
 20
-313.44716699285
 30
0.0
 10
798.9425024380992
 20
-309.380183054463
 30
0.0
 10
801.0119766002393
 20
-305.1535146772688
 30
0.0
 10
803.1090553784279
 20
-300.7648817913816
 30
0.0
 10
805.0356839037919
 20
-296.6363535767354
 30
0.0
 10
806.7448795479653
 20
-292.8974758911997
 30
0.0
 10
808.3328994715397
 20
-289.3560990613557
 30
0.0
 10
809.8520224078572
 20
-285.9030041239808
 30
0.0
 10
811.3481955556991
 20
-282.4387067424181
 30
0.0
 10
813.1897508010732
 20
-278.0937303198665
 30
0.0
 10
815.3152557264854
 20
-272.9430040058416
 30
0.0
 10
818.0273335956111
 20
-266.1525520579281
 30
0.0
 10
820.6930125860588
 20
-259.2085412111339
 30
0.0
 10
823.2376810886843
 20
-252.292044890548
 30
0.0
 10
825.4216176582876
 20
-246.1467326642468
 30
0.0
 10
827.3138554388103
 20
-240.6376938391634
 30
0.0
 10
829.1185884338602
 20
-235.2140235760123
 30
0.0
 10
830.8313359386672
 20
-229.9126839401446
 30
0.0
 10
832.478246753016
 20
-224.6415845677913
 30
0.0
 10
834.029313706094
 20
-219.5181040911949
 30
0.0
 10
835.5521174395976
 20
-214.3399906878486
 30
0.0
 10
837.4520064848745
 20
-207.6558024747355
 30
0.0
 10
839.486510495146
 20
-200.1459225863695
 30
0.0
 10
841.5129939627896
 20
-192.2552093123859
 30
0.0
 10
843.3293261951839
 20
-184.830746430763
 30
0.0
 10
844.8670354512689
 20
-178.2161258250443
 30
0.0
 10
846.1948716109206
 20
-172.2440940628018
 30
0.0
 10
847.2566577139042
 20
-167.2892965716252
 30
0.0
 10
848.0725843831236
 20
-163.3400664570131
 30
0.0
 10
848.685168366853
 20
-160.3004897921985
 30
0.0
 10
849.2060110324574
 20
-157.6720395665858
 30
0.0
 10
849.8689557454558
 20
-154.2465878697313
 30
0.0
 10
850.6854172883075
 20
-149.9086175504841
 30
0.0
 10
851.25841433489
 20
-146.7078760886788
 30
0.0
 10
851.5723165260418
 20
-144.9544294275413
 30
0.0
  0
LWPOLYLINE
  5
101
330
FA
100
AcDbEntity
  8
0
  6
Continuous
 62
     7
370
    25
100
AcDbPolyline
 90
      163
 70
   128
 43
0.0
 10
-809.2425813348
 20
219.9347936358
 10
-818.3016870455
 20
210.4528210147
 10
-826.3280617321
 20
200.7081716732
 10
-833.3185357995
 20
190.7179816266
 10
-839.2699396531
 20
180.4993868901
 10
-844.1791036979
 20
170.0695234792
 10
-848.0428583391
 20
159.445527409
 10
-850.8580339818
 20
148.6445346947
 10
-852.740049122
 20
136.5789857775
 10
-853.3488583018
 20
124.3346990432
 10
-852.6861250184
 20
111.9213282241
 10
-850.7535763972
 20
99.3483847609
 10
-847.5529395638
 20
86.6253800943
 10
-843.0859416438
 20
73.7618256652
 10
-837.3543097626
 20
60.7672329142
 10
-830.3608545805
 20
47.652605034
 10
-822.1155412533
 20
34.4387951401
 10
-812.6312356366
 20
21.1506498745
 10
-802.1227468254
 20
8.0514889463
 10
-790.4437354866
 20
-5.0718480684
 10
-777.6063983031
 20
-18.1958111829
 10
-763.6229319581
 20
-31.2968504109
 10
-747.2548793782
 20
-45.3918638592
 10
-729.6135633418
 20
-59.4044063677
 10
-710.7480693544
 20
-73.3062030612
 10
-690.7074829213
 20
-87.0689790642
 10
-669.5408895482
 20
-100.6644595016
 10
-647.2973747405
 20
-114.064369498
 10
-625.3818402298
 20
-126.4945741972
 10
-602.5800041216
 20
-138.7111675976
 10
-578.9107693061
 20
-150.7051730839
 10
-554.3927981055
 20
-162.4677732992
 10
-529.044752842
 20
-173.9901508866
 10
-499.7972261619
 20
-186.5554672287
 10
-469.5649385153
 20
-198.7983170674
 10
-438.3831503243
 20
-210.7032181587
 10
-406.318206974
 20
-222.2439295015
 10
-373.4429306445
 20
-233.3919684237
 10
-339.8301435158
 20
-244.1188522533
 10
-305.552667768
 20
-254.3960983181
 10
-270.6833255809
 20
-264.1952239461
 10
-237.0667657768
 20
-273.0402809425
 10
-203.0559202243
 20
-281.4150615515
 10
-168.7252395101
 20
-289.3067904185
 10
-134.1491742211
 20
-296.702692189
 10
-99.402174944
 20
-303.5899915084
 10
-64.5586922657
 20
-309.9559130223
 10
-31.6834309937
 20
-315.4693281737
 10
1.1720440577
 20
-320.5019135124
 10
33.9826636616
 20
-325.0506279194
 10
66.7237624345
 20
-329.1125132095
 10
99.3706749929
 20
-332.6846111979
 10
131.8987359532
 20
-335.7639636994
 10
164.283279932
 20
-338.347612529
 10
196.4960896304
 20
-340.4324868868
 10
228.4854947222
 20
-342.0147723847
 10
260.1903161492
 20
-343.0903531565
 10
290.9927519342
 20
-343.6495308012
 10
321.4036517872
 20
-343.712067626
 10
351.3650302377
 20
-343.274063529
 10
380.8189018154
 20
-342.3316184084
 10
407.5810715717
 20
-341.007913997
 10
433.8233498048
 20
-339.255105336
 10
459.5103430419
 20
-337.0796206582
 10
484.6066578099
 20
-334.4878881965
 10
509.076900636
 20
-331.4863361836
 10
532.8856780473
 20
-328.0813928526
 10
555.9975965709
 20
-324.279486436
 10
580.5747024175
 20
-319.646428219
 10
604.2375247249
 20
-314.5469852582
 10
626.9695131427
 20
-308.9858333775
 10
648.7544478734
 20
-302.9676064282
 10
669.5761091191
 20
-296.496938262
 10
689.4182770821
 20
-289.5784627305
 10
708.2647319646
 20
-282.2168136852
 10
726.0975085601
 20
-274.4176001746
 10
742.8871168599
 20
-266.1928703987
 10
758.5993942709
 20
-257.5572832294
 10
772.9493817931
 20
-248.6901760137
 10
786.1948271858
 20
-239.4547956317
 10
798.3033528871
 20
-229.8650366502
 10
809.2425813348
 20
-219.9347936358
 10
818.3016870455
 20
-210.4528210147
 10
826.3280617321
 20
-200.7081716732
 10
833.3185357995
 20
-190.7179816266
 10
839.2699396531
 20
-180.4993868901
 10
844.1791036979
 20
-170.0695234792
 10
848.0428583391
 20
-159.445527409
 10
850.8580339818
 20
-148.6445346947
 10
852.740049122
 20
-136.5789857775
 10
853.3488583018
 20
-124.3346990432
 10
852.6861250184
 20
-111.9213282241
 10
850.7535763972
 20
-99.3483847609
 10
847.5529395638
 20
-86.6253800943
 10
843.0859416438
 20
-73.7618256652
 10
837.3543097626
 20
-60.7672329142
 10
830.3608545805
 20
-47.652605034
 10
822.1155412533
 20
-34.4387951401
 10
812.6312356366
 20
-21.1506498745
 10
802.1227468254
 20
-8.0514889463
 10
790.4437354866
 20
5.0718480684
 10
777.6063983031
 20
18.1958111829
 10
763.6229319581
 20
31.2968504109
 10
747.2548793782
 20
45.3918638592
 10
729.6135633418
 20
59.4044063677
 10
710.7480693543
 20
73.3062030612
 10
690.7074829213
 20
87.0689790643
 10
669.5408895481
 20
100.6644595017
 10
647.2973747403
 20
114.0643694981
 10
625.3818402295
 20
126.4945741973
 10
602.5800041212
 20
138.7111675978
 10
578.9107693056
 20
150.7051730842
 10
554.3927981049
 20
162.4677732995
 10
529.0447528412
 20
173.9901508869
 10
499.797226161
 20
186.5554672291
 10
469.5649385142
 20
198.7983170678
 10
438.3831503231
 20
210.7032181591
 10
406.3182069728
 20
222.243929502
 10
373.4429306432
 20
233.3919684242
 10
339.8301435145
 20
244.1188522538
 10
305.5526677665
 20
254.3960983186
 10
270.6833255794
 20
264.1952239465
 10
237.0667657753
 20
273.0402809429
 10
203.0559202228
 20
281.4150615519
 10
168.7252395087
 20
289.3067904188
 10
134.1491742197
 20
296.7026921893
 10
99.4021749426
 20
303.5899915087
 10
64.5586922644
 20
309.9559130225
 10
31.6834309925
 20
315.4693281739
 10
-1.1720440588
 20
320.5019135126
 10
-33.9826636625
 20
325.0506279195
 10
-66.7237624352
 20
329.1125132096
 10
-99.3706749934
 20
332.6846111979
 10
-131.8987359536
 20
335.7639636994
 10
-164.2832799323
 20
338.347612529
 10
-196.4960896305
 20
340.4324868868
 10
-228.4854947223
 20
342.0147723847
 10
-260.1903161493
 20
343.0903531565
 10
-290.9927519342
 20
343.6495308013
 10
-321.4036517872
 20
343.712067626
 10
-351.3650302377
 20
343.274063529
 10
-380.8189018154
 20
342.3316184084
 10
-407.5810715717
 20
341.007913997
 10
-433.8233498048
 20
339.255105336
 10
-459.5103430419
 20
337.0796206582
 10
-484.6066578099
 20
334.4878881965
 10
-509.076900636
 20
331.4863361836
 10
-532.8856780473
 20
328.0813928526
 10
-555.9975965709
 20
324.279486436
 10
-580.5747024175
 20
319.646428219
 10
-604.2375247249
 20
314.5469852582
 10
-626.9695131427
 20
308.9858333775
 10
-648.7544478734
 20
302.9676064282
 10
-669.5761091191
 20
296.496938262
 10
-689.4182770821
 20
289.5784627305
 10
-708.2647319646
 20
282.2168136852
 10
-726.0975085601
 20
274.4176001746
 10
-742.8871168599
 20
266.1928703987
 10
-758.5993942709
 20
257.5572832294
 10
-772.9493817931
 20
248.6901760137
 10
-786.1948271858
 20
239.4547956317
 10
-798.3033528871
 20
229.8650366502
 10
-809.2425813348
 20
219.9347936358
  0
SPLINE
  5
102
330
FA
100
AcDbEntity
  8
0
  6
Continuous
 62
     7
370
    25
100
AcDbSpline
210
0.0
220
0.0
230
1.0
 70
     8
 71
     3
 72
     9
 73
     5
 74
     0
 42
0.000000001
 43
0.00000001
 40
0.0
 40
0.0
 40
0.0
 40
0.0
 40
0.5
 40
1.0
 40
1.0
 40
1.0
 40
1.0
 10
194.8053025851287
 20
175.5097290569866
 30
0.0
 10
208.3062570999193
 20
172.1332981363363
 30
0.0
 10
235.0746359223344
 20
165.152503653642
 30
0.0
 10
261.3713444005649
 20
157.7113444553008
 30
0.0
 10
274.4029335360971
 20
153.8767985354335
 30
0.0
  0
SPLINE
  5
103
330
FA
100
AcDbEntity
  8
0
  6
Continuous
 62
     7
370
    25
100
AcDbSpline
210
0.0
220
0.0
230
1.0
 70
     8
 71
     3
 72
    40
 73
    36
 74
     0
 42
0.000000001
 43
0.00000001
 40
0.0
 40
0.0
 40
0.0
 40
0.0
 40
0.0624999999999976
 40
0.0624999999999976
 40
0.1249999999999953
 40
0.1249999999999953
 40
0.1874999999999929
 40
0.1874999999999929
 40
0.2499999999999905
 40
0.2499999999999905
 40
0.2812499999999885
 40
0.2812499999999885
 40
0.3124999999999863
 40
0.3124999999999863
 40
0.3749999999999822
 40
0.3749999999999822
 40
0.4374999999999781
 40
0.4374999999999781
 40
0.4999999999999739
 40
0.4999999999999739
 40
0.5624999999999698
 40
0.5624999999999698
 40
0.6249999999999656
 40
0.6249999999999656
 40
0.7499999999999675
 40
0.7499999999999675
 40
0.8124999999999682
 40
0.8124999999999682
 40
0.8437499999999721
 40
0.8437499999999721
 40
0.8749999999999761
 40
0.8749999999999761
 40
0.937499999999988
 40
0.937499999999988
 40
1.0
 40
1.0
 40
1.0
 40
1.0
 10
274.4029335360971
 20
153.8767985354335
 30
0.0
 10
274.7011952196826
 20
153.7890350163455
 30
0.0
 10
274.9998814034284
 20
153.738218714571
 30
0.0
 10
275.5981697926314
 20
153.707645519252
 30
0.0
 10
275.9010569117917
 20
153.7290041992559
 30
0.0
 10
276.4831089067106
 20
153.842484570169
 30
0.0
 10
276.7642509845548
 20
153.9336975536267
 30
0.0
 10
277.3072779611612
 20
154.1848461669653
 30
0.0
 10
277.5644467727415
 20
154.3432427320551
 30
0.0
 10
277.9208194054854
 20
154.6215886877696
 30
0.0
 10
278.0352175684891
 20
154.7214593046698
 30
0.0
 10
278.2552851412461
 20
154.9353941613714
 30
0.0
 10
278.3612693858361
 20
155.0499422693053
 30
0.0
 10
278.6600375141649
 20
155.4079274538564
 30
0.0
 10
278.8358773156436
 20
155.6672643182958
 30
0.0
 10
279.1433193774591
 20
156.2255329759124
 30
0.0
 10
279.2748374463553
 20
156.5260183576264
 30
0.0
 10
279.4846501598122
 20
157.1434569467901
 30
0.0
 10
279.5646317497512
 20
157.4629748247469
 30
0.0
 10
279.6749750275644
 20
158.1235592364446
 30
0.0
 10
279.7043203995672
 20
158.4612051873358
 30
0.0
 10
279.711597195726
 20
159.1339142254486
 30
0.0
 10
279.6899964590687
 20
159.4715110996177
 30
0.0
 10
279.5458067009279
 20
160.4881284872916
 30
0.0
 10
279.3508815964947
 20
161.1364687803659
 30
0.0
 10
278.9009295684039
 20
162.0476580541943
 30
0.0
 10
278.7288333206326
 20
162.3314490474593
 30
0.0
 10
278.4370603552122
 20
162.7270605766819
 30
0.0
 10
278.3341592490604
 20
162.8538836616637
 30
0.0
 10
278.1164807612639
 20
163.0969471594131
 30
0.0
 10
278.0009072408145
 20
163.2138818071024
 30
0.0
 10
277.6414850597847
 20
163.5416880649494
 30
0.0
 10
277.3861962245202
 20
163.7294605580151
 30
0.0
 10
276.8435330745709
 20
164.0425403940248
 30
0.0
 10
276.5535345333018
 20
164.1683213244721
 30
0.0
 10
276.2550008036901
 20
164.2561459733724
 30
0.0
  0
SPLINE
  5
104
330
FA
100
AcDbEntity
  8
0
  6
Continuous
 62
     7
370
    25
100
AcDbSpline
210
0.0
220
0.0
230
1.0
 70
     8
 71
     3
 72
     9
 73
     5
 74
     0
 42
0.000000001
 43
0.00000001
 40
0.0
 40
0.0
 40
0.0
 40
0.0
 40
0.5
 40
1.0
 40
1.0
 40
1.0
 40
1.0
 10
276.2550008036902
 20
164.2561459733722
 30
0.0
 10
263.2227614766595
 20
168.0900572864045
 30
0.0
 10
236.9254024290933
 20
175.5305815091301
 30
0.0
 10
210.1576741760144
 20
182.5120109674404
 30
0.0
 10
196.6573698527222
 20
185.8890764949258
 30
0.0
  0
SPLINE
  5
105
330
FA
100
AcDbEntity
  8
0
  6
Continuous
 62
     7
370
    25
100
AcDbSpline
210
0.0
220
0.0
230
1.0
 70
     8
 71
     3
 72
    40
 73
    36
 74
     0
 42
0.000000001
 43
0.00000001
 40
0.0
 40
0.0
 40
0.0
 40
0.0
 40
0.0624999999999989
 40
0.0624999999999989
 40
0.1249999999999978
 40
0.1249999999999978
 40
0.1874999999999966
 40
0.1874999999999966
 40
0.2499999999999955
 40
0.2499999999999955
 40
0.3124999999999944
 40
0.3124999999999944
 40
0.3749999999999932
 40
0.3749999999999932
 40
0.4374999999999921
 40
0.4374999999999921
 40
0.499999999999991
 40
0.499999999999991
 40
0.5624999999999899
 40
0.5624999999999899
 40
0.6249999999999888
 40
0.6249999999999888
 40
0.6874999999999877
 40
0.6874999999999877
 40
0.7499999999999865
 40
0.7499999999999865
 40
0.7812499999999859
 40
0.7812499999999859
 40
0.8124999999999853
 40
0.8124999999999853
 40
0.8749999999999902
 40
0.8749999999999902
 40
0.9374999999999951
 40
0.9374999999999951
 40
1.0
 40
1.0
 40
1.0
 40
1.0
 10
196.6573698527222
 20
185.889076494926
 30
0.0
 10
196.3482830365503
 20
185.9663937469596
 30
0.0
 10
196.0383145781563
 20
186.0048408598819
 30
0.0
 10
195.4168105447666
 20
186.0088586199933
 30
0.0
 10
195.1019814288368
 20
185.9731464855955
 30
0.0
 10
194.4966965335869
 20
185.8325641720177
 30
0.0
 10
194.2040516319122
 20
185.7284745503535
 30
0.0
 10
193.638422079477
 20
185.4550443050744
 30
0.0
 10
193.3704635914532
 20
185.2876457283148
 30
0.0
 10
192.8729559246631
 20
184.9027042305432
 30
0.0
 10
192.6397645569785
 20
184.6820305443891
 30
0.0
 10
192.2184291057144
 20
184.1992606329655
 30
0.0
 10
192.0310960513996
 20
183.9390524892265
 30
0.0
 10
191.7015678803273
 20
183.3825220788924
 30
0.0
 10
191.5587152860297
 20
183.0834667271776
 30
0.0
 10
191.328612149037
 20
182.4690351847467
 30
0.0
 10
191.2399468598049
 20
182.1521576037869
 30
0.0
 10
191.1159925373919
 20
181.4988992093757
 30
0.0
 10
191.0811994723483
 20
181.1605692776922
 30
0.0
 10
191.0698235346169
 20
180.4902919203631
 30
0.0
 10
191.092331866368
 20
180.1552935313517
 30
0.0
 10
191.1960281441188
 20
179.4855266446321
 30
0.0
 10
191.2782092029128
 20
179.1503081158348
 30
0.0
 10
191.4967279240674
 20
178.5101845806884
 30
0.0
 10
191.6333984655729
 20
178.2013770044236
 30
0.0
 10
191.8819019320814
 20
177.7560441133639
 30
0.0
 10
191.9723777623542
 20
177.6102865436536
 30
0.0
 10
192.1638863597246
 20
177.3319833992126
 30
0.0
 10
192.2653679819816
 20
177.1985330653366
 30
0.0
 10
192.5868328556117
 20
176.815171617393
 30
0.0
 10
192.8248583871012
 20
176.581096687964
 30
0.0
 10
193.3441933415623
 20
176.1655731231374
 30
0.0
 10
193.6179368174023
 20
175.9897805890625
 30
0.0
 10
194.1927213572478
 20
175.7006621428149
 30
0.0
 10
194.4961736232579
 20
175.5870385971521
 30
0.0
 10
194.8053025851288
 20
175.5097290569868
 30
0.0
  0
SPLINE
  5
106
330
FA
100
AcDbEntity
  8
0
  6
Continuous
 62
     7
370
    25
100
AcDbSpline
210
0.0
220
0.0
230
1.0
 70
     8
 71
     3
 72
    40
 73
    36
 74
     0
 42
0.000000001
 43
0.00000001
 40
0.0
 40
0.0
 40
0.0
 40
0.0
 40
0.0094049815007601
 40
0.0244106910624563
 40
0.0399675301482114
 40
0.0561603301995021
 40
0.073070054599658
 40
0.0933594101369979
 40
0.1147583894867852
 40
0.1373316315189785
 40
0.1610959690088858
 40
0.1860349345046721
 40
0.2121230552737059
 40
0.2393285081493015
 40
0.2670328528304773
 40
0.2957001632863475
 40
0.3252497196083386
 40
0.3555964447850619
 40
0.3866522082148582
 40
0.4183479729381945
 40
0.4506558031482232
 40
0.4835512692517362
 40
0.525698783275523
 40
0.5686675019613985
 40
0.6122879164820613
 40
0.6563425442884891
 40
0.7006136718521757
 40
0.7408661060582817
 40
0.7809559455743298
 40
0.8207196840106447
 40
0.8599936296831153
 40
0.8986263957948184
 40
0.9365453183671782
 40
0.9737109710588218
 40
1.0
 40
1.0
 40
1.0
 40
1.0
 10
393.2678604160034
 20
-572.2463886209176
 30
0.0
 10
391.5371658982151
 20
-573.0320016304518
 30
0.0
 10
387.0451369459196
 20
-575.0710653403416
 30
0.0
 10
378.9188699439674
 20
-577.9151006084136
 30
0.0
 10
368.9802986099641
 20
-580.8626879597329
 30
0.0
 10
358.1520243789254
 20
-583.4586427154502
 30
0.0
 10
345.8968179485892
 20
-585.8404967556496
 30
0.0
 10
332.1017700873604
 20
-587.9299093469476
 30
0.0
 10
316.6991153602169
 20
-589.6604316164733
 30
0.0
 10
300.2716893576335
 20
-590.9438846193041
 30
0.0
 10
282.8652190100977
 20
-591.7777288888196
 30
0.0
 10
264.5378321392902
 20
-592.157338219048
 30
0.0
 10
245.3535550770338
 20
-592.077464193937
 30
0.0
 10
225.5191369317993
 20
-591.5366115873273
 30
0.0
 10
205.1169435682127
 20
-590.5414316811049
 30
0.0
 10
184.2330256809959
 20
-589.1123769674765
 30
0.0
 10
162.820418399093
 20
-587.2532847016266
 30
0.0
 10
140.9638741369291
 20
-584.9745410927147
 30
0.0
 10
118.7431312125676
 20
-582.2858301643612
 30
0.0
 10
96.22290784114556
 20
-579.1946939042213
 30
0.0
 10
73.45062985576253
 20
-575.7082806980329
 30
0.0
 10
48.43758856069934
 20
-571.4910334367664
 30
0.0
 10
21.2206526253939
 20
-566.432435280796
 30
0.0
 10
-8.110579711677113
 20
-560.427142608383
 30
0.0
 10
-37.4955121030011
 20
-553.8611652268912
 30
0.0
 10
-66.76778344355183
 20
-546.767801141766
 30
0.0
 10
-94.87223799574996
 20
-539.4123784677296
 30
0.0
 10
-121.6904468886055
 20
-531.8745688416918
 30
0.0
 10
-147.1386660635419
 20
-524.2440936285957
 30
0.0
 10
-171.9642783478211
 20
-516.3196674471807
 30
0.0
 10
-196.0502091741605
 20
-508.1410330760304
 30
0.0
 10
-219.304646184858
 20
-499.7458432570812
 30
0.0
 10
-241.6316607823109
 20
-491.1464820585509
 30
0.0
 10
-261.1271414385683
 20
-483.2035511369867
 30
0.0
 10
-272.9363294365749
 20
-477.9880930224727
 30
0.0
 10
-277.8288303059012
 20
-475.8273489168235
 30
0.0
  0
LINE
  5
109
330
FA
100
AcDbEntity
  8
0
  6
Continuous
 62
    60
370
    25
100
AcDbLine
 10
279.6397512296
 20
158.9880931464
 30
0.0
 11
274.4029335361
 21
153.8767985354
 31
0.0
  0
LINE
  5
10A
330
FA
100
AcDbEntity
  8
0
  6
Continuous
 62
    60
370
    25
100
AcDbLine
 10
203.6177092264
 20
184.1109080957
 30
0.0
 11
194.8053025851
 21
175.509729057
 31
0.0
  0
VIEWPORT
  5
12E
330
FA
100
AcDbEntity
  8
0
100
AcDbViewport
 10
0.0
 20
0.0
 30
0.0
 40
205.6
 41
156.0
 68
     1
 69
     1
 12
0.0
 22
0.0
 13
0.0
 23
0.0
 14
10.0
 24
10.0
 15
10.0
 25
10.0
 16
0.0
 26
0.0
 36
1.0
 17
0.0
 27
0.0
 37
0.0
 42
50.0
 43
0.0
 44
0.0
 45
1416.2918287938
 50
0.0
 51
0.0
 72
   100
 90
   557152
  1

281
     0
 71
     1
 74
     0
110
0.0
120
0.0
130
0.0
111
1.0
121
0.0
131
0.0
112
0.0
122
1.0
132
0.0
 79
     0
146
0.0
  0
ENDBLK
  5
FD
330
FA
100
AcDbEntity
  8
0
100
AcDbBlockEnd
  0
BLOCK
  5
10D
330
10B
100
AcDbEntity
  8
0
100
AcDbBlockBegin
  2
*Paper_Space7
 70
     0
 10
0.0
 20
0.0
 30
0.0
  3
*Paper_Space7
  1

  0
SPLINE
  5
10F
330
10B
100
AcDbEntity
  8
0
  6
Continuous
 62
     7
370
    25
100
AcDbSpline
210
0.0
220
0.0
230
1.0
 70
     8
 71
     3
 72
   230
 73
   226
 74
     0
 42
0.000000001
 43
0.00000001
 40
0.0
 40
0.0
 40
0.0
 40
0.0
 40
0.0036491123640788
 40
0.0066763759013894
 40
0.0090760600808514
 40
0.010980254926654
 40
0.0127437673986403
 40
0.0143875805625376
 40
0.0171746773656036
 40
0.0204379977580541
 40
0.0239637247771291
 40
0.0266872679046958
 40
0.0294332236448752
 40
0.0320847039721773
 40
0.034358805182625
 40
0.0362396893765994
 40
0.0380597691422595
 40
0.0402117633276843
 40
0.0447975889820209
 40
0.0495175330439308
 40
0.054166968869003
 40
0.0586071509735767
 40
0.0626935637132993
 40
0.066571478676985
 40
0.0707788440391365
 40
0.0753542406639314
 40
0.0800008567851983
 40
0.0845405443690382
 40
0.0889427095961903
 40
0.0929143983965422
 40
0.0956735806952912
 40
0.0982170938108268
 40
0.1010175081554189
 40
0.1041346138650516
 40
0.1075728303284226
 40
0.1124272145506227
 40
0.1174734394007904
 40
0.1225015110590826
 40
0.1275101007347954
 40
0.1324978806704187
 40
0.1374615652501537
 40
0.1420783456807332
 40
0.1458483984119244
 40
0.1490992699387675
 40
0.1518341269769217
 40
0.1545588544058632
 40
0.1575595664405504
 40
0.1608392856099235
 40
0.1665600570666097
 40
0.172911007698225
 40
0.1798786296181966
 40
0.1874763121590767
 40
0.1957176761380547
 40
0.2046164974213884
 40
0.2099290404307027
 40
0.2147439627553424
 40
0.2190403938375986
 40
0.2228113306701689
 40
0.2261047448647341
 40
0.2288419216210919
 40
0.2310185899549018
 40
0.2327211188391337
 40
0.234226182546399
 40
0.2359273555031992
 40
0.2374577054072552
 40
0.2392340290327955
 40
0.2420457865039813
 40
0.2453560034869144
 40
0.2491683109232504
 40
0.2534867440786051
 40
0.2587236276869907
 40
0.2645617466248802
 40
0.2710072776223948
 40
0.2780665607527332
 40
0.2857459652982028
 40
0.2940517805317103
 40
0.3024631973819829
 40
0.3114452246332896
 40
0.321005684759083
 40
0.3310622060395413
 40
0.3410907236338991
 40
0.3587084692136145
 40
0.3759411578616685
 40
0.3927733673424422
 40
0.4091900654236122
 40
0.4251736529740245
 40
0.4398871120518911
 40
0.4541683421566496
 40
0.4679992362624932
 40
0.4813641803328689
 40
0.4942498799388477
 40
0.5066451812487685
 40
0.5146920364709573
 40
0.5222874055393449
 40
0.5292884959278134
 40
0.5356939039571805
 40
0.5415028086985388
 40
0.5466270080387523
 40
0.5511754477584782
 40
0.5551483492615431
 40
0.5585460937306549
 40
0.560632013639607
 40
0.5631958040749074
 40
0.5662562158243009
 40
0.5698123828559006
 40
0.5738631856203158
 40
0.5783217449986546
 40
0.5832543829643231
 40
0.5886590323831932
 40
0.5944396133551574
 40
0.608159367917902
 40
0.6216831491552091
 40
0.6350013338263574
 40
0.6386924181602012
 40
0.6422793396978257
 40
0.6454855521298141
 40
0.6482922488912638
 40
0.6507011149318482
 40
0.6527136426053397
 40
0.653962526316559
 40
0.6556120763092989
 40
0.6577093059720306
 40
0.6602526194899346
 40
0.6632400762124432
 40
0.6665508189569364
 40
0.6698009191131933
 40
0.6775360906684316
 40
0.6847194934682511
 40
0.6913575420166651
 40
0.6974562111100006
 40
0.7030204277643987
 40
0.7075298704952043
 40
0.7114721453878555
 40
0.714851256892687
 40
0.7176706481882357
 40
0.7199332012042902
 40
0.7206274499150686
 40
0.7215228013936674
 40
0.7227872668451413
 40
0.724419956207342
 40
0.7264197182838367
 40
0.7287851413445514
 40
0.7330043169992139
 40
0.7370358963613789
 40
0.7408033489184909
 40
0.7455184520534585
 40
0.7497501755828965
 40
0.7535024147610326
 40
0.7568313710382063
 40
0.7599102777229194
 40
0.7621641186462108
 40
0.7642731960134753
 40
0.7662381096685293
 40
0.7680633101669753
 40
0.7700899473454778
 40
0.7726983681886977
 40
0.7757766647211407
 40
0.7793216275638352
 40
0.7831003105186765
 40
0.7867754420148464
 40
0.7903446653667988
 40
0.794416106698537
 40
0.7982851286055412
 40
0.8015721564420459
 40
0.8042113626746235
 40
0.8058798700464269
 40
0.807971900184665
 40
0.8104917709225622
 40
0.8134364697708703
 40
0.8167817192484107
 40
0.8200248081415563
 40
0.8234442127085061
 40
0.8264316221222391
 40
0.8289906619338893
 40
0.8312124682453065
 40
0.8336160580192649
 40
0.8359740396770566
 40
0.8387330067267849
 40
0.8418929618024473
 40
0.845447743950471
 40
0.8492869400460792
 40
0.8557600182954628
 40
0.862682870487924
 40
0.8692307164775587
 40
0.8728950987861678
 40
0.8763787174231638
 40
0.8796111985325114
 40
0.8824904891965938
 40
0.8852297749422124
 40
0.8874282896552651
 40
0.8896790678908412
 40
0.8922801562541297
 40
0.8953557856930958
 40
0.8988039785503854
 40
0.90351884446695
 40
0.9078205965738062
 40
0.9115331838824969
 40
0.914924025479088
 40
0.9181916117656217
 40
0.9211966304712693
 40
0.9233939275299082
 40
0.9262429241508578
 40
0.9292731725709237
 40
0.9318753465738446
 40
0.9345377371652573
 40
0.9373957105647307
 40
0.9396433320596139
 40
0.9416923104745584
 40
0.9439932899815433
 40
0.9465319367673594
 40
0.9488807501418619
 40
0.9512656020277389
 40
0.9540053303681374
 40
0.9571983494172726
 40
0.95980972414599
 40
0.961966816375203
 40
0.9641821880150612
 40
0.9666596889047158
 40
0.9725552493520636
 40
0.9777618910513273
 40
0.9822340385534192
 40
0.9868738352205352
 40
0.9912880134038803
 40
0.9959729715195296
 40
0.9999999999999999
 40
0.9999999999999999
 40
0.9999999999999999
 40
0.9999999999999999
 10
749.6994605105804
 20
-155.301979326194
 30
0.0
 10
748.3044803421246
 20
-155.7842002569005
 30
0.0
 10
745.7522399476461
 20
-156.6664663752603
 30
0.0
 10
742.1747600504796
 20
-157.8542560415673
 30
0.0
 10
739.2290852050598
 20
-158.8102263323722
 30
0.0
 10
736.7391895913293
 20
-159.6020588137811
 30
0.0
 10
734.5333920175262
 20
-160.2919462966734
 30
0.0
 10
731.928311956144
 20
-161.0941750933713
 30
0.0
 10
728.6387309939939
 20
-162.0870852324464
 30
0.0
 10
724.4667924630388
 20
-163.3124780869745
 30
0.0
 10
720.243049762363
 20
-164.5160943786257
 30
0.0
 10
716.1812458075692
 20
-165.6420482617513
 30
0.0
 10
712.4619608193519
 20
-166.6486172821728
 30
0.0
 10
708.9017883677585
 20
-167.5897277705652
 30
0.0
 10
705.7074135286854
 20
-168.4163248159636
 30
0.0
 10
702.8744103305605
 20
-169.1364087555073
 30
0.0
 10
700.0700739800121
 20
-169.8379531754646
 30
0.0
 10
695.9309177945082
 20
-170.855917522459
 30
0.0
 10
690.3105544756872
 20
-172.198881567323
 30
0.0
 10
683.3492276246959
 20
-173.7978698839723
 30
0.0
 10
676.3484255596289
 20
-175.3437686505582
 30
0.0
 10
669.5678851473921
 20
-176.7851992354208
 30
0.0
 10
663.0949310932668
 20
-178.1132787006527
 30
0.0
 10
656.660708224368
 20
-179.3904703439594
 30
0.0
 10
649.890658893401
 20
-180.6900205015958
 30
0.0
 10
642.6262832887099
 20
-182.0346923208761
 30
0.0
 10
635.1010002238146
 20
-183.3755931162164
 30
0.0
 10
627.5944934707869
 20
-184.6634006494481
 30
0.0
 10
620.3935429400242
 20
-185.8540379465356
 30
0.0
 10
614.1328088898501
 20
-186.8540545968868
 30
0.0
 10
608.8820233547075
 20
-187.6697517169523
 30
0.0
 10
604.268924124299
 20
-188.3708000530278
 30
0.0
 10
599.4273723520441
 20
-189.0903858136405
 30
0.0
 10
594.0461828960503
 20
-189.8706586383632
 30
0.0
 10
587.4487240015825
 20
-190.8013582751337
 30
0.0
 10
579.6869587636376
 20
-191.8586415050868
 30
0.0
 10
570.9415199659102
 20
-193.0008150350906
 30
0.0
 10
562.0493601936851
 20
-194.1129641010335
 30
0.0
 10
553.138573996712
 20
-195.1798317233663
 30
0.0
 10
544.2161755135967
 20
-196.2019857103727
 30
0.0
 10
535.4819078897355
 20
-197.1589024671941
 30
0.0
 10
527.4392733284241
 20
-198.0023359130034
 30
0.0
 10
520.3997890816235
 20
-198.7123456921533
 30
0.0
 10
514.4789443847291
 20
-199.2900248916419
 30
0.0
 10
509.1766582901196
 20
-199.7926880828528
 30
0.0
 10
504.0136207966065
 20
-200.2692882666872
 30
0.0
 10
498.5052699588675
 20
-200.7635526870376
 30
0.0
 10
491.1462235172883
 20
-201.4033296765071
 30
0.0
 10
481.7017903990345
 20
-202.1871737361978
 30
0.0
 10
469.9395624123684
 20
-203.1026163013321
 30
0.0
 10
456.9639404822591
 20
-204.0403776482722
 30
0.0
 10
442.7576598606425
 20
-204.9828811741045
 30
0.0
 10
427.2880425899291
 20
-205.9131538325055
 30
0.0
 10
413.1955125192804
 20
-206.6695805351716
 30
0.0
 10
401.2224653461245
 20
-207.2505264946843
 30
0.0
 10
392.1299310505735
 20
-207.6590508943485
 30
0.0
 10
383.997490880864
 20
-207.9986572184803
 30
0.0
 10
376.8169362969078
 20
-208.278682923096
 30
0.0
 10
370.6156472634148
 20
-208.5057267681576
 30
0.0
 10
365.4185757439141
 20
-208.6855415186347
 30
0.0
 10
361.2258339067875
 20
-208.8237927865986
 30
0.0
 10
357.8114128921022
 20
-208.9320302624218
 30
0.0
 10
354.6975666518786
 20
-209.0274794896778
 30
0.0
 10
351.691880820048
 20
-209.1164834855484
 30
0.0
 10
348.5128728354363
 20
-209.2073022809356
 30
0.0
 10
344.6273033995733
 20
-209.3141791715854
 30
0.0
 10
339.609146674863
 20
-209.4448553612717
 30
0.0
 10
333.2941571425953
 20
-209.5970600835839
 30
0.0
 10
326.0176040227446
 20
-209.7561888648125
 30
0.0
 10
317.5112849580668
 20
-209.9207557815028
 30
0.0
 10
307.7108186543102
 20
-210.0816455053334
 30
0.0
 10
296.5507514667062
 20
-210.2274573431467
 30
0.0
 10
284.224935650915
 20
-210.3433194897671
 30
0.0
 10
270.7218847292525
 20
-210.4165967086854
 30
0.0
 10
256.0308928262459
 20
-210.4335183218923
 30
0.0
 10
240.4783368521783
 20
-210.3803116530849
 30
0.0
 10
224.0992155881231
 20
-210.2470407636887
 30
0.0
 10
206.928111235194
 20
-210.0242780103202
 30
0.0
 10
188.7216896821089
 20
-209.6955534098293
 30
0.0
 10
169.8673901854661
 20
-209.255215328261
 30
0.0
 10
145.9187700511645
 20
-208.5678328666242
 30
0.0
 10
117.4689021859402
 20
-207.5445316744299
 30
0.0
 10
84.81263865534864
 20
-206.0773420841562
 30
0.0
 10
53.03524700501649
 20
-204.3764251367076
 30
0.0
 10
22.17470962081833
 20
-202.4695861890656
 30
0.0
 10
-7.222287148042322
 20
-200.4195966596558
 30
0.0
 10
-35.15285213164712
 20
-198.2639860039905
 30
0.0
 10
-61.61686828433683
 20
-196.0364294784889
 30
0.0
 10
-87.1170029302961
 20
-193.7171583709595
 30
0.0
 10
-111.6290337553608
 20
-191.3264588510125
 30
0.0
 10
-135.13439346453
 20
-188.8835741370105
 30
0.0
 10
-155.2919857608879
 20
-186.6631353439435
 30
0.0
 10
-172.1680969124761
 20
-184.7181651018902
 30
0.0
 10
-185.7453281610948
 20
-183.0998430885815
 30
0.0
 10
-198.2915918849016
 20
-181.5577393186219
 30
0.0
 10
-209.7297772982586
 20
-180.112287544665
 30
0.0
 10
-220.015949537108
 20
-178.7798283032333
 30
0.0
 10
-229.1716781607215
 20
-177.5677794021436
 30
0.0
 10
-237.2182121780516
 20
-176.4822576217163
 30
0.0
 10
-244.227604590489
 20
-175.5210121885559
 30
0.0
 10
-249.7748710173001
 20
-174.7495340079406
 30
0.0
 10
-254.485050834229
 20
-174.0876636344555
 30
0.0
 10
-258.9894789181496
 20
-173.4491707753914
 30
0.0
 10
-264.3424942006837
 20
-172.6824212640763
 30
0.0
 10
-270.5489218023269
 20
-171.7825257023563
 30
0.0
 10
-277.5515067814684
 20
-170.7529910109518
 30
0.0
 10
-285.3315587819506
 20
-169.5914176128456
 30
0.0
 10
-293.8691746959194
 20
-168.2951368633968
 30
0.0
 10
-303.1382372077968
 20
-166.8618065713365
 30
0.0
 10
-317.4074248140843
 20
-164.611618549075
 30
0.0
 10
-336.1882901792527
 20
-161.548496475149
 30
0.0
 10
-359.003417386542
 20
-157.6514696113239
 30
0.0
 10
-375.9797530819798
 20
-154.6191002455107
 30
0.0
 10
-387.3411895981142
 20
-152.5318750633286
 30
0.0
 10
-393.104842996823
 20
-151.4603051642328
 30
0.0
 10
-398.3689945668502
 20
-150.4706525736767
 30
0.0
 10
-402.9765465465412
 20
-149.5958701994257
 30
0.0
 10
-406.9236395361635
 20
-148.8400574358719
 30
0.0
 10
-410.0156879179094
 20
-148.2436733064804
 30
0.0
 10
-412.6915282428375
 20
-147.724800808181
 30
0.0
 10
-415.4081633192855
 20
-147.1955121690195
 30
0.0
 10
-418.8223904066719
 20
-146.5262210836442
 30
0.0
 10
-422.9534163214108
 20
-145.7102488992958
 30
0.0
 10
-427.7290873656074
 20
-144.7583815582222
 30
0.0
 10
-432.8711746916479
 20
-143.7228840046079
 30
0.0
 10
-440.5460993140535
 20
-142.1606824393843
 30
0.0
 10
-450.2483453667487
 20
-140.1501359834336
 30
0.0
 10
-461.6733515321814
 20
-137.7241789789242
 30
0.0
 10
-472.1544074730442
 20
-135.4477861626653
 30
0.0
 10
-481.716541393344
 20
-133.3272011915451
 30
0.0
 10
-490.1097407195927
 20
-131.4298932276613
 30
0.0
 10
-497.3412671275405
 20
-129.7678852270377
 30
0.0
 10
-503.4153063419691
 20
-128.3523255867048
 30
0.0
 10
-508.5983970379098
 20
-127.1297124891849
 30
0.0
 10
-512.9058952976122
 20
-126.1031669078809
 30
0.0
 10
-515.8361819425871
 20
-125.3989286553603
 30
0.0
 10
-517.7860055330635
 20
-124.9280221106774
 30
0.0
 10
-519.2279546127568
 20
-124.5788543477581
 30
0.0
 10
-521.1407017556653
 20
-124.1140214162926
 30
0.0
 10
-523.6054449495888
 20
-123.5121571824585
 30
0.0
 10
-526.6170090653976
 20
-122.7723148430482
 30
0.0
 10
-530.914908523475
 20
-121.7087674479188
 30
0.0
 10
-536.2072126089032
 20
-120.3846990708789
 30
0.0
 10
-542.1651483974454
 20
-118.8733788705429
 30
0.0
 10
-548.3354451434119
 20
-117.2875558707568
 30
0.0
 10
-554.566574429091
 20
-115.663040288175
 30
0.0
 10
-560.7489598420555
 20
-114.0266216739511
 30
0.0
 10
-566.2223689577829
 20
-112.5580466720969
 30
0.0
 10
-571.109312992411
 20
-111.2308695543567
 30
0.0
 10
-575.2547291704267
 20
-110.0926340206639
 30
0.0
 10
-578.8007683303343
 20
-109.1099920306948
 30
0.0
 10
-581.8049900203763
 20
-108.271197672124
 30
0.0
 10
-584.5957389843546
 20
-107.4864908045619
 30
0.0
 10
-587.3384419667362
 20
-106.7102026125583
 30
0.0
 10
-590.3720806515978
 20
-105.8457958211446
 30
0.0
 10
-593.9776049458283
 20
-104.8101012161481
 30
0.0
 10
-598.2703847850295
 20
-103.564666922301
 30
0.0
 10
-603.0786314542429
 20
-102.1533650645881
 30
0.0
 10
-608.1294726833188
 20
-100.651563612949
 30
0.0
 10
-613.1566123277348
 20
-99.1368823386898
 30
0.0
 10
-618.2818672591342
 20
-97.57250191029162
 30
0.0
 10
-623.4561337473554
 20
-95.9712823787748
 30
0.0
 10
-628.4633868281859
 20
-94.39924435622207
 30
0.0
 10
-632.7989470773151
 20
-93.02013438137668
 30
0.0
 10
-636.1378288596213
 20
-91.94638549802676
 30
0.0
 10
-638.9339477174227
 20
-91.03997345889096
 30
0.0
 10
-641.6640896545958
 20
-90.14873739403149
 30
0.0
 10
-644.9311744676687
 20
-89.07298749090516
 30
0.0
 10
-648.7162559859335
 20
-87.81379766118533
 30
0.0
 10
-652.7831246306735
 20
-86.44462304987941
 30
0.0
 10
-657.020111114579
 20
-85.00005023955323
 30
0.0
 10
-661.0727138008085
 20
-83.60040248109033
 30
0.0
 10
-664.8072789105772
 20
-82.29431867047307
 30
0.0
 10
-668.0179868815749
 20
-81.15906520969271
 30
0.0
 10
-670.9661574624669
 20
-80.10666394038921
 30
0.0
 10
-673.8121932944213
 20
-79.08124073940473
 30
0.0
 10
-676.851355476996
 20
-77.97563463646424
 30
0.0
 10
-680.167946066272
 20
-76.75645608245601
 30
0.0
 10
-683.929379692884
 20
-75.3568054263044
 30
0.0
 10
-688.0784297892988
 20
-73.79115271935086
 30
0.0
 10
-693.4640684987219
 20
-71.72679885500754
 30
0.0
 10
-700.038764058102
 20
-69.15011620532982
 30
0.0
 10
-707.4799441399347
 20
-66.14581838554997
 30
0.0
 10
-713.6841438398826
 20
-63.56227895405298
 30
0.0
 10
-718.5292203012729
 20
-61.49550830479805
 30
0.0
 10
-722.1450738520516
 20
-59.92620983734034
 30
0.0
 10
-725.4350574533603
 20
-58.47445667455089
 30
0.0
 10
-728.4222463983348
 20
-57.13595690347564
 30
0.0
 10
-731.0197417915743
 20
-55.95537381740648
 30
0.0
 10
-733.3776695006621
 20
-54.8700256505325
 30
0.0
 10
-735.6634319392848
 20
-53.80568112051992
 30
0.0
 10
-738.1963639157912
 20
-52.6111455224488
 30
0.0
 10
-741.067086968595
 20
-51.23677638861948
 30
0.0
 10
-744.5428154127695
 20
-49.54312565733196
 30
0.0
 10
-748.2830407540099
 20
-47.6791695922274
 30
0.0
 10
-751.998359407825
 20
-45.78012468324591
 30
0.0
 10
-755.2351332022427
 20
-44.08689655449447
 30
0.0
 10
-758.0992190913076
 20
-42.5568501184557
 30
0.0
 10
-760.6994048063593
 20
-41.13956709385522
 30
0.0
 10
-762.9207812056651
 20
-39.90506316666912
 30
0.0
 10
-764.9789669255993
 20
-38.7423650597725
 30
0.0
 10
-766.9887567462546
 20
-37.58856569966937
 30
0.0
 10
-769.0484894056955
 20
-36.38322614303219
 30
0.0
 10
-771.0044406408721
 20
-35.21685659869259
 30
0.0
 10
-772.8591615557415
 20
-34.09087104074368
 30
0.0
 10
-774.5800130581673
 20
-33.02595025507685
 30
0.0
 10
-776.1198147867178
 20
-32.05561214411787
 30
0.0
 10
-777.4991734200627
 20
-31.17269322825389
 30
0.0
 10
-778.890580181999
 20
-30.26766295640163
 30
0.0
 10
-780.298066202579
 20
-29.33535561808112
 30
0.0
 10
-781.6682567866475
 20
-28.41046853649848
 30
0.0
 10
-783.0185265861907
 20
-27.48192258667595
 30
0.0
 10
-784.4643192561298
 20
-26.4670043759497
 30
0.0
 10
-785.8893468225065
 20
-25.44144917821442
 30
0.0
 10
-787.1284595330216
 20
-24.52673686103712
 30
0.0
 10
-788.1176561916412
 20
-23.78144939370327
 30
0.0
 10
-789.0635858020876
 20
-23.05505397497029
 30
0.0
 10
-790.4405003576202
 20
-21.97448779107378
 30
0.0
 10
-792.0091376221109
 20
-20.69189345647984
 30
0.0
 10
-793.5021600120591
 20
-19.40021063744815
 30
0.0
 10
-794.6072301800167
 20
-18.39277161354708
 30
0.0
 10
-795.4110358329616
 20
-17.61942542168793
 30
0.0
 10
-795.972230697227
 20
-17.04962591462633
 30
0.0
 10
-796.3092286914616
 20
-16.68324917063926
 30
0.0
 10
-796.3259472653781
 20
-16.66367193626561
 30
0.0
 10
-796.3336752585946
 20
-16.65462255590652
 30
0.0
  0
SPLINE
  5
110
330
10B
100
AcDbEntity
  8
0
  6
Continuous
 62
     7
370
    25
100
AcDbSpline
210
0.0
220
0.0
230
1.0
 70
     8
 71
     3
 72
    42
 73
    38
 74
     0
 42
0.000000001
 43
0.00000001
 40
0.0
 40
0.0
 40
0.0
 40
0.0
 40
0.0061461356204576
 40
0.0586997358717688
 40
0.1106130906748733
 40
0.13939451006201
 40
0.1670073963225969
 40
0.1931538479467161
 40
0.2185326432230159
 40
0.2448717654022889
 40
0.2768114867946301
 40
0.3123664225441866
 40
0.347150000116384
 40
0.3803833910831729
 40
0.4074237808288609
 40
0.4318715876204161
 40
0.4564938882904278
 40
0.4880134952213689
 40
0.5285067624775218
 40
0.555645964356829
 40
0.5773799374782281
 40
0.5957200410216711
 40
0.6167182426164038
 40
0.6407672932290831
 40
0.6655821404130967
 40
0.7030783685751854
 40
0.7409983831274594
 40
0.7805462414241378
 40
0.8166304284832309
 40
0.8492338685497011
 40
0.8794755206337664
 40
0.8907248060129005
 40
0.9026304724989481
 40
0.9192357539158885
 40
0.9409794235143399
 40
0.9678891845928711
 40
1.0
 40
1.0
 40
1.0
 40
1.0
 10
799.6292156961345
 20
-131.4248173276302
 30
0.0
 10
799.6334726799971
 20
-131.4206478044261
 30
0.0
 10
799.6741297438457
 20
-131.3808260487879
 30
0.0
 10
799.5100814102658
 20
-131.5331771268775
 30
0.0
 10
799.1641769654948
 20
-131.8214090080846
 30
0.0
 10
798.7083278296928
 20
-132.1835084025194
 30
0.0
 10
798.280186478328
 20
-132.511832154707
 30
0.0
 10
797.781581942167
 20
-132.8823440721579
 30
0.0
 10
797.2236114190001
 20
-133.2847305948842
 30
0.0
 10
796.5364294492636
 20
-133.7661675981045
 30
0.0
 10
795.6575811947872
 20
-134.3620395182247
 30
0.0
 10
794.5986077516455
 20
-135.0542723256038
 30
0.0
 10
793.3896315310253
 20
-135.8158660068536
 30
0.0
 10
792.1748232354979
 20
-136.5545544463033
 30
0.0
 10
791.0086459371281
 20
-137.2424801440229
 30
0.0
 10
789.8828488053501
 20
-137.8897560069184
 30
0.0
 10
788.6244453933621
 20
-138.5960957707984
 30
0.0
 10
786.9997019863894
 20
-139.4835744767574
 30
0.0
 10
785.2367685663188
 20
-140.413819027909
 30
0.0
 10
783.5735558948795
 20
-141.2643619651675
 30
0.0
 10
782.2747494176199
 20
-141.9140802994412
 30
0.0
 10
781.040554280013
 20
-142.5204278383024
 30
0.0
 10
779.7192233647452
 20
-143.1581816562538
 30
0.0
 10
778.2204384377958
 20
-143.8672508652379
 30
0.0
 10
776.3131249744919
 20
-144.7504774709111
 30
0.0
 10
774.0158684678445
 20
-145.7861798904524
 30
0.0
 10
771.2531576503495
 20
-146.9924305122262
 30
0.0
 10
768.4021877109167
 20
-148.1972888156571
 30
0.0
 10
765.5925141546289
 20
-149.3481528479886
 30
0.0
 10
762.9370858240663
 20
-150.4058759798475
 30
0.0
 10
760.8949719692382
 20
-151.1989864525861
 30
0.0
 10
759.3961798873211
 20
-151.7715284865089
 30
0.0
 10
758.2666741514075
 20
-152.199058158709
 30
0.0
 10
756.810855182824
 20
-152.7439594652287
 30
0.0
 10
754.8923788227876
 20
-153.4509099868786
 30
0.0
 10
752.4814688517602
 20
-154.3239441818283
 30
0.0
 10
750.6797215869152
 20
-154.9573614581892
 30
0.0
 10
749.6994605105804
 20
-155.301979326194
 30
0.0
  0
SPLINE
  5
111
330
10B
100
AcDbEntity
  8
0
  6
Continuous
 62
     7
370
    25
100
AcDbSpline
210
0.0
220
0.0
230
1.0
 70
     8
 71
     3
 72
   436
 73
   432
 74
     0
 42
0.000000001
 43
0.00000001
 40
0.0
 40
0.0
 40
0.0
 40
0.0
 40
0.0036156098923096
 40
0.006690881601626
 40
0.0092340517077437
 40
0.011251804407605
 40
0.0127493581940435
 40
0.0135636100758734
 40
0.0141038336108945
 40
0.0147104683049122
 40
0.0154554620272328
 40
0.0163383145231327
 40
0.0182558217394229
 40
0.0204781029471905
 40
0.0225359734792688
 40
0.024388777246861
 40
0.0260383333566671
 40
0.0286795849307223
 40
0.0313850363817083
 40
0.0343338937603212
 40
0.0375736893266677
 40
0.0405938478324979
 40
0.0440938746213171
 40
0.0477737068009334
 40
0.0517119368755836
 40
0.055858226461477
 40
0.0582855172419928
 40
0.0606954869960729
 40
0.0628280950851922
 40
0.064214758891568
 40
0.0655668781584924
 40
0.0674239010639082
 40
0.0698309941484573
 40
0.0721211847354884
 40
0.0741313578710699
 40
0.0758658789755394
 40
0.0774096272892183
 40
0.0788050095697562
 40
0.0801275055753206
 40
0.0818323238493895
 40
0.0839109744580257
 40
0.0859737277265057
 40
0.087891296368683
 40
0.0901219317324623
 40
0.0920342981225144
 40
0.0936709109435728
 40
0.0955178148161803
 40
0.0976706867102515
 40
0.100115592966598
 40
0.1028486272160468
 40
0.1054566591477871
 40
0.107439328704115
 40
0.1091739661897881
 40
0.1110696716029641
 40
0.114231251823999
 40
0.1177119912109865
 40
0.1200139971775828
 40
0.1221520152267992
 40
0.1240173680055385
 40
0.125752504020843
 40
0.1275447921578654
 40
0.1296381397311346
 40
0.1317899879097737
 40
0.1334821619240697
 40
0.134853771333887
 40
0.1363836582778696
 40
0.1382296345324055
 40
0.1403161156835055
 40
0.1432442189340966
 40
0.1457713175169132
 40
0.1480710609673508
 40
0.150125627839948
 40
0.152775278499774
 40
0.1560157077303886
 40
0.1590606975904646
 40
0.1619367984192936
 40
0.1645559933701669
 40
0.1665181165063057
 40
0.1683166095368597
 40
0.1701532729487001
 40
0.1722872244102358
 40
0.1741222432398021
 40
0.1761992707004491
 40
0.1790423676656353
 40
0.1810799966303901
 40
0.182768554891416
 40
0.1841288844648561
 40
0.1856963478201812
 40
0.1874443765926358
 40
0.1889969630497764
 40
0.1904874956033079
 40
0.1932622525260888
 40
0.1954248765530456
 40
0.198144045463205
 40
0.2010285993020879
 40
0.2037091778829105
 40
0.2067504241527812
 40
0.209439465811716
 40
0.2116682356801908
 40
0.2140972952035558
 40
0.2160155371694858
 40
0.2183772746131663
 40
0.2205907611335774
 40
0.2226357703852842
 40
0.2248195530778211
 40
0.2317965298527865
 40
0.2387140149854412
 40
0.2451566219999883
 40
0.2519851217630748
 40
0.2531798545298294
 40
0.2545901842582619
 40
0.2563689489153571
 40
0.2579538911278674
 40
0.2593250320038452
 40
0.2603187449733778
 40
0.2616230581757752
 40
0.2632765041205676
 40
0.264662998951862
 40
0.2656475404531599
 40
0.2667039691600543
 40
0.2679175087403589
 40
0.2694152748336984
 40
0.2711747830412695
 40
0.2726163299714566
 40
0.2736799728164364
 40
0.2747066237877701
 40
0.2758053603388418
 40
0.2774996612488159
 40
0.2794888640331131
 40
0.2811465389505122
 40
0.28255158937722
 40
0.2838319818750134
 40
0.2851317107786364
 40
0.2865461298702093
 40
0.2884749705653415
 40
0.2906157657500232
 40
0.2926385720733489
 40
0.2943445993198641
 40
0.2957704255760744
 40
0.298964242158273
 40
0.3026361864332194
 40
0.3068887621575117
 40
0.3109796255502622
 40
0.3149774034001651
 40
0.3175591510190488
 40
0.320115045912008
 40
0.3226768429677594
 40
0.3252402819726663
 40
0.3276445296031972
 40
0.3304558651076415
 40
0.3317314618007151
 40
0.3330964407674192
 40
0.3348075817918982
 40
0.3368002764104993
 40
0.3382404157722662
 40
0.3395878180638913
 40
0.3411949164723728
 40
0.3422489830140608
 40
0.3432235709796321
 40
0.3441821580402613
 40
0.3452766141173902
 40
0.3463917592713204
 40
0.347710506523655
 40
0.3488087451439168
 40
0.3495313801690756
 40
0.351087465292623
 40
0.3530609349642755
 40
0.3548721187216842
 40
0.3565951877861717
 40
0.3585395543976655
 40
0.3607280181258736
 40
0.3629868075383678
 40
0.3649300999395515
 40
0.3687464164373458
 40
0.3737682440208442
 40
0.3778322360434041
 40
0.3820039824269088
 40
0.3866788796454083
 40
0.3906533619697385
 40
0.392954899003677
 40
0.395633919960824
 40
0.3984702314704724
 40
0.4011539600554531
 40
0.4036864325480277
 40
0.4083102906290116
 40
0.4124937886154664
 40
0.4159372362110826
 40
0.4191281763187336
 40
0.4223950235920024
 40
0.4260241449398768
 40
0.4295018490337761
 40
0.4331551943811008
 40
0.4369972084519507
 40
0.4410866982193831
 40
0.4454017676882816
 40
0.4494023688083572
 40
0.4528832705573662
 40
0.4558684261020299
 40
0.4583293381974609
 40
0.4606434790558057
 40
0.4628288215568976
 40
0.4653706257860101
 40
0.4684854025059693
 40
0.4720837260788888
 40
0.4758013025391762
 40
0.4794575602734726
 40
0.4830520266024578
 40
0.4866557422735428
 40
0.4901943708027522
 40
0.4935879611992053
 40
0.496597502758112
 40
0.4992092810543385
 40
0.5014258937247964
 40
0.5032527997215999
 40
0.5049748178552558
 40
0.5070725213131932
 40
0.5095433098002974
 40
0.5123122813652935
 40
0.515147105242168
 40
0.5180294745551507
 40
0.5209584120390021
 40
0.5239328669404929
 40
0.5335643323660059
 40
0.5435988986209508
 40
0.5528269118594662
 40
0.5618925014203356
 40
0.5707136305708418
 40
0.5792985365594137
 40
0.5848946595014316
 40
0.5903901571601289
 40
0.5957841065251482
 40
0.6010716279206689
 40
0.6060665963038033
 40
0.6106769767418608
 40
0.6144256182640138
 40
0.6178940723594025
 40
0.6210925123104516
 40
0.6225178269409987
 40
0.6238940246701351
 40
0.625251012256631
 40
0.6270300097763865
 40
0.6293728364949505
 40
0.6314868651640451
 40
0.6334827204139593
 40
0.6353621279078879
 40
0.6371185508330263
 40
0.6386632029919663
 40
0.6399741075970741
 40
0.6414056504597189
 40
0.6429850790057247
 40
0.6448871009301478
 40
0.6466223316202379
 40
0.6481071702917721
 40
0.6493446476668052
 40
0.6504570398793901
 40
0.6517059125743841
 40
0.6547563248992618
 40
0.6575572885501157
 40
0.6599036082261197
 40
0.6630649713612872
 40
0.6661935166078558
 40
0.6686916174166562
 40
0.6710471490680808
 40
0.6733909990481479
 40
0.6755217873276161
 40
0.6776705585622619
 40
0.679600721792865
 40
0.6818798148352574
 40
0.684152918516262
 40
0.6860638947268156
 40
0.6880186790575933
 40
0.6899016371468926
 40
0.6924331052814976
 40
0.6950638786558877
 40
0.6973650118185947
 40
0.6992795267116058
 40
0.7016290555247716
 40
0.7045956810300696
 40
0.7080599363596056
 40
0.7112826268937903
 40
0.7141330200948413
 40
0.7167844441960989
 40
0.7186214971374715
 40
0.7205944977458154
 40
0.722592803017389
 40
0.7241265977965513
 40
0.7250372125701088
 40
0.7260866473950627
 40
0.7275534381822918
 40
0.7290926539411532
 40
0.7302214543327621
 40
0.7311889816187918
 40
0.7321236012616007
 40
0.7333760970846716
 40
0.7349978762326307
 40
0.7363083128416988
 40
0.7372564562185413
 40
0.7384988690697438
 40
0.7400233724457193
 40
0.7417591536659435
 40
0.7430287602240946
 40
0.7442754821640313
 40
0.7459694776452351
 40
0.7472638858041764
 40
0.7482256520692422
 40
0.74930169298063
 40
0.7506022170065144
 40
0.7522170921609382
 40
0.7537997068147575
 40
0.7565875186532494
 40
0.7598234282978799
 40
0.763238074959277
 40
0.7666497759246292
 40
0.7694130843348799
 40
0.7728959363729836
 40
0.7740450026239059
 40
0.7750567188090463
 40
0.7762376458733596
 40
0.7776370113911872
 40
0.7789259736614736
 40
0.7799495870212646
 40
0.7809552290949608
 40
0.782119983740358
 40
0.7834152059875756
 40
0.7844068401505156
 40
0.7850755524795625
 40
0.7859143362401196
 40
0.7870993522276548
 40
0.7893064453572547
 40
0.7910652326553385
 40
0.7933647422792274
 40
0.7954043075963317
 40
0.7975344938522461
 40
0.7997092437342772
 40
0.8013899256211598
 40
0.8038462724370093
 40
0.8057929913280826
 40
0.8080314031772384
 40
0.810463033460738
 40
0.812721082672186
 40
0.8153794353086734
 40
0.8182564987610541
 40
0.8204661741057491
 40
0.8228824621757024
 40
0.8250148902473837
 40
0.8274370054784113
 40
0.82988976435916
 40
0.8317333334501148
 40
0.8335583804637712
 40
0.835824758654897
 40
0.8377393768494465
 40
0.839406594327066
 40
0.8411138862031151
 40
0.842883765321775
 40
0.8447301811420558
 40
0.8467094489672021
 40
0.8480534561747735
 40
0.8493237927823039
 40
0.8503690959468357
 40
0.8512021961408017
 40
0.8522420734287234
 40
0.8536898211564394
 40
0.8553886992390132
 40
0.8582267202186851
 40
0.8605958437389798
 40
0.8625863346261874
 40
0.8643052309872294
 40
0.8659610493351492
 40
0.8675320155890839
 40
0.86915865625069
 40
0.8709760809192046
 40
0.8731518990339758
 40
0.8762473336514524
 40
0.8789260749539315
 40
0.8818546523792627
 40
0.8846825819496635
 40
0.8871973620887134
 40
0.8894644496994479
 40
0.8919128144441242
 40
0.8945233618753826
 40
0.8975045040337358
 40
0.9003577702394695
 40
0.9029738765698565
 40
0.905333851632816
 40
0.9074363234507877
 40
0.9092942252210878
 40
0.9114310312039355
 40
0.9137806895723577
 40
0.9163303437715979
 40
0.918616149673449
 40
0.9210281395996573
 40
0.923182282102759
 40
0.9250629692294008
 40
0.9273000114974694
 40
0.9292211556091922
 40
0.9308708777517861
 40
0.932478712607743
 40
0.9345420804491297
 40
0.9368574463862009
 40
0.9392519293572501
 40
0.9418761129346758
 40
0.9446473871375651
 40
0.9471031807993395
 40
0.9492317947014013
 40
0.9512118323807431
 40
0.9529955029830052
 40
0.9552948268422787
 40
0.9578299673120837
 40
0.9601027144582344
 40
0.9621893269981215
 40
0.9640068445998313
 40
0.965622832197206
 40
0.9670589347488577
 40
0.9687958341772368
 40
0.9709084604676885
 40
0.9731324061073651
 40
0.9753389855551817
 40
0.9775188360793432
 40
0.9794427670629109
 40
0.9810092313790416
 40
0.9825589428258614
 40
0.9845397500264721
 40
0.9868803045715657
 40
0.9890074090968553
 40
0.9900733955347821
 40
0.9910299331450915
 40
0.9920249969739265
 40
0.9934077328226119
 40
0.9951953039495823
 40
0.9973912626019041
 40
1.0
 40
1.0
 40
1.0
 40
1.0
 10
-879.5103822005373
 20
55.12389544097415
 30
0.0
 10
-879.0648887181617
 20
52.38585638150492
 30
0.0
 10
-878.240478941208
 20
47.31896705627589
 30
0.0
 10
-877.016221803437
 20
40.33836127233489
 30
0.0
 10
-875.9603229472297
 20
34.57239061651954
 30
0.0
 10
-875.0909519784656
 20
30.00276411097694
 30
0.0
 10
-874.45263073144
 20
26.73994827295031
 30
0.0
 10
-874.0246317255002
 20
24.59183612886354
 30
0.0
 10
-873.7272674003607
 20
23.11507537894089
 30
0.0
 10
-873.4378943353979
 20
21.69074441880045
 30
0.0
 10
-873.0926428626834
 20
20.00901038405076
 30
0.0
 10
-872.5382005914113
 20
17.3417917208046
 30
0.0
 10
-871.7364926138969
 20
13.56607012913166
 30
0.0
 10
-870.7173984380269
 20
8.912683583695818
 30
0.0
 10
-869.6781087536141
 20
4.313800770191972
 30
0.0
 10
-868.7100989023747
 20
0.1494552043631026
 30
0.0
 10
-867.6148096532288
 20
-4.446661919088546
 30
0.0
 10
-866.3313002041405
 20
-9.673587231803282
 30
0.0
 10
-864.7551559593865
 20
-15.86087815930151
 30
0.0
 10
-863.003403451932
 20
-22.4808551261412
 30
0.0
 10
-861.1189842184741
 20
-29.31770454625454
 30
0.0
 10
-859.044999453445
 20
-36.5443961436692
 30
0.0
 10
-856.7928862266656
 20
-44.0751221692384
 30
0.0
 10
-854.2355132443695
 20
-52.25504390594832
 30
0.0
 10
-851.4124788845056
 20
-60.87773725732232
 30
0.0
 10
-848.7778502262831
 20
-68.54861910626443
 30
0.0
 10
-846.4477652337407
 20
-75.07810034562293
 30
0.0
 10
-844.5948329561212
 20
-80.12861434255517
 30
0.0
 10
-842.9822462102804
 20
-84.41239761599995
 30
0.0
 10
-841.6340840317459
 20
-87.92372047382499
 30
0.0
 10
-840.3448690666169
 20
-91.23070753438556
 30
0.0
 10
-838.7446207641291
 20
-95.26335979780107
 30
0.0
 10
-836.8388500691142
 20
-99.95497575171477
 30
0.0
 10
-834.8453120641269
 20
-104.7390333872647
 30
0.0
 10
-833.0158773135547
 20
-109.0288687352495
 30
0.0
 10
-831.385265983341
 20
-112.7768457180771
 30
0.0
 10
-829.9228905589484
 20
-116.0802591471764
 30
0.0
 10
-828.571959796506
 20
-119.0850665434047
 30
0.0
 10
-827.1530652014632
 20
-122.1964476288787
 30
0.0
 10
-825.4932002666557
 20
-125.7793160635508
 30
0.0
 10
-823.5617318984802
 20
-129.8676349317883
 30
0.0
 10
-821.5248315994082
 20
-134.0883580357784
 30
0.0
 10
-819.4021352813518
 20
-138.3984659430748
 30
0.0
 10
-817.2954625852001
 20
-142.5871403699406
 30
0.0
 10
-815.2527028687729
 20
-146.5649862899113
 30
0.0
 10
-813.3184425189637
 20
-150.2653449143638
 30
0.0
 10
-811.2701456846229
 20
-154.1166416042198
 30
0.0
 10
-808.8917572974358
 20
-158.5011413865521
 30
0.0
 10
-806.1388049770898
 20
-163.4629821250372
 30
0.0
 10
-803.1581902161355
 20
-168.701432919046
 30
0.0
 10
-800.2995892342614
 20
-173.5974682394493
 30
0.0
 10
-797.7898646791471
 20
-177.8023347640555
 30
0.0
 10
-795.5334606293472
 20
-181.5163552350288
 30
0.0
 10
-792.7686931132174
 20
-185.9894361527184
 30
0.0
 10
-789.2329411547926
 20
-191.5751154192611
 30
0.0
 10
-785.446477683182
 20
-197.3737738199021
 30
0.0
 10
-782.0303370928998
 20
-202.4666700178426
 30
0.0
 10
-779.27248771314
 20
-206.4948008435635
 30
0.0
 10
-776.7312040343912
 20
-210.1390296914435
 30
0.0
 10
-774.3166862805958
 20
-213.5449786822546
 30
0.0
 10
-771.7733622156642
 20
-217.075502626828
 30
0.0
 10
-769.0101379314289
 20
-220.8443505443602
 30
0.0
 10
-766.2592191410175
 20
-224.5252742360325
 30
0.0
 10
-763.8156344866122
 20
-227.7390249072069
 30
0.0
 10
-761.6445210855005
 20
-230.5555423009327
 30
0.0
 10
-759.3844715758662
 20
-233.4497659614137
 30
0.0
 10
-756.7598273733051
 20
-236.7608759483231
 30
0.0
 10
-753.4280045274137
 20
-240.8916115782685
 30
0.0
 10
-749.7164889954477
 20
-245.3925412505049
 30
0.0
 10
-745.8463749522007
 20
-249.97491879983
 30
0.0
 10
-742.3714873474522
 20
-254.0036458948313
 30
0.0
 10
-738.7975138700328
 20
-258.0696853075009
 30
0.0
 10
-734.6982139246134
 20
-262.6395254548051
 30
0.0
 10
-730.0234879335145
 20
-267.7204713588574
 30
0.0
 10
-725.164750769261
 20
-272.8613079297713
 30
0.0
 10
-720.5760292805661
 20
-277.595973374158
 30
0.0
 10
-716.5225199355549
 20
-281.6825149031727
 30
0.0
 10
-713.0233837528825
 20
-285.1429256466879
 30
0.0
 10
-709.930184636384
 20
-288.154117830309
 30
0.0
 10
-706.7196067640085
 20
-291.2325126857344
 30
0.0
 10
-703.4645310575629
 20
-294.3024396617792
 30
0.0
 10
-700.0496214182425
 20
-297.470546630687
 30
0.0
 10
-696.2088762490473
 20
-300.976583512338
 30
0.0
 10
-692.215779011568
 20
-304.5485608907259
 30
0.0
 10
-688.4156741745628
 20
-307.8805429843054
 30
0.0
 10
-685.4550821575933
 20
-310.4372174231933
 30
0.0
 10
-682.7539744344052
 20
-312.7409971476813
 30
0.0
 10
-680.0066013655088
 20
-315.0564930784234
 30
0.0
 10
-677.1309838474256
 20
-317.4476972589927
 30
0.0
 10
-674.2861725790309
 20
-319.7818958945196
 30
0.0
 10
-670.8169737948183
 20
-322.5936611849281
 30
0.0
 10
-666.9589775780596
 20
-325.6672467721634
 30
0.0
 10
-662.3326621617001
 20
-329.2806806860238
 30
0.0
 10
-657.6083017567026
 20
-332.8993483637943
 30
0.0
 10
-652.5318050918146
 20
-336.7019240589131
 30
0.0
 10
-647.2195015754529
 20
-340.5942557984809
 30
0.0
 10
-641.9952981523138
 20
-344.3364888376893
 30
0.0
 10
-637.0140555151427
 20
-347.8251662408456
 30
0.0
 10
-632.3957094806643
 20
-350.9979638576409
 30
0.0
 10
-628.238742344109
 20
-353.8023360633057
 30
0.0
 10
-623.9778099861131
 20
-356.6285929499036
 30
0.0
 10
-619.8404360240265
 20
-359.3276761138311
 30
0.0
 10
-615.5992281724189
 20
-362.0459773325487
 30
0.0
 10
-611.4575969752913
 20
-364.6571948338057
 30
0.0
 10
-604.2301163367871
 20
-369.1405159785172
 30
0.0
 10
-593.7740569819229
 20
-375.4017187013517
 30
0.0
 10
-580.4107168666004
 20
-382.9926456011355
 30
0.0
 10
-567.0306769475817
 20
-390.2212921787752
 30
0.0
 10
-557.3624377221971
 20
-395.1924932947509
 30
0.0
 10
-551.048449133006
 20
-398.3452617925125
 30
0.0
 10
-548.1083556396991
 20
-399.7993814406677
 30
0.0
 10
-544.8918751765453
 20
-401.3716654495711
 30
0.0
 10
-541.7004657054794
 20
-402.9125634094516
 30
0.0
 10
-539.0367860009119
 20
-404.1848553360732
 30
0.0
 10
-536.561734457864
 20
-405.3569137587494
 30
0.0
 10
-533.8961097253705
 20
-406.6087175372783
 30
0.0
 10
-530.9588158923049
 20
-407.9733823525623
 30
0.0
 10
-528.2310432867815
 20
-409.226824978266
 30
0.0
 10
-525.9062781371014
 20
-410.2859597103091
 30
0.0
 10
-523.700315510044
 20
-411.2835962691428
 30
0.0
 10
-521.14395935747
 20
-412.4302875081438
 30
0.0
 10
-518.1096301246639
 20
-413.7781821266407
 30
0.0
 10
-514.9149002106566
 20
-415.1808650295581
 30
0.0
 10
-512.0083613191873
 20
-416.4424846065058
 30
0.0
 10
-509.601293023786
 20
-417.4780013025969
 30
0.0
 10
-507.427836196441
 20
-418.4060863466789
 30
0.0
 10
-504.8240944940099
 20
-419.5095384147004
 30
0.0
 10
-501.5638680634227
 20
-420.8775862374548
 30
0.0
 10
-497.9126649047965
 20
-422.3898620901433
 30
0.0
 10
-494.4547994448297
 20
-423.8037427657032
 30
0.0
 10
-491.4811440987561
 20
-425.0066073441005
 30
0.0
 10
-488.7510708000224
 20
-426.1005829011678
 30
0.0
 10
-486.0144737302168
 20
-427.1873114483255
 30
0.0
 10
-482.8319438399632
 20
-428.4391985894304
 30
0.0
 10
-479.0715558781163
 20
-429.9012609747917
 30
0.0
 10
-474.8852421513704
 20
-431.5060728756125
 30
0.0
 10
-470.8503981649848
 20
-433.0306859592774
 30
0.0
 10
-467.3012343206973
 20
-434.3546416467116
 30
0.0
 10
-462.9463620208799
 20
-435.9617420057352
 30
0.0
 10
-457.2334688252568
 20
-438.0367578155627
 30
0.0
 10
-449.5661452759073
 20
-440.7571090991825
 30
0.0
 10
-441.2728627298824
 20
-443.6215185420772
 30
0.0
 10
-432.750644308991
 20
-446.4840117124296
 30
0.0
 10
-425.3812727807954
 20
-448.8940524797488
 30
0.0
 10
-419.0707913367443
 20
-450.9141078872197
 30
0.0
 10
-413.7510020978613
 20
-452.5889650858064
 30
0.0
 10
-408.4446792203176
 20
-454.2324141191194
 30
0.0
 10
-403.236269011114
 20
-455.8193702245513
 30
0.0
 10
-397.8921209765358
 20
-457.4225121853524
 30
0.0
 10
-393.3706628854784
 20
-458.7568876515749
 30
0.0
 10
-389.5996399249694
 20
-459.8556756900883
 30
0.0
 10
-386.5899046787646
 20
-460.7255283199539
 30
0.0
 10
-383.0858870728764
 20
-461.7286761821947
 30
0.0
 10
-379.5238901573564
 20
-462.7369153568885
 30
0.0
 10
-376.2099809069931
 20
-463.6651537933728
 30
0.0
 10
-373.1688878040372
 20
-464.5097964903628
 30
0.0
 10
-370.3908619144092
 20
-465.274510926521
 30
0.0
 10
-367.8714263420741
 20
-465.962505190435
 30
0.0
 10
-365.8015869317197
 20
-466.5242942895025
 30
0.0
 10
-363.7028336630096
 20
-467.090641409882
 30
0.0
 10
-361.5074248022815
 20
-467.6794470653541
 30
0.0
 10
-359.0616107651798
 20
-468.3311088383672
 30
0.0
 10
-356.6103204583599
 20
-468.9795233148964
 30
0.0
 10
-354.4285947021325
 20
-469.5525093674328
 30
0.0
 10
-352.086785383416
 20
-470.1642377162192
 30
0.0
 10
-349.1389073430228
 20
-470.9291314651805
 30
0.0
 10
-345.4243603037102
 20
-471.8830034122055
 30
0.0
 10
-341.5953321632495
 20
-472.8554232462182
 30
0.0
 10
-337.7891481268931
 20
-473.8121399874382
 30
0.0
 10
-333.7168525818082
 20
-474.8249024031144
 30
0.0
 10
-329.2650631127625
 20
-475.9188722032109
 30
0.0
 10
-324.8044593580692
 20
-477.0010213430509
 30
0.0
 10
-319.1946642669137
 20
-478.345592986289
 30
0.0
 10
-311.6428586795973
 20
-480.1257468541681
 30
0.0
 10
-302.6388762911217
 20
-482.1954116997864
 30
0.0
 10
-293.3225732975904
 20
-484.2826201539701
 30
0.0
 10
-284.2606653116727
 20
-486.2662205991776
 30
0.0
 10
-275.2349057399308
 20
-488.193650684649
 30
0.0
 10
-267.5074907312051
 20
-489.8045490112793
 30
0.0
 10
-261.1852444209231
 20
-491.0998351271416
 30
0.0
 10
-255.6558205997812
 20
-492.217188709343
 30
0.0
 10
-249.8449663792267
 20
-493.373653931693
 30
0.0
 10
-244.1320543660757
 20
-494.4934551268862
 30
0.0
 10
-237.147868649442
 20
-495.8429533274604
 30
0.0
 10
-229.07807327561
 20
-497.3718131750298
 30
0.0
 10
-220.3396654611643
 20
-498.9878570487527
 30
0.0
 10
-212.6060761953994
 20
-500.3885259328843
 30
0.0
 10
-205.5172709332107
 20
-501.6492995397311
 30
0.0
 10
-198.2854570416955
 20
-502.9129669210882
 30
0.0
 10
-190.8287683733788
 20
-504.1915343786614
 30
0.0
 10
-183.082883350423
 20
-505.4940541703131
 30
0.0
 10
-175.1745617757643
 20
-506.7980999012656
 30
0.0
 10
-166.8121752141782
 20
-508.1488495929968
 30
0.0
 10
-157.9521826548764
 20
-509.5488977627139
 30
0.0
 10
-148.9558680618958
 20
-510.9375572764587
 30
0.0
 10
-140.3763472951773
 20
-512.2312383884956
 30
0.0
 10
-132.7459499159816
 20
-513.3575487564095
 30
0.0
 10
-126.2278826540283
 20
-514.3019227459943
 30
0.0
 10
-120.5528380679936
 20
-515.1112284346207
 30
0.0
 10
-115.4561152240188
 20
-515.8279308012079
 30
0.0
 10
-110.2939352927025
 20
-516.5442067354356
 30
0.0
 10
-104.5415865303594
 20
-517.3311390892262
 30
0.0
 10
-97.74365472797376
 20
-518.2452896931522
 30
0.0
 10
-90.06707228709355
 20
-519.2564567551457
 30
0.0
 10
-81.97451019620281
 20
-520.2981874351165
 30
0.0
 10
-73.86790786169439
 20
-521.3172562772684
 30
0.0
 10
-65.82950147437687
 20
-522.3040335538745
 30
0.0
 10
-57.86314568152233
 20
-523.2588464874062
 30
0.0
 10
-50.03177815267274
 20
-524.1750845151121
 30
0.0
 10
-42.62945872377892
 20
-525.0207021280702
 30
0.0
 10
-35.90514467882257
 20
-525.7718014460695
 30
0.0
 10
-30.0505960253146
 20
-526.4127391027469
 30
0.0
 10
-25.07430974484431
 20
-526.9480469244561
 30
0.0
 10
-20.76031947513955
 20
-527.4052345100428
 30
0.0
 10
-16.53568911955101
 20
-527.847048889436
 30
0.0
 10
-11.82745311034389
 20
-528.3323650937853
 30
0.0
 10
-6.33092397100217
 20
-528.8890585789874
 30
0.0
 10
-0.2752508688805
 20
-529.4898873352014
 30
0.0
 10
6.095813463055544
 20
-530.107920739381
 30
0.0
 10
12.59430052221944
 20
-530.7236141338152
 30
0.0
 10
19.2053402470618
 20
-531.3347118249534
 30
0.0
 10
30.90866914389103
 20
-532.3889392683346
 30
0.0
 10
48.0088624588918
 20
-533.842921191099
 30
0.0
 10
69.91945008001309
 20
-535.5284349202274
 30
0.0
 10
91.48479280287907
 20
-537.0107653931553
 30
0.0
 10
112.1902242412747
 20
-538.2674200582405
 30
0.0
 10
132.4614049626071
 20
-539.3322534396507
 30
0.0
 10
150.1200363096374
 20
-540.1138044437209
 30
0.0
 10
165.2532844405937
 20
-540.6770161620167
 30
0.0
 10
177.9492997136552
 20
-541.0774983036006
 30
0.0
 10
190.4223584068185
 20
-541.3992288880479
 30
0.0
 10
202.5225583034816
 20
-541.640596862744
 30
0.0
 10
214.0265982184752
 20
-541.8026861562762
 30
0.0
 10
224.3469209985619
 20
-541.8892525290528
 30
0.0
 10
233.4900590305402
 20
-541.9186801429921
 30
0.0
 10
241.5427023324887
 20
-541.9073615062587
 30
0.0
 10
247.798694198536
 20
-541.8709169888037
 30
0.0
 10
252.4370344956856
 20
-541.8292040775677
 30
0.0
 10
255.6516405557805
 20
-541.7940308006453
 30
0.0
 10
259.1395725447595
 20
-541.7491360557316
 30
0.0
 10
263.3722619961228
 20
-541.685145989017
 30
0.0
 10
268.1900161271381
 20
-541.5978044263237
 30
0.0
 10
273.1764710664979
 20
-541.4907399182991
 30
0.0
 10
277.8055600335612
 20
-541.3768290381435
 30
0.0
 10
282.158667696149
 20
-541.2566058258227
 30
0.0
 10
286.1631394722536
 20
-541.1345103408476
 30
0.0
 10
289.7281515916411
 20
-541.0163684991427
 30
0.0
 10
293.0418720832187
 20
-540.8988496523195
 30
0.0
 10
296.3807521334006
 20
-540.7728936076937
 30
0.0
 10
300.1755530795681
 20
-540.6202003037203
 30
0.0
 10
304.2053683032439
 20
-540.4461622741743
 30
0.0
 10
308.1624702846572
 20
-540.2628401789099
 30
0.0
 10
311.606089681742
 20
-540.0935681052429
 30
0.0
 10
314.5681853631161
 20
-539.9407776667766
 30
0.0
 10
317.3470514294174
 20
-539.7915464023602
 30
0.0
 10
321.5249586493476
 20
-539.5581841111964
 30
0.0
 10
327.0056197621063
 20
-539.2302930912111
 30
0.0
 10
333.3330720829562
 20
-538.8164504747978
 30
0.0
 10
339.7397741849014
 20
-538.3650730104358
 30
0.0
 10
346.3953341584205
 20
-537.8593413978177
 30
0.0
 10
353.1678648522965
 20
-537.3004762669511
 30
0.0
 10
359.3130030931639
 20
-536.7562577923526
 30
0.0
 10
364.8501917491142
 20
-536.236276301059
 30
0.0
 10
370.1023122469485
 20
-535.7151899619832
 30
0.0
 10
375.1901930150891
 20
-535.1840448243267
 30
0.0
 10
379.9519405121483
 20
-534.6628473881385
 30
0.0
 10
384.8258741552326
 20
-534.1053708488979
 30
0.0
 10
389.796951247853
 20
-533.511030844663
 30
0.0
 10
394.7514374209822
 20
-532.8902389041458
 30
0.0
 10
399.4507750786486
 20
-532.2760807098191
 30
0.0
 10
403.8421590753518
 20
-531.679910831726
 30
0.0
 10
408.6891268764119
 20
-530.9971203645443
 30
0.0
 10
414.0747573728118
 20
-530.206340685145
 30
0.0
 10
419.7692252622089
 20
-529.3292219638444
 30
0.0
 10
424.9769392939052
 20
-528.490600164217
 30
0.0
 10
429.9667636962153
 20
-527.6566092440024
 30
0.0
 10
435.4545376143081
 20
-526.7049207339372
 30
0.0
 10
442.1060684875706
 20
-525.4983284773593
 30
0.0
 10
449.4028259704931
 20
-524.102441403047
 30
0.0
 10
456.5841979138409
 20
-522.6528158289937
 30
0.0
 10
463.168099138906
 20
-521.2588901677491
 30
0.0
 10
468.6781136884611
 20
-520.0418543628437
 30
0.0
 10
473.5231332974189
 20
-518.9349124155837
 30
0.0
 10
477.8725005714967
 20
-517.9127204968158
 30
0.0
 10
481.9927369177048
 20
-516.9157709947497
 30
0.0
 10
485.3038404881664
 20
-516.0938781870656
 30
0.0
 10
487.9049162838861
 20
-515.4368568692583
 30
0.0
 10
490.4542853922455
 20
-514.7838807759323
 30
0.0
 10
493.4688683133363
 20
-513.9979549421921
 30
0.0
 10
496.5405320753558
 20
-513.1801590164098
 30
0.0
 10
499.2381707277388
 20
-512.4485369613083
 30
0.0
 10
501.4841318705728
 20
-511.8305720018326
 30
0.0
 10
503.8197199517208
 20
-511.1795410617124
 30
0.0
 10
506.6341046928245
 20
-510.3833227964232
 30
0.0
 10
509.7225465625109
 20
-509.4925140034761
 30
0.0
 10
512.5838389352091
 20
-508.6508925249465
 30
0.0
 10
515.1617134369745
 20
-507.8811880929612
 30
0.0
 10
517.8926011608298
 20
-507.0539536211699
 30
0.0
 10
521.1971225447087
 20
-506.0346916345886
 30
0.0
 10
524.5166024289333
 20
-504.9889463033954
 30
0.0
 10
527.6278558506417
 20
-503.9896444454208
 30
0.0
 10
530.7006368390178
 20
-502.9867144333579
 30
0.0
 10
533.7871862105952
 20
-501.9603579850195
 30
0.0
 10
536.6623465558173
 20
-500.9861232705532
 30
0.0
 10
539.0829680831531
 20
-500.1542433680878
 30
0.0
 10
541.5041481354042
 20
-499.3115598765321
 30
0.0
 10
544.3936635439977
 20
-498.2909816256264
 30
0.0
 10
547.6434559804019
 20
-497.1224097288548
 30
0.0
 10
551.9613712681646
 20
-495.53912949742
 30
0.0
 10
557.4278091992982
 20
-493.4810060719892
 30
0.0
 10
564.1813277805559
 20
-490.8449323505362
 30
0.0
 10
571.3407039944099
 20
-487.9383584980188
 30
0.0
 10
578.1237505982033
 20
-485.0726556288381
 30
0.0
 10
584.9169335578234
 20
-482.0985514996518
 30
0.0
 10
590.087984847634
 20
-479.7525764953857
 30
0.0
 10
594.0171170825676
 20
-477.9226057310318
 30
0.0
 10
596.3374688535732
 20
-476.8287018611153
 30
0.0
 10
598.8256530857973
 20
-475.6411826218635
 30
0.0
 10
601.4993837986344
 20
-474.3466019403196
 30
0.0
 10
604.0578358149578
 20
-473.0891734965442
 30
0.0
 10
606.3391437715607
 20
-471.9534855766577
 30
0.0
 10
608.5288691160121
 20
-470.851101887623
 30
0.0
 10
610.8990620434038
 20
-469.6435244998695
 30
0.0
 10
613.2536536418995
 20
-468.4275905976978
 30
0.0
 10
615.2652413748449
 20
-467.3756977705003
 30
0.0
 10
616.9623907419219
 20
-466.480144928827
 30
0.0
 10
618.786476596862
 20
-465.5096769858367
 30
0.0
 10
621.6465824640851
 20
-463.971205102712
 30
0.0
 10
625.1161757773011
 20
-462.0702982744891
 30
0.0
 10
629.3121719700101
 20
-459.7217002018155
 30
0.0
 10
633.3757203249721
 20
-457.3972026095786
 30
0.0
 10
637.6623216934107
 20
-454.8875823051433
 30
0.0
 10
641.8402848317339
 20
-452.3867462471791
 30
0.0
 10
645.759641800709
 20
-449.9866380622444
 30
0.0
 10
649.8682184412779
 20
-447.418963445415
 30
0.0
 10
653.8037167577704
 20
-444.9054737116463
 30
0.0
 10
658.0718057887274
 20
-442.1160155136551
 30
0.0
 10
662.2943254226858
 20
-439.295496999048
 30
0.0
 10
666.6836059981671
 20
-436.2916257147991
 30
0.0
 10
671.3012206831021
 20
-433.0538510538757
 30
0.0
 10
676.1573826693666
 20
-429.5614236612349
 30
0.0
 10
680.9358610221515
 20
-426.0257530173786
 30
0.0
 10
685.5227456122714
 20
-422.5422525214998
 30
0.0
 10
689.616757046624
 20
-419.3587700420016
 30
0.0
 10
693.8033470858547
 20
-416.0270118414219
 30
0.0
 10
697.9726137394524
 20
-412.6313765181232
 30
0.0
 10
701.9308118870749
 20
-409.3270026081398
 30
0.0
 10
705.5039909847844
 20
-406.2784963549871
 30
0.0
 10
708.9408188524462
 20
-403.2915055751089
 30
0.0
 10
712.3893068949017
 20
-400.231897862137
 30
0.0
 10
715.7157439035979
 20
-397.2177593655892
 30
0.0
 10
718.6986229967312
 20
-394.4658219094419
 30
0.0
 10
721.5779772098459
 20
-391.7640105284318
 30
0.0
 10
724.5332684918284
 20
-388.9421558775884
 30
0.0
 10
727.6127802106533
 20
-385.9479291471556
 30
0.0
 10
730.4314375548498
 20
-383.1543465649101
 30
0.0
 10
732.9155137610769
 20
-380.6511093176579
 30
0.0
 10
734.8817711771164
 20
-378.6436209757519
 30
0.0
 10
736.5637334535801
 20
-376.9064018055743
 30
0.0
 10
738.114935642098
 20
-375.2891317863105
 30
0.0
 10
739.8708602116244
 20
-373.4412171090017
 30
0.0
 10
742.0704179625881
 20
-371.0975077821275
 30
0.0
 10
745.1891358643551
 20
-367.7217889652047
 30
0.0
 10
748.743560923409
 20
-363.7863332735259
 30
0.0
 10
752.395534868791
 20
-359.6364447159704
 30
0.0
 10
755.4414842265963
 20
-356.0990809986751
 30
0.0
 10
758.1015731803001
 20
-352.9521035276112
 30
0.0
 10
760.5295803268768
 20
-350.0308686134854
 30
0.0
 10
762.8894988463479
 20
-347.1454123522671
 30
0.0
 10
765.3044922738518
 20
-344.1450420127682
 30
0.0
 10
767.9822804720174
 20
-340.7603707441251
 30
0.0
 10
771.3183667600841
 20
-336.4584821651
 30
0.0
 10
774.9988465317874
 20
-331.5853731818411
 30
0.0
 10
778.9529878272052
 20
-326.1958888045672
 30
0.0
 10
782.713093722121
 20
-320.9242280978369
 30
0.0
 10
786.3310595642514
 20
-315.7024788746913
 30
0.0
 10
789.6003776136652
 20
-310.8546028249111
 30
0.0
 10
792.652878890407
 20
-306.2170801432096
 30
0.0
 10
795.6942405062387
 20
-301.4843034756954
 30
0.0
 10
798.970657817631
 20
-296.2523691930881
 30
0.0
 10
802.3414529893848
 20
-290.7132680905876
 30
0.0
 10
805.6411742473775
 20
-285.1256760318615
 30
0.0
 10
808.6339583327597
 20
-279.9124327423374
 30
0.0
 10
811.2858658604655
 20
-275.1720333282211
 30
0.0
 10
813.6123431083103
 20
-270.9153945683807
 30
0.0
 10
815.8205983316618
 20
-266.790309600853
 30
0.0
 10
818.0809347217698
 20
-262.4781610578607
 30
0.0
 10
820.5408506059852
 20
-257.6725095160022
 30
0.0
 10
823.0011944591299
 20
-252.7390286347433
 30
0.0
 10
825.4304972223756
 20
-247.7400634385603
 30
0.0
 10
827.6800639712395
 20
-242.992313476657
 30
0.0
 10
829.7544268163679
 20
-238.5046012759119
 30
0.0
 10
831.7360989255858
 20
-234.1219602173786
 30
0.0
 10
833.6083004779126
 20
-229.8866479548658
 30
0.0
 10
835.3743442874909
 20
-225.7985697638717
 30
0.0
 10
836.9226558591929
 20
-222.1425552806012
 30
0.0
 10
838.4882484159948
 20
-218.3776779606981
 30
0.0
 10
840.2176846340917
 20
-214.1318763023824
 30
0.0
 10
842.1335681534885
 20
-209.3100192502325
 30
0.0
 10
844.1609075664513
 20
-204.0680943491404
 30
0.0
 10
846.2590657988746
 20
-198.4831780636864
 30
0.0
 10
848.3151555800292
 20
-192.8348155847919
 30
0.0
 10
850.1893112277878
 20
-187.5245697144629
 30
0.0
 10
851.8209732881415
 20
-182.772831801149
 30
0.0
 10
853.2529792280474
 20
-178.4976059705139
 30
0.0
 10
854.6955688112292
 20
-174.0906480156526
 30
0.0
 10
856.2343936171217
 20
-169.2697062370255
 30
0.0
 10
857.8420542412016
 20
-164.0786722950835
 30
0.0
 10
859.3585471654435
 20
-159.0306922196775
 30
0.0
 10
860.6823480131869
 20
-154.4991246121299
 30
0.0
 10
861.8375897061065
 20
-150.4429846114108
 30
0.0
 10
862.8355216946328
 20
-146.8592088831409
 30
0.0
 10
863.7983548812426
 20
-143.3306640758566
 30
0.0
 10
864.8397318238102
 20
-139.4321019063841
 30
0.0
 10
866.007276878723
 20
-134.9453579791987
 30
0.0
 10
867.2300232183309
 20
-130.1038841983965
 30
0.0
 10
868.4293942134177
 20
-125.2052744269346
 30
0.0
 10
869.5406347468543
 20
-120.5225701960905
 30
0.0
 10
870.5112421355853
 20
-116.3091076335034
 30
0.0
 10
871.3529756439277
 20
-112.5600597790864
 30
0.0
 10
872.1851133101027
 20
-108.7665682004881
 30
0.0
 10
873.1192167028994
 20
-104.3928623501393
 30
0.0
 10
874.1128803887398
 20
-99.58267574742577
 30
0.0
 10
874.9369690091389
 20
-95.45071326451377
 30
0.0
 10
875.5396456591401
 20
-92.35070033999895
 30
0.0
 10
875.970831195279
 20
-90.09611047253912
 30
0.0
 10
876.4397425773194
 20
-87.60464557377604
 30
0.0
 10
877.0146807435127
 20
-84.48947789254765
 30
0.0
 10
877.7360264662383
 20
-80.47257273151126
 30
0.0
 10
878.5957420953424
 20
-75.53286516944901
 30
0.0
 10
879.1899167442276
 20
-71.92688701123024
 30
0.0
 10
879.5125272925916
 20
-69.96900039793563
 30
0.0
  0
LWPOLYLINE
  5
114
330
10B
100
AcDbEntity
  8
0
  6
Continuous
 62
     7
370
    25
100
AcDbPolyline
 90
      163
 70
   128
 43
0.0
 10
-855.9041272526
 20
107.8337840806
 10
-862.613094646
 20
101.370262936
 10
-868.2341112658
 20
94.7806858321
 10
-872.768153067
 20
88.0761886815
 10
-876.2161960044
 20
81.2679073971
 10
-878.5792160329
 20
74.3669778917
 10
-879.8581891073
 20
67.3845360781
 10
-880.0540911827
 20
60.3317178693
 10
-879.0198983359
 20
52.5053082463
 10
-876.6793186048
 20
44.6166784546
 10
-873.0363243588
 20
36.6719596057
 10
-868.0949168855
 20
28.6771888017
 10
-861.8590974724
 20
20.638403145
 10
-854.3328674071
 20
12.5616397378
 10
-845.5202279772
 20
4.4529356823
 10
-835.4266144206
 20
-3.6807586276
 10
-824.0669302415
 20
-11.8264624027
 10
-811.4599177324
 20
-19.9687499066
 10
-797.8820590789
 20
-27.9473817344
 10
-783.1368776825
 20
-35.8932111204
 10
-767.2421399761
 20
-43.7916174339
 10
-750.2156123926
 20
-51.6279800442
 10
-730.5838152389
 20
-60.0042349041
 10
-709.7083937781
 20
-68.2749547675
 10
-687.6448555061
 20
-76.4240076707
 10
-664.4487079186
 20
-84.4352616498
 10
-640.1754585115
 20
-92.2925847409
 10
-614.8806147806
 20
-99.9798449801
 10
-590.1444357474
 20
-107.0578853788
 10
-564.5801530421
 20
-113.96214712
 10
-538.2086828257
 20
-120.6876457317
 10
-511.0506642421
 20
-127.2294890877
 10
-483.1267364356
 20
-133.5827850619
 10
-451.0825341091
 20
-140.444871895
 10
-418.1387061923
 20
-147.0592061634
 10
-384.3339649877
 20
-153.4173007402
 10
-349.7404558164
 20
-159.5050424799
 10
-314.4372900301
 20
-165.3071460119
 10
-278.5035789805
 20
-170.8083259657
 10
-242.0184340194
 20
-175.9932969708
 10
-205.0609664986
 20
-180.8467736568
 10
-169.5760834331
 20
-185.139256034
 10
-133.8130504951
 20
-189.1134394235
 10
-97.8488173578
 20
-192.7641932002
 10
-61.7603336943
 20
-196.0863867391
 10
-25.6245491778
 20
-199.0748894154
 10
10.4815865186
 20
-201.7245706041
 10
44.4296335421
 20
-203.908021708
 10
78.2424091254
 20
-205.783492509
 10
111.8943057197
 20
-207.3500650105
 10
145.3601364548
 20
-208.6068578036
 10
178.6147144608
 20
-209.5529894793
 10
211.6328528675
 20
-210.1875786288
 10
244.3893648049
 20
-210.509743843
 10
276.8555117569
 20
-210.5186780419
 10
308.9791039589
 20
-210.2140649331
 10
340.6984436353
 20
-209.5957872077
 10
371.3981539919
 20
-208.6831243033
 10
401.5899035085
 20
-207.4676758617
 10
431.2152152945
 20
-205.9493312844
 10
460.2156124591
 20
-204.1279799729
 10
486.4533449404
 20
-202.172912803
 10
512.0719917065
 20
-199.9637328206
 10
537.0379778084
 20
-197.5060296803
 10
561.317728297
 20
-194.8053930367
 10
584.8776682232
 20
-191.8674125445
 10
607.6842226379
 20
-188.6976778581
 10
629.7038165921
 20
-185.3017786321
 10
652.9774260753
 20
-181.3116043973
 10
675.2316291811
 20
-177.0596588987
 10
696.4511275275
 20
-172.549628365
 10
716.6209406452
 20
-167.785158422
 10
735.7260880654
 20
-162.7698946955
 10
753.7515893189
 20
-157.507482811
 10
770.6824639367
 20
-152.0015683943
 10
786.5022340128
 20
-146.2564954244
 10
801.1845341797
 20
-140.2812190526
 10
814.6989903239
 20
-134.0865639719
 10
826.8059677696
 20
-127.7994691732
 10
837.7283408335
 20
-121.321467497
 10
847.4373228747
 20
-114.6628190854
 10
855.9041272526
 20
-107.8337840806
 10
862.613094646
 20
-101.370262936
 10
868.2341112658
 20
-94.7806858321
 10
872.768153067
 20
-88.0761886815
 10
876.2161960044
 20
-81.2679073971
 10
878.5792160329
 20
-74.3669778917
 10
879.8581891073
 20
-67.3845360781
 10
880.0540911827
 20
-60.3317178693
 10
879.0198983359
 20
-52.5053082463
 10
876.6793186048
 20
-44.6166784546
 10
873.0363243588
 20
-36.6719596057
 10
868.0949168855
 20
-28.6771888017
 10
861.8590974724
 20
-20.638403145
 10
854.3328674071
 20
-12.5616397378
 10
845.5202279772
 20
-4.4529356823
 10
835.4266144206
 20
3.6807586276
 10
824.0669302415
 20
11.8264624027
 10
811.4599177324
 20
19.9687499066
 10
797.8820590789
 20
27.9473817344
 10
783.1368776825
 20
35.8932111204
 10
767.2421399761
 20
43.7916174339
 10
750.2156123926
 20
51.6279800442
 10
730.5838152389
 20
60.0042349041
 10
709.7083937781
 20
68.2749547675
 10
687.644855506
 20
76.4240076707
 10
664.4487079185
 20
84.4352616498
 10
640.1754585114
 20
92.2925847409
 10
614.8806147804
 20
99.9798449801
 10
590.1444357471
 20
107.0578853789
 10
564.5801530418
 20
113.9621471201
 10
538.2086828251
 20
120.6876457319
 10
511.0506642414
 20
127.2294890879
 10
483.1267364347
 20
133.5827850621
 10
451.0825341081
 20
140.4448718952
 10
418.1387061912
 20
147.0592061636
 10
384.3339649865
 20
153.4173007405
 10
349.7404558151
 20
159.5050424801
 10
314.4372900287
 20
165.3071460121
 10
278.503578979
 20
170.8083259659
 10
242.0184340179
 20
175.993296971
 10
205.0609664971
 20
180.846773657
 10
169.5760834316
 20
185.1392560342
 10
133.8130504936
 20
189.1134394236
 10
97.8488173562
 20
192.7641932003
 10
61.7603336928
 20
196.0863867393
 10
25.6245491763
 20
199.0748894155
 10
-10.48158652
 20
201.7245706041
 10
-44.4296335433
 20
203.908021708
 10
-78.2424091265
 20
205.783492509
 10
-111.8943057206
 20
207.3500650106
 10
-145.3601364556
 20
208.6068578036
 10
-178.6147144614
 20
209.5529894794
 10
-211.6328528679
 20
210.1875786288
 10
-244.3893648052
 20
210.509743843
 10
-276.8555117571
 20
210.5186780419
 10
-308.979103959
 20
210.2140649331
 10
-340.6984436353
 20
209.5957872077
 10
-371.3981539919
 20
208.6831243033
 10
-401.5899035086
 20
207.4676758617
 10
-431.2152152945
 20
205.9493312844
 10
-460.2156124591
 20
204.1279799729
 10
-486.4533449404
 20
202.172912803
 10
-512.0719917065
 20
199.9637328206
 10
-537.0379778084
 20
197.5060296803
 10
-561.317728297
 20
194.8053930367
 10
-584.8776682232
 20
191.8674125445
 10
-607.6842226379
 20
188.6976778581
 10
-629.7038165921
 20
185.3017786321
 10
-652.9774260753
 20
181.3116043973
 10
-675.2316291811
 20
177.0596588987
 10
-696.4511275275
 20
172.549628365
 10
-716.6209406452
 20
167.785158422
 10
-735.7260880654
 20
162.7698946955
 10
-753.7515893189
 20
157.507482811
 10
-770.6824639367
 20
152.0015683943
 10
-786.5022340128
 20
146.2564954244
 10
-801.1845341797
 20
140.2812190526
 10
-814.6989903239
 20
134.0865639719
 10
-826.8059677696
 20
127.7994691732
 10
-837.7283408335
 20
121.321467497
 10
-847.4373228747
 20
114.6628190854
 10
-855.9041272526
 20
107.8337840806
  0
SPLINE
  5
115
330
10B
100
AcDbEntity
  8
0
  6
Continuous
 62
     7
370
    25
100
AcDbSpline
210
0.0
220
0.0
230
1.0
 70
     8
 71
     3
 72
     9
 73
     5
 74
     0
 42
0.000000001
 43
0.00000001
 40
0.0
 40
0.0
 40
0.0
 40
0.0
 40
0.5
 40
1.0
 40
1.0
 40
1.0
 40
1.0
 10
135.6348756896522
 20
91.33444548030043
 30
0.0
 10
149.8438789350956
 20
89.72347284551144
 30
0.0
 10
178.0849704649841
 20
86.3455032459269
 30
0.0
 10
205.9687397385443
 20
82.6524050369504
 30
0.0
 10
219.8221668948255
 20
80.72784376745904
 30
0.0
  0
SPLINE
  5
116
330
10B
100
AcDbEntity
  8
0
  6
Continuous
 62
     7
370
    25
100
AcDbSpline
210
0.0
220
0.0
230
1.0
 70
     8
 71
     3
 72
    40
 73
    36
 74
     0
 42
0.000000001
 43
0.00000001
 40
0.0
 40
0.0
 40
0.0
 40
0.0
 40
0.0624999999999976
 40
0.0624999999999976
 40
0.1249999999999953
 40
0.1249999999999953
 40
0.1874999999999929
 40
0.1874999999999929
 40
0.2499999999999905
 40
0.2499999999999905
 40
0.2812499999999885
 40
0.2812499999999885
 40
0.3124999999999863
 40
0.3124999999999863
 40
0.3749999999999822
 40
0.3749999999999822
 40
0.4374999999999781
 40
0.4374999999999781
 40
0.4999999999999739
 40
0.4999999999999739
 40
0.5624999999999698
 40
0.5624999999999698
 40
0.6249999999999656
 40
0.6249999999999656
 40
0.7499999999999675
 40
0.7499999999999675
 40
0.8124999999999682
 40
0.8124999999999682
 40
0.8437499999999721
 40
0.8437499999999721
 40
0.8749999999999761
 40
0.8749999999999761
 40
0.937499999999988
 40
0.937499999999988
 40
1.0
 40
1.0
 40
1.0
 40
1.0
 10
219.8221668948255
 20
80.72784376745904
 30
0.0
 10
220.1392384709845
 20
80.68379519606603
 30
0.0
 10
220.4550576934812
 20
80.67721780703293
 30
0.0
 10
221.0843660804394
 20
80.73609569210669
 30
0.0
 10
221.4012505730499
 20
80.80317190366723
 30
0.0
 10
222.0067722247042
 20
81.0052184929593
 30
0.0
 10
222.2975268959701
 20
81.13956701302608
 30
0.0
 10
222.8554635258637
 20
81.4745626038406
 30
0.0
 10
223.1177673864231
 20
81.67294467355843
 30
0.0
 10
223.478295509784
 20
82.00694620301527
 30
0.0
 10
223.5934984529311
 20
82.12472662946676
 30
0.0
 10
223.8140020243786
 20
82.37317746355447
 30
0.0
 10
223.9196089819828
 20
82.50438150976
 30
0.0
 10
224.2155041613178
 20
82.90938055964983
 30
0.0
 10
224.3871426315299
 20
83.19646990825566
 30
0.0
 10
224.6817370552322
 20
83.80326537013951
 30
0.0
 10
224.8045225032788
 20
84.12451131803331
 30
0.0
 10
224.9930985561101
 20
84.77496134941096
 30
0.0
 10
225.0605321720425
 20
85.10699710784061
 30
0.0
 10
225.1419147245445
 20
85.78463915083326
 30
0.0
 10
225.1549730085747
 20
86.12666539059407
 30
0.0
 10
225.1270114579339
 20
86.79993038141772
 30
0.0
 10
225.0863506131551
 20
87.13377509474554
 30
0.0
 10
224.8805413091279
 20
88.12662866980057
 30
0.0
 10
224.640809917451
 20
88.74356915926604
 30
0.0
 10
224.1190988119434
 20
89.58405863183053
 30
0.0
 10
223.9230607295062
 20
89.84101170750743
 30
0.0
 10
223.5954146749837
 20
90.19155566334166
 30
0.0
 10
223.4805624299007
 20
90.30254868578378
 30
0.0
 10
223.2390070782725
 20
90.51227867774838
 30
0.0
 10
223.1114313979026
 20
90.6115892399559
 30
0.0
 10
222.716699604726
 20
90.88484113664072
 30
0.0
 10
222.4388665785877
 20
91.03418804117189
 30
0.0
 10
221.8531978270723
 20
91.26634446563179
 30
0.0
 10
221.5425896149228
 20
91.34924592226376
 30
0.0
 10
221.2252333862584
 20
91.39332251999669
 30
0.0
  0
SPLINE
  5
117
330
10B
100
AcDbEntity
  8
0
  6
Continuous
 62
     7
370
    25
100
AcDbSpline
210
0.0
220
0.0
230
1.0
 70
     8
 71
     3
 72
     9
 73
     5
 74
     0
 42
0.000000001
 43
0.00000001
 40
0.0
 40
0.0
 40
0.0
 40
0.0
 40
0.5
 40
1.0
 40
1.0
 40
1.0
 40
1.0
 10
221.2252333862586
 20
91.39332251999663
 30
0.0
 10
207.3713136658463
 20
93.3174493887561
 30
0.0
 10
179.4870515419177
 20
97.01011294456322
 30
0.0
 10
151.246452862398
 20
100.3885171973174
 30
0.0
 10
137.0379421810858
 20
101.9999242328385
 30
0.0
  0
SPLINE
  5
118
330
10B
100
AcDbEntity
  8
0
  6
Continuous
 62
     7
370
    25
100
AcDbSpline
210
0.0
220
0.0
230
1.0
 70
     8
 71
     3
 72
    40
 73
    36
 74
     0
 42
0.000000001
 43
0.00000001
 40
0.0
 40
0.0
 40
0.0
 40
0.0
 40
0.0624999999999989
 40
0.0624999999999989
 40
0.1249999999999978
 40
0.1249999999999978
 40
0.1874999999999966
 40
0.1874999999999966
 40
0.2499999999999955
 40
0.2499999999999955
 40
0.3124999999999944
 40
0.3124999999999944
 40
0.3749999999999932
 40
0.3749999999999932
 40
0.4374999999999921
 40
0.4374999999999921
 40
0.499999999999991
 40
0.499999999999991
 40
0.5624999999999899
 40
0.5624999999999899
 40
0.6249999999999888
 40
0.6249999999999888
 40
0.6874999999999877
 40
0.6874999999999877
 40
0.7499999999999865
 40
0.7499999999999865
 40
0.7812499999999859
 40
0.7812499999999859
 40
0.8124999999999853
 40
0.8124999999999853
 40
0.8749999999999902
 40
0.8749999999999902
 40
0.9374999999999951
 40
0.9374999999999951
 40
1.0
 40
1.0
 40
1.0
 40
1.0
 10
137.0379421810858
 20
101.9999242328387
 30
0.0
 10
136.7126411194309
 20
102.0368170804545
 30
0.0
 10
136.3885986827389
 20
102.0349800619928
 30
0.0
 10
135.7429375982612
 20
101.9586558338636
 30
0.0
 10
135.4179693019035
 20
101.8824666428597
 30
0.0
 10
134.7971189785039
 20
101.6643533306917
 30
0.0
 10
134.4989204015846
 20
101.522922775123
 30
0.0
 10
133.926401569747
 20
101.1774186840799
 30
0.0
 10
133.6571936498645
 20
100.9759264107266
 30
0.0
 10
133.1612033969899
 20
100.5275797426198
 30
0.0
 10
132.9308058620351
 20
100.2771293814517
 30
0.0
 10
132.5187656912658
 20
99.74024368937603
 30
0.0
 10
132.3378671350457
 20
99.45580304114202
 30
0.0
 10
132.0245676920262
 20
98.85611857265921
 30
0.0
 10
131.8916221956898
 20
98.53804661860457
 30
0.0
 10
131.6840188188595
 20
97.89217279344884
 30
0.0
 10
131.6079721167255
 20
97.56268971642149
 30
0.0
 10
131.512003244218
 20
96.89048811928333
 30
0.0
 10
131.4926895520478
 20
96.54586760744208
 30
0.0
 10
131.513928424024
 20
95.87005499576016
 30
0.0
 10
131.5536916985714
 20
95.53568369704021
 30
0.0
 10
131.6939301204816
 20
94.8743443825931
 30
0.0
 10
131.7954556567095
 20
94.54704593454113
 30
0.0
 10
132.0531480638515
 20
93.92974350129887
 30
0.0
 10
132.2098506099142
 20
93.63585160055574
 30
0.0
 10
132.4891917193679
 20
93.21861471678514
 30
0.0
 10
132.5901075436302
 20
93.08322439198993
 30
0.0
 10
132.8022762897768
 20
92.82714799476258
 30
0.0
 10
132.9140385676439
 20
92.70560701814021
 30
0.0
 10
133.2662176873381
 20
92.36038020773348
 30
0.0
 10
133.5246439232107
 20
92.15505956119883
 30
0.0
 10
134.0841194472762
 20
91.80346639507856
 30
0.0
 10
134.3770373832347
 20
91.66191578329367
 30
0.0
 10
134.9884830502833
 20
91.44583742200254
 30
0.0
 10
135.3095346615293
 20
91.37133163510178
 30
0.0
 10
135.6348756896522
 20
91.33444548030064
 30
0.0
  0
SPLINE
  5
119
330
10B
100
AcDbEntity
  8
0
  6
Continuous
 62
     7
370
    25
100
AcDbSpline
210
0.0
220
0.0
230
1.0
 70
     8
 71
     3
 72
    64
 73
    60
 74
     0
 42
0.000000001
 43
0.00000001
 40
0.0
 40
0.0
 40
0.0
 40
0.0
 40
0.0031466133625651
 40
0.0126215908051151
 40
0.0219225227425111
 40
0.0311327438086292
 40
0.0403429648747472
 40
0.0496438968121433
 40
0.0591188742546933
 40
0.068842122106481
 40
0.0788781621092521
 40
0.08928280567105
 40
0.1001127893118407
 40
0.1114222625372185
 40
0.1249920829423104
 40
0.1393040361285256
 40
0.1544013535260054
 40
0.1702952931432869
 40
0.186974841305563
 40
0.2044229614733341
 40
0.2226183698430878
 40
0.2411474444148477
 40
0.2603205647077643
 40
0.2800837440557537
 40
0.3003800816980683
 40
0.3211506345877246
 40
0.3423492297873685
 40
0.3639571834171155
 40
0.3859581566045067
 40
0.4141470359787831
 40
0.4428851491500551
 40
0.472059126113084
 40
0.5015235113295684
 40
0.5311326947787195
 40
0.5580541168041453
 40
0.5848667931013568
 40
0.611461368183981
 40
0.637728362637992
 40
0.6635665267395052
 40
0.6889272617473048
 40
0.7137841987424434
 40
0.7361060218357938
 40
0.7579642580155821
 40
0.7793138760764556
 40
0.8000874904052813
 40
0.8202193496335941
 40
0.8396471177741682
 40
0.8578425261439215
 40
0.8752906463116926
 40
0.8919701944739687
 40
0.9078641340912503
 40
0.9229614514887301
 40
0.9372734046749455
 40
0.9508432250800379
 40
0.9621526983054157
 40
0.9729826819462066
 40
0.9833873255080047
 40
0.9934233655107757
 40
1.0
 40
1.0
 40
1.0
 40
1.0
 10
444.5170011276929
 20
-534.3522520792337
 30
0.0
 10
444.5500044707069
 20
-534.7366802766204
 30
0.0
 10
444.6823863819001
 20
-536.2786858687549
 30
0.0
 10
443.8463090168501
 20
-538.9533275797263
 30
0.0
 10
441.9489776166826
 20
-542.3168697357996
 30
0.0
 10
438.8884667270713
 20
-545.5558564200891
 30
0.0
 10
434.7495985173888
 20
-548.6565420753045
 30
0.0
 10
429.5391705324295
 20
-551.6101140980232
 30
0.0
 10
423.2939126206817
 20
-554.409160214232
 30
0.0
 10
416.0420624984266
 20
-557.0466144872163
 30
0.0
 10
407.8132907285136
 20
-559.5158240981542
 30
0.0
 10
398.6322408442479
 20
-561.8108149722916
 30
0.0
 10
388.5195915307613
 20
-563.9274318167904
 30
0.0
 10
376.9292492691533
 20
-565.96239554592
 30
0.0
 10
363.7436932905449
 20
-567.8740532040521
 30
0.0
 10
348.8756056326642
 20
-569.6213033062822
 30
0.0
 10
332.8834169138386
 20
-571.1238375473489
 30
0.0
 10
315.8115082166988
 20
-572.3780224738225
 30
0.0
 10
297.7165580934202
 20
-573.3785202583728
 30
0.0
 10
278.6608055583001
 20
-574.1193071615568
 30
0.0
 10
258.8490571854314
 20
-574.5908893839412
 30
0.0
 10
238.3646415288715
 20
-574.7941369711599
 30
0.0
 10
217.2978660999065
 20
-574.7386322134303
 30
0.0
 10
195.6030503347412
 20
-574.4287784946572
 30
0.0
 10
173.3667918796065
 20
-573.8677467628653
 30
0.0
 10
150.6705439501189
 20
-573.058464011147
 30
0.0
 10
127.5803401973226
 20
-572.0031017385331
 30
0.0
 10
104.1449603884747
 20
-570.704292636631
 30
0.0
 10
78.31031050720948
 20
-569.0286462702009
 30
0.0
 10
50.08639641888244
 20
-566.9036645883358
 30
0.0
 10
19.53679183367113
 20
-564.2579946612565
 30
0.0
 10
-11.20094213769456
 20
-561.2544607268132
 30
0.0
 10
-41.95371506606173
 20
-557.9075773794954
 30
0.0
 10
-71.61069543306763
 20
-554.3441819652855
 30
0.0
 10
-100.0351743916848
 20
-550.6105355450859
 30
0.0
 10
-127.1225862813712
 20
-546.7608569826115
 30
0.0
 10
-153.6625606816335
 20
-542.6965311569901
 30
0.0
 10
-179.530856432479
 20
-538.4389971016166
 30
0.0
 10
-204.621874531104
 20
-534.0059099689262
 30
0.0
 10
-228.85721387422
 20
-529.4112045492694
 30
0.0
 10
-251.5557889074218
 20
-524.793208080095
 30
0.0
 10
-272.7407064177088
 20
-520.1780994868745
 30
0.0
 10
-292.4353890645305
 20
-515.5930185777104
 30
0.0
 10
-311.2226278329166
 20
-510.9121139155899
 30
0.0
 10
-329.0284694471422
 20
-506.1529557311314
 30
0.0
 10
-345.7711942166383
 20
-501.33469423076
 30
0.0
 10
-361.2433528453159
 20
-496.5158097252311
 30
0.0
 10
-375.3973645304683
 20
-491.7157260576394
 30
0.0
 10
-388.2192256624448
 20
-486.9587337577632
 30
0.0
 10
-399.8051435575514
 20
-482.2187998371957
 30
0.0
 10
-410.1203545246955
 20
-477.5141587960747
 30
0.0
 10
-419.1330822257765
 20
-472.8613121729472
 30
0.0
 10
-426.8167624829931
 20
-468.2727687285912
 30
0.0
 10
-432.9135745769207
 20
-463.9318858224472
 30
0.0
 10
-437.565343707676
 20
-459.8502261143501
 30
0.0
 10
-440.9599031311229
 20
-456.0331563909597
 30
0.0
 10
-443.2561268865034
 20
-452.2876027413801
 30
0.0
 10
-444.5081174993842
 20
-449.0041184132959
 30
0.0
 10
-444.5144816745961
 20
-446.973165803772
 30
0.0
 10
-444.5170011276928
 20
-446.1691511952747
 30
0.0
  0
LINE
  5
11C
330
10B
100
AcDbEntity
  8
0
  6
Continuous
 62
     7
370
    25
100
AcDbLine
 10
444.633595846
 20
-534.3515683045
 30
0.0
 11
444.633595846
 21
-525.0007092802
 31
0.0
  0
LINE
  5
11D
330
10B
100
AcDbEntity
  8
0
  6
Continuous
 62
     7
370
    25
100
AcDbLine
 10
-444.633595846
 20
-442.4463038454
 30
0.0
 11
-444.633595846
 21
-446.16983497
 31
0.0
  0
LINE
  5
11E
330
10B
100
AcDbEntity
  8
0
  6
Continuous
 62
    60
370
    25
100
AcDbLine
 10
225.0510114825
 20
85.3392512419
 30
0.0
 11
219.8221668948
 21
80.7278437675
 31
0.0
  0
LINE
  5
11F
330
10B
100
AcDbEntity
  8
0
  6
Continuous
 62
    60
370
    25
100
AcDbLine
 10
146.4808052801
 20
100.8996562917
 30
0.0
 11
135.6348756897
 21
91.3344454803
 31
0.0
  0
VIEWPORT
  5
130
330
10B
100
AcDbEntity
  8
0
100
AcDbViewport
 10
0.0
 20
0.0
 30
0.0
 40
205.6
 41
156.0
 68
     1
 69
     1
 12
0.0
 22
0.0
 13
0.0
 23
0.0
 14
10.0
 24
10.0
 15
10.0
 25
10.0
 16
0.0
 26
0.0
 36
1.0
 17
0.0
 27
0.0
 37
0.0
 42
50.0
 43
0.0
 44
0.0
 45
1416.2918287938
 50
0.0
 51
0.0
 72
   100
 90
   557152
  1

281
     0
 71
     1
 74
     0
110
0.0
120
0.0
130
0.0
111
1.0
121
0.0
131
0.0
112
0.0
122
1.0
132
0.0
 79
     0
146
0.0
  0
ENDBLK
  5
10E
330
10B
100
AcDbEntity
  8
0
100
AcDbBlockEnd
  0
ENDSEC
  0
SECTION
  2
ENTITIES
  0
LWPOLYLINE
  5
73
330
1F
100
AcDbEntity
  8
0
  6
Continuous
 62
     7
370
    25
100
AcDbPolyline
 90
      163
 70
   128
 43
0.0
 10
-915.0
 20
0.0
 10
-914.420064904
 20
-20.5101893999
 10
-912.6887425102
 20
-40.9894737741
 10
-909.8187571602
 20
-61.4069480968
 10
-905.8228331952
 20
-81.7317073424
 10
-900.7136949568
 20
-101.9328464851
 10
-894.5040667863
 20
-121.9794604993
 10
-887.2066730252
 20
-141.8406443591
 10
-877.9381132237
 20
-163.4378095111
 10
-867.3815459336
 20
-184.747702066
 10
-855.5471899917
 20
-205.7545210799
 10
-842.4451915739
 20
-226.4427396455
 10
-828.0856968557
 20
-246.7968308554
 10
-812.4788520128
 20
-266.8012678021
 10
-795.634803221
 20
-286.4405235783
 10
-777.5660066859
 20
-305.6970153363
 10
-758.3001715651
 20
-324.5395850112
 10
-737.8711911322
 20
-342.9315706387
 10
-716.7076503447
 20
-360.5210527181
 10
-694.4869713599
 20
-377.6057722598
 10
-671.2412806746
 20
-394.1509816033
 10
-647.0027047857
 20
-410.1219330882
 10
-619.7544801575
 20
-426.6868515515
 10
-591.454888278
 20
-442.5159255753
 10
-562.1729621866
 20
-457.5835098116
 10
-531.9777349228
 20
-471.8639589124
 10
-500.9382395262
 20
-485.3316275297
 10
-469.1235090363
 20
-497.9608703155
 10
-438.4775367403
 20
-509.0780119617
 10
-407.2412644896
 20
-519.4147095987
 10
-375.439544392
 20
-528.9643705662
 10
-343.0968714825
 20
-537.7205634084
 10
-310.2377407961
 20
-545.6768566698
 10
-272.9847920113
 20
-553.6042037121
 10
-235.1531018206
 20
-560.5182311662
 10
-196.7878842244
 20
-566.4088089571
 10
-157.9715942426
 20
-571.2618393912
 10
-118.7944463523
 20
-575.0623980905
 10
-79.3466550306
 20
-577.7955606771
 10
-39.7184347547
 20
-579.4464027729
 10
-0.0000000016
 20
-580.0
 10
37.7459338053
 20
-579.4999480794
 10
75.4144459344
 20
-578.0083310088
 10
112.928114708
 20
-575.5379568256
 10
150.2095184481
 20
-572.101633567
 10
187.181235477
 20
-567.7121692702
 10
223.7658441169
 20
-562.3823719725
 10
257.8372339689
 20
-556.5072193115
 10
291.4554265341
 20
-549.815624745
 10
324.5954944614
 20
-542.3140657873
 10
357.2329427159
 20
-534.008973894
 10
389.3432762627
 20
-524.9067805207
 10
420.9020000667
 20
-515.013917123
 10
451.8846190931
 20
-504.3368151566
 10
482.2633948838
 20
-492.8833703583
 10
511.9891729055
 20
-480.671147003
 10
541.004115749
 20
-467.7216293515
 10
568.7530400639
 20
-454.3064887431
 10
595.7056579615
 20
-440.2212496052
 10
621.8071520121
 20
-425.4862762746
 10
647.0027047857
 20
-410.1219330882
 10
669.4721942939
 20
-395.3591001701
 10
691.0930548029
 20
-380.1020447941
 10
711.8398085478
 20
-364.3783234264
 10
731.6869777633
 20
-348.2154925335
 10
750.6090846846
 20
-331.6411085818
 10
768.5806515465
 20
-314.6827280375
 10
785.576200584
 20
-297.3679073671
 10
803.1144499052
 20
-277.9420451466
 10
819.4214815223
 20
-258.1420037199
 10
834.4868949451
 20
-237.9835363355
 10
848.3005439981
 20
-217.482169901
 10
860.8522825054
 20
-196.6534313237
 10
872.1319642914
 20
-175.512847511
 10
882.1294431804
 20
-154.0759453703
 10
890.8339129882
 20
-132.3607409816
 10
898.2302095442
 20
-110.4016862417
 10
904.3014017877
 20
-88.2398967405
 10
908.9579711366
 20
-66.3163177898
 10
912.3039572301
 20
-44.2758286382
 10
914.3233151554
 20
-22.1573993526
 10
915.0
 20
0.0
 10
914.420064904
 20
20.5101893999
 10
912.6887425102
 20
40.9894737741
 10
909.8187571602
 20
61.4069480968
 10
905.8228331952
 20
81.7317073424
 10
900.7136949568
 20
101.9328464851
 10
894.5040667863
 20
121.9794604993
 10
887.2066730252
 20
141.8406443591
 10
877.9381132237
 20
163.4378095111
 10
867.3815459336
 20
184.747702066
 10
855.5471899917
 20
205.7545210799
 10
842.4451915739
 20
226.4427396455
 10
828.0856968557
 20
246.7968308554
 10
812.4788520128
 20
266.8012678021
 10
795.634803221
 20
286.4405235783
 10
777.5660066859
 20
305.6970153363
 10
758.3001715651
 20
324.5395850112
 10
737.8711911322
 20
342.9315706387
 10
716.7076503447
 20
360.5210527181
 10
694.4869713599
 20
377.6057722598
 10
671.2412806746
 20
394.1509816033
 10
647.0027047857
 20
410.1219330882
 10
619.7544801575
 20
426.6868515515
 10
591.454888278
 20
442.5159255753
 10
562.1729621865
 20
457.5835098116
 10
531.9777349228
 20
471.8639589124
 10
500.9382395261
 20
485.3316275297
 10
469.1235090361
 20
497.9608703155
 10
438.47753674
 20
509.0780119618
 10
407.2412644891
 20
519.4147095988
 10
375.4395443914
 20
528.9643705663
 10
343.0968714817
 20
537.7205634086
 10
310.2377407951
 20
545.6768566701
 10
272.9847920101
 20
553.6042037124
 10
235.1531018193
 20
560.5182311664
 10
196.787884223
 20
566.4088089573
 10
157.9715942411
 20
571.2618393914
 10
118.7944463507
 20
575.0623980907
 10
79.346655029
 20
577.7955606772
 10
39.7184347531
 20
579.446402773
 10
0.0
 20
580.0
 10
-37.7459338069
 20
579.4999480793
 10
-75.4144459361
 20
578.0083310087
 10
-112.9281147096
 20
575.5379568254
 10
-150.2095184496
 20
572.1016335668
 10
-187.1812354785
 20
567.71216927
 10
-223.7658441182
 20
562.3823719722
 10
-257.8372339701
 20
556.5072193112
 10
-291.4554265351
 20
549.8156247448
 10
-324.5954944623
 20
542.3140657871
 10
-357.2329427166
 20
534.0089738938
 10
-389.3432762633
 20
524.9067805205
 10
-420.9020000671
 20
515.0139171229
 10
-451.8846190934
 20
504.3368151565
 10
-482.2633948839
 20
492.8833703583
 10
-511.9891729056
 20
480.671147003
 10
-541.004115749
 20
467.7216293515
 10
-568.7530400639
 20
454.3064887431
 10
-595.7056579615
 20
440.2212496052
 10
-621.8071520121
 20
425.4862762746
 10
-647.0027047857
 20
410.1219330882
 10
-669.4721942939
 20
395.3591001701
 10
-691.0930548029
 20
380.1020447941
 10
-711.8398085478
 20
364.3783234264
 10
-731.6869777633
 20
348.2154925335
 10
-750.6090846846
 20
331.6411085818
 10
-768.5806515465
 20
314.6827280375
 10
-785.576200584
 20
297.3679073671
 10
-803.1144499052
 20
277.9420451466
 10
-819.4214815223
 20
258.1420037199
 10
-834.4868949451
 20
237.9835363355
 10
-848.3005439981
 20
217.482169901
 10
-860.8522825054
 20
196.6534313237
 10
-872.1319642914
 20
175.512847511
 10
-882.1294431804
 20
154.0759453703
 10
-890.8339129882
 20
132.3607409816
 10
-898.2302095442
 20
110.4016862417
 10
-904.3014017877
 20
88.2398967405
 10
-908.9579711366
 20
66.3163177898
 10
-912.3039572301
 20
44.2758286382
 10
-914.3233151554
 20
22.1573993526
 10
-915.0
 20
0.0
  0
SPLINE
  5
74
330
1F
100
AcDbEntity
  8
0
  6
Continuous
 62
     7
370
    25
100
AcDbSpline
210
0.0
220
0.0
230
1.0
 70
    11
 71
     3
 72
    56
 73
    52
 74
     0
 42
0.000000001
 43
0.00000001
 40
0.0
 40
0.0
 40
0.0
 40
0.0
 40
0.0200227332229491
 40
0.0408497844403132
 40
0.0625346215306949
 40
0.0905642760473152
 40
0.1249373957498057
 40
0.1395361306352174
 40
0.1500435899750349
 40
0.156251873280887
 40
0.1725290079267465
 40
0.1874175001758203
 40
0.2195678457975095
 40
0.249877851064611
 40
0.2801558178441
 40
0.3123893645852244
 40
0.3271152835083328
 40
0.3435519634641684
 40
0.3546073409535829
 40
0.3748773338349013
 40
0.4090946465311873
 40
0.4373025565930288
 40
0.4692371725052373
 40
0.5000326504075701
 40
0.5200335591067153
 40
0.5408853273860981
 40
0.5626425645829672
 40
0.5902199378417552
 40
0.6250701580402794
 40
0.6418610943236401
 40
0.6523486469063943
 40
0.6562121307801972
 40
0.6628937538182725
 40
0.6693750429221216
 40
0.6756461400219422
 40
0.6816976895791278
 40
0.6875209245601979
 40
0.7091071315463615
 40
0.7299974232276842
 40
0.7499578337049094
 40
0.7799922010046282
 40
0.8123990498782055
 40
0.8274393948886816
 40
0.8437117374613968
 40
0.8539012858473941
 40
0.8748810787273671
 40
0.909445072812315
 40
0.9373980250549233
 40
0.958870632947969
 40
0.9797214589361882
 40
1.0
 40
1.0
 40
1.0
 40
1.0
 10
-41.02087688509608
 20
0.000000000000003
 30
0.0
 10
-41.02045604165251
 20
1.712096035085992
 30
0.0
 10
-40.78659893147967
 20
5.204882778896695
 30
0.0
 10
-39.74599032324106
 20
10.46182686599198
 30
0.0
 10
-37.80012948592454
 20
16.18548157888591
 30
0.0
 10
-34.46690316340356
 20
22.591495503229
 30
0.0
 10
-30.28130222541882
 20
27.74865615764467
 30
0.0
 10
-26.49495239744257
 20
31.14762258905562
 30
0.0
 10
-24.36534321709867
 20
32.77159097229581
 30
0.0
 10
-22.03745034317432
 20
34.36281119221839
 30
0.0
 10
-19.27012904582799
 20
35.97030786453138
 30
0.0
 10
-14.35080344870825
 20
38.23617183615434
 30
0.0
 10
-7.968178683819994
 20
40.12296226364507
 30
0.0
 10
-0.0351714446874219
 20
40.90960740533666
 30
0.0
 10
7.906008541583173
 20
40.1350594182509
 30
0.0
 10
14.2826020422037
 20
38.26077222389132
 30
0.0
 10
19.21200386449224
 20
36.00050697840862
 30
0.0
 10
22.34073531950959
 20
34.18984107489109
 30
0.0
 10
25.68014302797016
 20
31.83829231128593
 30
0.0
 10
29.93189092945444
 20
28.17065762233681
 30
0.0
 10
34.43486696152754
 20
22.64128094212527
 30
0.0
 10
38.1859944265596
 20
15.45934817799614
 30
0.0
 10
40.47682004254128
 20
7.98119222423573
 30
0.0
 10
41.19756240580028
 20
0.8984613734027211
 30
0.0
 10
40.782775636741
 20
-5.225998712919253
 30
0.0
 10
39.73919441385846
 20
-10.48926624787224
 30
0.0
 10
37.79774119923974
 20
-16.18229363912956
 30
0.0
 10
34.4685319828613
 20
-22.59823378603063
 30
0.0
 10
30.16052903731892
 20
-27.90503936925564
 30
0.0
 10
26.17128338035789
 20
-31.42063835532277
 30
0.0
 10
24.02954665283419
 20
-33.00350764895762
 30
0.0
 10
22.54030622567423
 20
-34.0099315142691
 30
0.0
 10
21.30432415155722
 20
-34.77857421474874
 30
0.0
 10
19.8598988323035
 20
-35.59885886207074
 30
0.0
 10
18.43176088029336
 20
-36.33621947047842
 30
0.0
 10
17.02772640858194
 20
-36.99525009050212
 30
0.0
 10
14.39663680208005
 20
-38.11554859097205
 30
0.0
 10
10.46390417783513
 20
-39.41179409819132
 30
0.0
 10
5.211523180007292
 20
-40.4242679021077
 30
0.0
 10
-0.8484171657917039
 20
-40.82253950643982
 30
0.0
 10
-7.899272951325191
 20
-40.13576132605103
 30
0.0
 10
-14.29638498465218
 20
-38.25757886789695
 30
0.0
 10
-19.25033745645404
 20
-35.98359304274287
 30
0.0
 10
-22.32258910878715
 20
-34.19761485286076
 30
0.0
 10
-25.6415432276275
 20
-31.86570118814045
 30
0.0
 10
-29.91710707702847
 20
-28.19889101198434
 30
0.0
 10
-34.4587872566355
 20
-22.61044570721126
 30
0.0
 10
-37.78685079231359
 20
-16.21088505404605
 30
0.0
 10
-39.73102565346945
 20
-10.51137635238963
 30
0.0
 10
-40.78457724364658
 20
-5.251027565203553
 30
0.0
 10
-41.02130310518086
 20
-1.733969551813607
 30
0.0
 10
-41.02087688509609
 20
0.0000000000000089
 30
0.0
  0
SPLINE
  5
75
330
1F
100
AcDbEntity
  8
0
  6
Continuous
 62
     7
370
    25
100
AcDbSpline
210
0.0
220
0.0
230
1.0
 70
     8
 71
     3
 72
     9
 73
     5
 74
     0
 42
0.000000001
 43
0.00000001
 40
0.0
 40
0.0
 40
0.0
 40
0.0
 40
0.5
 40
1.0
 40
1.0
 40
1.0
 40
1.0
 10
-45.00000000000009
 20
502.6921705793198
 30
0.0
 10
-29.99999999999997
 20
503.195031107184
 30
0.0
 10
0.0000000000002116
 20
503.700361088337
 30
0.0
 10
30.00000000000051
 20
503.1950311071836
 30
0.0
 10
45.00000000000063
 20
502.6921705793195
 30
0.0
  0
SPLINE
  5
76
330
1F
100
AcDbEntity
  8
0
  6
Continuous
 62
     7
370
    25
100
AcDbSpline
210
0.0
220
0.0
230
1.0
 70
     8
 71
     3
 72
    40
 73
    36
 74
     0
 42
0.000000001
 43
0.00000001
 40
0.0
 40
0.0
 40
0.0
 40
0.0
 40
0.0624999999999976
 40
0.0624999999999976
 40
0.1249999999999953
 40
0.1249999999999953
 40
0.1874999999999929
 40
0.1874999999999929
 40
0.2499999999999905
 40
0.2499999999999905
 40
0.2812499999999885
 40
0.2812499999999885
 40
0.3124999999999863
 40
0.3124999999999863
 40
0.3749999999999822
 40
0.3749999999999822
 40
0.4374999999999781
 40
0.4374999999999781
 40
0.4999999999999739
 40
0.4999999999999739
 40
0.5624999999999698
 40
0.5624999999999698
 40
0.6249999999999656
 40
0.6249999999999656
 40
0.7499999999999675
 40
0.7499999999999675
 40
0.8124999999999682
 40
0.8124999999999682
 40
0.8437499999999721
 40
0.8437499999999721
 40
0.8749999999999761
 40
0.8749999999999761
 40
0.937499999999988
 40
0.937499999999988
 40
1.0
 40
1.0
 40
1.0
 40
1.0
 10
45.00000000000063
 20
502.6921705793195
 30
0.0
 10
45.34331386657902
 20
502.6806613131749
 30
0.0
 10
45.68069745505331
 20
502.6812998970343
 30
0.0
 10
46.34407081453629
 20
502.7061318729077
 30
0.0
 10
46.67347715355292
 20
502.7308893138697
 30
0.0
 10
47.29357156029118
 20
502.802947588381
 30
0.0
 10
47.58659432926269
 20
502.8500606120433
 30
0.0
 10
48.13878969955697
 20
502.967172084983
 30
0.0
 10
48.39304404681047
 20
503.0363856665186
 30
0.0
 10
48.73422370363269
 20
503.1534366655179
 30
0.0
 10
48.84175104198989
 20
503.194789198332
 30
0.0
 10
49.04441085241265
 20
503.282280021794
 30
0.0
 10
49.13979885806653
 20
503.3286086642273
 30
0.0
 10
49.40187896502724
 20
503.4721278289553
 30
0.0
 10
49.54666717538757
 20
503.5745211363763
 30
0.0
 10
49.77908782255482
 20
503.7928327632437
 30
0.0
 10
49.86631814317627
 20
503.9093327198933
 30
0.0
 10
49.97795282458162
 20
504.1473487381551
 30
0.0
 10
50.00373256263594
 20
504.2698730308478
 30
0.0
 10
49.99540590170777
 20
504.5220879239517
 30
0.0
 10
49.96084463878569
 20
504.6504628354258
 30
0.0
 10
49.83472086592687
 20
504.9050677646106
 30
0.0
 10
49.74317557477296
 20
505.0322676024525
 30
0.0
 10
49.37929841926977
 20
505.4128794457747
 30
0.0
 10
49.03242671073122
 20
505.6525529526247
 30
0.0
 10
48.35105249038441
 20
505.9796778474681
 30
0.0
 10
48.10364626722711
 20
506.0797737569477
 30
0.0
 10
47.70196889494871
 20
506.2157892034167
 30
0.0
 10
47.56294622821022
 20
506.258757400899
 30
0.0
 10
47.27414846335561
 20
506.3396227572664
 30
0.0
 10
47.12335815451026
 20
506.3777378997956
 30
0.0
 10
46.66201079484684
 20
506.4818781707245
 30
0.0
 10
46.3438797143959
 20
506.5377434266788
 30
0.0
 10
45.68615708205078
 20
506.6213925606964
 30
0.0
 10
45.34360986103875
 20
506.649154627414
 30
0.0
 10
45.00000000000048
 20
506.6606419024217
 30
0.0
  0
SPLINE
  5
77
330
1F
100
AcDbEntity
  8
0
  6
Continuous
 62
     7
370
    25
100
AcDbSpline
210
0.0
220
0.0
230
1.0
 70
     8
 71
     3
 72
     9
 73
     5
 74
     0
 42
0.000000001
 43
0.00000001
 40
0.0
 40
0.0
 40
0.0
 40
0.0
 40
0.5
 40
1.0
 40
1.0
 40
1.0
 40
1.0
 10
45.00000000000068
 20
506.6606419024216
 30
0.0
 10
30.00000000000064
 20
507.1621092485361
 30
0.0
 10
0.0000000000004823
 20
507.6660452383385
 30
0.0
 10
-29.99999999999954
 20
507.1621092485369
 30
0.0
 10
-44.99999999999959
 20
506.6606419024222
 30
0.0
  0
SPLINE
  5
78
330
1F
100
AcDbEntity
  8
0
  6
Continuous
 62
     7
370
    25
100
AcDbSpline
210
0.0
220
0.0
230
1.0
 70
     8
 71
     3
 72
    40
 73
    36
 74
     0
 42
0.000000001
 43
0.00000001
 40
0.0
 40
0.0
 40
0.0
 40
0.0
 40
0.0624999999999989
 40
0.0624999999999989
 40
0.1249999999999978
 40
0.1249999999999978
 40
0.1874999999999966
 40
0.1874999999999966
 40
0.2499999999999955
 40
0.2499999999999955
 40
0.3124999999999944
 40
0.3124999999999944
 40
0.3749999999999932
 40
0.3749999999999932
 40
0.4374999999999921
 40
0.4374999999999921
 40
0.499999999999991
 40
0.499999999999991
 40
0.5624999999999899
 40
0.5624999999999899
 40
0.6249999999999888
 40
0.6249999999999888
 40
0.6874999999999877
 40
0.6874999999999877
 40
0.7499999999999865
 40
0.7499999999999865
 40
0.7812499999999859
 40
0.7812499999999859
 40
0.8124999999999853
 40
0.8124999999999853
 40
0.8749999999999902
 40
0.8749999999999902
 40
0.9374999999999951
 40
0.9374999999999951
 40
1.0
 40
1.0
 40
1.0
 40
1.0
 10
-44.99999999999959
 20
506.6606419024222
 30
0.0
 10
-45.34342205416618
 20
506.6491609060155
 30
0.0
 10
-45.67958535545138
 20
506.622034983637
 30
0.0
 10
-46.33830652633314
 20
506.5386420604318
 30
0.0
 10
-46.6640842277665
 20
506.4814196970291
 30
0.0
 10
-47.27561887810597
 20
506.3433584048366
 30
0.0
 10
-47.56385556433799
 20
506.2625280518191
 30
0.0
 10
-48.10647780788068
 20
506.0788437706923
 30
0.0
 10
-48.35594762153455
 20
505.9774438744444
 30
0.0
 10
-48.80467041988129
 20
505.7617805216241
 30
0.0
 10
-49.00714862024444
 20
505.645824848347
 30
0.0
 10
-49.35698781984112
 20
505.4059867738282
 30
0.0
 10
-49.50386025010418
 20
505.2829163154999
 30
0.0
 10
-49.74371585386147
 20
505.0313699507659
 30
0.0
 10
-49.83687432649175
 20
504.9018174538917
 30
0.0
 10
-49.96228386535019
 20
504.6464288834832
 30
0.0
 10
-49.9957295287126
 20
504.5198252360843
 30
0.0
 10
-50.00351028135699
 20
504.2689702104058
 30
0.0
 10
-49.97696842266078
 20
504.1441196821178
 30
0.0
 10
-49.86447387553718
 20
503.9065596881105
 30
0.0
 10
-49.77890103808116
 20
503.7926227654847
 30
0.0
 10
-49.54649832608302
 20
503.5743971419129
 30
0.0
 10
-49.39854550507141
 20
503.4701083522304
 30
0.0
 10
-49.05134505101148
 20
503.280366489827
 30
0.0
 10
-48.85102926258217
 20
503.1936024617266
 30
0.0
 10
-48.50784819010797
 20
503.075726660274
 30
0.0
 10
-48.3858688593765
 20
503.0384327407088
 30
0.0
 10
-48.13309544741663
 20
502.9697609912007
 30
0.0
 10
-48.00166341260615
 20
502.938135971009
 30
0.0
 10
-47.59230189119078
 20
502.8511801638816
 30
0.0
 10
-47.29801589203583
 20
502.8035123710413
 30
0.0
 10
-46.67239684611808
 20
502.7307157079049
 30
0.0
 10
-46.35010511466421
 20
502.7065089722216
 30
0.0
 10
-45.6869463717758
 20
502.6813853687063
 30
0.0
 10
-45.34345234057225
 20
502.6806566709682
 30
0.0
 10
-45.00000000000008
 20
502.6921705793198
 30
0.0
  0
SPLINE
  5
79
330
1F
100
AcDbEntity
  8
0
  6
Continuous
 62
     7
370
    25
100
AcDbSpline
210
0.0
220
0.0
230
1.0
 70
    11
 71
     3
 72
    43
 73
    39
 74
     0
 42
0.000000001
 43
0.00000001
 40
0.0
 40
0.0
 40
0.0
 40
0.0
 40
0.0281710390110635
 40
0.0586221378955402
 40
0.0909851679216602
 40
0.1250373931918609
 40
0.1584903578056782
 40
0.1879827707983234
 40
0.2132524045921292
 40
0.2339770876237643
 40
0.2500461864943198
 40
0.2661333754706521
 40
0.2868565858132317
 40
0.3121049370658858
 40
0.3415569352915201
 40
0.3749526605823655
 40
0.4089302190305912
 40
0.441253225395025
 40
0.4717030807140959
 40
0.4999121135538765
 40
0.5280806553765851
 40
0.5585466796050456
 40
0.5909415850137859
 40
0.6250404311038191
 40
0.6585042143537747
 40
0.6880096430355113
 40
0.7132941003717561
 40
0.7340352486770934
 40
0.7501224952463141
 40
0.7661604385499707
 40
0.7868709378914175
 40
0.812142747028487
 40
0.8416524692476124
 40
0.8751397740471666
 40
0.9091049651629685
 40
0.9414090287380941
 40
0.9718294379849342
 40
1.0
 40
1.0
 40
1.0
 40
1.0
 10
-26.00000000000001
 20
0.0000000000000087
 30
0.0
 10
-25.99999993918831
 20
-1.533457742982508
 30
0.0
 10
-25.69932492697118
 20
-4.724484092776675
 30
0.0
 10
-24.34999130731224
 20
-9.512308542408785
 30
0.0
 10
-21.9816438338411
 20
-14.25549660891585
 30
0.0
 10
-18.56238881162214
 20
-18.53111325309803
 30
0.0
 10
-14.41452266213029
 20
-21.85597764198333
 30
0.0
 10
-10.12590868777839
 20
-24.06199429494261
 30
0.0
 10
-6.202649413048274
 20
-25.31977039067225
 30
0.0
 10
-2.867771710983142
 20
-25.89339781440235
 30
0.0
 10
0.0085753579668517
 20
-26.04699131723073
 30
0.0
 10
2.88475042707666
 20
-25.89147071564776
 30
0.0
 10
6.21897771820492
 20
-25.31561892768914
 30
0.0
 10
10.13818470809689
 20
-24.0565835562253
 30
0.0
 10
14.4200276173466
 20
-21.85176441492021
 30
0.0
 10
18.55999136926498
 20
-18.53236853231144
 30
0.0
 10
21.97457404027035
 20
-14.26534439527673
 30
0.0
 10
24.34313544449582
 20
-9.529431589179607
 30
0.0
 10
25.69600888458969
 20
-4.742809020839204
 30
0.0
 10
26.14466708503885
 20
-0.0167058177597562
 30
0.0
 10
25.70199790120972
 20
4.710780519425462
 30
0.0
 10
24.35437110053024
 20
9.501640071325518
 30
0.0
 10
21.9854771354039
 20
14.25033274073276
 30
0.0
 10
18.56365994901441
 20
18.53034028784463
 30
0.0
 10
14.41257645032706
 20
21.8573950277166
 30
0.0
 10
10.12178315092603
 20
24.0638458842324
 30
0.0
 10
6.195944154923123
 20
25.32155555232458
 30
0.0
 10
2.858217508449756
 20
25.89461776037798
 30
0.0
 10
-0.0174187311220292
 20
26.04689547724825
 30
0.0
 10
-2.891119698545996
 20
25.89053183661535
 30
0.0
 10
-6.223194909112615
 20
25.31461808422301
 30
0.0
 10
-10.1457896636789
 20
24.05381403441882
 30
0.0
 10
-14.43522254312625
 20
21.84287716756955
 30
0.0
 10
-18.57819476888865
 20
18.51480506761749
 30
0.0
 10
-21.9897355404191
 20
14.24121124961495
 30
0.0
 10
-24.35196678470581
 20
9.505919851952056
 30
0.0
 10
-25.69949024467513
 20
4.72276469466486
 30
0.0
 10
-26.00000006081067
 20
1.53343177826018
 30
0.0
 10
-26.00000000000001
 20
0.0000000000000047
 30
0.0
  0
LINE
  5
7C
330
1F
100
AcDbEntity
  8
0
  6
Continuous
 62
    60
370
    25
100
AcDbLine
 10
-45.0
 20
506.6606419024
 30
0.0
 11
-45.0
 21
502.6921705793
 31
0.0
  0
LINE
  5
7D
330
1F
100
AcDbEntity
  8
0
  6
Continuous
 62
    60
370
    25
100
AcDbLine
 10
45.0
 20
506.6606419024
 30
0.0
 11
45.0
 21
502.6921705793
 31
0.0
  0
SPLINE
  5
7E
330
1B
100
AcDbEntity
 67
     1
  8
0
  6
Continuous
 62
     7
370
    25
100
AcDbSpline
210
0.0
220
0.0
230
1.0
 70
     8
 71
     3
 72
    51
 73
    47
 74
     0
 42
0.000000001
 43
0.00000001
 40
0.0
 40
0.0
 40
0.0
 40
0.0
 40
0.0303168732688979
 40
0.0592933080585491
 40
0.0869889044410128
 40
0.1134595876365861
 40
0.1387576252897532
 40
0.1629316613330294
 40
0.1860267669828804
 40
0.2102345957228557
 40
0.2332377071622576
 40
0.255081815581576
 40
0.2758079877570484
 40
0.2954528598768922
 40
0.3189419776764054
 40
0.3407895963323472
 40
0.3610440382041865
 40
0.3797451405850595
 40
0.3969252076449548
 40
0.4123428703621526
 40
0.4263371872416664
 40
0.4396667867087956
 40
0.454292434575092
 40
0.4706218592625211
 40
0.4884059746973575
 40
0.5076535914406748
 40
0.5283796276304821
 40
0.5506063495359259
 40
0.5691431029714803
 40
0.5886444651094886
 40
0.6091338559827343
 40
0.6306392592520981
 40
0.6531935896574175
 40
0.6746399338769914
 40
0.697017364633182
 40
0.720362573790912
 40
0.7447164026200556
 40
0.7701239695025069
 40
0.7966347706147531
 40
0.8243027525356832
 40
0.8507316176717349
 40
0.8782302434294226
 40
0.906850153645701
 40
0.9366460312397583
 40
0.9676756842390363
 40
1.0
 40
1.0
 40
1.0
 40
1.0
 10
469.0
 20
-484.9999999999999
 30
0.0
 10
475.9163918067628
 20
-483.281186879476
 30
0.0
 10
489.443372192063
 20
-479.9195567091621
 30
0.0
 10
509.1203923991808
 20
-474.3456840522406
 30
0.0
 10
527.7924113237473
 20
-468.5680491385438
 30
0.0
 10
545.4878397925962
 20
-462.5794009393662
 30
0.0
 10
562.2469323511326
 20
-456.4255281915401
 30
0.0
 10
578.1055343572813
 20
-450.1375725207981
 30
0.0
 10
593.5640797271193
 20
-443.5508706447995
 30
0.0
 10
608.5947550684235
 20
-436.6757344770505
 30
0.0
 10
623.16977854278
 20
-429.5260354792435
 30
0.0
 10
636.825044352201
 20
-422.3723511431579
 30
0.0
 10
649.6009647357681
 20
-415.2521014392985
 30
0.0
 10
662.5265062928044
 20
-407.6160874517823
 30
0.0
 10
675.4613225021492
 20
-399.4869341548463
 30
0.0
 10
688.2685749765194
 20
-390.8988247445016
 30
0.0
 10
699.9127167576104
 20
-382.6077452643353
 30
0.0
 10
710.4569505509734
 20
-374.6720437389029
 30
0.0
 10
719.9107631455935
 20
-367.184787290985
 30
0.0
 10
728.340770286503
 20
-360.1918626146241
 30
0.0
 10
735.9401272349525
 20
-353.6188807026097
 30
0.0
 10
743.2728804316625
 20
-347.0251666441212
 30
0.0
 10
750.8744027274456
 20
-339.9122300948534
 30
0.0
 10
759.0660527236128
 20
-331.9010965168579
 30
0.0
 10
767.8181354649831
 20
-322.9140278808076
 30
0.0
 10
777.0301934876949
 20
-312.9384709327016
 30
0.0
 10
786.6394175844383
 20
-301.9158489453937
 30
0.0
 10
795.8003405497997
 20
-290.7325853532012
 30
0.0
 10
804.4572329951891
 20
-279.5174958596028
 30
0.0
 10
812.5695856278826
 20
-268.4039806888339
 30
0.0
 10
820.7640647786842
 20
-256.4931837853427
 30
0.0
 10
828.9997291746907
 20
-243.7470844029654
 30
0.0
 10
836.9668140965953
 20
-230.5675806730266
 30
0.0
 10
844.6446665323073
 20
-216.9819714195251
 30
0.0
 10
852.0173700830975
 20
-203.017612100393
 30
0.0
 10
859.2808430617631
 20
-188.2304831740014
 30
0.0
 10
866.3977174612497
 20
-172.5860024537765
 30
0.0
 10
873.329354148795
 20
-156.048458360322
 30
0.0
 10
880.0358771949935
 20
-138.5810156715058
 30
0.0
 10
886.2857833244955
 20
-120.6904296185141
 30
0.0
 10
892.0797391937341
 20
-102.4038161004859
 30
0.0
 10
897.4197693084576
 20
-83.74667714149614
 30
0.0
 10
902.4351102930779
 20
-64.18116216425099
 30
0.0
 10
907.0778700761732
 20
-43.67268364281118
 30
0.0
 10
911.36182502725
 20
-22.19560830246381
 30
0.0
 10
913.7708651215755
 20
-7.498648777680527
 30
0.0
 10
914.9999999999995
 20
0.0
 30
0.0
  0
SPLINE
  5
7F
330
1B
100
AcDbEntity
 67
     1
  8
0
  6
Continuous
 62
     7
370
    25
100
AcDbSpline
210
0.0
220
0.0
230
1.0
 70
     8
 71
     3
 72
    51
 73
    47
 74
     0
 42
0.000000001
 43
0.00000001
 40
0.0
 40
0.0
 40
0.0
 40
0.0
 40
0.0303662264782993
 40
0.0593906116511707
 40
0.0871325836090727
 40
0.1136479439307391
 40
0.1389888838438406
 40
0.1632040164716892
 40
0.1863384257222301
 40
0.2105874841019427
 40
0.2336298453147001
 40
0.2555113979503858
 40
0.2762734273000363
 40
0.2959528259875718
 40
0.3194844213243898
 40
0.341373479432849
 40
0.3616690162796587
 40
0.3804115860958059
 40
0.3976342143996949
 40
0.4130954289615205
 40
0.4271356824793794
 40
0.4404581184959201
 40
0.4550579765340078
 40
0.4713644302166068
 40
0.4891280557647024
 40
0.5083567524952739
 40
0.5290644684096003
 40
0.5512724555247458
 40
0.5697935211782765
 40
0.5892777905038863
 40
0.6097481816641998
 40
0.6312321900094511
 40
0.6537622640178241
 40
0.675183707779532
 40
0.6975332143004894
 40
0.7208472092727483
 40
0.7451663057049176
 40
0.7705354365161771
 40
0.7970039596075088
 40
0.8246257342396842
 40
0.8510087634686626
 40
0.8784582390297981
 40
0.9070257413029339
 40
0.9367660509299381
 40
0.9677371148358225
 40
0.9999999999999999
 40
0.9999999999999999
 40
0.9999999999999999
 40
0.9999999999999999
 10
-914.9999999999999
 20
0.0
 30
0.0
 10
-913.8485935079511
 20
-7.044889065440707
 30
0.0
 10
-911.5966595750082
 20
-20.82336334870966
 30
0.0
 10
-907.6434577577536
 20
-40.92326149662287
 30
0.0
 10
-903.4080985180533
 20
-60.0377713356087
 30
0.0
 10
-898.8855525380727
 20
-78.19582704361291
 30
0.0
 10
-894.1242696583196
 20
-95.43379531528662
 30
0.0
 10
-889.1578489819061
 20
-111.7848582389432
 30
0.0
 10
-883.8628918960974
 20
-127.7622062492681
 30
0.0
 10
-878.2472167477753
 20
-143.3373042164547
 30
0.0
 10
-872.3221301594135
 20
-158.4813782190855
 30
0.0
 10
-866.318678161078
 20
-172.7086731263906
 30
0.0
 10
-860.2770572699159
 20
-186.056429101992
 30
0.0
 10
-853.7344691476987
 20
-199.597839446137
 30
0.0
 10
-846.7015857193525
 20
-213.1912989421438
 30
0.0
 10
-839.200670221335
 20
-226.697757241166
 30
0.0
 10
-831.8988681506922
 20
-239.0203264322566
 30
0.0
 10
-824.8589499897698
 20
-250.2173289978381
 30
0.0
 10
-818.17395672244
 20
-260.2904949056683
 30
0.0
 10
-811.8946929516624
 20
-269.3025877994742
 30
0.0
 10
-805.9705607340292
 20
-277.4418918474976
 30
0.0
 10
-800.0131025779903
 20
-285.3041536739007
 30
0.0
 10
-793.5712772039257
 20
-293.4654174382585
 30
0.0
 10
-786.2867532102912
 20
-302.2883520066463
 30
0.0
 10
-778.0765632090903
 20
-311.7536193085155
 30
0.0
 10
-768.9199668600387
 20
-321.7617159168703
 30
0.0
 10
-758.7535988136073
 20
-332.2543608690391
 30
0.0
 10
-748.3891731649879
 20
-342.3145928915417
 30
0.0
 10
-737.9504550279008
 20
-351.8754643591759
 30
0.0
 10
-727.5670975029068
 20
-360.8849969875159
 30
0.0
 10
-716.39692746337
 20
-370.0421535552559
 30
0.0
 10
-704.3987536450275
 20
-379.3088859465229
 30
0.0
 10
-691.9467212215043
 20
-388.3427406323458
 30
0.0
 10
-679.0663764208324
 20
-397.1205628978491
 30
0.0
 10
-665.7837197131333
 20
-405.6239817217358
 30
0.0
 10
-651.6731825673132
 20
-414.0847170938036
 30
0.0
 10
-636.6972668877495
 20
-422.4680096133218
 30
0.0
 10
-620.8172426296026
 20
-430.7379101068809
 30
0.0
 10
-603.9931567405672
 20
-438.8573136272313
 30
0.0
 10
-586.7099911770615
 20
-446.5535557522691
 30
0.0
 10
-568.9948600792824
 20
-453.8249521208296
 30
0.0
 10
-550.8733502955065
 20
-460.6713587373125
 30
0.0
 10
-531.8209576077677
 20
-467.2653079270904
 30
0.0
 10
-511.7992867697287
 20
-473.5614750403726
 30
0.0
 10
-490.783978466417
 20
-479.5756421849057
 30
0.0
 10
-476.3595528199084
 20
-483.1674216252181
 30
0.0
 10
-469.0000000000001
 20
-485.0000000000001
 30
0.0
  0
SPLINE
  5
82
330
1B
100
AcDbEntity
 67
     1
  8
0
  6
Continuous
 62
     7
370
    25
100
AcDbSpline
210
0.0
220
0.0
230
1.0
 70
    24
 71
     3
 72
    21
 73
    17
 74
     0
 42
0.000000001
 43
0.00000001
 40
0.4999999999999979
 40
0.4999999999999979
 40
0.4999999999999979
 40
0.4999999999999979
 40
0.5416666666666667
 40
0.5833333333333333
 40
0.625
 40
0.6666666666666667
 40
0.7083333333333333
 40
0.7499999999991444
 40
0.7916666666666666
 40
0.8333333333333334
 40
0.875
 40
0.9166666666666666
 40
0.9583333333333334
 40
0.9916666666666667
 40
0.99375
 40
1.0
 40
1.0
 40
1.0
 40
1.0
 10
914.9999999999995
 20
0.0
 30
0.0
 10
914.9999999999991
 20
0.0
 30
0.0
 10
893.5179937147624
 20
0.0
 30
0.0
 10
802.0902471957966
 20
0.0
 30
0.0
 10
654.5977409445815
 20
0.0
 30
0.0
 10
461.5350177400209
 20
0.0
 30
0.0
 10
240.8089121167193
 20
0.0
 30
0.0
 10
-0.000000000000137
 20
0.0
 30
0.0
 10
-240.8089121167197
 20
0.0
 30
0.0
 10
-461.5350177400215
 20
0.0
 30
0.0
 10
-654.597740944582
 20
0.0
 30
0.0
 10
-802.0902471957969
 20
0.0
 30
0.0
 10
-887.4228106135001
 20
0.0
 30
0.0
 10
-910.9446252146282
 20
0.0
 30
0.0
 10
-914.6777699057214
 20
0.0
 30
0.0
 10
-915.0
 20
0.0
 30
0.0
 10
-914.9999999999999
 20
0.0
 30
0.0
  0
LINE
  5
85
330
1B
100
AcDbEntity
 67
     1
  8
0
  6
Continuous
 62
     7
370
    25
100
AcDbLine
 10
469.0
 20
-520.0
 30
0.0
 11
469.0
 21
-485.0
 31
0.0
  0
LINE
  5
86
330
1B
100
AcDbEntity
 67
     1
  8
0
  6
Continuous
 62
     7
370
    25
100
AcDbLine
 10
-469.0
 20
-485.0
 30
0.0
 11
-469.0
 21
-520.0
 31
0.0
  0
LINE
  5
87
330
1B
100
AcDbEntity
 67
     1
  8
0
  6
Continuous
 62
     7
370
    25
100
AcDbLine
 10
469.0
 20
-485.0
 30
0.0
 11
-469.0
 21
-485.0
 31
0.0
  0
LINE
  5
88
330
1B
100
AcDbEntity
 67
     1
  8
0
  6
Continuous
 62
     7
370
    25
100
AcDbLine
 10
469.0
 20
-520.0
 30
0.0
 11
-469.0
 21
-520.0
 31
0.0
  0
VIEWPORT
  5
120
330
1B
100
AcDbEntity
 67
     1
  8
0
100
AcDbViewport
 10
0.0
 20
0.0
 30
0.0
 40
205.6
 41
156.0
 68
     1
 69
     1
 12
0.0
 22
0.0
 13
0.0
 23
0.0
 14
10.0
 24
10.0
 15
10.0
 25
10.0
 16
0.0
 26
0.0
 36
1.0
 17
0.0
 27
0.0
 37
0.0
 42
50.0
 43
0.0
 44
0.0
 45
1416.2918287938
 50
0.0
 51
0.0
 72
   100
 90
   557152
  1

281
     0
 71
     1
 74
     0
110
0.0
120
0.0
130
0.0
111
1.0
121
0.0
131
0.0
112
0.0
122
1.0
132
0.0
 79
     0
146
0.0
  0
ENDSEC
  0
SECTION
  2
OBJECTS
  0
DICTIONARY
  5
C
330
0
100
AcDbDictionary
281
     1
  3
ACAD_GROUP
350
D
  3
ACAD_LAYOUT
350
1A
  3
ACAD_MLINESTYLE
350
17
  3
ACAD_PLOTSETTINGS
350
19
  3
ACAD_PLOTSTYLENAME
350
E
  3
ACAD_SCALELIST
350
47
  0
DICTIONARY
  5
D
102
{ACAD_REACTORS
330
C
102
}
330
C
100
AcDbDictionary
281
     1
  0
DICTIONARY
  5
1A
102
{ACAD_REACTORS
330
C
102
}
330
C
100
AcDbDictionary
281
     1
  3
_Dimetrisch
350
10C
  3
_Isometrisch
350
DE
  3
_Links
350
26
  3
_Normal auf
350
99
  3
_Rechts
350
B6
  3
_Rückseite
350
A8
  3
_Trimetrisch
350
FB
  3
_Unten
350
C3
  3
_Vorderseite
350
1E
  3
Model
350
22
  0
DICTIONARY
  5
17
102
{ACAD_REACTORS
330
C
102
}
330
C
100
AcDbDictionary
281
     1
  3
Standard
350
18
  0
DICTIONARY
  5
19
102
{ACAD_REACTORS
330
C
102
}
330
C
100
AcDbDictionary
281
     1
  0
ACDBDICTIONARYWDFLT
  5
E
102
{ACAD_REACTORS
330
C
102
}
330
C
100
AcDbDictionary
281
     1
  3
Normal
350
F
100
AcDbDictionaryWithDefault
340
F
  0
DICTIONARY
  5
47
102
{ACAD_REACTORS
330
C
102
}
330
C
100
AcDbDictionary
281
     1
  3
A0
350
48
  3
A1
350
49
  3
A2
350
4A
  3
A3
350
4B
  3
A4
350
4C
  3
A5
350
4D
  3
A6
350
4E
  3
A7
350
4F
  3
A8
350
50
  3
A9
350
51
  3
B0
350
52
  3
B1
350
53
  3
B2
350
54
  3
B3
350
55
  3
B4
350
56
  3
B5
350
57
  3
B6
350
58
  3
B7
350
59
  3
B8
350
5A
  3
B9
350
5B
  3
C0
350
5C
  3
C1
350
5D
  3
C2
350
5E
  3
C3
350
5F
  3
C4
350
60
  3
C5
350
61
  3
C6
350
62
  3
C7
350
63
  3
C8
350
64
  3
C9
350
65
  3
D0
350
66
  3
D1
350
67
  3
D2
350
68
  0
LAYOUT
  5
10C
102
{ACAD_REACTORS
330
1A
102
}
330
1A
100
AcDbPlotSettings
  1

  2
none_device
  4
ISO_A4_(210.00_x_297.00_MM)
  6

 40
7.5
 41
20.0
 42
7.5
 43
20.0
 44
210.0
 45
297.0
 46
0.0
 47
0.0
 48
0.0
 49
0.0
140
0.0
141
0.0
142
1.0
143
7.1206225681
 70
   688
 72
     1
 73
     1
 74
     1
  7

 75
     0
147
0.1404371585
148
915.0
149
520.0
100
AcDbLayout
  1
_Dimetrisch
 70
     1
 71
     9
 10
0.0
 20
0.0
 11
0.0
 21
0.0
 12
0.0
 22
0.0
 32
0.0
 14
0.0
 24
0.0
 34
0.0
 15
0.0
 25
0.0
 35
0.0
146
0.0
 13
0.0
 23
0.0
 33
0.0
 16
1.0
 26
0.0
 36
0.0
 17
0.0
 27
1.0
 37
0.0
 76
     0
330
10B
331
130
  0
LAYOUT
  5
DE
102
{ACAD_REACTORS
330
1A
102
}
330
1A
100
AcDbPlotSettings
  1

  2
none_device
  4
ISO_A4_(210.00_x_297.00_MM)
  6

 40
7.5
 41
20.0
 42
7.5
 43
20.0
 44
210.0
 45
297.0
 46
0.0
 47
0.0
 48
0.0
 49
0.0
140
0.0
141
0.0
142
1.0
143
7.1206225681
 70
   688
 72
     1
 73
     1
 74
     1
  7

 75
     0
147
0.1404371585
148
915.0
149
520.0
100
AcDbLayout
  1
_Isometrisch
 70
     1
 71
     7
 10
0.0
 20
0.0
 11
0.0
 21
0.0
 12
0.0
 22
0.0
 32
0.0
 14
0.0
 24
0.0
 34
0.0
 15
0.0
 25
0.0
 35
0.0
146
0.0
 13
0.0
 23
0.0
 33
0.0
 16
1.0
 26
0.0
 36
0.0
 17
0.0
 27
1.0
 37
0.0
 76
     0
330
DD
331
12C
  0
LAYOUT
  5
26
102
{ACAD_REACTORS
330
1A
102
}
330
1A
100
AcDbPlotSettings
  1

  2
none_device
  4
ISO_A4_(210.00_x_297.00_MM)
  6

 40
7.5
 41
20.0
 42
7.5
 43
20.0
 44
210.0
 45
297.0
 46
0.0
 47
0.0
 48
0.0
 49
0.0
140
0.0
141
0.0
142
1.0
143
7.1206225681
 70
   688
 72
     1
 73
     1
 74
     1
  7

 75
     0
147
0.1404371585
148
915.0
149
520.0
100
AcDbLayout
  1
_Links
 70
     1
 71
     2
 10
0.0
 20
0.0
 11
0.0
 21
0.0
 12
0.0
 22
0.0
 32
0.0
 14
0.0
 24
0.0
 34
0.0
 15
0.0
 25
0.0
 35
0.0
146
0.0
 13
0.0
 23
0.0
 33
0.0
 16
1.0
 26
0.0
 36
0.0
 17
0.0
 27
1.0
 37
0.0
 76
     0
330
23
331
122
  0
LAYOUT
  5
99
102
{ACAD_REACTORS
330
1A
102
}
330
1A
100
AcDbPlotSettings
  1

  2
none_device
  4
ISO_A4_(210.00_x_297.00_MM)
  6

 40
7.5
 41
20.0
 42
7.5
 43
20.0
 44
210.0
 45
297.0
 46
0.0
 47
0.0
 48
0.0
 49
0.0
140
0.0
141
0.0
142
1.0
143
7.1206225681
 70
   688
 72
     1
 73
     1
 74
     1
  7

 75
     0
147
0.1404371585
148
915.0
149
520.0
100
AcDbLayout
  1
_Normal auf
 70
     1
 71
     3
 10
0.0
 20
0.0
 11
0.0
 21
0.0
 12
0.0
 22
0.0
 32
0.0
 14
0.0
 24
0.0
 34
0.0
 15
0.0
 25
0.0
 35
0.0
146
0.0
 13
0.0
 23
0.0
 33
0.0
 16
1.0
 26
0.0
 36
0.0
 17
0.0
 27
1.0
 37
0.0
 76
     0
330
98
331
124
  0
LAYOUT
  5
B6
102
{ACAD_REACTORS
330
1A
102
}
330
1A
100
AcDbPlotSettings
  1

  2
none_device
  4
ISO_A4_(210.00_x_297.00_MM)
  6

 40
7.5
 41
20.0
 42
7.5
 43
20.0
 44
210.0
 45
297.0
 46
0.0
 47
0.0
 48
0.0
 49
0.0
140
0.0
141
0.0
142
1.0
143
7.1206225681
 70
   688
 72
     1
 73
     1
 74
     1
  7

 75
     0
147
0.1404371585
148
915.0
149
520.0
100
AcDbLayout
  1
_Rechts
 70
     1
 71
     5
 10
0.0
 20
0.0
 11
0.0
 21
0.0
 12
0.0
 22
0.0
 32
0.0
 14
0.0
 24
0.0
 34
0.0
 15
0.0
 25
0.0
 35
0.0
146
0.0
 13
0.0
 23
0.0
 33
0.0
 16
1.0
 26
0.0
 36
0.0
 17
0.0
 27
1.0
 37
0.0
 76
     0
330
B5
331
128
  0
LAYOUT
  5
A8
102
{ACAD_REACTORS
330
1A
102
}
330
1A
100
AcDbPlotSettings
  1

  2
none_device
  4
ISO_A4_(210.00_x_297.00_MM)
  6

 40
7.5
 41
20.0
 42
7.5
 43
20.0
 44
210.0
 45
297.0
 46
0.0
 47
0.0
 48
0.0
 49
0.0
140
0.0
141
0.0
142
1.0
143
7.1206225681
 70
   688
 72
     1
 73
     1
 74
     1
  7

 75
     0
147
0.1404371585
148
915.0
149
520.0
100
AcDbLayout
  1
_Rückseite
 70
     1
 71
     4
 10
0.0
 20
0.0
 11
0.0
 21
0.0
 12
0.0
 22
0.0
 32
0.0
 14
0.0
 24
0.0
 34
0.0
 15
0.0
 25
0.0
 35
0.0
146
0.0
 13
0.0
 23
0.0
 33
0.0
 16
1.0
 26
0.0
 36
0.0
 17
0.0
 27
1.0
 37
0.0
 76
     0
330
A7
331
126
  0
LAYOUT
  5
FB
102
{ACAD_REACTORS
330
1A
102
}
330
1A
100
AcDbPlotSettings
  1

  2
none_device
  4
ISO_A4_(210.00_x_297.00_MM)
  6

 40
7.5
 41
20.0
 42
7.5
 43
20.0
 44
210.0
 45
297.0
 46
0.0
 47
0.0
 48
0.0
 49
0.0
140
0.0
141
0.0
142
1.0
143
7.1206225681
 70
   688
 72
     1
 73
     1
 74
     1
  7

 75
     0
147
0.1404371585
148
915.0
149
520.0
100
AcDbLayout
  1
_Trimetrisch
 70
     1
 71
     8
 10
0.0
 20
0.0
 11
0.0
 21
0.0
 12
0.0
 22
0.0
 32
0.0
 14
0.0
 24
0.0
 34
0.0
 15
0.0
 25
0.0
 35
0.0
146
0.0
 13
0.0
 23
0.0
 33
0.0
 16
1.0
 26
0.0
 36
0.0
 17
0.0
 27
1.0
 37
0.0
 76
     0
330
FA
331
12E
  0
LAYOUT
  5
C3
102
{ACAD_REACTORS
330
1A
102
}
330
1A
100
AcDbPlotSettings
  1

  2
none_device
  4
ISO_A4_(210.00_x_297.00_MM)
  6

 40
7.5
 41
20.0
 42
7.5
 43
20.0
 44
210.0
 45
297.0
 46
0.0
 47
0.0
 48
0.0
 49
0.0
140
0.0
141
0.0
142
1.0
143
7.1206225681
 70
   688
 72
     1
 73
     1
 74
     1
  7

 75
     0
147
0.1404371585
148
915.0
149
520.0
100
AcDbLayout
  1
_Unten
 70
     1
 71
     6
 10
0.0
 20
0.0
 11
0.0
 21
0.0
 12
0.0
 22
0.0
 32
0.0
 14
0.0
 24
0.0
 34
0.0
 15
0.0
 25
0.0
 35
0.0
146
0.0
 13
0.0
 23
0.0
 33
0.0
 16
1.0
 26
0.0
 36
0.0
 17
0.0
 27
1.0
 37
0.0
 76
     0
330
C2
331
12A
  0
LAYOUT
  5
1E
102
{ACAD_REACTORS
330
1A
102
}
330
1A
100
AcDbPlotSettings
  1

  2
none_device
  4
ISO_A4_(210.00_x_297.00_MM)
  6

 40
7.5
 41
20.0
 42
7.5
 43
20.0
 44
210.0
 45
297.0
 46
0.0
 47
0.0
 48
0.0
 49
0.0
140
0.0
141
0.0
142
1.0
143
7.1206225681
 70
   688
 72
     1
 73
     1
 74
     1
  7

 75
     0
147
0.1404371585
148
915.0
149
520.0
100
AcDbLayout
  1
_Vorderseite
 70
     1
 71
     1
 10
-1057.4124513619
 20
-573.4046692607
 11
1057.4124513619
 21
921.9260700389
 12
0.0
 22
0.0
 32
0.0
 14
-915.0
 24
-520.0
 34
0.0
 15
915.0
 25
0.0
 35
0.0
146
0.0
 13
0.0
 23
0.0
 33
0.0
 16
1.0
 26
0.0
 36
0.0
 17
0.0
 27
1.0
 37
0.0
 76
     0
330
1B
331
120
  0
LAYOUT
  5
22
102
{ACAD_REACTORS
330
1A
102
}
330
1A
100
AcDbPlotSettings
  1

  2
none_device
  4
ANSI_A_(11.00_x_8.50_Inches)
  6

 40
6.35
 41
19.05
 42
6.35000508
 43
19.05000254
 44
279.4
 45
215.9
 46
133.34999746
 47
88.89999873
 48
0.0
 49
0.0
140
0.0
141
0.0
142
0.0059508197
143
1.0
 70
  1696
 72
     0
 73
     0
 74
     0
  7

 75
     0
147
0.0179189148
148
-1300.4909072572
149
0.0
100
AcDbLayout
  1
Model
 70
     1
 71
     0
 10
0.0
 20
0.0
 11
420.0
 21
297.0
 12
0.0
 22
0.0
 32
0.0
 14
-915.0
 24
-580.0
 34
0.0
 15
915.0
 25
580.0
 35
0.0
146
0.0
 13
0.0
 23
0.0
 33
0.0
 16
1.0
 26
0.0
 36
0.0
 17
0.0
 27
1.0
 37
0.0
 76
     0
330
1F
331
29
  0
MLINESTYLE
  5
18
102
{ACAD_REACTORS
330
17
102
}
330
17
100
AcDbMlineStyle
  2
Standard
 70
     0
  3

 62
   256
 51
90.0
 52
90.0
 71
     2
 49
0.5
 62
   256
  6
BYLAYER
 49
-0.5
 62
   256
  6
BYLAYER
  0
ACDBPLACEHOLDER
  5
F
102
{ACAD_REACTORS
330
E
102
}
330
E
  0
SCALE
  5
48
102
{ACAD_REACTORS
330
47
102
}
330
47
100
AcDbScale
 70
     0
300
1:1
140
1.0
141
1.0
290
     1
  0
SCALE
  5
49
102
{ACAD_REACTORS
330
47
102
}
330
47
100
AcDbScale
 70
     0
300
1:2
140
1.0
141
2.0
290
     0
  0
SCALE
  5
4A
102
{ACAD_REACTORS
330
47
102
}
330
47
100
AcDbScale
 70
     0
300
1:4
140
1.0
141
4.0
290
     0
  0
SCALE
  5
4B
102
{ACAD_REACTORS
330
47
102
}
330
47
100
AcDbScale
 70
     0
300
1:5
140
1.0
141
5.0
290
     0
  0
SCALE
  5
4C
102
{ACAD_REACTORS
330
47
102
}
330
47
100
AcDbScale
 70
     0
300
1:8
140
1.0
141
8.0
290
     0
  0
SCALE
  5
4D
102
{ACAD_REACTORS
330
47
102
}
330
47
100
AcDbScale
 70
     0
300
1:10
140
1.0
141
10.0
290
     0
  0
SCALE
  5
4E
102
{ACAD_REACTORS
330
47
102
}
330
47
100
AcDbScale
 70
     0
300
1:16
140
1.0
141
16.0
290
     0
  0
SCALE
  5
4F
102
{ACAD_REACTORS
330
47
102
}
330
47
100
AcDbScale
 70
     0
300
1:20
140
1.0
141
20.0
290
     0
  0
SCALE
  5
50
102
{ACAD_REACTORS
330
47
102
}
330
47
100
AcDbScale
 70
     0
300
1:30
140
1.0
141
30.0
290
     0
  0
SCALE
  5
51
102
{ACAD_REACTORS
330
47
102
}
330
47
100
AcDbScale
 70
     0
300
1:40
140
1.0
141
40.0
290
     0
  0
SCALE
  5
52
102
{ACAD_REACTORS
330
47
102
}
330
47
100
AcDbScale
 70
     0
300
1:50
140
1.0
141
50.0
290
     0
  0
SCALE
  5
53
102
{ACAD_REACTORS
330
47
102
}
330
47
100
AcDbScale
 70
     0
300
1:100
140
1.0
141
100.0
290
     0
  0
SCALE
  5
54
102
{ACAD_REACTORS
330
47
102
}
330
47
100
AcDbScale
 70
     0
300
2:1
140
2.0
141
1.0
290
     0
  0
SCALE
  5
55
102
{ACAD_REACTORS
330
47
102
}
330
47
100
AcDbScale
 70
     0
300
4:1
140
4.0
141
1.0
290
     0
  0
SCALE
  5
56
102
{ACAD_REACTORS
330
47
102
}
330
47
100
AcDbScale
 70
     0
300
8:1
140
8.0
141
1.0
290
     0
  0
SCALE
  5
57
102
{ACAD_REACTORS
330
47
102
}
330
47
100
AcDbScale
 70
     0
300
10:1
140
10.0
141
1.0
290
     0
  0
SCALE
  5
58
102
{ACAD_REACTORS
330
47
102
}
330
47
100
AcDbScale
 70
     0
300
100:1
140
100.0
141
1.0
290
     0
  0
SCALE
  5
59
102
{ACAD_REACTORS
330
47
102
}
330
47
100
AcDbScale
 70
     0
300
1/128" = 1'-0"
140
0.0078125
141
12.0
290
     0
  0
SCALE
  5
5A
102
{ACAD_REACTORS
330
47
102
}
330
47
100
AcDbScale
 70
     0
300
1/64" = 1'-0"
140
0.015625
141
12.0
290
     0
  0
SCALE
  5
5B
102
{ACAD_REACTORS
330
47
102
}
330
47
100
AcDbScale
 70
     0
300
1/32" = 1'-0"
140
0.03125
141
12.0
290
     0
  0
SCALE
  5
5C
102
{ACAD_REACTORS
330
47
102
}
330
47
100
AcDbScale
 70
     0
300
1/16" = 1'-0"
140
0.0625
141
12.0
290
     0
  0
SCALE
  5
5D
102
{ACAD_REACTORS
330
47
102
}
330
47
100
AcDbScale
 70
     0
300
3/32" = 1'-0"
140
0.09375
141
12.0
290
     0
  0
SCALE
  5
5E
102
{ACAD_REACTORS
330
47
102
}
330
47
100
AcDbScale
 70
     0
300
1/8" = 1'-0"
140
0.125
141
12.0
290
     0
  0
SCALE
  5
5F
102
{ACAD_REACTORS
330
47
102
}
330
47
100
AcDbScale
 70
     0
300
3/16" = 1'-0"
140
0.1875
141
12.0
290
     0
  0
SCALE
  5
60
102
{ACAD_REACTORS
330
47
102
}
330
47
100
AcDbScale
 70
     0
300
1/4" = 1'-0"
140
0.25
141
12.0
290
     0
  0
SCALE
  5
61
102
{ACAD_REACTORS
330
47
102
}
330
47
100
AcDbScale
 70
     0
300
3/8" = 1'-0"
140
0.375
141
12.0
290
     0
  0
SCALE
  5
62
102
{ACAD_REACTORS
330
47
102
}
330
47
100
AcDbScale
 70
     0
300
1/2" = 1'-0"
140
0.5
141
12.0
290
     0
  0
SCALE
  5
63
102
{ACAD_REACTORS
330
47
102
}
330
47
100
AcDbScale
 70
     0
300
3/4" = 1'-0"
140
0.75
141
12.0
290
     0
  0
SCALE
  5
64
102
{ACAD_REACTORS
330
47
102
}
330
47
100
AcDbScale
 70
     0
300
1" = 1'-0"
140
1.0
141
12.0
290
     0
  0
SCALE
  5
65
102
{ACAD_REACTORS
330
47
102
}
330
47
100
AcDbScale
 70
     0
300
1-1/2" = 1'-0"
140
1.5
141
12.0
290
     0
  0
SCALE
  5
66
102
{ACAD_REACTORS
330
47
102
}
330
47
100
AcDbScale
 70
     0
300
3" = 1'-0"
140
3.0
141
12.0
290
     0
  0
SCALE
  5
67
102
{ACAD_REACTORS
330
47
102
}
330
47
100
AcDbScale
 70
     0
300
6" = 1'-0"
140
6.0
141
12.0
290
     0
  0
SCALE
  5
68
102
{ACAD_REACTORS
330
47
102
}
330
47
100
AcDbScale
 70
     0
300
1'-0" = 1'-0"
140
12.0
141
12.0
290
     0
  0
ENDSEC
  0
EOF
