  0
SECTION
  2
HEADER
  9
$ACADVER
  1
AC1021
  9
$ACADMAINTVER
 70
    25
  9
$DWGCODEPAGE
  3
ANSI_1252
  9
$INSBASE
 10
0.0
 20
0.0
 30
0.0
  9
$EXTMIN
 10
-441.5750753085
 20
-247.4244804377
 30
0.0
  9
$EXTMAX
 10
371.570766969
 20
132.2087366795
 30
0.0
  9
$LIMMIN
 10
0.0
 20
0.0
  9
$LIMMAX
 10
420.0
 20
297.0
  9
$ORTHOMODE
 70
     0
  9
$REGENMODE
 70
     1
  9
$FILLMODE
 70
     1
  9
$QTEXTMODE
 70
     0
  9
$MIRRTEXT
 70
     1
  9
$LTSCALE
 40
1.0
  9
$ATTMODE
 70
     1
  9
$TEXTSIZE
 40
3.5
  9
$TRACEWID
 40
1.0
  9
$TEXTSTYLE
  7
Standard
  9
$CLAYER
  8
0
  9
$CELTYPE
  6
ByLayer
  9
$CECOLOR
 62
   256
  9
$CELTSCALE
 40
1.0
  9
$DISPSILH
 70
     0
  9
$DIMSCALE
 40
1.0
  9
$DIMASZ
 40
8.0
  9
$DIMEXO
 40
1.0
  9
$DIMDLI
 40
3.75
  9
$DIMRND
 40
0.0
  9
$DIMDLE
 40
0.0
  9
$DIMEXE
 40
1.0
  9
$DIMTP
 40
0.0
  9
$DIMTM
 40
0.0
  9
$DIMTXT
 40
16.9333333333
  9
$DIMCEN
 40
2.5
  9
$DIMTSZ
 40
0.0
  9
$DIMTOL
 70
     0
  9
$DIMLIM
 70
     0
  9
$DIMTIH
 70
     1
  9
$DIMTOH
 70
     1
  9
$DIMSE1
 70
     0
  9
$DIMSE2
 70
     0
  9
$DIMTAD
 70
     1
  9
$DIMZIN
 70
     0
  9
$DIMBLK
  1

  9
$DIMASO
 70
     1
  9
$DIMSHO
 70
     1
  9
$DIMPOST
  1

  9
$DIMAPOST
  1

  9
$DIMALT
 70
     0
  9
$DIMALTD
 70
     3
  9
$DIMALTF
 40
0.0393700787
  9
$DIMLFAC
 40
1.0
  9
$DIMTOFL
 70
     1
  9
$DIMTVP
 40
0.0
  9
$DIMTIX
 70
     0
  9
$DIMSOXD
 70
     0
  9
$DIMSAH
 70
     0
  9
$DIMBLK1
  1

  9
$DIMBLK2
  1

  9
$DIMSTYLE
  2
ISO-25
  9
$DIMCLRD
 70
     0
  9
$DIMCLRE
 70
     0
  9
$DIMCLRT
 70
     0
  9
$DIMTFAC
 40
1.0
  9
$DIMGAP
 40
1.524
  9
$DIMJUST
 70
     0
  9
$DIMSD1
 70
     0
  9
$DIMSD2
 70
     0
  9
$DIMTOLJ
 70
     0
  9
$DIMTZIN
 70
     0
  9
$DIMALTZ
 70
     0
  9
$DIMALTTZ
 70
     0
  9
$DIMUPT
 70
     0
  9
$DIMDEC
 70
     2
  9
$DIMTDEC
 70
     2
  9
$DIMALTU
 70
     2
  9
$DIMALTTD
 70
     3
  9
$DIMTXSTY
  7
Standard
  9
$DIMAUNIT
 70
     0
  9
$DIMADEC
 70
     2
  9
$DIMALTRND
 40
0.0
  9
$DIMAZIN
 70
     0
  9
$DIMDSEP
 70
    44
  9
$DIMATFIT
 70
     3
  9
$DIMFRAC
 70
     0
  9
$DIMLDRBLK
  1

  9
$DIMLUNIT
 70
     2
  9
$DIMLWD
 70
    -2
  9
$DIMLWE
 70
    -2
  9
$DIMTMOVE
 70
     0
  9
$DIMFXL
 40
1.0
  9
$DIMFXLON
 70
     0
  9
$DIMJOGANG
 40
0.7853981634
  9
$DIMTFILL
 70
     0
  9
$DIMTFILLCLR
 70
     0
  9
$DIMARCSYM
 70
     0
  9
$DIMLTYPE
  6

  9
$DIMLTEX1
  6

  9
$DIMLTEX2
  6

  9
$LUNITS
 70
     2
  9
$LUPREC
 70
     2
  9
$SKETCHINC
 40
1.0
  9
$FILLETRAD
 40
10.0
  9
$AUNITS
 70
     0
  9
$AUPREC
 70
     2
  9
$MENU
  1
.
  9
$ELEVATION
 40
0.0
  9
$PELEVATION
 40
0.0
  9
$THICKNESS
 40
0.0
  9
$LIMCHECK
 70
     0
  9
$CHAMFERA
 40
0.0
  9
$CHAMFERB
 40
0.0
  9
$CHAMFERC
 40
0.0
  9
$CHAMFERD
 40
0.0
  9
$SKPOLY
 70
     0
  9
$TDCREATE
 40
2458542.36777882
  9
$TDUCREATE
 40
2458542.326112153
  9
$TDUPDATE
 40
2458542.3678075
  9
$TDUUPDATE
 40
2458542.326140834
  9
$TDINDWG
 40
0.0000000116
  9
$TDUSRTIMER
 40
0.0000000116
  9
$USRTIMER
 70
     1
  9
$ANGBASE
 50
0.0
  9
$ANGDIR
 70
     0
  9
$PDMODE
 70
     0
  9
$PDSIZE
 40
-1.0
  9
$PLINEWID
 40
0.0
  9
$SPLFRAME
 70
     0
  9
$SPLINETYPE
 70
     6
  9
$SPLINESEGS
 70
     8
  9
$HANDSEED
  5
257
  9
$SURFTAB1
 70
     6
  9
$SURFTAB2
 70
     6
  9
$SURFTYPE
 70
     6
  9
$SURFU
 70
     6
  9
$SURFV
 70
     6
  9
$UCSBASE
  2

  9
$UCSNAME
  2

  9
$UCSORG
 10
0.0
 20
0.0
 30
0.0
  9
$UCSXDIR
 10
1.0
 20
0.0
 30
0.0
  9
$UCSYDIR
 10
0.0
 20
1.0
 30
0.0
  9
$UCSORTHOREF
  2

  9
$UCSORTHOVIEW
 70
     0
  9
$UCSORGTOP
 10
0.0
 20
0.0
 30
0.0
  9
$UCSORGBOTTOM
 10
0.0
 20
0.0
 30
0.0
  9
$UCSORGLEFT
 10
0.0
 20
0.0
 30
0.0
  9
$UCSORGRIGHT
 10
0.0
 20
0.0
 30
0.0
  9
$UCSORGFRONT
 10
0.0
 20
0.0
 30
0.0
  9
$UCSORGBACK
 10
0.0
 20
0.0
 30
0.0
  9
$PUCSBASE
  2

  9
$PUCSNAME
  2

  9
$PUCSORG
 10
0.0
 20
0.0
 30
0.0
  9
$PUCSXDIR
 10
1.0
 20
0.0
 30
0.0
  9
$PUCSYDIR
 10
0.0
 20
1.0
 30
0.0
  9
$PUCSORTHOREF
  2

  9
$PUCSORTHOVIEW
 70
     0
  9
$PUCSORGTOP
 10
0.0
 20
0.0
 30
0.0
  9
$PUCSORGBOTTOM
 10
0.0
 20
0.0
 30
0.0
  9
$PUCSORGLEFT
 10
0.0
 20
0.0
 30
0.0
  9
$PUCSORGRIGHT
 10
0.0
 20
0.0
 30
0.0
  9
$PUCSORGFRONT
 10
0.0
 20
0.0
 30
0.0
  9
$PUCSORGBACK
 10
0.0
 20
0.0
 30
0.0
  9
$USERI1
 70
     0
  9
$USERI2
 70
     0
  9
$USERI3
 70
     0
  9
$USERI4
 70
     0
  9
$USERI5
 70
     0
  9
$USERR1
 40
0.0
  9
$USERR2
 40
0.0
  9
$USERR3
 40
0.0
  9
$USERR4
 40
0.0
  9
$USERR5
 40
0.0
  9
$WORLDVIEW
 70
     1
  9
$SHADEDGE
 70
     3
  9
$SHADEDIF
 70
    70
  9
$TILEMODE
 70
     1
  9
$MAXACTVP
 70
    64
  9
$PINSBASE
 10
0.0
 20
0.0
 30
0.0
  9
$PLIMCHECK
 70
     0
  9
$PEXTMIN
 10
-370.0
 20
-245.0
 30
0.0
  9
$PEXTMAX
 10
370.0
 20
95.0
 30
0.0
  9
$PLIMMIN
 10
-427.5875486381
 20
-266.5953307393
  9
$PLIMMAX
 10
427.5875486381
 20
338.0739299611
  9
$UNITMODE
 70
     0
  9
$VISRETAIN
 70
     1
  9
$PLINEGEN
 70
     0
  9
$PSLTSCALE
 70
     1
  9
$TREEDEPTH
 70
  3020
  9
$CMLSTYLE
  2
Standard
  9
$CMLJUST
 70
     0
  9
$CMLSCALE
 40
20.0
  9
$PROXYGRAPHICS
 70
     1
  9
$MEASUREMENT
 70
     1
  9
$CELWEIGHT
370
    -1
  9
$ENDCAPS
280
     0
  9
$JOINSTYLE
280
     0
  9
$LWDISPLAY
290
     1
  9
$INSUNITS
 70
     4
  9
$HYPERLINKBASE
  1

  9
$STYLESHEET
  1

  9
$XEDIT
290
     1
  9
$CEPSNTYPE
380
     0
  9
$PSTYLEMODE
290
     1
  9
$FINGERPRINTGUID
  2
{8b948970-266f-46cb-a80d-32e5d252442c}
  9
$VERSIONGUID
  2
{FAEB1C32-E019-11D5-929B-00C0DF256EC4}
  9
$EXTNAMES
290
     1
  9
$PSVPSCALE
 40
0.0
  9
$OLESTARTUP
290
     0
  9
$SORTENTS
280
   127
  9
$INDEXCTL
280
     0
  9
$HIDETEXT
280
     1
  9
$XCLIPFRAME
290
     0
  9
$HALOGAP
280
     0
  9
$OBSCOLOR
 70
   257
  9
$OBSLTYPE
280
     0
  9
$INTERSECTIONDISPLAY
280
     0
  9
$INTERSECTIONCOLOR
 70
   257
  9
$DIMASSOC
280
     2
  9
$PROJECTNAME
  1

  9
$CAMERADISPLAY
290
     0
  9
$LENSLENGTH
 40
50.0
  9
$CAMERAHEIGHT
 40
0.0
  9
$STEPSPERSEC
 40
2.0
  9
$STEPSIZE
 40
6.0
  9
$3DDWFPREC
 40
2.0
  9
$PSOLWIDTH
 40
5.0
  9
$PSOLHEIGHT
 40
80.0
  9
$LOFTANG1
 40
1.5707963268
  9
$LOFTANG2
 40
1.5707963268
  9
$LOFTMAG1
 40
0.0
  9
$LOFTMAG2
 40
0.0
  9
$LOFTPARAM
 70
     7
  9
$LOFTNORMALS
280
     1
  9
$LATITUDE
 40
37.795
  9
$LONGITUDE
 40
-122.394
  9
$NORTHDIRECTION
 40
0.0
  9
$TIMEZONE
 70
 -8000
  9
$LIGHTGLYPHDISPLAY
280
     1
  9
$TILEMODELIGHTSYNCH
280
     1
  9
$CMATERIAL
347
44
  9
$SOLIDHIST
280
     0
  9
$SHOWHIST
280
     1
  9
$DWFFRAME
280
     2
  9
$DGNFRAME
280
     2
  9
$REALWORLDSCALE
290
     1
  9
$INTERFERECOLOR
 62
   256
  9
$CSHADOW
280
     0
  9
$SHADOWPLANELOCATION
 40
0.0
  0
ENDSEC
  0
SECTION
  2
CLASSES
  0
CLASS
  1
ACDBDICTIONARYWDFLT
  2
AcDbDictionaryWithDefault
  3
ObjectDBX Classes
 90
        0
 91
        3
280
     0
281
     0
  0
CLASS
  1
VISUALSTYLE
  2
AcDbVisualStyle
  3
ObjectDBX Classes
 90
     4095
 91
        3
280
     0
281
     0
  0
CLASS
  1
MATERIAL
  2
AcDbMaterial
  3
ObjectDBX Classes
 90
     1153
 91
        3
280
     0
281
     0
  0
CLASS
  1
SCALE
  2
AcDbScale
  3
ObjectDBX Classes
 90
     1153
 91
        3
280
     0
281
     0
  0
CLASS
  1
TABLESTYLE
  2
AcDbTableStyle
  3
ObjectDBX Classes
 90
     4095
 91
        3
280
     0
281
     0
  0
CLASS
  1
MLEADERSTYLE
  2
AcDbMLeaderStyle
  3
ACDB_MLEADERSTYLE_CLASS
 90
     4095
 91
        3
280
     0
281
     0
  0
CLASS
  1
SUN
  2
AcDbSun
  3
SCENEOE
 90
     1153
 91
        3
280
     0
281
     0
  0
CLASS
  1
DICTIONARYVAR
  2
AcDbDictionaryVar
  3
ObjectDBX Classes
 90
        0
 91
        3
280
     0
281
     0
  0
CLASS
  1
CELLSTYLEMAP
  2
AcDbCellStyleMap
  3
ObjectDBX Classes
 90
     1152
 91
        3
280
     0
281
     0
  0
ENDSEC
  0
SECTION
  2
TABLES
  0
TABLE
  2
VPORT
  5
8
330
0
100
AcDbSymbolTable
 70
     1
  0
VPORT
  5
29
330
8
100
AcDbSymbolTableRecord
100
AcDbViewportTableRecord
  2
*Active
 70
     0
 10
0.0
 20
0.0
 11
1.0
 21
1.0
 12
-35.0021541698
 22
-57.6078718791
 13
0.0
 23
0.0
 14
10.0
 24
10.0
 15
10.0
 25
10.0
 16
0.0
 26
0.0
 36
1.0
 17
0.0
 27
0.0
 37
0.0
 40
387.2258814595
 41
2.1419249044
 42
50.0
 43
0.0
 44
0.0
 50
0.0
 51
0.0
 71
     0
 72
   100
 73
     1
 74
     3
 75
     0
 76
     0
 77
     0
 78
     0
281
     0
 65
     1
110
0.0
120
0.0
130
0.0
111
1.0
121
0.0
131
0.0
112
0.0
122
1.0
132
0.0
 79
     0
146
0.0
348
2F
 60
     3
 61
     5
292
     1
282
     1
141
0.0
142
0.0
 63
   250
361
6D
  0
ENDTAB
  0
TABLE
  2
LTYPE
  5
5
330
0
100
AcDbSymbolTable
 70
     6
  0
LTYPE
  5
14
330
5
100
AcDbSymbolTableRecord
100
AcDbLinetypeTableRecord
  2
ByBlock
 70
     0
  3

 72
    65
 73
     0
 40
0.0
  0
LTYPE
  5
15
330
5
100
AcDbSymbolTableRecord
100
AcDbLinetypeTableRecord
  2
ByLayer
 70
     0
  3

 72
    65
 73
     0
 40
0.0
  0
LTYPE
  5
16
330
5
100
AcDbSymbolTableRecord
100
AcDbLinetypeTableRecord
  2
Continuous
 70
     0
  3
Solid line
 72
    65
 73
     0
 40
0.0
  0
LTYPE
  5
6E
330
5
100
AcDbSymbolTableRecord
100
AcDbLinetypeTableRecord
  2
HIDDEN
 70
     0
  3
Hidden __ __ __ __ __ __ __ __ __ __ __ __ __ __
 72
    65
 73
     2
 40
1.905
 49
1.27
 74
     0
 49
-0.635
 74
     0
  0
LTYPE
  5
6F
330
5
100
AcDbSymbolTableRecord
100
AcDbLinetypeTableRecord
  2
PHANTOM
 70
     0
  3
Phantom ______  __  __  ______  __  __  ______
 72
    65
 73
     6
 40
12.7
 49
6.35
 74
     0
 49
-1.27
 74
     0
 49
1.27
 74
     0
 49
-1.27
 74
     0
 49
1.27
 74
     0
 49
-1.27
 74
     0
  0
LTYPE
  5
70
330
5
100
AcDbSymbolTableRecord
100
AcDbLinetypeTableRecord
  2
CENTER
 70
     0
  3
Center ____ _ ____ _ ____ _ ____ _ ____ _ ____
 72
    65
 73
     4
 40
10.16
 49
6.35
 74
     0
 49
-1.27
 74
     0
 49
1.27
 74
     0
 49
-1.27
 74
     0
  0
LTYPE
  5
71
330
5
100
AcDbSymbolTableRecord
100
AcDbLinetypeTableRecord
  2
CENTERX2
 70
     0
  3
Center (2x) ________  __  ________  __  _____
 72
    65
 73
     4
 40
20.32
 49
12.7
 74
     0
 49
-2.54
 74
     0
 49
2.54
 74
     0
 49
-2.54
 74
     0
  0
LTYPE
  5
72
330
5
100
AcDbSymbolTableRecord
100
AcDbLinetypeTableRecord
  2
DOT2
 70
     0
  3
Dot (.5x) ........................................
 72
    65
 73
     2
 40
0.635
 49
0.0
 74
     0
 49
-0.635
 74
     0
  0
ENDTAB
  0
TABLE
  2
LAYER
  5
2
330
0
100
AcDbSymbolTable
 70
     1
  0
LAYER
  5
10
330
2
100
AcDbSymbolTableRecord
100
AcDbLayerTableRecord
  2
0
 70
     0
 62
     7
  6
Continuous
370
    -3
390
F
347
46
  0
ENDTAB
  0
TABLE
  2
STYLE
  5
3
330
0
100
AcDbSymbolTable
 70
     1
  0
STYLE
  5
11
330
3
100
AcDbSymbolTableRecord
100
AcDbTextStyleTableRecord
  2
Standard
 70
     0
 40
0.0
 41
1.0
 50
0.0
 71
     0
 42
3.5
  3
txt
  4

  0
ENDTAB
  0
TABLE
  2
VIEW
  5
6
330
0
100
AcDbSymbolTable
 70
     0
  0
ENDTAB
  0
TABLE
  2
UCS
  5
7
330
0
100
AcDbSymbolTable
 70
     0
  0
ENDTAB
  0
TABLE
  2
APPID
  5
9
330
0
100
AcDbSymbolTable
 70
     2
  0
APPID
  5
12
330
9
100
AcDbSymbolTableRecord
100
AcDbRegAppTableRecord
  2
ACAD
 70
     0
  0
APPID
  5
24F
330
9
100
AcDbSymbolTableRecord
100
AcDbRegAppTableRecord
  2
ACAD_MLEADERVER
 70
     0
  0
ENDTAB
  0
TABLE
  2
DIMSTYLE
  5
A
330
0
100
AcDbSymbolTable
 70
     1
100
AcDbDimStyleTable
  0
DIMSTYLE
105
27
330
A
100
AcDbSymbolTableRecord
100
AcDbDimStyleTableRecord
  2
ISO-25
 70
     0
 41
2.5
 42
0.625
 43
3.75
 44
1.25
 73
     0
 74
     0
 77
     1
 78
     8
140
2.5
141
2.5
143
0.0393700787
147
0.625
171
     3
172
     1
178
     0
271
     2
272
     2
274
     3
278
    44
283
     0
284
     8
340
11
  0
ENDTAB
  0
TABLE
  2
BLOCK_RECORD
  5
1
330
0
100
AcDbSymbolTable
 70
    10
  0
BLOCK_RECORD
  5
1F
330
1
100
AcDbSymbolTableRecord
100
AcDbBlockTableRecord
  2
*Model_Space
340
22
 70
     0
280
     1
281
     0
  0
BLOCK_RECORD
  5
1B
330
1
100
AcDbSymbolTableRecord
100
AcDbBlockTableRecord
  2
*Paper_Space
340
1E
 70
     0
280
     1
281
     0
  0
BLOCK_RECORD
  5
23
330
1
100
AcDbSymbolTableRecord
100
AcDbBlockTableRecord
  2
*Paper_Space0
340
26
 70
     0
280
     1
281
     0
  0
BLOCK_RECORD
  5
DC
330
1
100
AcDbSymbolTableRecord
100
AcDbBlockTableRecord
  2
*Paper_Space1
340
DD
 70
     0
280
     1
281
     0
  0
BLOCK_RECORD
  5
F3
330
1
100
AcDbSymbolTableRecord
100
AcDbBlockTableRecord
  2
*Paper_Space2
340
F4
 70
     0
280
     1
281
     0
  0
BLOCK_RECORD
  5
128
330
1
100
AcDbSymbolTableRecord
100
AcDbBlockTableRecord
  2
*Paper_Space3
340
129
 70
     0
280
     1
281
     0
  0
BLOCK_RECORD
  5
13E
330
1
100
AcDbSymbolTableRecord
100
AcDbBlockTableRecord
  2
*Paper_Space4
340
13F
 70
     0
280
     1
281
     0
  0
BLOCK_RECORD
  5
156
330
1
100
AcDbSymbolTableRecord
100
AcDbBlockTableRecord
  2
*Paper_Space5
340
157
 70
     0
280
     1
281
     0
  0
BLOCK_RECORD
  5
16D
330
1
100
AcDbSymbolTableRecord
100
AcDbBlockTableRecord
  2
*Paper_Space6
340
16E
 70
     0
280
     1
281
     0
  0
BLOCK_RECORD
  5
19C
330
1
100
AcDbSymbolTableRecord
100
AcDbBlockTableRecord
  2
*Paper_Space7
340
19D
 70
     0
280
     1
281
     0
  0
BLOCK_RECORD
  5
1D6
330
1
100
AcDbSymbolTableRecord
100
AcDbBlockTableRecord
  2
*Paper_Space8
340
1D7
 70
     0
280
     1
281
     0
  0
BLOCK_RECORD
  5
20B
330
1
100
AcDbSymbolTableRecord
100
AcDbBlockTableRecord
  2
*Paper_Space9
340
20C
 70
     0
280
     1
281
     0
  0
ENDTAB
  0
ENDSEC
  0
SECTION
  2
BLOCKS
  0
BLOCK
  5
20
330
1F
100
AcDbEntity
  8
0
100
AcDbBlockBegin
  2
*Model_Space
 70
     0
 10
0.0
 20
0.0
 30
0.0
  3
*Model_Space
  1

  0
ENDBLK
  5
21
330
1F
100
AcDbEntity
  8
0
100
AcDbBlockEnd
  0
BLOCK
  5
1C
330
1B
100
AcDbEntity
 67
     1
  8
0
100
AcDbBlockBegin
  2
*Paper_Space
 70
     0
 10
0.0
 20
0.0
 30
0.0
  3
*Paper_Space
  1

  0
ENDBLK
  5
1D
330
1B
100
AcDbEntity
 67
     1
  8
0
100
AcDbBlockEnd
  0
BLOCK
  5
24
330
23
100
AcDbEntity
  8
0
100
AcDbBlockBegin
  2
*Paper_Space0
 70
     0
 10
0.0
 20
0.0
 30
0.0
  3
*Paper_Space0
  1

  0
SPLINE
  5
CC
330
23
100
AcDbEntity
  8
0
  6
Continuous
 62
     7
370
    25
100
AcDbSpline
210
0.0
220
0.0
230
1.0
 70
     8
 71
     3
 72
    46
 73
    42
 74
     0
 42
0.000000001
 43
0.00000001
 40
0.0
 40
0.0
 40
0.0
 40
0.0
 40
0.0624999999999996
 40
0.0624999999999996
 40
0.1249999999999991
 40
0.1249999999999991
 40
0.2499999999999984
 40
0.2499999999999984
 40
0.3749999999999976
 40
0.3749999999999976
 40
0.4374999999999973
 40
0.4374999999999973
 40
0.4531249999999973
 40
0.4531249999999973
 40
0.4687499999999974
 40
0.4687499999999974
 40
0.4999999999999977
 40
0.4999999999999977
 40
0.5624999999999986
 40
0.5624999999999986
 40
0.6249999999999994
 40
0.6249999999999994
 40
0.6875000000000003
 40
0.6875000000000003
 40
0.7187500000000006
 40
0.7187500000000006
 40
0.7343750000000004
 40
0.7343750000000004
 40
0.7500000000000003
 40
0.7500000000000003
 40
0.8125000000000004
 40
0.8125000000000004
 40
0.8750000000000004
 40
0.8750000000000004
 40
0.9375000000000004
 40
0.9375000000000004
 40
0.9531250000000003
 40
0.9531250000000003
 40
0.9687500000000002
 40
0.9687500000000002
 40
1.0
 40
1.0
 40
1.0
 40
1.0
 10
200.0
 20
-150.0
 30
0.0
 10
204.2578761121458
 20
-149.0987961283351
 30
0.0
 10
208.5018197924095
 20
-148.0744555981637
 30
0.0
 10
216.9472604899609
 20
-145.7788618435465
 30
0.0
 10
221.1490982386648
 20
-144.5076099512046
 30
0.0
 10
233.6831422855997
 20
-140.3182942107446
 30
0.0
 10
241.9438324137918
 20
-137.02636786053
 30
0.0
 10
258.2531270272456
 20
-129.3796252757442
 30
0.0
 10
266.3023644905033
 20
-125.0256526150906
 30
0.0
 10
278.203239867425
 20
-117.6016087886246
 30
0.0
 10
282.1413259888857
 20
-114.9775124809033
 30
0.0
 10
287.0256989811596
 20
-111.4948931040989
 30
0.0
 10
288.0013864913905
 20
-110.7876798634933
 30
0.0
 10
289.9434209412058
 20
-109.3565510123505
 30
0.0
 10
290.9101382830899
 20
-108.6323898012557
 30
0.0
 10
293.7973076440074
 20
-106.4338727039442
 30
0.0
 10
295.7047808341058
 20
-104.933492562177
 30
0.0
 10
301.3744845865209
 20
-100.3259828724297
 30
0.0
 10
305.0840716795965
 20
-97.11265902094205
 30
0.0
 10
312.3569794100468
 20
-90.38681815385736
 30
0.0
 10
315.9203212010289
 20
-86.87435611307733
 30
0.0
 10
322.8923707831983
 20
-79.52818292908549
 30
0.0
 10
326.3011119272001
 20
-75.69455993887
 30
0.0
 10
331.2894561825124
 20
-69.68040534624785
 30
0.0
 10
332.9314137856753
 20
-67.63166079231758
 30
0.0
 10
335.3616987700511
 20
-64.4888567629852
 30
0.0
 10
336.167132095511
 20
-63.42856252113116
 30
0.0
 10
337.7608629611485
 20
-61.29215218297887
 30
0.0
 10
338.5495967814108
 20
-60.215511103858
 30
0.0
 10
342.452292676938
 20
-54.78966596310489
 30
0.0
 10
345.4435335079053
 20
-50.31278057001385
 30
0.0
 10
351.1530660214697
 20
-41.07117768286243
 30
0.0
 10
353.8714056863994
 20
-36.30652637606077
 30
0.0
 10
359.0182973793082
 20
-26.46699877709367
 30
0.0
 10
361.446930708422
 20
-21.39223434818589
 30
0.0
 10
364.2862966609752
 20
-14.83486672940784
 30
0.0
 10
364.8447943126008
 20
-13.51151860067563
 30
0.0
 10
365.9392556300811
 20
-10.84853611769405
 30
0.0
 10
366.4748542814234
 20
-9.509858798776152
 30
0.0
 10
368.0464323939146
 20
-5.471992974085071
 30
0.0
 10
369.0472106060668
 20
-2.750982747279945
 30
0.0
 10
369.9999999999998
 20
-0.0000000000002498
 30
0.0
  0
SPLINE
  5
CD
330
23
100
AcDbEntity
  8
0
  6
Continuous
 62
     7
370
    25
100
AcDbSpline
210
0.0
220
0.0
230
1.0
 70
     8
 71
     3
 72
    40
 73
    36
 74
     0
 42
0.000000001
 43
0.00000001
 40
0.0
 40
0.0
 40
0.0
 40
0.0
 40
0.0624999999999992
 40
0.0624999999999992
 40
0.1249999999999985
 40
0.1249999999999985
 40
0.1874999999999977
 40
0.1874999999999977
 40
0.2187499999999973
 40
0.2187499999999973
 40
0.234374999999997
 40
0.234374999999997
 40
0.2499999999999968
 40
0.2499999999999968
 40
0.3124999999999969
 40
0.3124999999999969
 40
0.3749999999999972
 40
0.3749999999999972
 40
0.4999999999999981
 40
0.4999999999999981
 40
0.5312499999999982
 40
0.5312499999999982
 40
0.5624999999999982
 40
0.5624999999999982
 40
0.6249999999999988
 40
0.6249999999999988
 40
0.7499999999999993
 40
0.7499999999999993
 40
0.875
 40
0.875
 40
0.90625
 40
0.90625
 40
0.9375000000000001
 40
0.9375000000000001
 40
1.0
 40
1.0
 40
1.0
 40
1.0
 10
-369.9999999999999
 20
0.0000000000000555
 30
0.0
 10
-368.0927888814492
 20
-5.506678512546381
 30
0.0
 10
-366.0091954660446
 20
-10.84885455494487
 30
0.0
 10
-361.5175692162277
 20
-21.23602561857531
 30
0.0
 10
-359.1094394892463
 20
-26.28090488791371
 30
0.0
 10
-353.9878602992023
 20
-36.09527844733785
 30
0.0
 10
-351.2743543693133
 20
-40.86470517427075
 30
0.0
 10
-346.9844403795415
 20
-47.82340048698481
 30
0.0
 10
-345.5178125378624
 20
-50.11034248140763
 30
0.0
 10
-343.2636709821267
 20
-53.49282027564681
 30
0.0
 10
-342.5024879102103
 20
-54.61342336561799
 30
0.0
 10
-340.9658179839538
 20
-56.83350735165783
 30
0.0
 10
-340.1913498284948
 20
-57.93156554371417
 30
0.0
 10
-336.2890915561305
 20
-63.36368144131069
 30
0.0
 10
-333.0717578946177
 20
-67.52369336611973
 30
0.0
 10
-326.4615791939113
 20
-75.50866181781126
 30
0.0
 10
-323.0686859636018
 20
-79.33350202286196
 30
0.0
 10
-312.6432343561725
 20
-90.3444020050089
 30
0.0
 10
-305.3650943943887
 20
-97.06941271719512
 30
0.0
 10
-295.8899934870042
 20
-104.7861641324844
 30
0.0
 10
-293.9729012079245
 20
-106.2971232307976
 30
0.0
 10
-290.1220928070086
 20
-109.2352441240328
 30
0.0
 10
-288.1874893047771
 20
-110.6633157411961
 30
0.0
 10
-282.3569379700883
 20
-114.8297312663213
 30
0.0
 10
-278.4342799044417
 20
-117.4504732970935
 30
0.0
 10
-266.5649865058604
 20
-124.875214997308
 30
0.0
 10
-258.5172522452083
 20
-129.2438214345677
 30
0.0
 10
-242.1726815374943
 20
-136.9306812877008
 30
0.0
 10
-233.8751980413308
 20
-140.2482432463794
 30
0.0
 10
-223.3597960388524
 20
-143.7701236383742
 30
0.0
 10
-221.249572147324
 20
-144.4431225169223
 30
0.0
 10
-217.0154211183908
 20
-145.7266961397996
 30
0.0
 10
-214.8910392006418
 20
-146.3373410816952
 30
0.0
 10
-208.5164795116042
 20
-148.071321603767
 30
0.0
 10
-204.2585845553656
 20
-149.098646182269
 30
0.0
 10
-200.0
 20
-150.0
 30
0.0
  0
LINE
  5
D4
330
23
100
AcDbEntity
  8
0
  6
Continuous
 62
     7
370
    25
100
AcDbLine
 10
200.0
 20
-150.0
 30
0.0
 11
-200.0
 21
-150.0
 31
0.0
  0
LINE
  5
D5
330
23
100
AcDbEntity
  8
0
  6
Continuous
 62
     7
370
    25
100
AcDbLine
 10
370.0
 20
0.0
 30
0.0
 11
-370.0
 21
0.0
 31
0.0
  0
LINE
  5
D6
330
23
100
AcDbEntity
  8
0
  6
Continuous
 62
     7
370
    25
100
AcDbLine
 10
62.5
 20
-153.0
 30
0.0
 11
-62.5
 21
-153.0
 31
0.0
  0
LINE
  5
D7
330
23
100
AcDbEntity
  8
0
  6
Continuous
 62
     7
370
    25
100
AcDbLine
 10
62.5
 20
-163.0
 30
0.0
 11
62.5
 21
-153.0
 31
0.0
  0
LINE
  5
D8
330
23
100
AcDbEntity
  8
0
  6
Continuous
 62
     7
370
    25
100
AcDbLine
 10
62.5
 20
-163.0
 30
0.0
 11
-62.5
 21
-163.0
 31
0.0
  0
LINE
  5
D9
330
23
100
AcDbEntity
  8
0
  6
Continuous
 62
     7
370
    25
100
AcDbLine
 10
-62.5
 20
-163.0
 30
0.0
 11
-62.5
 21
-153.0
 31
0.0
  0
ARC
  5
DA
330
23
100
AcDbEntity
  8
0
  6
Continuous
 62
     7
370
    25
100
AcDbCircle
 10
65.5
 20
-153.0
 30
0.0
 40
3.000000000000028
100
AcDbArc
 50
90.0
 51
180.0
  0
ARC
  5
DB
330
23
100
AcDbEntity
  8
0
  6
Continuous
 62
     7
370
    25
100
AcDbCircle
 10
-65.5
 20
-153.0
 30
0.0
 40
3.0
100
AcDbArc
 50
0.0
 51
90.0
  0
VIEWPORT
  5
237
330
23
100
AcDbEntity
  8
0
100
AcDbViewport
 10
0.0
 20
0.0
 30
0.0
 40
205.6
 41
156.0
 68
     1
 69
     1
 12
-35.0021541698
 22
-57.6078718791
 13
0.0
 23
0.0
 14
10.0
 24
10.0
 15
10.0
 25
10.0
 16
0.0
 26
0.0
 36
1.0
 17
0.0
 27
0.0
 37
0.0
 42
50.0
 43
0.0
 44
0.0
 45
629.3179300739
 50
0.0
 51
0.0
 72
   100
 90
   557152
  1

281
     0
 71
     1
 74
     0
110
0.0
120
0.0
130
0.0
111
1.0
121
0.0
131
0.0
112
0.0
122
1.0
132
0.0
 79
     0
146
0.0
170
     0
 61
     5
348
2F
292
     1
282
     1
141
0.0
142
0.0
 63
   256
361
238
  0
ENDBLK
  5
25
330
23
100
AcDbEntity
  8
0
100
AcDbBlockEnd
  0
BLOCK
  5
DE
330
DC
100
AcDbEntity
  8
0
100
AcDbBlockBegin
  2
*Paper_Space1
 70
     0
 10
0.0
 20
0.0
 30
0.0
  3
*Paper_Space1
  1

  0
SPLINE
  5
E3
330
DC
100
AcDbEntity
  8
0
  6
Continuous
 62
     7
370
    25
100
AcDbSpline
210
0.0
220
0.0
230
1.0
 70
     8
 71
     3
 72
    46
 73
    42
 74
     0
 42
0.000000001
 43
0.00000001
 40
0.0
 40
0.0
 40
0.0
 40
0.0
 40
0.0624999999999996
 40
0.0624999999999996
 40
0.1249999999999991
 40
0.1249999999999991
 40
0.2499999999999984
 40
0.2499999999999984
 40
0.3749999999999976
 40
0.3749999999999976
 40
0.4374999999999973
 40
0.4374999999999973
 40
0.4531249999999973
 40
0.4531249999999973
 40
0.4687499999999974
 40
0.4687499999999974
 40
0.4999999999999977
 40
0.4999999999999977
 40
0.5624999999999986
 40
0.5624999999999986
 40
0.6249999999999994
 40
0.6249999999999994
 40
0.6875000000000003
 40
0.6875000000000003
 40
0.7187500000000006
 40
0.7187500000000006
 40
0.7343750000000004
 40
0.7343750000000004
 40
0.7500000000000003
 40
0.7500000000000003
 40
0.8125000000000004
 40
0.8125000000000004
 40
0.8750000000000004
 40
0.8750000000000004
 40
0.9375000000000004
 40
0.9375000000000004
 40
0.9531250000000003
 40
0.9531250000000003
 40
0.9687500000000002
 40
0.9687500000000002
 40
1.0
 40
1.0
 40
1.0
 40
1.0
 10
-105.0000000000004
 20
-150.0
 30
0.0
 10
-108.8974459688522
 20
-149.0987961283351
 30
0.0
 10
-112.7487224503718
 20
-148.0744555981637
 30
0.0
 10
-120.3751013323072
 20
-145.7788618435465
 30
0.0
 10
-124.1498191661691
 20
-144.5076099512046
 30
0.0
 10
-135.365919043883
 20
-140.3182942107446
 30
0.0
 10
-142.7001542223794
 20
-137.02636786053
 30
0.0
 10
-157.0739166933286
 20
-129.3796252757442
 30
0.0
 10
-164.1131525385923
 20
-125.0256526150906
 30
0.0
 10
-174.4184757234156
 20
-117.6016087886246
 30
0.0
 10
-177.8110906591854
 20
-114.9775124809033
 30
0.0
 10
-181.9932574028586
 20
-111.4948931040989
 30
0.0
 10
-182.8273731604645
 20
-110.7876798634933
 30
0.0
 10
-184.484919007237
 20
-109.3565510123505
 30
0.0
 10
-185.3086683377878
 20
-108.6323898012557
 30
0.0
 10
-187.764656528672
 20
-106.4338727039442
 30
0.0
 10
-189.3816419065785
 20
-104.933492562177
 30
0.0
 10
-194.1698473072759
 20
-100.3259828724297
 30
0.0
 10
-197.2784372924343
 20
-97.11265902094205
 30
0.0
 10
-203.3166649708853
 20
-90.38681815385736
 30
0.0
 10
-206.2463425103475
 20
-86.87435611307733
 30
0.0
 10
-211.9106137700188
 20
-79.52818292908549
 30
0.0
 10
-214.6452720747675
 20
-75.69455993887
 30
0.0
 10
-218.584463900016
 20
-69.68040534624785
 30
0.0
 10
-219.8703437179388
 20
-67.63166079231758
 30
0.0
 10
-221.7557581606607
 20
-64.4888567629852
 30
0.0
 10
-222.3775883856617
 20
-63.42856252113116
 30
0.0
 10
-223.6016981673039
 20
-61.29215218297887
 30
0.0
 10
-224.204322546428
 20
-60.215511103858
 30
0.0
 10
-227.1695927104576
 20
-54.78966596310489
 30
0.0
 10
-229.3889937604903
 20
-50.31278057001385
 30
0.0
 10
-233.4995563214473
 20
-41.07117768286243
 30
0.0
 10
-235.3908145695003
 20
-36.30652637606077
 30
0.0
 10
-238.8132325666843
 20
-26.46699877709367
 30
0.0
 10
-240.344555515148
 20
-21.39223434818589
 30
0.0
 10
-242.005526604252
 20
-14.83486672940784
 30
0.0
 10
-242.3252814149234
 20
-13.51151860067563
 30
0.0
 10
-242.9371979771873
 20
-10.84853611769405
 30
0.0
 10
-243.2291699257514
 20
-9.509858798776152
 30
0.0
 10
-244.0623501035916
 20
-5.471992974085071
 30
0.0
 10
-244.5608522358493
 20
-2.750982747279945
 30
0.0
 10
-244.9999999999999
 20
-0.0000000000002498
 30
0.0
  0
LINE
  5
EA
330
DC
100
AcDbEntity
  8
0
  6
Continuous
 62
     7
370
    25
100
AcDbLine
 10
95.0
 20
0.0
 30
0.0
 11
-245.0
 21
0.0
 31
0.0
  0
LINE
  5
EB
330
DC
100
AcDbEntity
  8
0
  6
Continuous
 62
     7
370
    25
100
AcDbLine
 10
95.0
 20
-150.0
 30
0.0
 11
95.0
 21
0.0
 31
0.0
  0
LINE
  5
EC
330
DC
100
AcDbEntity
  8
0
  6
Continuous
 62
     7
370
    25
100
AcDbLine
 10
95.0
 20
-150.0
 30
0.0
 11
-105.0
 21
-150.0
 31
0.0
  0
LINE
  5
ED
330
DC
100
AcDbEntity
  8
0
  6
Continuous
 62
     7
370
    25
100
AcDbLine
 10
62.5
 20
-153.0
 30
0.0
 11
-62.5
 21
-153.0
 31
0.0
  0
LINE
  5
EE
330
DC
100
AcDbEntity
  8
0
  6
Continuous
 62
     7
370
    25
100
AcDbLine
 10
62.5
 20
-163.0
 30
0.0
 11
-62.5
 21
-163.0
 31
0.0
  0
LINE
  5
EF
330
DC
100
AcDbEntity
  8
0
  6
Continuous
 62
     7
370
    25
100
AcDbLine
 10
-62.5
 20
-163.0
 30
0.0
 11
-62.5
 21
-153.0
 31
0.0
  0
LINE
  5
F0
330
DC
100
AcDbEntity
  8
0
  6
Continuous
 62
     7
370
    25
100
AcDbLine
 10
62.5
 20
-163.0
 30
0.0
 11
62.5
 21
-153.0
 31
0.0
  0
ARC
  5
F1
330
DC
100
AcDbEntity
  8
0
  6
Continuous
 62
     7
370
    25
100
AcDbCircle
 10
-65.5
 20
-153.0
 30
0.0
 40
3.000000000000028
100
AcDbArc
 50
0.0
 51
90.0
  0
ARC
  5
F2
330
DC
100
AcDbEntity
  8
0
  6
Continuous
 62
     7
370
    25
100
AcDbCircle
 10
65.5
 20
-153.0
 30
0.0
 40
3.0
100
AcDbArc
 50
90.0
 51
180.0
  0
VIEWPORT
  5
239
330
DC
100
AcDbEntity
  8
0
100
AcDbViewport
 10
0.0
 20
0.0
 30
0.0
 40
205.6
 41
156.0
 68
     1
 69
     1
 12
-35.0021541698
 22
-57.6078718791
 13
0.0
 23
0.0
 14
10.0
 24
10.0
 15
10.0
 25
10.0
 16
0.0
 26
0.0
 36
1.0
 17
0.0
 27
0.0
 37
0.0
 42
50.0
 43
0.0
 44
0.0
 45
629.3179300739
 50
0.0
 51
0.0
 72
   100
 90
   557152
  1

281
     0
 71
     1
 74
     0
110
0.0
120
0.0
130
0.0
111
1.0
121
0.0
131
0.0
112
0.0
122
1.0
132
0.0
 79
     0
146
0.0
170
     0
 61
     5
348
2F
292
     1
282
     1
141
0.0
142
0.0
 63
   256
361
23A
  0
ENDBLK
  5
DF
330
DC
100
AcDbEntity
  8
0
100
AcDbBlockEnd
  0
BLOCK
  5
F5
330
F3
100
AcDbEntity
  8
0
100
AcDbBlockBegin
  2
*Paper_Space2
 70
     0
 10
0.0
 20
0.0
 30
0.0
  3
*Paper_Space2
  1

  0
SPLINE
  5
F8
330
F3
100
AcDbEntity
  8
0
  6
Continuous
 62
     7
370
    25
100
AcDbSpline
210
0.0
220
0.0
230
1.0
 70
     8
 71
     3
 72
     9
 73
     5
 74
     0
 42
0.000000001
 43
0.00000001
 40
0.0
 40
0.0
 40
0.0
 40
0.0
 40
0.7773906168051572
 40
1.0
 40
1.0
 40
1.0
 40
1.0
 10
-369.9999999999999
 20
-238.562957982391
 30
0.0
 10
-368.804241079797
 20
-238.7833158742438
 30
0.0
 10
-367.2660710860335
 20
-239.0667742632301
 30
0.0
 10
-365.4615127042925
 20
-238.9940891139693
 30
0.0
 10
-365.059801075994
 20
-238.9779087177249
 30
0.0
  0
SPLINE
  5
FB
330
F3
100
AcDbEntity
  8
0
  6
Continuous
 62
     7
370
    25
100
AcDbSpline
210
0.0
220
0.0
230
1.0
 70
     8
 71
     3
 72
    51
 73
    47
 74
     0
 42
0.000000001
 43
0.00000001
 40
0.0
 40
0.0
 40
0.0
 40
0.0
 40
0.0624999999999992
 40
0.0624999999999992
 40
0.1249999999999983
 40
0.1249999999999983
 40
0.1406249999999981
 40
0.1406249999999981
 40
0.1562499999999979
 40
0.1562499999999979
 40
0.1874999999999977
 40
0.1874999999999977
 40
0.2499999999999972
 40
0.2499999999999972
 40
0.3124999999999966
 40
0.3124999999999966
 40
0.3749999999999959
 40
0.3749999999999959
 40
0.3906249999999958
 40
0.3906249999999958
 40
0.4062499999999957
 40
0.4062499999999957
 40
0.4374999999999957
 40
0.4374999999999957
 40
0.499999999999996
 40
0.499999999999996
 40
0.5624999999999962
 40
0.5624999999999962
 40
0.5937499999999967
 40
0.5937499999999967
 40
0.624999999999997
 40
0.624999999999997
 40
0.6874999999999976
 40
0.6874999999999976
 40
0.7499999999999981
 40
0.7499999999999981
 40
0.8749999999999992
 40
0.8749999999999992
 40
0.9374999999999997
 40
0.9374999999999997
 40
0.9687499999999998
 40
0.9687499999999998
 40
0.9843749999999999
 40
0.9921874999999999
 40
0.9921874999999999
 40
1.0
 40
1.0
 40
1.0
 40
1.0
 10
-359.9999999999999
 20
-205.2192480649391
 30
0.0
 10
-357.8106508346575
 20
-206.0311897787811
 30
0.0
 10
-355.3905427472005
 20
-206.5294524691313
 30
0.0
 10
-350.1138099851179
 20
-206.9666961840593
 30
0.0
 10
-347.2570916561793
 20
-206.9053699714957
 30
0.0
 10
-343.4212021216332
 20
-206.5058389120639
 30
0.0
 10
-342.6401434544885
 20
-206.4096532507925
 30
0.0
 10
-341.0541988509414
 20
-206.1857637223281
 30
0.0
 10
-340.2515833109065
 20
-206.0584054713764
 30
0.0
 10
-337.8155620879398
 20
-205.6319113241971
 30
0.0
 10
-336.1540040202622
 20
-205.2884068911287
 30
0.0
 10
-331.0618547190506
 20
-204.0928789404759
 30
0.0
 10
-327.5240504932547
 20
-203.0764050217697
 30
0.0
 10
-320.182323544726
 20
-200.6543748159071
 30
0.0
 10
-316.3783258373574
 20
-199.2486169174754
 30
0.0
 10
-308.5164176707842
 20
-196.0814948063262
 30
0.0
 10
-304.4584673720274
 20
-194.3200166809867
 30
0.0
 10
-299.2313097364217
 20
-191.9098735254694
 30
0.0
 10
-298.1781292322465
 20
-191.4174067400938
 30
0.0
 10
-296.0563203068303
 20
-190.4118603491077
 30
0.0
 10
-294.9866467431284
 20
-189.8982693713841
 30
0.0
 10
-291.763195260843
 20
-188.3311707048984
 30
0.0
 10
-289.5961733079421
 20
-187.25199598816
 30
0.0
 10
-283.0424587351038
 20
-183.9166432177769
 30
0.0
 10
-278.6032089818747
 20
-181.5628741889978
 30
0.0
 10
-269.5900856402268
 20
-176.6174930800392
 30
0.0
 10
-265.0161948716942
 20
-174.0258130103964
 30
0.0
 10
-258.0564958850948
 20
-169.9715733276219
 30
0.0
 10
-255.7200992847707
 20
-168.5923263498174
 30
0.0
 10
-251.0144413088853
 20
-165.7796151361309
 30
0.0
 10
-248.6434323753614
 20
-164.3450273391733
 30
0.0
 10
-241.526358675198
 20
-159.9896916711032
 30
0.0
 10
-236.7619628145235
 20
-157.0090729738077
 30
0.0
 10
-227.1934198584184
 20
-150.9072069836076
 30
0.0
 10
-222.3892731439126
 20
-147.7859236458644
 30
0.0
 10
-207.9158838116863
 20
-138.2256846389116
 30
0.0
 10
-198.1859843436957
 20
-131.5914281843493
 30
0.0
 10
-183.4595602333294
 20
-121.2832990568926
 30
0.0
 10
-178.5287542241528
 20
-117.7875039794259
 30
0.0
 10
-171.0975546156774
 20
-112.4561058177899
 30
0.0
 10
-168.614650645212
 20
-110.6643403755181
 30
0.0
 10
-164.881232771536
 20
-107.9548496212401
 30
0.0
 10
-163.012257720536
 20
-106.5946422198558
 30
0.0
 10
-161.1398200975835
 20
-105.2262492803194
 30
0.0
 10
-159.8907513963983
 20
-104.3121682793929
 30
0.0
 10
-159.2649415445751
 20
-103.8535672980302
 30
0.0
 10
-158.6406308046244
 20
-103.3954447515065
 30
0.0
  0
SPLINE
  5
FC
330
F3
100
AcDbEntity
  8
0
  6
Continuous
 62
     7
370
    25
100
AcDbSpline
210
0.0
220
0.0
230
1.0
 70
     8
 71
     3
 72
    34
 73
    30
 74
     0
 42
0.000000001
 43
0.00000001
 40
0.0
 40
0.0
 40
0.0
 40
0.0
 40
0.1249999999999993
 40
0.1249999999999993
 40
0.187500000000001
 40
0.187500000000001
 40
0.2187500000000019
 40
0.2187500000000019
 40
0.2500000000000028
 40
0.2500000000000028
 40
0.3750000000000041
 40
0.3750000000000041
 40
0.4375000000000047
 40
0.4375000000000047
 40
0.5000000000000053
 40
0.5000000000000053
 40
0.6250000000000048
 40
0.6250000000000048
 40
0.6875000000000033
 40
0.6875000000000033
 40
0.7500000000000019
 40
0.7500000000000019
 40
0.8749999999999989
 40
0.8749999999999989
 40
0.9062499999999992
 40
0.9062499999999992
 40
0.9374999999999994
 40
0.9374999999999994
 40
1.0
 40
1.0
 40
1.0
 40
1.0
 10
-334.5575919091178
 20
-228.6951641650155
 30
0.0
 10
-336.1955654665177
 20
-228.6951641650156
 30
0.0
 10
-337.8099957323864
 20
-228.5569117131662
 30
0.0
 10
-340.1965267294075
 20
-228.1433319553448
 30
0.0
 10
-340.9861506341965
 20
-227.9709053723345
 30
0.0
 10
-342.1614534368725
 20
-227.6586337795496
 30
0.0
 10
-342.5516964513504
 20
-227.5455904728588
 30
0.0
 10
-343.3290508111767
 20
-227.3011138677879
 30
0.0
 10
-343.7166584699947
 20
-227.1694466017896
 30
0.0
 10
-345.6263311383475
 20
-226.4715038769687
 30
0.0
 10
-347.0795429684428
 20
-225.7830174211483
 30
0.0
 10
-349.1470207147142
 20
-224.5541280080986
 30
0.0
 10
-349.8173398898631
 20
-224.1116010720368
 30
0.0
 10
-351.1186517424179
 20
-223.1578782019634
 30
0.0
 10
-351.7513724952075
 20
-222.6445402119122
 30
0.0
 10
-353.5450942146883
 20
-221.0344058790536
 30
0.0
 10
-354.6173171233091
 20
-219.8587432858139
 30
0.0
 10
-356.0378243935474
 20
-217.9398715953082
 30
0.0
 10
-356.4801871333822
 20
-217.2735416613968
 30
0.0
 10
-357.2971049053812
 20
-215.8886485864826
 30
0.0
 10
-357.6648853119098
 20
-215.1817086652257
 30
0.0
 10
-358.6498878581713
 20
-213.0187258748829
 30
0.0
 10
-359.1499049582147
 20
-211.5209238828999
 30
0.0
 10
-359.5738880048846
 20
-209.5770432079535
 30
0.0
 10
-359.6486645743275
 20
-209.1837525392304
 30
0.0
 10
-359.7765210900286
 20
-208.3958180865143
 30
0.0
 10
-359.8297129865467
 20
-208.0009249694702
 30
0.0
 10
-359.9573725105295
 20
-206.8134932072071
 30
0.0
 10
-360.0000000000002
 20
-206.0182087073827
 30
0.0
 10
-360.0000000000004
 20
-205.2192480649392
 30
0.0
  0
SPLINE
  5
FF
330
F3
100
AcDbEntity
  8
0
  6
Continuous
 62
     7
370
    25
100
AcDbSpline
210
0.0
220
0.0
230
1.0
 70
     8
 71
     3
 72
    51
 73
    47
 74
     0
 42
0.000000001
 43
0.00000001
 40
0.0
 40
0.0
 40
0.0
 40
0.0
 40
0.062500000000001
 40
0.062500000000001
 40
0.125000000000002
 40
0.125000000000002
 40
0.1406250000000023
 40
0.1406250000000023
 40
0.1562500000000026
 40
0.1562500000000026
 40
0.1875000000000028
 40
0.1875000000000028
 40
0.2500000000000031
 40
0.2500000000000031
 40
0.3125000000000033
 40
0.3125000000000033
 40
0.3750000000000035
 40
0.3750000000000035
 40
0.3906250000000034
 40
0.3906250000000034
 40
0.4062500000000033
 40
0.4062500000000033
 40
0.437500000000003
 40
0.437500000000003
 40
0.500000000000002
 40
0.500000000000002
 40
0.562500000000001
 40
0.562500000000001
 40
0.5937500000000007
 40
0.5937500000000007
 40
0.6250000000000004
 40
0.6250000000000004
 40
0.6875000000000004
 40
0.6875000000000004
 40
0.7500000000000004
 40
0.7500000000000004
 40
0.8750000000000006
 40
0.8750000000000006
 40
0.9375000000000007
 40
0.9375000000000007
 40
0.9687500000000006
 40
0.9687500000000006
 40
0.9843750000000006
 40
0.9921875000000003
 40
0.9921875000000003
 40
1.0
 40
1.0
 40
1.0
 40
1.0
 10
359.9999999999999
 20
-205.2192480649391
 30
0.0
 10
357.8106508346598
 20
-206.0311897787802
 30
0.0
 10
355.3905427472059
 20
-206.5294524691302
 30
0.0
 10
350.1138099851298
 20
-206.9666961840589
 30
0.0
 10
347.2570916561951
 20
-206.9053699714963
 30
0.0
 10
343.4212021216543
 20
-206.5058389120663
 30
0.0
 10
342.6401434545107
 20
-206.4096532507954
 30
0.0
 10
341.0541988509657
 20
-206.1857637223319
 30
0.0
 10
340.251583310932
 20
-206.0584054713805
 30
0.0
 10
337.8155620879685
 20
-205.6319113242027
 30
0.0
 10
336.1540040202931
 20
-205.2884068911354
 30
0.0
 10
331.0618547190884
 20
-204.0928789404859
 30
0.0
 10
327.5240504932975
 20
-203.0764050217823
 30
0.0
 10
320.1823235447792
 20
-200.654374815926
 30
0.0
 10
316.3783258374161
 20
-199.2486169174977
 30
0.0
 10
308.5164176708542
 20
-196.0814948063558
 30
0.0
 10
304.4584673721033
 20
-194.3200166810203
 30
0.0
 10
299.2313097365055
 20
-191.9098735255083
 30
0.0
 10
298.1781292323317
 20
-191.4174067401338
 30
0.0
 10
296.0563203069187
 20
-190.4118603491501
 30
0.0
 10
294.9866467432183
 20
-189.8982693714275
 30
0.0
 10
291.7631952609381
 20
-188.3311707049455
 30
0.0
 10
289.5961733080428
 20
-187.2519959882105
 30
0.0
 10
283.0424587352272
 20
-183.9166432178413
 30
0.0
 10
278.6032089820216
 20
-181.5628741890762
 30
0.0
 10
269.5900856404381
 20
-176.6174930801572
 30
0.0
 10
265.016194871946
 20
-174.0258130105399
 30
0.0
 10
258.0564958854206
 20
-169.9715733278133
 30
0.0
 10
255.7200992851233
 20
-168.5923263500263
 30
0.0
 10
251.014441309296
 20
-165.7796151363782
 30
0.0
 10
248.6434323757548
 20
-164.3450273394124
 30
0.0
 10
241.5263586754914
 20
-159.989691671286
 30
0.0
 10
236.7619628147562
 20
-157.0090729739545
 30
0.0
 10
227.193419858541
 20
-150.9072069836872
 30
0.0
 10
222.389273143986
 20
-147.7859236459125
 30
0.0
 10
207.9158838116286
 20
-138.2256846388738
 30
0.0
 10
198.1859843435725
 20
-131.591428184265
 30
0.0
 10
183.459560233142
 20
-121.2832990567601
 30
0.0
 10
178.5287542239497
 20
-117.7875039792809
 30
0.0
 10
171.0975546154594
 20
-112.456105817632
 30
0.0
 10
168.6146506449902
 20
-110.6643403753572
 30
0.0
 10
164.8812327713113
 20
-107.9548496210757
 30
0.0
 10
163.0122577203108
 20
-106.5946422196894
 30
0.0
 10
161.1398200973597
 20
-105.2262492801505
 30
0.0
 10
159.8907513961772
 20
-104.3121682792205
 30
0.0
 10
159.2649415453604
 20
-103.853567296557
 30
0.0
 10
158.6406308042706
 20
-103.3954447515065
 30
0.0
  0
SPLINE
  5
100
330
F3
100
AcDbEntity
  8
0
  6
Continuous
 62
     7
370
    25
100
AcDbSpline
210
0.0
220
0.0
230
1.0
 70
     8
 71
     3
 72
    34
 73
    30
 74
     0
 42
0.000000001
 43
0.00000001
 40
0.0
 40
0.0
 40
0.0
 40
0.0
 40
0.1249999999999925
 40
0.1249999999999925
 40
0.1874999999999891
 40
0.1874999999999891
 40
0.2187499999999875
 40
0.2187499999999875
 40
0.2499999999999858
 40
0.2499999999999858
 40
0.3749999999999826
 40
0.3749999999999826
 40
0.4374999999999822
 40
0.4374999999999822
 40
0.4999999999999818
 40
0.4999999999999818
 40
0.5624999999999813
 40
0.5624999999999813
 40
0.5937499999999829
 40
0.5937499999999829
 40
0.6249999999999845
 40
0.6249999999999845
 40
0.7499999999999902
 40
0.7499999999999902
 40
0.8124999999999927
 40
0.8124999999999927
 40
0.8749999999999951
 40
0.8749999999999951
 40
1.0
 40
1.0
 40
1.0
 40
1.0
 10
359.9999999999999
 20
-205.2192480649391
 30
0.0
 10
359.9999999999999
 20
-206.815321190809
 30
0.0
 10
359.8311072258802
 20
-208.3834180261653
 30
0.0
 10
359.3315951951573
 20
-210.6947859057993
 30
0.0
 10
359.1237691599418
 20
-211.4583970673647
 30
0.0
 10
358.7482234836584
 20
-212.5932445438345
 30
0.0
 10
358.6120215542943
 20
-212.9705617824269
 30
0.0
 10
358.321230289588
 20
-213.7132319152477
 30
0.0
 10
358.1663957947852
 20
-214.0794737391166
 30
0.0
 10
357.3459723623481
 20
-215.8857256827129
 30
0.0
 10
356.5429540486287
 20
-217.2515784398926
 30
0.0
 10
355.1200221693184
 20
-219.182505807855
 30
0.0
 10
354.6065031600872
 20
-219.8086323171682
 30
0.0
 10
353.5277075101102
 20
-220.994865098299
 30
0.0
 10
352.9605730739935
 20
-221.5580530783881
 30
0.0
 10
351.7726113454745
 20
-222.6264932714636
 30
0.0
 10
351.1517789581394
 20
-223.1317399869057
 30
0.0
 10
350.1804342888221
 20
-223.8463455031977
 30
0.0
 10
349.8499585675152
 20
-224.0773241915547
 30
0.0
 10
349.1755103230971
 20
-224.5247182237188
 30
0.0
 10
348.8308066239244
 20
-224.7415256967167
 30
0.0
 10
347.0904349358409
 20
-225.7786753309577
 30
0.0
 10
345.6346243771215
 20
-226.4670588783115
 30
0.0
 10
343.3612177800625
 20
-227.3000450459389
 30
0.0
 10
342.5883606983368
 20
-227.544205419723
 30
0.0
 10
341.0122698701584
 20
-227.9649288711479
 30
0.0
 10
340.2143009028646
 20
-228.139858115122
 30
0.0
 10
337.8133963063304
 20
-228.5571001438769
 30
0.0
 10
336.1945053448617
 20
-228.6951641650165
 30
0.0
 10
334.5575919091181
 20
-228.6951641650164
 30
0.0
  0
LWPOLYLINE
  5
101
330
F3
100
AcDbEntity
  8
0
  6
Continuous
 62
     7
370
    25
100
AcDbPolyline
 90
       31
 70
   128
 43
0.0
 10
-158.6406308044
 20
26.5426035129
 10
-167.3385606929
 20
26.5827213712
 10
-176.0222235294
 20
26.7030091414
 10
-184.6773756643
 20
26.9032695176
 10
-193.2898202132
 20
27.1831740167
 10
-201.8454303443
 20
27.5422635165
 10
-210.3301724503
 20
27.9799490091
 10
-218.7301291671
 20
28.4955125672
 10
-227.0315222028
 20
29.0881085216
 10
-235.2207349376
 20
29.7567648483
 10
-243.2843347588
 20
30.5003847626
 10
-251.2090950944
 20
31.3177485188
 10
-258.9820171081
 20
32.2075154104
 10
-266.5903510213
 20
33.1682259694
 10
-274.0216170259
 20
34.1983043602
 10
-281.2636257553
 20
35.2960609644
 10
-288.3044982778
 20
36.4596951525
 10
-295.1326855819
 20
37.687298237
 10
-301.7369875196
 20
38.9768566036
 10
-308.1065711778
 20
40.3262550136
 10
-314.2309886475
 20
41.7332800743
 10
-320.1001941612
 20
43.1956238685
 10
-325.7045605708
 20
44.7108877412
 10
-331.0348951388
 20
46.2765862334
 10
-336.0824546169
 20
47.8901511589
 10
-340.8389595879
 20
49.5489358176
 10
-345.2966080454
 20
51.2502193359
 10
-349.448088192
 20
52.9912111301
 10
-353.2865904324
 20
54.7690554842
 10
-356.8058185431
 20
56.5808362331
 10
-360.0
 20
58.4235815467
  0
LWPOLYLINE
  5
104
330
F3
100
AcDbEntity
  8
0
  6
Continuous
 62
     7
370
    25
100
AcDbPolyline
 90
       31
 70
   128
 43
0.0
 10
360.0
 20
58.4235815467
 10
356.8058185431
 20
56.5808362331
 10
353.2865904324
 20
54.7690554842
 10
349.448088192
 20
52.9912111301
 10
345.2966080454
 20
51.2502193359
 10
340.8389595879
 20
49.5489358176
 10
336.0824546169
 20
47.8901511589
 10
331.0348951388
 20
46.2765862334
 10
325.7045605708
 20
44.7108877412
 10
320.1001941612
 20
43.1956238685
 10
314.2309886475
 20
41.7332800743
 10
308.1065711778
 20
40.3262550136
 10
301.7369875196
 20
38.9768566036
 10
295.1326855819
 20
37.687298237
 10
288.3044982778
 20
36.4596951525
 10
281.2636257553
 20
35.2960609644
 10
274.0216170259
 20
34.1983043602
 10
266.5903510213
 20
33.1682259694
 10
258.9820171081
 20
32.2075154104
 10
251.2090950944
 20
31.3177485188
 10
243.2843347588
 20
30.5003847626
 10
235.2207349376
 20
29.7567648483
 10
227.0315222028
 20
29.0881085216
 10
218.7301291671
 20
28.4955125672
 10
210.3301724503
 20
27.9799490091
 10
201.8454303443
 20
27.5422635165
 10
193.2898202132
 20
27.1831740167
 10
184.6773756643
 20
26.9032695176
 10
176.0222235294
 20
26.7030091414
 10
167.3385606929
 20
26.5827213712
 10
158.6406308044
 20
26.5426035129
  0
SPLINE
  5
108
330
F3
100
AcDbEntity
  8
0
  6
Continuous
 62
     7
370
    25
100
AcDbSpline
210
0.0
220
0.0
230
1.0
 70
     8
 71
     3
 72
    34
 73
    30
 74
     0
 42
0.000000001
 43
0.00000001
 40
0.0
 40
0.0
 40
0.0
 40
0.0
 40
0.1249999999999934
 40
0.1249999999999934
 40
0.1874999999999901
 40
0.1874999999999901
 40
0.2187499999999885
 40
0.2187499999999885
 40
0.2499999999999868
 40
0.2499999999999868
 40
0.3749999999999889
 40
0.3749999999999889
 40
0.43749999999999
 40
0.43749999999999
 40
0.499999999999991
 40
0.499999999999991
 40
0.6249999999999954
 40
0.6249999999999954
 40
0.6874999999999977
 40
0.6874999999999977
 40
0.7187499999999983
 40
0.7187499999999983
 40
0.749999999999999
 40
0.749999999999999
 40
0.8749999999999992
 40
0.8749999999999992
 40
0.9374999999999999
 40
0.9374999999999999
 40
1.0
 40
1.0
 40
1.0
 40
1.0
 10
333.0834886143604
 20
82.76674052449201
 30
0.0
 10
334.798571543611
 20
82.76674052449201
 30
0.0
 10
336.4889488037462
 20
82.6228389124406
 30
0.0
 10
338.9882169067009
 20
82.19556497542244
 30
0.0
 10
339.8152177205166
 20
82.01767669962956
 30
0.0
 10
341.046321898309
 20
81.69610990012133
 30
0.0
 10
341.4551212262263
 20
81.57978367265495
 30
0.0
 10
342.2695050672462
 20
81.32840608092218
 30
0.0
 10
342.6761017257804
 20
81.192966221668
 30
0.0
 10
344.6828001676361
 20
80.4741706832465
 30
0.0
 10
346.2115587294923
 20
79.7659042654848
 30
0.0
 10
348.3895411528305
 20
78.50321590962945
 30
0.0
 10
349.0962205603118
 20
78.04872585793579
 30
0.0
 10
350.4693002451168
 20
77.06968864536657
 30
0.0
 10
351.1393078714874
 20
76.54171801081985
 30
0.0
 10
353.046865377634
 20
74.87958536613625
 30
0.0
 10
354.1895679334932
 20
73.66584029172513
 30
0.0
 10
355.7073551750507
 20
71.68447480384899
 30
0.0
 10
356.1803518207477
 20
70.99704704798954
 30
0.0
 10
356.8378277319164
 20
69.9233003386075
 30
0.0
 10
357.0485656920092
 20
69.55762830990447
 30
0.0
 10
357.4471733484226
 20
68.82099959313919
 30
0.0
 10
357.6357226451914
 20
68.4490097135847
 30
0.0
 10
358.5253370463914
 20
66.57090163583752
 30
0.0
 10
359.0686564458362
 20
65.01087149533585
 30
0.0
 10
359.6235899812843
 20
62.5819518430881
 30
0.0
 10
359.7650612715474
 20
61.75373635792475
 30
0.0
 10
359.9528263636628
 20
60.09408056062446
 30
0.0
 10
360.0
 20
59.26065020389326
 30
0.0
 10
359.9999999999999
 20
58.42358154670807
 30
0.0
  0
SPLINE
  5
10A
330
F3
100
AcDbEntity
  8
0
  6
Continuous
 62
     7
370
    25
100
AcDbSpline
210
0.0
220
0.0
230
1.0
 70
     8
 71
     3
 72
    34
 73
    30
 74
     0
 42
0.000000001
 43
0.00000001
 40
0.0
 40
0.0
 40
0.0
 40
0.0
 40
0.1249999999999966
 40
0.1249999999999966
 40
0.1874999999999948
 40
0.1874999999999948
 40
0.2187499999999946
 40
0.2187499999999946
 40
0.2499999999999944
 40
0.2499999999999944
 40
0.3749999999999963
 40
0.3749999999999963
 40
0.4062499999999966
 40
0.4062499999999966
 40
0.4374999999999969
 40
0.4374999999999969
 40
0.4999999999999976
 40
0.4999999999999976
 40
0.5624999999999981
 40
0.5624999999999981
 40
0.6249999999999988
 40
0.6249999999999988
 40
0.7499999999999993
 40
0.7499999999999993
 40
0.8124999999999994
 40
0.8124999999999994
 40
0.8749999999999997
 40
0.8749999999999997
 40
1.0
 40
1.0
 40
1.0
 40
1.0
 10
-359.9999999999999
 20
58.42358154670801
 30
0.0
 10
-359.9999999999999
 20
60.09509956559197
 30
0.0
 10
-359.8134236729909
 20
61.73527368166928
 30
0.0
 10
-359.2668976767018
 20
64.15073703789851
 30
0.0
 10
-359.0399139386469
 20
64.94836389875364
 30
0.0
 10
-358.6306472494944
 20
66.13324762750267
 30
0.0
 10
-358.4827404581737
 20
66.52600021054394
 30
0.0
 10
-358.1676376970904
 20
67.29825946765558
 30
0.0
 10
-358.0000461229285
 20
67.67896735050755
 30
0.0
 10
-357.1130189481752
 20
69.55600913953097
 30
0.0
 10
-356.2478330782238
 20
70.97363730290229
 30
0.0
 10
-354.9746761880626
 20
72.64216746308405
 30
0.0
 10
-354.7096248752375
 20
72.971482370702
 30
0.0
 10
-354.1651568503348
 20
73.61347030806215
 30
0.0
 10
-353.885499883314
 20
73.92656290694013
 30
0.0
 10
-353.0248573223332
 20
74.84277228820969
 30
0.0
 10
-352.4222519565459
 20
75.42287588755589
 30
0.0
 10
-351.161166630931
 20
76.52360733088432
 30
0.0
 10
-350.5026815536239
 20
77.04422972756144
 30
0.0
 10
-349.1300258887968
 20
78.02620003597922
 30
0.0
 10
-348.4127165787937
 20
78.48904273569931
 30
0.0
 10
-346.2177575054271
 20
79.76375873917726
 30
0.0
 10
-344.6882239388528
 20
80.47100065162907
 30
0.0
 10
-342.2994484719006
 20
81.3284858241119
 30
0.0
 10
-341.4859861520152
 20
81.58052877365368
 30
0.0
 10
-339.8325795105009
 20
82.01386114877803
 30
0.0
 10
-339.0007146480576
 20
82.19316964824242
 30
0.0
 10
-336.4902040733991
 20
82.62313771140562
 30
0.0
 10
-334.7967668173501
 20
82.76674052450223
 30
0.0
 10
-333.0834886143957
 20
82.76674052450304
 30
0.0
  0
LWPOLYLINE
  5
10E
330
F3
100
AcDbEntity
  8
0
  6
Continuous
 62
     7
370
    25
100
AcDbPolyline
 90
       28
 70
   128
 43
0.0
 10
158.6406308044
 20
56.5787942825
 10
166.8326944768
 20
56.619070937
 10
175.0094907923
 20
56.7398258378
 10
183.1557808475
 20
56.9408339368
 10
191.2563825927
 20
57.2217206201
 10
199.2961991265
 20
57.5819624055
 10
207.2602468316
 20
58.0208879191
 10
215.1336832989
 20
58.5376791455
 10
222.9018349898
 20
59.1313729532
 10
230.5502245822
 20
59.8008628889
 10
238.0645979517
 20
60.5449012398
 10
245.4309507372
 20
61.3621013593
 10
252.6355544397
 20
62.2509402506
 10
259.6649820083
 20
63.2097614055
 10
266.5061328639
 20
64.2367778915
 10
273.146257314
 20
65.3300756821
 10
279.5729803145
 20
66.4876172239
 10
285.7743245326
 20
67.7072452338
 10
291.7387326685
 20
68.9866867197
 10
297.4550889947
 20
70.3235572166
 10
302.9127400721
 20
71.7153652303
 10
308.1015146044
 20
73.1595168808
 10
313.0117423942
 20
74.6533207366
 10
317.6342723652
 20
76.1939928305
 10
321.9604896168
 20
77.7786618481
 10
325.9823314794
 20
79.4043744788
 10
329.6923025406
 20
81.0681009203
 10
333.0834886144
 20
82.7667405245
  0
LWPOLYLINE
  5
10F
330
F3
100
AcDbEntity
  8
0
  6
Continuous
 62
     7
370
    25
100
AcDbPolyline
 90
       28
 70
   128
 43
0.0
 10
-333.0834886144
 20
82.7667405245
 10
-329.6923025406
 20
81.0681009203
 10
-325.9823314794
 20
79.4043744788
 10
-321.9604896168
 20
77.7786618481
 10
-317.6342723652
 20
76.1939928305
 10
-313.0117423942
 20
74.6533207366
 10
-308.1015146044
 20
73.1595168808
 10
-302.9127400721
 20
71.7153652303
 10
-297.4550889947
 20
70.3235572166
 10
-291.7387326685
 20
68.9866867197
 10
-285.7743245326
 20
67.7072452338
 10
-279.5729803145
 20
66.4876172239
 10
-273.146257314
 20
65.3300756821
 10
-266.5061328639
 20
64.2367778915
 10
-259.6649820083
 20
63.2097614055
 10
-252.6355544397
 20
62.2509402506
 10
-245.4309507372
 20
61.3621013593
 10
-238.0645979517
 20
60.5449012398
 10
-230.5502245822
 20
59.8008628889
 10
-222.9018349898
 20
59.1313729532
 10
-215.1336832989
 20
58.5376791455
 10
-207.2602468316
 20
58.0208879191
 10
-199.2961991265
 20
57.5819624055
 10
-191.2563825927
 20
57.2217206201
 10
-183.1557808475
 20
56.9408339368
 10
-175.0094907923
 20
56.7398258378
 10
-166.8326944768
 20
56.619070937
 10
-158.6406308044
 20
56.5787942825
  0
LWPOLYLINE
  5
113
330
F3
100
AcDbEntity
  8
0
  6
Continuous
 62
     7
370
    25
100
AcDbPolyline
 90
       61
 70
   128
 43
0.0
 10
-32.5000000001
 20
-31.8809780338
 10
-32.3219615995
 20
-28.5730591351
 10
-31.7897970239
 20
-25.301382488
 10
-30.9093367796
 20
-22.1017932666
 10
-29.6902273734
 20
-19.00934684
 10
-28.145825623
 20
-16.0579246982
 10
-26.2930523172
 20
-13.27986324
 10
-24.1522068281
 20
-10.7055994881
 10
-21.7467447067
 20
-8.3633376147
 10
-19.1030206996
 20
-6.2787399311
 10
-16.2500000001
 20
-4.4746457257
 10
-13.2189409
 20
-2.9708210323
 10
-10.0430523172
 20
-1.7837420689
 10
-6.7571299516
 20
-0.9264147209
 10
-3.3971750563
 20
-0.4082320462
 10
-0.0000000001
 20
-0.2348713627
 10
3.3971750561
 20
-0.4082320462
 10
6.7571299515
 20
-0.9264147209
 10
10.0430523171
 20
-1.7837420689
 10
13.2189408999
 20
-2.9708210323
 10
16.2499999999
 20
-4.4746457257
 10
19.1030206995
 20
-6.2787399311
 10
21.7467447066
 20
-8.3633376147
 10
24.152206828
 20
-10.7055994881
 10
26.2930523171
 20
-13.27986324
 10
28.1458256229
 20
-16.0579246982
 10
29.6902273733
 20
-19.00934684
 10
30.9093367795
 20
-22.1017932666
 10
31.7897970238
 20
-25.301382488
 10
32.3219615994
 20
-28.5730591351
 10
32.4999999999
 20
-31.8809780338
 10
32.3219615994
 20
-35.1888969326
 10
31.7897970238
 20
-38.4605735796
 10
30.9093367795
 20
-41.660162801
 10
29.6902273733
 20
-44.7526092277
 10
28.1458256229
 20
-47.7040313694
 10
26.2930523171
 20
-50.4820928276
 10
24.152206828
 20
-53.0563565796
 10
21.7467447066
 20
-55.398618453
 10
19.1030206994
 20
-57.4832161366
 10
16.2499999999
 20
-59.2873103419
 10
13.2189408999
 20
-60.7911350353
 10
10.0430523171
 20
-61.9782139988
 10
6.7571299515
 20
-62.8355413467
 10
3.3971750561
 20
-63.3537240214
 10
-0.0000000001
 20
-63.5270847049
 10
-3.3971750563
 20
-63.3537240214
 10
-6.7571299516
 20
-62.8355413467
 10
-10.0430523172
 20
-61.9782139988
 10
-13.2189409
 20
-60.7911350353
 10
-16.2500000001
 20
-59.2873103419
 10
-19.1030206996
 20
-57.4832161366
 10
-21.7467447067
 20
-55.398618453
 10
-24.1522068281
 20
-53.0563565796
 10
-26.2930523172
 20
-50.4820928276
 10
-28.145825623
 20
-47.7040313694
 10
-29.6902273734
 20
-44.7526092277
 10
-30.9093367796
 20
-41.660162801
 10
-31.7897970239
 20
-38.4605735796
 10
-32.3219615995
 20
-35.1888969326
 10
-32.5000000001
 20
-31.8809780338
  0
LWPOLYLINE
  5
114
330
F3
100
AcDbEntity
  8
0
  6
Continuous
 62
     7
370
    25
100
AcDbPolyline
 90
       51
 70
   128
 43
0.0
 10
-22.5000000001
 20
-34.1581907505
 10
-22.3225807796
 20
-36.9040968974
 10
-21.7931211254
 20
-39.606698464
 10
-20.9199709325
 20
-42.2233738092
 10
-19.716900301
 20
-44.7128563996
 10
-18.2028823735
 20
-47.0358856077
 10
-16.401794117
 20
-49.1558258752
 10
-14.3420397694
 20
-51.0392444776
 10
-12.0561028871
 20
-52.6564387784
 10
-9.5800340603
 20
-53.9819046575
 10
-6.9528823735
 20
-54.9947387262
 10
-4.2160795782
 20
-55.6789679862
 10
-1.4127866895
 20
-56.0238017333
 10
1.4127866894
 20
-56.0238017333
 10
4.2160795781
 20
-55.6789679862
 10
6.9528823734
 20
-54.9947387262
 10
9.5800340602
 20
-53.9819046575
 10
12.056102887
 20
-52.6564387784
 10
14.3420397693
 20
-51.0392444776
 10
16.4017941169
 20
-49.1558258752
 10
18.2028823734
 20
-47.0358856077
 10
19.7169003009
 20
-44.7128563996
 10
20.9199709324
 20
-42.2233738092
 10
21.7931211253
 20
-39.606698464
 10
22.3225807795
 20
-36.9040968974
 10
22.4999999999
 20
-34.1581907505
 10
22.3225807795
 20
-31.4122846036
 10
21.7931211253
 20
-28.709683037
 10
20.9199709324
 20
-26.0930076918
 10
19.7169003009
 20
-23.6035251014
 10
18.2028823734
 20
-21.2804958933
 10
16.4017941169
 20
-19.1605556258
 10
14.3420397693
 20
-17.2771370235
 10
12.056102887
 20
-15.6599427226
 10
9.5800340602
 20
-14.3344768435
 10
6.9528823734
 20
-13.3216427748
 10
4.2160795781
 20
-12.6374135148
 10
1.4127866894
 20
-12.2925797677
 10
-1.4127866895
 20
-12.2925797677
 10
-4.2160795782
 20
-12.6374135148
 10
-6.9528823735
 20
-13.3216427748
 10
-9.5800340603
 20
-14.3344768435
 10
-12.0561028871
 20
-15.6599427226
 10
-14.3420397694
 20
-17.2771370235
 10
-16.401794117
 20
-19.1605556258
 10
-18.2028823735
 20
-21.2804958933
 10
-19.716900301
 20
-23.6035251014
 10
-20.9199709325
 20
-26.0930076918
 10
-21.7931211254
 20
-28.709683037
 10
-22.3225807796
 20
-31.4122846036
 10
-22.5000000001
 20
-34.1581907505
  0
SPLINE
  5
116
330
F3
100
AcDbEntity
  8
0
  6
Continuous
 62
     8
370
    25
100
AcDbSpline
210
0.0
220
0.0
230
1.0
 70
     8
 71
     3
 72
    29
 73
    25
 74
     0
 42
0.000000001
 43
0.00000001
 40
0.0
 40
0.0
 40
0.0
 40
0.0
 40
0.0003301613819665
 40
0.054658507338329
 40
0.1092893084572978
 40
0.1640307309184296
 40
0.2193735536345895
 40
0.2748373012007559
 40
0.3309256952645692
 40
0.3871514386183881
 40
0.4437298358048695
 40
0.5019084812360771
 40
0.5602751548639104
 40
0.6189010883891654
 40
0.6777590098425471
 40
0.7144299702133909
 40
0.7513082547929731
 40
0.7882608995490403
 40
0.8256463219175055
 40
0.8631221483759239
 40
0.9010608489669027
 40
0.9391104820641764
 40
0.977433673838654
 40
1.0
 40
1.0
 40
1.0
 40
1.0
 10
-158.6406308045412
 20
-103.3954447515064
 30
0.0
 10
-158.6611111850111
 20
-103.4155320630101
 30
0.0
 10
-162.0516561952719
 20
-106.74100415999
 30
0.0
 10
-168.8319536312538
 20
-113.3421298575727
 30
0.0
 10
-178.9711425186452
 20
-123.0593288495411
 30
0.0
 10
-189.1407412104126
 20
-132.6405718047923
 30
0.0
 10
-199.3115630352438
 20
-142.0453783449743
 30
0.0
 10
-209.4957707732332
 20
-151.2700541661031
 30
0.0
 10
-219.6438083864285
 20
-160.2529616418581
 30
0.0
 10
-229.7460504912144
 20
-168.9668754253177
 30
0.0
 10
-239.8338573107505
 20
-177.4165098462408
 30
0.0
 10
-249.8766558869521
 20
-185.5455778417349
 30
0.0
 10
-259.8294633276402
 20
-193.2821818810148
 30
0.0
 10
-269.5732653113237
 20
-200.4996441954517
 30
0.0
 10
-277.8607470238227
 20
-206.2879816568886
 30
0.0
 10
-284.7704084256205
 20
-210.8387611692016
 30
0.0
 10
-290.3910160912563
 20
-214.34800604856
 30
0.0
 10
-295.8860623591768
 20
-217.5676456846302
 30
0.0
 10
-301.2317607692198
 20
-220.4671515467554
 30
0.0
 10
-306.4250328671176
 20
-223.024239146587
 30
0.0
 10
-311.4322736756936
 20
-225.2048605279802
 30
0.0
 10
-316.2235314763092
 20
-226.954672347189
 30
0.0
 10
-320.177437930175
 20
-228.1327003599096
 30
0.0
 10
-322.4248899679424
 20
-228.5430748557852
 30
0.0
 10
-323.2578204531155
 20
-228.6951641650154
 30
0.0
  0
SPLINE
  5
117
330
F3
100
AcDbEntity
  8
0
  6
Continuous
 62
     8
370
    25
100
AcDbSpline
210
0.0
220
0.0
230
1.0
 70
     8
 71
     3
 72
    29
 73
    25
 74
     0
 42
0.000000001
 43
0.00000001
 40
0.0
 40
0.0
 40
0.0
 40
0.0
 40
0.0226256689394791
 40
0.0593276906817911
 40
0.0961417556310208
 40
0.1332981094078795
 40
0.1705539245643495
 40
0.2082395395577013
 40
0.2460136935703181
 40
0.2841088358698913
 40
0.3222822858821734
 40
0.3804391629435336
 40
0.4388445395254644
 40
0.4974648108274904
 40
0.556297178849539
 40
0.6107432793215615
 40
0.6653256054378138
 40
0.720346325056322
 40
0.7754929282308943
 40
0.8312007920556448
 40
0.8870297745763086
 40
0.9432898854739743
 40
0.9996698588589142
 40
1.0
 40
1.0
 40
1.0
 40
1.0
 10
323.2638192927952
 20
-228.6951641650154
 30
0.0
 10
322.4290536734482
 20
-228.5433554105492
 30
0.0
 10
320.2401806465824
 20
-228.1452914747665
 30
0.0
 10
316.403104224776
 20
-227.0093621981974
 30
0.0
 10
311.7787042647344
 20
-225.3406099223624
 30
0.0
 10
306.889413799714
 20
-223.2375866156059
 30
0.0
 10
301.7489036364817
 20
-220.7340727078997
 30
0.0
 10
296.3785892685054
 20
-217.8461034046286
 30
0.0
 10
290.7822769306113
 20
-214.5865048042292
 30
0.0
 10
284.9901624967666
 20
-210.9821587084726
 30
0.0
 10
277.9779992741417
 20
-206.3684038517889
 30
0.0
 10
269.6606333483302
 20
-200.561539783795
 30
0.0
 10
259.9569562054613
 20
-193.379069065248
 30
0.0
 10
249.9675483027624
 20
-185.6185869752504
 30
0.0
 10
239.9960908971073
 20
-177.5489004987817
 30
0.0
 10
230.0950802867564
 20
-169.2608129090705
 30
0.0
 10
220.2885566597314
 20
-160.8143159738043
 30
0.0
 10
210.3308967957374
 20
-152.0165451496197
 30
0.0
 10
200.215482820139
 20
-142.8721595945349
 30
0.0
 10
189.9796740753683
 20
-133.4239918305259
 30
0.0
 10
179.6223193772322
 20
-123.6792807484252
 30
0.0
 10
169.1883060256309
 20
-113.6880886921152
 30
0.0
 10
162.1791359344773
 20
-106.8660372370254
 30
0.0
 10
158.6611111848291
 20
-103.415532062652
 30
0.0
 10
158.6406308046548
 20
-103.3954447515064
 30
0.0
  0
LINE
  5
118
330
F3
100
AcDbEntity
  8
0
  6
Continuous
 62
     7
370
    25
100
AcDbLine
 10
-365.059801076
 20
-239.0314614879
 30
0.0
 11
365.0990586999
 21
-239.0314614879
 31
0.0
  0
LINE
  5
119
330
F3
100
AcDbEntity
  8
0
  6
Continuous
 62
     7
370
    25
100
AcDbLine
 10
370.0
 20
-238.5629579824
 30
0.0
 11
-370.0
 21
-238.5629579824
 31
0.0
  0
LINE
  5
11A
330
F3
100
AcDbEntity
  8
0
  6
Continuous
 62
     7
370
    25
100
AcDbLine
 10
365.0990586999
 20
-239.0234926375
 30
0.0
 11
370.0
 21
-238.5629579824
 31
0.0
  0
LINE
  5
11B
330
F3
100
AcDbEntity
  8
0
  6
Continuous
 62
     7
370
    25
100
AcDbLine
 10
158.6406308047
 20
-103.3954447515
 30
0.0
 11
-158.6406308045
 21
-103.3954447515
 31
0.0
  0
LINE
  5
11C
330
F3
100
AcDbEntity
  8
0
  6
Continuous
 62
     7
370
    25
100
AcDbLine
 10
334.5575919093
 20
-228.695164165
 30
0.0
 11
-334.557591909
 21
-228.695164165
 31
0.0
  0
LINE
  5
11D
330
F3
100
AcDbEntity
  8
0
  6
Continuous
 62
     7
370
    25
100
AcDbLine
 10
-158.6406308044
 20
56.5787942825
 30
0.0
 11
-158.6406308045
 21
-103.3954447515
 31
0.0
  0
LINE
  5
11E
330
F3
100
AcDbEntity
  8
0
  6
Continuous
 62
     7
370
    25
100
AcDbLine
 10
-360.0
 20
58.4235815467
 30
0.0
 11
-360.0
 21
-205.2192480649
 31
0.0
  0
LINE
  5
11F
330
F3
100
AcDbEntity
  8
0
  6
Continuous
 62
     7
370
    25
100
AcDbLine
 10
360.0
 20
58.4235815467
 30
0.0
 11
360.0
 21
-205.2192480649
 31
0.0
  0
LINE
  5
120
330
F3
100
AcDbEntity
  8
0
  6
Continuous
 62
     7
370
    25
100
AcDbLine
 10
158.6406308044
 20
56.5787942825
 30
0.0
 11
158.6406308047
 21
-103.3954447515
 31
0.0
  0
LINE
  5
121
330
F3
100
AcDbEntity
  8
0
  6
Continuous
 62
     7
370
    25
100
AcDbLine
 10
370.0
 20
92.5040041156
 30
0.0
 11
-370.0
 21
92.5040041156
 31
0.0
  0
LINE
  5
122
330
F3
100
AcDbEntity
  8
0
  6
Continuous
 62
     7
370
    25
100
AcDbLine
 10
333.0834886144
 20
82.7667405245
 30
0.0
 11
-333.0834886144
 21
82.7667405245
 31
0.0
  0
LINE
  5
123
330
F3
100
AcDbEntity
  8
0
  6
Continuous
 62
     7
370
    25
100
AcDbLine
 10
-370.0
 20
92.5040041156
 30
0.0
 11
-370.0
 21
-238.5629579824
 31
0.0
  0
LINE
  5
124
330
F3
100
AcDbEntity
  8
0
  6
Continuous
 62
     7
370
    25
100
AcDbLine
 10
370.0
 20
92.5040041156
 30
0.0
 11
370.0
 21
-238.5629579824
 31
0.0
  0
LINE
  5
125
330
F3
100
AcDbEntity
  8
0
  6
Continuous
 62
     7
370
    25
100
AcDbLine
 10
-158.6406308044
 20
56.5787942825
 30
0.0
 11
158.6406308044
 21
56.5787942825
 31
0.0
  0
LINE
  5
126
330
F3
100
AcDbEntity
  8
0
  6
Continuous
 62
     7
370
    25
100
AcDbLine
 10
158.6406308044
 20
26.5426035129
 30
0.0
 11
-158.6406308044
 21
26.5426035129
 31
0.0
  0
ARC
  5
127
330
F3
100
AcDbEntity
  8
0
  6
Continuous
 62
     7
370
    25
100
AcDbCircle
 10
-0.0000000001
 20
-37.6499220047
 30
0.0
 40
22.53853405677795
100
AcDbArc
 50
5.1204075738
 51
174.8795924262
  0
VIEWPORT
  5
23B
330
F3
100
AcDbEntity
  8
0
100
AcDbViewport
 10
0.0
 20
0.0
 30
0.0
 40
205.6
 41
156.0
 68
     1
 69
     1
 12
-35.0021541698
 22
-57.6078718791
 13
0.0
 23
0.0
 14
10.0
 24
10.0
 15
10.0
 25
10.0
 16
0.0
 26
0.0
 36
1.0
 17
0.0
 27
0.0
 37
0.0
 42
50.0
 43
0.0
 44
0.0
 45
629.3179300739
 50
0.0
 51
0.0
 72
   100
 90
   557152
  1

281
     0
 71
     1
 74
     0
110
0.0
120
0.0
130
0.0
111
1.0
121
0.0
131
0.0
112
0.0
122
1.0
132
0.0
 79
     0
146
0.0
170
     0
 61
     5
348
2F
292
     1
282
     1
141
0.0
142
0.0
 63
   256
361
23C
  0
ENDBLK
  5
F6
330
F3
100
AcDbEntity
  8
0
100
AcDbBlockEnd
  0
BLOCK
  5
12A
330
128
100
AcDbEntity
  8
0
100
AcDbBlockBegin
  2
*Paper_Space3
 70
     0
 10
0.0
 20
0.0
 30
0.0
  3
*Paper_Space3
  1

  0
SPLINE
  5
12E
330
128
100
AcDbEntity
  8
0
  6
Continuous
 62
     7
370
    25
100
AcDbSpline
210
0.0
220
0.0
230
1.0
 70
     8
 71
     3
 72
    46
 73
    42
 74
     0
 42
0.000000001
 43
0.00000001
 40
0.0
 40
0.0
 40
0.0
 40
0.0
 40
0.0624999999999996
 40
0.0624999999999996
 40
0.1249999999999991
 40
0.1249999999999991
 40
0.2499999999999984
 40
0.2499999999999984
 40
0.3749999999999976
 40
0.3749999999999976
 40
0.4374999999999973
 40
0.4374999999999973
 40
0.4531249999999973
 40
0.4531249999999973
 40
0.4687499999999974
 40
0.4687499999999974
 40
0.4999999999999977
 40
0.4999999999999977
 40
0.5624999999999986
 40
0.5624999999999986
 40
0.6249999999999994
 40
0.6249999999999994
 40
0.6875000000000003
 40
0.6875000000000003
 40
0.7187500000000006
 40
0.7187500000000006
 40
0.7343750000000004
 40
0.7343750000000004
 40
0.7500000000000003
 40
0.7500000000000003
 40
0.8125000000000004
 40
0.8125000000000004
 40
0.8750000000000004
 40
0.8750000000000004
 40
0.9375000000000004
 40
0.9375000000000004
 40
0.9531250000000003
 40
0.9531250000000003
 40
0.9687500000000002
 40
0.9687500000000002
 40
1.0
 40
1.0
 40
1.0
 40
1.0
 10
200.0
 20
-150.0
 30
0.0
 10
204.2578761121458
 20
-149.0987961283351
 30
0.0
 10
208.5018197924095
 20
-148.0744555981637
 30
0.0
 10
216.9472604899609
 20
-145.7788618435465
 30
0.0
 10
221.1490982386648
 20
-144.5076099512046
 30
0.0
 10
233.6831422855997
 20
-140.3182942107446
 30
0.0
 10
241.9438324137918
 20
-137.02636786053
 30
0.0
 10
258.2531270272456
 20
-129.3796252757442
 30
0.0
 10
266.3023644905033
 20
-125.0256526150906
 30
0.0
 10
278.203239867425
 20
-117.6016087886246
 30
0.0
 10
282.1413259888857
 20
-114.9775124809033
 30
0.0
 10
287.0256989811596
 20
-111.4948931040989
 30
0.0
 10
288.0013864913905
 20
-110.7876798634933
 30
0.0
 10
289.9434209412058
 20
-109.3565510123505
 30
0.0
 10
290.9101382830899
 20
-108.6323898012557
 30
0.0
 10
293.7973076440074
 20
-106.4338727039442
 30
0.0
 10
295.7047808341058
 20
-104.933492562177
 30
0.0
 10
301.3744845865209
 20
-100.3259828724297
 30
0.0
 10
305.0840716795965
 20
-97.11265902094205
 30
0.0
 10
312.3569794100468
 20
-90.38681815385736
 30
0.0
 10
315.9203212010289
 20
-86.87435611307733
 30
0.0
 10
322.8923707831983
 20
-79.52818292908549
 30
0.0
 10
326.3011119272001
 20
-75.69455993887
 30
0.0
 10
331.2894561825124
 20
-69.68040534624785
 30
0.0
 10
332.9314137856753
 20
-67.63166079231758
 30
0.0
 10
335.3616987700511
 20
-64.4888567629852
 30
0.0
 10
336.167132095511
 20
-63.42856252113116
 30
0.0
 10
337.7608629611485
 20
-61.29215218297887
 30
0.0
 10
338.5495967814108
 20
-60.215511103858
 30
0.0
 10
342.452292676938
 20
-54.78966596310489
 30
0.0
 10
345.4435335079053
 20
-50.31278057001385
 30
0.0
 10
351.1530660214697
 20
-41.07117768286243
 30
0.0
 10
353.8714056863994
 20
-36.30652637606077
 30
0.0
 10
359.0182973793082
 20
-26.46699877709367
 30
0.0
 10
361.446930708422
 20
-21.39223434818589
 30
0.0
 10
364.2862966609752
 20
-14.83486672940784
 30
0.0
 10
364.8447943126008
 20
-13.51151860067563
 30
0.0
 10
365.9392556300811
 20
-10.84853611769405
 30
0.0
 10
366.4748542814234
 20
-9.509858798776152
 30
0.0
 10
368.0464323939146
 20
-5.471992974085071
 30
0.0
 10
369.0472106060668
 20
-2.750982747279945
 30
0.0
 10
369.9999999999998
 20
-0.0000000000002498
 30
0.0
  0
SPLINE
  5
12F
330
128
100
AcDbEntity
  8
0
  6
Continuous
 62
     7
370
    25
100
AcDbSpline
210
0.0
220
0.0
230
1.0
 70
     8
 71
     3
 72
    40
 73
    36
 74
     0
 42
0.000000001
 43
0.00000001
 40
0.0
 40
0.0
 40
0.0
 40
0.0
 40
0.0624999999999992
 40
0.0624999999999992
 40
0.1249999999999985
 40
0.1249999999999985
 40
0.1874999999999977
 40
0.1874999999999977
 40
0.2187499999999973
 40
0.2187499999999973
 40
0.234374999999997
 40
0.234374999999997
 40
0.2499999999999968
 40
0.2499999999999968
 40
0.3124999999999969
 40
0.3124999999999969
 40
0.3749999999999972
 40
0.3749999999999972
 40
0.4999999999999981
 40
0.4999999999999981
 40
0.5312499999999982
 40
0.5312499999999982
 40
0.5624999999999982
 40
0.5624999999999982
 40
0.6249999999999988
 40
0.6249999999999988
 40
0.7499999999999993
 40
0.7499999999999993
 40
0.875
 40
0.875
 40
0.90625
 40
0.90625
 40
0.9375000000000001
 40
0.9375000000000001
 40
1.0
 40
1.0
 40
1.0
 40
1.0
 10
-369.9999999999999
 20
0.0000000000000555
 30
0.0
 10
-368.0927888814492
 20
-5.506678512546381
 30
0.0
 10
-366.0091954660446
 20
-10.84885455494487
 30
0.0
 10
-361.5175692162277
 20
-21.23602561857531
 30
0.0
 10
-359.1094394892463
 20
-26.28090488791371
 30
0.0
 10
-353.9878602992023
 20
-36.09527844733785
 30
0.0
 10
-351.2743543693133
 20
-40.86470517427075
 30
0.0
 10
-346.9844403795415
 20
-47.82340048698481
 30
0.0
 10
-345.5178125378624
 20
-50.11034248140763
 30
0.0
 10
-343.2636709821267
 20
-53.49282027564681
 30
0.0
 10
-342.5024879102103
 20
-54.61342336561799
 30
0.0
 10
-340.9658179839538
 20
-56.83350735165783
 30
0.0
 10
-340.1913498284948
 20
-57.93156554371417
 30
0.0
 10
-336.2890915561305
 20
-63.36368144131069
 30
0.0
 10
-333.0717578946177
 20
-67.52369336611973
 30
0.0
 10
-326.4615791939113
 20
-75.50866181781126
 30
0.0
 10
-323.0686859636018
 20
-79.33350202286196
 30
0.0
 10
-312.6432343561725
 20
-90.3444020050089
 30
0.0
 10
-305.3650943943887
 20
-97.06941271719512
 30
0.0
 10
-295.8899934870042
 20
-104.7861641324844
 30
0.0
 10
-293.9729012079245
 20
-106.2971232307976
 30
0.0
 10
-290.1220928070086
 20
-109.2352441240328
 30
0.0
 10
-288.1874893047771
 20
-110.6633157411961
 30
0.0
 10
-282.3569379700883
 20
-114.8297312663213
 30
0.0
 10
-278.4342799044417
 20
-117.4504732970935
 30
0.0
 10
-266.5649865058604
 20
-124.875214997308
 30
0.0
 10
-258.5172522452083
 20
-129.2438214345677
 30
0.0
 10
-242.1726815374943
 20
-136.9306812877008
 30
0.0
 10
-233.8751980413308
 20
-140.2482432463794
 30
0.0
 10
-223.3597960388524
 20
-143.7701236383742
 30
0.0
 10
-221.249572147324
 20
-144.4431225169223
 30
0.0
 10
-217.0154211183908
 20
-145.7266961397996
 30
0.0
 10
-214.8910392006418
 20
-146.3373410816952
 30
0.0
 10
-208.5164795116042
 20
-148.071321603767
 30
0.0
 10
-204.2585845553656
 20
-149.098646182269
 30
0.0
 10
-200.0
 20
-150.0
 30
0.0
  0
LINE
  5
136
330
128
100
AcDbEntity
  8
0
  6
Continuous
 62
     7
370
    25
100
AcDbLine
 10
200.0
 20
-150.0
 30
0.0
 11
-200.0
 21
-150.0
 31
0.0
  0
LINE
  5
137
330
128
100
AcDbEntity
  8
0
  6
Continuous
 62
     7
370
    25
100
AcDbLine
 10
370.0
 20
0.0
 30
0.0
 11
-370.0
 21
0.0
 31
0.0
  0
LINE
  5
138
330
128
100
AcDbEntity
  8
0
  6
Continuous
 62
     7
370
    25
100
AcDbLine
 10
62.5
 20
-153.0
 30
0.0
 11
-62.5
 21
-153.0
 31
0.0
  0
LINE
  5
139
330
128
100
AcDbEntity
  8
0
  6
Continuous
 62
     7
370
    25
100
AcDbLine
 10
62.5
 20
-163.0
 30
0.0
 11
62.5
 21
-153.0
 31
0.0
  0
LINE
  5
13A
330
128
100
AcDbEntity
  8
0
  6
Continuous
 62
     7
370
    25
100
AcDbLine
 10
62.5
 20
-163.0
 30
0.0
 11
-62.5
 21
-163.0
 31
0.0
  0
LINE
  5
13B
330
128
100
AcDbEntity
  8
0
  6
Continuous
 62
     7
370
    25
100
AcDbLine
 10
-62.5
 20
-163.0
 30
0.0
 11
-62.5
 21
-153.0
 31
0.0
  0
ARC
  5
13C
330
128
100
AcDbEntity
  8
0
  6
Continuous
 62
     7
370
    25
100
AcDbCircle
 10
65.5
 20
-153.0
 30
0.0
 40
3.000000000000028
100
AcDbArc
 50
90.0
 51
180.0
  0
ARC
  5
13D
330
128
100
AcDbEntity
  8
0
  6
Continuous
 62
     7
370
    25
100
AcDbCircle
 10
-65.5
 20
-153.0
 30
0.0
 40
3.0
100
AcDbArc
 50
0.0
 51
90.0
  0
VIEWPORT
  5
23D
330
128
100
AcDbEntity
  8
0
100
AcDbViewport
 10
0.0
 20
0.0
 30
0.0
 40
205.6
 41
156.0
 68
     1
 69
     1
 12
-35.0021541698
 22
-57.6078718791
 13
0.0
 23
0.0
 14
10.0
 24
10.0
 15
10.0
 25
10.0
 16
0.0
 26
0.0
 36
1.0
 17
0.0
 27
0.0
 37
0.0
 42
50.0
 43
0.0
 44
0.0
 45
629.3179300739
 50
0.0
 51
0.0
 72
   100
 90
   557152
  1

281
     0
 71
     1
 74
     0
110
0.0
120
0.0
130
0.0
111
1.0
121
0.0
131
0.0
112
0.0
122
1.0
132
0.0
 79
     0
146
0.0
170
     0
 61
     5
348
2F
292
     1
282
     1
141
0.0
142
0.0
 63
   256
361
23E
  0
ENDBLK
  5
12B
330
128
100
AcDbEntity
  8
0
100
AcDbBlockEnd
  0
BLOCK
  5
140
330
13E
100
AcDbEntity
  8
0
100
AcDbBlockBegin
  2
*Paper_Space4
 70
     0
 10
0.0
 20
0.0
 30
0.0
  3
*Paper_Space4
  1

  0
LINE
  5
14C
330
13E
100
AcDbEntity
  8
0
  6
Continuous
 62
     7
370
    25
100
AcDbLine
 10
-370.0
 20
0.0
 30
0.0
 11
370.0
 21
0.0
 31
0.0
  0
LINE
  5
14D
330
13E
100
AcDbEntity
  8
0
  6
Continuous
 62
     7
370
    25
100
AcDbLine
 10
200.0
 20
-150.0
 30
0.0
 11
-200.0
 21
-150.0
 31
0.0
  0
LINE
  5
14E
330
13E
100
AcDbEntity
  8
0
  6
Continuous
 62
     7
370
    25
100
AcDbLine
 10
62.5
 20
-153.0
 30
0.0
 11
-62.5
 21
-153.0
 31
0.0
  0
LINE
  5
14F
330
13E
100
AcDbEntity
  8
0
  6
Continuous
 62
     7
370
    25
100
AcDbLine
 10
-62.5
 20
-163.0
 30
0.0
 11
-62.5
 21
-153.0
 31
0.0
  0
LINE
  5
150
330
13E
100
AcDbEntity
  8
0
  6
Continuous
 62
     7
370
    25
100
AcDbLine
 10
62.5
 20
-163.0
 30
0.0
 11
62.5
 21
-153.0
 31
0.0
  0
LINE
  5
151
330
13E
100
AcDbEntity
  8
0
  6
Continuous
 62
     7
370
    25
100
AcDbLine
 10
62.5
 20
-163.0
 30
0.0
 11
-62.5
 21
-163.0
 31
0.0
  0
ARC
  5
152
330
13E
100
AcDbEntity
  8
0
  6
Continuous
 62
     7
370
    25
100
AcDbCircle
 10
-152.2923825093
 20
75.4019664895
 30
0.0
 40
230.3954497466944
100
AcDbArc
 50
199.1032769212
 51
258.0493918288
  0
ARC
  5
153
330
13E
100
AcDbEntity
  8
0
  6
Continuous
 62
     7
370
    25
100
AcDbCircle
 10
152.2923825093
 20
75.4019664895
 30
0.0
 40
230.3954497466943
100
AcDbArc
 50
281.9506081712
 51
340.8967230788
  0
ARC
  5
154
330
13E
100
AcDbEntity
  8
0
  6
Continuous
 62
     7
370
    25
100
AcDbCircle
 10
-65.5
 20
-153.0
 30
0.0
 40
3.0
100
AcDbArc
 50
0.0
 51
90.0
  0
ARC
  5
155
330
13E
100
AcDbEntity
  8
0
  6
Continuous
 62
     7
370
    25
100
AcDbCircle
 10
65.5
 20
-153.0
 30
0.0
 40
3.0
100
AcDbArc
 50
90.0
 51
180.0
  0
VIEWPORT
  5
23F
330
13E
100
AcDbEntity
  8
0
100
AcDbViewport
 10
0.0
 20
0.0
 30
0.0
 40
205.6
 41
156.0
 68
     1
 69
     1
 12
-35.0021541698
 22
-57.6078718791
 13
0.0
 23
0.0
 14
10.0
 24
10.0
 15
10.0
 25
10.0
 16
0.0
 26
0.0
 36
1.0
 17
0.0
 27
0.0
 37
0.0
 42
50.0
 43
0.0
 44
0.0
 45
629.3179300739
 50
0.0
 51
0.0
 72
   100
 90
   557152
  1

281
     0
 71
     1
 74
     0
110
0.0
120
0.0
130
0.0
111
1.0
121
0.0
131
0.0
112
0.0
122
1.0
132
0.0
 79
     0
146
0.0
170
     0
 61
     5
348
2F
292
     1
282
     1
141
0.0
142
0.0
 63
   256
361
240
  0
ENDBLK
  5
141
330
13E
100
AcDbEntity
  8
0
100
AcDbBlockEnd
  0
BLOCK
  5
158
330
156
100
AcDbEntity
  8
0
100
AcDbBlockBegin
  2
*Paper_Space5
 70
     0
 10
0.0
 20
0.0
 30
0.0
  3
*Paper_Space5
  1

  0
SPLINE
  5
15D
330
156
100
AcDbEntity
  8
0
  6
Continuous
 62
     7
370
    25
100
AcDbSpline
210
0.0
220
0.0
230
1.0
 70
     8
 71
     3
 72
    40
 73
    36
 74
     0
 42
0.000000001
 43
0.00000001
 40
0.0
 40
0.0
 40
0.0
 40
0.0
 40
0.0624999999999992
 40
0.0624999999999992
 40
0.1249999999999985
 40
0.1249999999999985
 40
0.1874999999999977
 40
0.1874999999999977
 40
0.2187499999999973
 40
0.2187499999999973
 40
0.234374999999997
 40
0.234374999999997
 40
0.2499999999999968
 40
0.2499999999999968
 40
0.3124999999999969
 40
0.3124999999999969
 40
0.3749999999999972
 40
0.3749999999999972
 40
0.4999999999999981
 40
0.4999999999999981
 40
0.5312499999999982
 40
0.5312499999999982
 40
0.5624999999999982
 40
0.5624999999999982
 40
0.6249999999999988
 40
0.6249999999999988
 40
0.7499999999999993
 40
0.7499999999999993
 40
0.875
 40
0.875
 40
0.90625
 40
0.90625
 40
0.9375000000000001
 40
0.9375000000000001
 40
1.0
 40
1.0
 40
1.0
 40
1.0
 10
245.0
 20
0.0000000000000555
 30
0.0
 10
244.120952118267
 20
-5.506678512546381
 30
0.0
 10
243.0119207012259
 20
-10.84885455494487
 30
0.0
 10
240.3873150650352
 20
-21.23602561857531
 30
0.0
 10
238.8715370766711
 20
-26.28090488791371
 30
0.0
 10
235.470459901988
 20
-36.09527844733785
 30
0.0
 10
233.5850416416166
 20
-40.86470517427075
 30
0.0
 10
230.4992287241182
 20
-47.82340048698481
 30
0.0
 10
229.4276003589377
 20
-50.11034248140763
 30
0.0
 10
227.757460770763
 20
-53.49282027564681
 30
0.0
 10
227.1897177858126
 20
-54.61342336561799
 30
0.0
 10
226.0363429406061
 20
-56.83350735165783
 30
0.0
 10
225.4514842801967
 20
-57.93156554371417
 30
0.0
 10
222.4877018711773
 20
-63.36368144131069
 30
0.0
 10
219.9906826723589
 20
-67.52369336611973
 30
0.0
 10
214.7731667116197
 20
-75.50866181781126
 30
0.0
 10
212.052576625123
 20
-79.33350202286196
 30
0.0
 10
203.5864129820501
 20
-90.3444020050089
 30
0.0
 10
197.5383548476342
 20
-97.06941271719512
 30
0.0
 10
189.5384481992
 20
-104.7861641324844
 30
0.0
 10
187.9136693435914
 20
-106.2971232307976
 30
0.0
 10
184.6386385677172
 20
-109.2352441240328
 30
0.0
 10
182.9876599834371
 20
-110.6633157411961
 30
0.0
 10
177.9963769536246
 20
-114.8297312663213
 30
0.0
 10
174.6178057314376
 20
-117.4504732970935
 30
0.0
 10
164.3419684578796
 20
-124.875214997308
 30
0.0
 10
157.3055496896367
 20
-129.2438214345677
 30
0.0
 10
142.9029569705498
 20
-136.9306812877008
 30
0.0
 10
135.5371168353165
 20
-140.2482432463794
 30
0.0
 10
126.1282231810444
 20
-143.7701236383742
 30
0.0
 10
124.2362538948835
 20
-144.4431225169223
 30
0.0
 10
120.4314615156837
 20
-145.7266961397996
 30
0.0
 10
118.5182308585965
 20
-146.3373410816952
 30
0.0
 10
112.7620927140332
 20
-148.071321603767
 30
0.0
 10
108.8980944421987
 20
-149.098646182269
 30
0.0
 10
105.0000000000004
 20
-150.0
 30
0.0
  0
LINE
  5
164
330
156
100
AcDbEntity
  8
0
  6
Continuous
 62
     7
370
    25
100
AcDbLine
 10
-95.0
 20
-150.0
 30
0.0
 11
105.0
 21
-150.0
 31
0.0
  0
LINE
  5
165
330
156
100
AcDbEntity
  8
0
  6
Continuous
 62
     7
370
    25
100
AcDbLine
 10
-95.0
 20
0.0
 30
0.0
 11
-95.0
 21
-150.0
 31
0.0
  0
LINE
  5
166
330
156
100
AcDbEntity
  8
0
  6
Continuous
 62
     7
370
    25
100
AcDbLine
 10
-95.0
 20
0.0
 30
0.0
 11
245.0
 21
0.0
 31
0.0
  0
LINE
  5
167
330
156
100
AcDbEntity
  8
0
  6
Continuous
 62
     7
370
    25
100
AcDbLine
 10
62.5
 20
-153.0
 30
0.0
 11
-62.5
 21
-153.0
 31
0.0
  0
LINE
  5
168
330
156
100
AcDbEntity
  8
0
  6
Continuous
 62
     7
370
    25
100
AcDbLine
 10
-62.5
 20
-163.0
 30
0.0
 11
-62.5
 21
-153.0
 31
0.0
  0
LINE
  5
169
330
156
100
AcDbEntity
  8
0
  6
Continuous
 62
     7
370
    25
100
AcDbLine
 10
62.5
 20
-163.0
 30
0.0
 11
62.5
 21
-153.0
 31
0.0
  0
LINE
  5
16A
330
156
100
AcDbEntity
  8
0
  6
Continuous
 62
     7
370
    25
100
AcDbLine
 10
62.5
 20
-163.0
 30
0.0
 11
-62.5
 21
-163.0
 31
0.0
  0
ARC
  5
16B
330
156
100
AcDbEntity
  8
0
  6
Continuous
 62
     7
370
    25
100
AcDbCircle
 10
65.5
 20
-153.0
 30
0.0
 40
3.0
100
AcDbArc
 50
90.0
 51
180.0
  0
ARC
  5
16C
330
156
100
AcDbEntity
  8
0
  6
Continuous
 62
     7
370
    25
100
AcDbCircle
 10
-65.5
 20
-153.0
 30
0.0
 40
3.0
100
AcDbArc
 50
0.0
 51
90.0
  0
VIEWPORT
  5
241
330
156
100
AcDbEntity
  8
0
100
AcDbViewport
 10
0.0
 20
0.0
 30
0.0
 40
205.6
 41
156.0
 68
     1
 69
     1
 12
-35.0021541698
 22
-57.6078718791
 13
0.0
 23
0.0
 14
10.0
 24
10.0
 15
10.0
 25
10.0
 16
0.0
 26
0.0
 36
1.0
 17
0.0
 27
0.0
 37
0.0
 42
50.0
 43
0.0
 44
0.0
 45
629.3179300739
 50
0.0
 51
0.0
 72
   100
 90
   557152
  1

281
     0
 71
     1
 74
     0
110
0.0
120
0.0
130
0.0
111
1.0
121
0.0
131
0.0
112
0.0
122
1.0
132
0.0
 79
     0
146
0.0
170
     0
 61
     5
348
2F
292
     1
282
     1
141
0.0
142
0.0
 63
   256
361
242
  0
ENDBLK
  5
159
330
156
100
AcDbEntity
  8
0
100
AcDbBlockEnd
  0
BLOCK
  5
16F
330
16D
100
AcDbEntity
  8
0
100
AcDbBlockBegin
  2
*Paper_Space6
 70
     0
 10
0.0
 20
0.0
 30
0.0
  3
*Paper_Space6
  1

  0
CIRCLE
  5
173
330
16D
100
AcDbEntity
  8
0
  6
Continuous
 62
     7
370
    25
100
AcDbCircle
 10
-0.0000000001
 20
0.0000000001
 30
0.0
 40
22.50000000013075
  0
SPLINE
  5
179
330
16D
100
AcDbEntity
  8
0
  6
Continuous
 62
     7
370
    25
100
AcDbSpline
210
0.0
220
0.0
230
1.0
 70
     8
 71
     3
 72
    46
 73
    42
 74
     0
 42
0.000000001
 43
0.00000001
 40
0.0
 40
0.0
 40
0.0
 40
0.0
 40
0.0624999999999996
 40
0.0624999999999996
 40
0.1249999999999991
 40
0.1249999999999991
 40
0.2499999999999984
 40
0.2499999999999984
 40
0.3749999999999976
 40
0.3749999999999976
 40
0.4374999999999973
 40
0.4374999999999973
 40
0.4531249999999973
 40
0.4531249999999973
 40
0.4687499999999974
 40
0.4687499999999974
 40
0.4999999999999977
 40
0.4999999999999977
 40
0.5624999999999986
 40
0.5624999999999986
 40
0.6249999999999994
 40
0.6249999999999994
 40
0.6875000000000003
 40
0.6875000000000003
 40
0.7187500000000006
 40
0.7187500000000006
 40
0.7343750000000004
 40
0.7343750000000004
 40
0.7500000000000003
 40
0.7500000000000003
 40
0.8125000000000004
 40
0.8125000000000004
 40
0.8750000000000004
 40
0.8750000000000004
 40
0.9375000000000004
 40
0.9375000000000004
 40
0.9531250000000003
 40
0.9531250000000003
 40
0.9687500000000002
 40
0.9687500000000002
 40
1.0
 40
1.0
 40
1.0
 40
1.0
 10
200.0
 20
105.0000000000004
 30
0.0
 10
204.2578761121458
 20
108.8974459688522
 30
0.0
 10
208.5018197924095
 20
112.7487224503718
 30
0.0
 10
216.9472604899609
 20
120.3751013323072
 30
0.0
 10
221.1490982386648
 20
124.1498191661691
 30
0.0
 10
233.6831422855997
 20
135.365919043883
 30
0.0
 10
241.9438324137918
 20
142.7001542223794
 30
0.0
 10
258.2531270272456
 20
157.0739166933286
 30
0.0
 10
266.3023644905033
 20
164.1131525385923
 30
0.0
 10
278.203239867425
 20
174.4184757234156
 30
0.0
 10
282.1413259888857
 20
177.8110906591854
 30
0.0
 10
287.0256989811596
 20
181.9932574028586
 30
0.0
 10
288.0013864913905
 20
182.8273731604645
 30
0.0
 10
289.9434209412058
 20
184.484919007237
 30
0.0
 10
290.9101382830899
 20
185.3086683377878
 30
0.0
 10
293.7973076440074
 20
187.764656528672
 30
0.0
 10
295.7047808341058
 20
189.3816419065785
 30
0.0
 10
301.3744845865209
 20
194.1698473072759
 30
0.0
 10
305.0840716795965
 20
197.2784372924343
 30
0.0
 10
312.3569794100468
 20
203.3166649708853
 30
0.0
 10
315.9203212010289
 20
206.2463425103475
 30
0.0
 10
322.8923707831983
 20
211.9106137700188
 30
0.0
 10
326.3011119272001
 20
214.6452720747675
 30
0.0
 10
331.2894561825124
 20
218.584463900016
 30
0.0
 10
332.9314137856753
 20
219.8703437179388
 30
0.0
 10
335.3616987700511
 20
221.7557581606607
 30
0.0
 10
336.167132095511
 20
222.3775883856617
 30
0.0
 10
337.7608629611485
 20
223.6016981673039
 30
0.0
 10
338.5495967814108
 20
224.204322546428
 30
0.0
 10
342.452292676938
 20
227.1695927104576
 30
0.0
 10
345.4435335079053
 20
229.3889937604903
 30
0.0
 10
351.1530660214697
 20
233.4995563214473
 30
0.0
 10
353.8714056863994
 20
235.3908145695003
 30
0.0
 10
359.0182973793082
 20
238.8132325666843
 30
0.0
 10
361.446930708422
 20
240.344555515148
 30
0.0
 10
364.2862966609752
 20
242.005526604252
 30
0.0
 10
364.8447943126008
 20
242.3252814149234
 30
0.0
 10
365.9392556300811
 20
242.9371979771873
 30
0.0
 10
366.4748542814234
 20
243.2291699257514
 30
0.0
 10
368.0464323939146
 20
244.0623501035916
 30
0.0
 10
369.0472106060668
 20
244.5608522358493
 30
0.0
 10
369.9999999999998
 20
244.9999999999999
 30
0.0
  0
SPLINE
  5
17B
330
16D
100
AcDbEntity
  8
0
  6
Continuous
 62
     7
370
    25
100
AcDbSpline
210
0.0
220
0.0
230
1.0
 70
     8
 71
     3
 72
    40
 73
    36
 74
     0
 42
0.000000001
 43
0.00000001
 40
0.0
 40
0.0
 40
0.0
 40
0.0
 40
0.0624999999999992
 40
0.0624999999999992
 40
0.1249999999999985
 40
0.1249999999999985
 40
0.1874999999999977
 40
0.1874999999999977
 40
0.2187499999999973
 40
0.2187499999999973
 40
0.234374999999997
 40
0.234374999999997
 40
0.2499999999999968
 40
0.2499999999999968
 40
0.3124999999999969
 40
0.3124999999999969
 40
0.3749999999999972
 40
0.3749999999999972
 40
0.4999999999999981
 40
0.4999999999999981
 40
0.5312499999999982
 40
0.5312499999999982
 40
0.5624999999999982
 40
0.5624999999999982
 40
0.6249999999999988
 40
0.6249999999999988
 40
0.7499999999999993
 40
0.7499999999999993
 40
0.875
 40
0.875
 40
0.90625
 40
0.90625
 40
0.9375000000000001
 40
0.9375000000000001
 40
1.0
 40
1.0
 40
1.0
 40
1.0
 10
-369.9999999999999
 20
245.0
 30
0.0
 10
-368.0927888814492
 20
244.120952118267
 30
0.0
 10
-366.0091954660446
 20
243.0119207012259
 30
0.0
 10
-361.5175692162277
 20
240.3873150650352
 30
0.0
 10
-359.1094394892463
 20
238.8715370766711
 30
0.0
 10
-353.9878602992023
 20
235.470459901988
 30
0.0
 10
-351.2743543693133
 20
233.5850416416166
 30
0.0
 10
-346.9844403795415
 20
230.4992287241182
 30
0.0
 10
-345.5178125378624
 20
229.4276003589377
 30
0.0
 10
-343.2636709821267
 20
227.757460770763
 30
0.0
 10
-342.5024879102103
 20
227.1897177858126
 30
0.0
 10
-340.9658179839538
 20
226.0363429406061
 30
0.0
 10
-340.1913498284948
 20
225.4514842801967
 30
0.0
 10
-336.2890915561305
 20
222.4877018711773
 30
0.0
 10
-333.0717578946177
 20
219.9906826723589
 30
0.0
 10
-326.4615791939113
 20
214.7731667116197
 30
0.0
 10
-323.0686859636018
 20
212.052576625123
 30
0.0
 10
-312.6432343561725
 20
203.5864129820501
 30
0.0
 10
-305.3650943943887
 20
197.5383548476342
 30
0.0
 10
-295.8899934870042
 20
189.5384481992
 30
0.0
 10
-293.9729012079245
 20
187.9136693435914
 30
0.0
 10
-290.1220928070086
 20
184.6386385677172
 30
0.0
 10
-288.1874893047771
 20
182.9876599834371
 30
0.0
 10
-282.3569379700883
 20
177.9963769536246
 30
0.0
 10
-278.4342799044417
 20
174.6178057314376
 30
0.0
 10
-266.5649865058604
 20
164.3419684578796
 30
0.0
 10
-258.5172522452083
 20
157.3055496896367
 30
0.0
 10
-242.1726815374943
 20
142.9029569705498
 30
0.0
 10
-233.8751980413308
 20
135.5371168353165
 30
0.0
 10
-223.3597960388524
 20
126.1282231810444
 30
0.0
 10
-221.249572147324
 20
124.2362538948835
 30
0.0
 10
-217.0154211183908
 20
120.4314615156837
 30
0.0
 10
-214.8910392006418
 20
118.5182308585965
 30
0.0
 10
-208.5164795116042
 20
112.7620927140332
 30
0.0
 10
-204.2585845553656
 20
108.8980944421987
 30
0.0
 10
-200.0
 20
105.0000000000004
 30
0.0
  0
LINE
  5
189
330
16D
100
AcDbEntity
  8
0
  6
Continuous
 62
     7
370
    25
100
AcDbLine
 10
62.5
 20
62.5
 30
0.0
 11
-62.5
 21
62.5
 31
0.0
  0
LINE
  5
18A
330
16D
100
AcDbEntity
  8
0
  6
Continuous
 62
     7
370
    25
100
AcDbLine
 10
62.5
 20
-62.5
 30
0.0
 11
62.5
 21
62.5
 31
0.0
  0
LINE
  5
18B
330
16D
100
AcDbEntity
  8
0
  6
Continuous
 62
     7
370
    25
100
AcDbLine
 10
-62.5
 20
-62.5
 30
0.0
 11
62.5
 21
-62.5
 31
0.0
  0
LINE
  5
18C
330
16D
100
AcDbEntity
  8
0
  6
Continuous
 62
     7
370
    25
100
AcDbLine
 10
-62.5
 20
62.5
 30
0.0
 11
-62.5
 21
-62.5
 31
0.0
  0
LINE
  5
18D
330
16D
100
AcDbEntity
  8
0
  6
Continuous
 62
     7
370
    25
100
AcDbLine
 10
370.0
 20
-95.0
 30
0.0
 11
370.0
 21
245.0
 31
0.0
  0
LINE
  5
18E
330
16D
100
AcDbEntity
  8
0
  6
Continuous
 62
     7
370
    25
100
AcDbLine
 10
200.0
 20
-95.0
 30
0.0
 11
200.0
 21
105.0
 31
0.0
  0
LINE
  5
18F
330
16D
100
AcDbEntity
  8
0
  6
Continuous
 62
     7
370
    25
100
AcDbLine
 10
200.0
 20
105.0
 30
0.0
 11
-200.0
 21
105.0
 31
0.0
  0
LINE
  5
190
330
16D
100
AcDbEntity
  8
0
  6
Continuous
 62
     7
370
    25
100
AcDbLine
 10
370.0
 20
245.0
 30
0.0
 11
-370.0
 21
245.0
 31
0.0
  0
LINE
  5
191
330
16D
100
AcDbEntity
  8
0
  6
Continuous
 62
     7
370
    25
100
AcDbLine
 10
-200.0
 20
-95.0
 30
0.0
 11
-200.0
 21
105.0
 31
0.0
  0
LINE
  5
192
330
16D
100
AcDbEntity
  8
0
  6
Continuous
 62
     7
370
    25
100
AcDbLine
 10
-370.0
 20
-95.0
 30
0.0
 11
370.0
 21
-95.0
 31
0.0
  0
LINE
  5
193
330
16D
100
AcDbEntity
  8
0
  6
Continuous
 62
     7
370
    25
100
AcDbLine
 10
-370.0
 20
-95.0
 30
0.0
 11
-370.0
 21
245.0
 31
0.0
  0
LINE
  5
194
330
16D
100
AcDbEntity
  8
0
  6
Continuous
 62
     7
370
    25
100
AcDbLine
 10
-65.5
 20
65.5
 30
0.0
 11
-62.5
 21
62.5
 31
0.0
  0
LINE
  5
195
330
16D
100
AcDbEntity
  8
0
  6
Continuous
 62
     7
370
    25
100
AcDbLine
 10
-65.5
 20
65.5
 30
0.0
 11
65.5
 21
65.5
 31
0.0
  0
LINE
  5
196
330
16D
100
AcDbEntity
  8
0
  6
Continuous
 62
     7
370
    25
100
AcDbLine
 10
62.5
 20
62.5
 30
0.0
 11
65.5
 21
65.5
 31
0.0
  0
LINE
  5
197
330
16D
100
AcDbEntity
  8
0
  6
Continuous
 62
     7
370
    25
100
AcDbLine
 10
62.5
 20
-62.5
 30
0.0
 11
65.5
 21
-65.5
 31
0.0
  0
LINE
  5
198
330
16D
100
AcDbEntity
  8
0
  6
Continuous
 62
     7
370
    25
100
AcDbLine
 10
65.5
 20
-65.5
 30
0.0
 11
-65.5
 21
-65.5
 31
0.0
  0
LINE
  5
199
330
16D
100
AcDbEntity
  8
0
  6
Continuous
 62
     7
370
    25
100
AcDbLine
 10
-65.5
 20
-65.5
 30
0.0
 11
-62.5
 21
-62.5
 31
0.0
  0
LINE
  5
19A
330
16D
100
AcDbEntity
  8
0
  6
Continuous
 62
     7
370
    25
100
AcDbLine
 10
-65.5
 20
-65.5
 30
0.0
 11
-65.5
 21
65.5
 31
0.0
  0
LINE
  5
19B
330
16D
100
AcDbEntity
  8
0
  6
Continuous
 62
     7
370
    25
100
AcDbLine
 10
65.5
 20
65.5
 30
0.0
 11
65.5
 21
-65.5
 31
0.0
  0
VIEWPORT
  5
243
330
16D
100
AcDbEntity
  8
0
100
AcDbViewport
 10
0.0
 20
0.0
 30
0.0
 40
205.6
 41
156.0
 68
     1
 69
     1
 12
-35.0021541698
 22
-57.6078718791
 13
0.0
 23
0.0
 14
10.0
 24
10.0
 15
10.0
 25
10.0
 16
0.0
 26
0.0
 36
1.0
 17
0.0
 27
0.0
 37
0.0
 42
50.0
 43
0.0
 44
0.0
 45
629.3179300739
 50
0.0
 51
0.0
 72
   100
 90
   557152
  1

281
     0
 71
     1
 74
     0
110
0.0
120
0.0
130
0.0
111
1.0
121
0.0
131
0.0
112
0.0
122
1.0
132
0.0
 79
     0
146
0.0
170
     0
 61
     5
348
2F
292
     1
282
     1
141
0.0
142
0.0
 63
   256
361
244
  0
ENDBLK
  5
170
330
16D
100
AcDbEntity
  8
0
100
AcDbBlockEnd
  0
BLOCK
  5
19E
330
19C
100
AcDbEntity
  8
0
100
AcDbBlockBegin
  2
*Paper_Space7
 70
     0
 10
0.0
 20
0.0
 30
0.0
  3
*Paper_Space7
  1

  0
SPLINE
  5
1A2
330
19C
100
AcDbEntity
  8
0
  6
Continuous
 62
     7
370
    25
100
AcDbSpline
210
0.0
220
0.0
230
1.0
 70
     8
 71
     3
 72
    21
 73
    17
 74
     0
 42
0.000000001
 43
0.00000001
 40
0.0
 40
0.0
 40
0.0
 40
0.0
 40
0.0789338048751829
 40
0.1582062258739545
 40
0.2365164527079279
 40
0.3151058515231084
 40
0.3964320605839987
 40
0.4780168981017399
 40
0.5510291878797817
 40
0.6244115562517039
 40
0.6979370789668078
 40
0.7721224519286237
 40
0.8464318935028388
 40
0.9213777560791331
 40
0.996431807524521
 40
1.0
 40
1.0
 40
1.0
 40
1.0
 10
-434.8706704297266
 20
51.02550698891975
 30
0.0
 10
-433.6155784090483
 20
48.07838945542939
 30
0.0
 10
-431.1000101803282
 20
42.17151162383686
 30
0.0
 10
-426.5216358093301
 20
33.65805494249935
 30
0.0
 10
-421.4091420798451
 20
25.41544646981302
 30
0.0
 10
-415.6910882185213
 20
17.39675658223162
 30
0.0
 10
-409.3765724387453
 20
9.578404442382713
 30
0.0
 10
-402.7326986636943
 20
2.258359912435961
 30
0.0
 10
-395.9171901517288
 20
-4.520725035772652
 30
0.0
 10
-389.01059024128
 20
-10.79062418315127
 30
0.0
 10
-381.7611613413706
 20
-16.82356157213123
 30
0.0
 10
-374.1968443946762
 20
-22.6082182355911
 30
0.0
 10
-366.3288208350563
 20
-28.1662292507539
 30
0.0
 10
-358.1675506305139
 20
-33.4455777664556
 30
0.0
 10
-352.4863838865165
 20
-36.95349229129835
 30
0.0
 10
-349.4840773693209
 20
-38.62447141237237
 30
0.0
 10
-349.3478206690602
 20
-38.70030714064923
 30
0.0
  0
SPLINE
  5
1A4
330
19C
100
AcDbEntity
  8
0
  6
Continuous
 62
     7
370
    25
100
AcDbSpline
210
0.0
220
0.0
230
1.0
 70
     8
 71
     3
 72
    19
 73
    15
 74
     0
 42
0.000000001
 43
0.00000001
 40
0.0
 40
0.0
 40
0.0
 40
0.0
 40
0.0439176403073866
 40
0.1276189441840632
 40
0.2114748587019092
 40
0.2868503036492146
 40
0.3623612123609453
 40
0.4359149619101961
 40
0.5369195141577253
 40
0.6383651245897727
 40
0.726376642223349
 40
0.8147562362302536
 40
0.8947163043984534
 40
1.0
 40
1.0
 40
1.0
 40
1.0
 10
75.72316098368938
 20
-284.022437863491
 30
0.0
 10
75.86545278002933
 20
-284.1212751959799
 30
0.0
 10
76.27893421227063
 20
-284.4084836145089
 30
0.0
 10
76.99766305971674
 20
-284.3390146780307
 30
0.0
 10
77.84785258539974
 20
-283.8860299745645
 30
0.0
 10
78.7015711489525
 20
-282.9686489228204
 30
0.0
 10
79.54752669283911
 20
-281.669735506418
 30
0.0
 10
80.52601680855206
 20
-279.7308499748951
 30
0.0
 10
81.65612747663444
 20
-276.9347938938224
 30
0.0
 10
82.91350896346096
 20
-273.1510184724624
 30
0.0
 10
84.1830844458429
 20
-268.7538025009175
 30
0.0
 10
85.41941393187092
 20
-263.9906816368791
 30
0.0
 10
86.80257709290996
 20
-258.2450064939377
 30
0.0
 10
87.81368326096246
 20
-253.6545119390957
 30
0.0
 10
88.38834764831756
 20
-251.045494385483
 30
0.0
  0
LWPOLYLINE
  5
1A6
330
19C
100
AcDbEntity
  8
0
  6
Continuous
 62
     7
370
    25
100
AcDbPolyline
 90
       13
 70
   128
 43
0.0
 10
290.050483666
 20
-161.3519171288
 10
291.9697533509
 20
-160.2063995824
 10
296.3583701495
 20
-157.2878886846
 10
300.5567807709
 20
-154.0633638777
 10
304.5584124719
 20
-150.5378732562
 10
308.3570005729
 20
-146.7169360857
 10
311.9465982657
 20
-142.606534163
 10
315.3215859226
 20
-138.2131024506
 10
318.4766798951
 20
-133.5435190034
 10
321.4069407849
 20
-128.6050942002
 10
324.1077811769
 20
-123.4055592994
 10
326.5749728211
 20
-117.9530543356
 10
328.8046532517
 20
-112.2561153756
  0
SPLINE
  5
1A7
330
19C
100
AcDbEntity
  8
0
  6
Continuous
 62
     7
370
    25
100
AcDbSpline
210
0.0
220
0.0
230
1.0
 70
     8
 71
     3
 72
    34
 73
    30
 74
     0
 42
0.000000001
 43
0.00000001
 40
0.0
 40
0.0
 40
0.0
 40
0.0
 40
0.1249999999999925
 40
0.1249999999999925
 40
0.1874999999999891
 40
0.1874999999999891
 40
0.2187499999999875
 40
0.2187499999999875
 40
0.2499999999999858
 40
0.2499999999999858
 40
0.3749999999999826
 40
0.3749999999999826
 40
0.4374999999999822
 40
0.4374999999999822
 40
0.4999999999999818
 40
0.4999999999999818
 40
0.5624999999999813
 40
0.5624999999999813
 40
0.5937499999999829
 40
0.5937499999999829
 40
0.6249999999999845
 40
0.6249999999999845
 40
0.7499999999999902
 40
0.7499999999999902
 40
0.8124999999999927
 40
0.8124999999999927
 40
0.8749999999999951
 40
0.8749999999999951
 40
1.0
 40
1.0
 40
1.0
 40
1.0
 10
105.5310265137569
 20
-232.9851554060094
 30
0.0
 10
104.3719800116147
 20
-233.6542587094318
 30
0.0
 10
103.1138242836224
 20
-234.2426911202721
 30
0.0
 10
101.0821321577931
 20
-235.0077563454192
 30
0.0
 10
100.3806529641482
 20
-235.2430408031961
 30
0.0
 10
99.29099133405558
 20
-235.565490536102
 30
0.0
 10
98.92067940156231
 20
-235.6680707043903
 30
0.0
 10
98.17574202056824
 20
-235.860709553358
 30
0.0
 10
97.80029768958788
 20
-235.9510408146581
 30
0.0
 10
95.90849522846969
 20
-236.3733547837838
 30
0.0
 10
94.34881191828333
 20
-236.6181501282365
 30
0.0
 10
91.94043405851194
 20
-236.8467839439014
 30
0.0
 10
91.12263676644729
 20
-236.8996471868756
 30
0.0
 10
89.49838700474918
 20
-236.9565690960215
 30
0.0
 10
88.68838298095923
 20
-236.9611613115556
 30
0.0
 10
87.07248051328399
 20
-236.9241403583754
 30
0.0
 10
86.26658245897873
 20
-236.8825228052169
 30
0.0
 10
85.0608012917938
 20
-236.7855917890905
 30
0.0
 10
84.6593860998527
 20
-236.7475207872071
 30
0.0
 10
83.8575877377716
 20
-236.6597641114594
 30
0.0
 10
83.45640278921836
 20
-236.6099443563529
 30
0.0
 10
81.47261026954635
 20
-236.3343098375488
 30
0.0
 10
79.9433020223705
 20
-236.0286251472188
 30
0.0
 10
77.73085762459793
 20
-235.4498145244153
 30
0.0
 10
77.00705921293468
 20
-235.2366876626949
 30
0.0
 10
75.58707107709108
 20
-234.7696960277305
 30
0.0
 10
74.89579058164654
 20
-234.5172954254736
 30
0.0
 10
72.89509919857025
 20
-233.712151988276
 30
0.0
 10
71.65011021547437
 20
-233.1091931167996
 30
0.0
 10
70.49263762484476
 20
-232.4409984131533
 30
0.0
  0
SPLINE
  5
1AE
330
19C
100
AcDbEntity
  8
0
  6
Continuous
 62
     7
370
    25
100
AcDbSpline
210
0.0
220
0.0
230
1.0
 70
     8
 71
     3
 72
    34
 73
    30
 74
     0
 42
0.000000001
 43
0.00000001
 40
0.0
 40
0.0
 40
0.0
 40
0.0
 40
0.1249999999999934
 40
0.1249999999999934
 40
0.1874999999999901
 40
0.1874999999999901
 40
0.2187499999999885
 40
0.2187499999999885
 40
0.2499999999999868
 40
0.2499999999999868
 40
0.3749999999999889
 40
0.3749999999999889
 40
0.43749999999999
 40
0.43749999999999
 40
0.499999999999991
 40
0.499999999999991
 40
0.6249999999999954
 40
0.6249999999999954
 40
0.6874999999999977
 40
0.6874999999999977
 40
0.7187499999999983
 40
0.7187499999999983
 40
0.749999999999999
 40
0.749999999999999
 40
0.8749999999999992
 40
0.8749999999999992
 40
0.9374999999999999
 40
0.9374999999999999
 40
1.0
 40
1.0
 40
1.0
 40
1.0
 10
295.6296699013427
 20
-101.26868625706
 30
0.0
 10
296.8424166709131
 20
-101.9687900650045
 30
0.0
 10
297.9331945092898
 20
-102.7191351294698
 30
0.0
 10
299.3901634362595
 20
-103.9184676239118
 30
0.0
 10
299.8457612837733
 20
-104.3306267577725
 30
0.0
 10
300.4827659789373
 20
-104.9679752119621
 30
0.0
 10
300.6873562384463
 20
-105.1836148565545
 30
0.0
 10
301.080665601544
 20
-105.621431768136
 30
0.0
 10
301.2698182802774
 20
-105.8441850612625
 30
0.0
 10
302.1667888548327
 20
-106.9646598563823
 30
0.0
 10
302.7334510028396
 20
-107.8856236523518
 30
0.0
 10
303.3565701075968
 20
-109.3040271678304
 30
0.0
 10
303.5262234414051
 20
-109.7830271836342
 30
0.0
 10
303.7861739472175
 20
-110.7539543437321
 30
0.0
 10
303.8765358203783
 20
-111.2487892058673
 30
0.0
 10
304.0183646461257
 20
-112.7242585893302
 30
0.0
 10
303.9449722785973
 20
-113.6995387372693
 30
0.0
 10
303.5793693770442
 20
-115.1497306158672
 30
0.0
 10
303.4146278664401
 20
-115.6309921640213
 30
0.0
 10
303.0997933483885
 20
-116.3495109298391
 30
0.0
 10
302.9832615567461
 20
-116.5888314813103
 30
0.0
 10
302.730190021634
 20
-117.0603530929396
 30
0.0
 10
302.5933805387012
 20
-117.293264701694
 30
0.0
 10
301.8585764827455
 20
-118.4437464675218
 30
0.0
 10
301.1098887359393
 20
-119.3195250689594
 30
0.0
 10
299.7384377287903
 20
-120.5642991229762
 30
0.0
 10
299.2370342653199
 20
-120.9692514901956
 30
0.0
 10
298.1645848656093
 20
-121.7416562948022
 30
0.0
 10
297.5927159230989
 20
-122.1103021476067
 30
0.0
 10
296.9848480983496
 20
-122.4612167734066
 30
0.0
  0
SPLINE
  5
1B0
330
19C
100
AcDbEntity
  8
0
  6
Continuous
 62
     7
370
    25
100
AcDbSpline
210
0.0
220
0.0
230
1.0
 70
     8
 71
     3
 72
    34
 73
    30
 74
     0
 42
0.000000001
 43
0.00000001
 40
0.0
 40
0.0
 40
0.0
 40
0.0
 40
0.1249999999999966
 40
0.1249999999999966
 40
0.1874999999999948
 40
0.1874999999999948
 40
0.2187499999999946
 40
0.2187499999999946
 40
0.2499999999999944
 40
0.2499999999999944
 40
0.3749999999999963
 40
0.3749999999999963
 40
0.4062499999999966
 40
0.4062499999999966
 40
0.4374999999999969
 40
0.4374999999999969
 40
0.4999999999999976
 40
0.4999999999999976
 40
0.5624999999999981
 40
0.5624999999999981
 40
0.6249999999999988
 40
0.6249999999999988
 40
0.7499999999999993
 40
0.7499999999999993
 40
0.8124999999999994
 40
0.8124999999999994
 40
0.8749999999999997
 40
0.8749999999999997
 40
1.0
 40
1.0
 40
1.0
 40
1.0
 10
-212.1320343559637
 20
171.4457034827691
 30
0.0
 10
-210.9182008030685
 20
172.1464346773726
 30
0.0
 10
-209.5951993782065
 20
172.7578647161728
 30
0.0
 10
-207.4546706453234
 20
173.5473773943399
 30
0.0
 10
-206.7149431739086
 20
173.7891016088799
 30
0.0
 10
-205.5651015440221
 20
174.1187624077347
 30
0.0
 10
-205.1753040879699
 20
174.2230353850882
 30
0.0
 10
-204.391688665145
 20
174.4181544894795
 30
0.0
 10
-203.99671866241
 20
174.5093426980818
 30
0.0
 10
-202.0064136246659
 20
174.9341451587978
 30
0.0
 10
-200.3651726211577
 20
175.1752686602313
 30
0.0
 10
-198.2532509398914
 20
175.3550394829627
 30
0.0
 10
-197.826687371658
 20
175.3848993474876
 30
0.0
 10
-196.9754874683555
 20
175.4317784800339
 30
0.0
 10
-196.5503765620117
 20
175.4488755661361
 30
0.0
 10
-195.2764716334228
 20
175.4816496596111
 30
0.0
 10
-194.4291019830854
 20
175.4788538374885
 30
0.0
 10
-192.7380438591937
 20
175.425520623301
 30
0.0
 10
-191.8943557227934
 20
175.3749788586495
 30
0.0
 10
-190.2106481693974
 20
175.2263153204664
 30
0.0
 10
-189.3673238458371
 20
175.1275389503881
 30
0.0
 10
-186.8895720511327
 20
174.7659322224536
 30
0.0
 10
-185.2944390780386
 20
174.4380592759069
 30
0.0
 10
-182.9826257273494
 20
173.8224250473522
 30
0.0
 10
-182.2243908575901
 20
173.5960274839226
 30
0.0
 10
-180.7405757576871
 20
173.1027611138296
 30
0.0
 10
-180.0221470894102
 20
172.8383599343969
 30
0.0
 10
-177.93471110359
 20
171.9938098808082
 30
0.0
 10
-176.6329877350231
 20
171.3627428733153
 30
0.0
 10
-175.4215170996543
 20
170.6633757619651
 30
0.0
  0
SPLINE
  5
1B2
330
19C
100
AcDbEntity
  8
0
  6
Continuous
 62
     7
370
    25
100
AcDbSpline
210
0.0
220
0.0
230
1.0
 70
     8
 71
     3
 72
    34
 73
    30
 74
     0
 42
0.000000001
 43
0.00000001
 40
0.0
 40
0.0
 40
0.0
 40
0.0
 40
0.1249999999999993
 40
0.1249999999999993
 40
0.187500000000001
 40
0.187500000000001
 40
0.2187500000000019
 40
0.2187500000000019
 40
0.2500000000000028
 40
0.2500000000000028
 40
0.3750000000000041
 40
0.3750000000000041
 40
0.4375000000000047
 40
0.4375000000000047
 40
0.5000000000000053
 40
0.5000000000000053
 40
0.6250000000000048
 40
0.6250000000000048
 40
0.6875000000000033
 40
0.6875000000000033
 40
0.7500000000000019
 40
0.7500000000000019
 40
0.8749999999999989
 40
0.8749999999999989
 40
0.9062499999999992
 40
0.9062499999999992
 40
0.9374999999999994
 40
0.9374999999999994
 40
1.0
 40
1.0
 40
1.0
 40
1.0
 10
-402.6432462479115
 20
40.69453349332289
 30
0.0
 10
-403.8014684577533
 20
41.36316094292902
 30
0.0
 10
-404.8426460044546
 20
42.08013590414645
 30
0.0
 10
-406.2298422852015
 20
43.22770780210477
 30
0.0
 10
-406.6629768735765
 20
43.62231988771553
 30
0.0
 10
-407.267274090149
 20
44.2329932720934
 30
0.0
 10
-407.4611270668148
 20
44.43968189331496
 30
0.0
 10
-407.833264034905
 20
44.85949019954658
 30
0.0
 10
-408.0117290688613
 20
45.0729105652704
 30
0.0
 10
-408.8552350894166
 20
46.14503716190296
 30
0.0
 10
-409.3828415692724
 20
47.02687035055197
 30
0.0
 10
-409.9523663981053
 20
48.38599626820811
 30
0.0
 10
-410.1049966162253
 20
48.84513873089641
 30
0.0
 10
-410.3325825309168
 20
49.77615773133797
 30
0.0
 10
-410.4072046294746
 20
50.24963766588652
 30
0.0
 10
-410.5062998622954
 20
51.65684016778954
 30
0.0
 10
-410.4107258359008
 20
52.58738535910179
 30
0.0
 10
-410.0217177489588
 20
53.97166860592101
 30
0.0
 10
-409.8506357458943
 20
54.43158067321841
 30
0.0
 10
-409.4225934083542
 20
55.3456225506847
 30
0.0
 10
-409.1692833135617
 20
55.79211426301506
 30
0.0
 10
-408.2950567368372
 20
57.10095859227063
 30
0.0
 10
-407.5609388719204
 20
57.93297383143514
 30
0.0
 10
-406.4491205659906
 20
58.92095607609676
 30
0.0
 10
-406.2163932739196
 20
59.11635487994376
 30
0.0
 10
-405.7346142465687
 20
59.49886308894165
 30
0.0
 10
-405.4854606098211
 20
59.68612271765805
 30
0.0
 10
-404.713432799107
 20
60.23602715710263
 30
0.0
 10
-404.1660502455442
 20
60.58682580727501
 30
0.0
 10
-403.5858559405567
 20
60.92176485016643
 30
0.0
  0
LWPOLYLINE
  5
1B4
330
19C
100
AcDbEntity
  8
0
  6
Continuous
 62
     7
370
    25
100
AcDbPolyline
 90
       28
 70
   128
 43
0.0
 10
172.2799422144
 20
-123.9625975411
 10
178.072605989
 20
-127.1622110438
 10
183.8544741121
 20
-130.0670212727
 10
189.6147710516
 20
-132.671614601
 10
195.3427614774
 20
-134.9711369094
 10
201.0277702679
 20
-136.9613026319
 10
206.6592024059
 20
-138.6384027435
 10
212.2265627232
 20
-139.9993116721
 10
217.7194754611
 20
-141.0414931235
 10
223.127703607
 20
-141.7630048087
 10
228.441167973
 20
-142.1625020633
 10
233.6499659802
 20
-142.2392403536
 10
238.744390114
 20
-141.9930766643
 10
243.7149460156
 20
-141.4244697648
 10
248.5523701767
 20
-140.5344793545
 10
253.2476472033
 20
-139.3247640876
 10
257.7920266178
 20
-137.7975784821
 10
262.1770391668
 20
-135.9557687181
 10
266.3945126055
 20
-133.802767333
 10
270.4365869275
 20
-131.3425868251
 10
274.2957290136
 20
-128.5798121751
 10
277.9647466715
 20
-125.5195923013
 10
281.4368020388
 20
-122.1676304636
 10
284.7054243276
 20
-118.5301736348
 10
287.764521883
 20
-114.6140008576
 10
290.6083935369
 20
-110.4264106116
 10
293.2317392323
 20
-105.9752072103
 10
295.6296699014
 20
-101.268686257
  0
LWPOLYLINE
  5
1B5
330
19C
100
AcDbEntity
  8
0
  6
Continuous
 62
     7
370
    25
100
AcDbPolyline
 90
       28
 70
   128
 43
0.0
 10
-175.4215170996
 20
170.663375762
 10
-173.0235864306
 20
163.1882629894
 10
-170.4002407352
 20
155.7082091191
 10
-167.5563690813
 20
148.2371545519
 10
-164.4972715259
 20
140.7890229171
 10
-161.2286492371
 20
133.3776951227
 10
-157.7565938698
 20
126.0169834866
 10
-154.0875762119
 20
118.7206059942
 10
-150.2284341258
 20
111.5021607331
 10
-146.1863598038
 20
104.3751005504
 10
-141.9688863651
 20
97.352707981
 10
-137.5838738161
 20
90.4480704931
 10
-133.0394944016
 20
83.6740560975
 10
-128.344217375
 20
77.0432893661
 10
-123.5067932139
 20
70.5681279031
 10
-118.5362373123
 20
64.2606393151
 10
-113.4418131785
 20
58.1325787206
 10
-108.2330151713
 20
52.1953668423
 10
-102.9195508053
 20
46.4600687227
 10
-97.5113226594
 20
40.9373731023
 10
-92.0184099215
 20
35.6375724995
 10
-86.4510496041
 20
30.5705440281
 10
-80.8196174662
 20
25.7457309904
 10
-75.1346086756
 20
21.1721252772
 10
-69.4066182499
 20
16.8582506101
 10
-63.6463213104
 20
12.8121466561
 10
-57.8644531873
 20
9.0413540443
 10
-52.0717894127
 20
5.5529003123
  0
LWPOLYLINE
  5
1B7
330
19C
100
AcDbEntity
  8
0
  6
Continuous
 62
     7
370
    25
100
AcDbPolyline
 90
       31
 70
   128
 43
0.0
 10
-69.7494589423
 20
-25.0657213826
 10
-75.8998241487
 20
-21.3713404057
 10
-82.040101026
 20
-17.3953178158
 10
-88.1602177928
 20
-13.1441754086
 10
-94.2501357359
 20
-8.6248862535
 10
-100.2998656768
 20
-3.8448632561
 10
-106.2994843565
 20
1.1880530014
 10
-112.2391507127
 20
6.4656071203
 10
-118.1091220215
 20
11.9791424274
 10
-123.8997698789
 20
17.7196151737
 10
-129.6015959932
 20
23.677609369
 10
-135.2052477658
 20
29.8433522269
 10
-140.7015336313
 20
36.2067301945
 10
-146.0814381349
 20
42.757305542
 10
-151.3361367195
 20
49.4843334829
 10
-156.4570102015
 20
56.3767797991
 10
-161.4356589076
 20
63.4233389397
 10
-166.2639164536
 20
70.6124525655
 10
-170.9338631387
 20
77.9323285077
 10
-175.4378389368
 20
85.3709601106
 10
-179.7684560604
 20
92.9161459259
 10
-183.9186110793
 20
100.5555097262
 10
-187.8814965718
 20
108.276520806
 10
-191.6506122908
 20
116.0665145349
 10
-195.2197758263
 20
123.912713132
 10
-198.583132746
 20
131.8022466243
 10
-201.7351661984
 20
139.7221739575
 10
-204.670705962
 20
147.6595042227
 10
-207.3849369258
 20
155.6012179656
 10
-209.8734069874
 20
163.5342885414
 10
-212.132034356
 20
171.4457034828
  0
LWPOLYLINE
  5
1BA
330
19C
100
AcDbEntity
  8
0
  6
Continuous
 62
     7
370
    25
100
AcDbPolyline
 90
       61
 70
   128
 43
0.0
 10
-22.9809703886
 20
-101.0490818469
 10
-20.4529127092
 20
-99.7350172075
 10
-17.7007686381
 20
-98.5807017297
 10
-14.7546912416
 20
-97.5987823354
 10
-11.6469583603
 20
-96.800017139
 10
-8.4116189659
 20
-96.1931575792
 10
-5.0841201139
 20
-95.7848525361
 10
-1.700918578
 20
-95.5795754855
 10
1.7009185778
 20
-95.5795754855
 10
5.0841201137
 20
-95.7848525361
 10
8.4116189658
 20
-96.1931575792
 10
11.6469583601
 20
-96.800017139
 10
14.7546912415
 20
-97.5987823354
 10
17.7007686379
 20
-98.5807017297
 10
20.452912709
 20
-99.7350172075
 10
22.9809703885
 20
-101.0490818469
 10
25.2572437473
 20
-102.5084984807
 10
27.2567934581
 20
-104.0972774348
 10
28.957712036
 20
-105.7980117147
 10
30.3413638611
 20
-107.5920677195
 10
31.3925893543
 20
-109.4597893963
 10
32.0998710693
 20
-111.3807135955
 10
32.4554598794
 20
-113.3337942697
 10
32.4554598794
 20
-115.2976330583
 10
32.0998710693
 20
-117.2507137325
 10
31.3925893543
 20
-119.1716379317
 10
30.3413638611
 20
-121.0393596085
 10
28.957712036
 20
-122.8334156134
 10
27.2567934581
 20
-124.5341498932
 10
25.2572437473
 20
-126.1229288473
 10
22.9809703885
 20
-127.5823454811
 10
20.452912709
 20
-128.8964101205
 10
17.7007686379
 20
-130.0507255983
 10
14.7546912415
 20
-131.0326449926
 10
11.6469583601
 20
-131.831410189
 10
8.4116189658
 20
-132.4382697488
 10
5.0841201137
 20
-132.8465747919
 10
1.7009185778
 20
-133.0518518425
 10
-1.700918578
 20
-133.0518518425
 10
-5.0841201139
 20
-132.8465747919
 10
-8.4116189659
 20
-132.4382697488
 10
-11.6469583603
 20
-131.831410189
 10
-14.7546912416
 20
-131.0326449926
 10
-17.7007686381
 20
-130.0507255983
 10
-20.4529127092
 20
-128.8964101205
 10
-22.9809703886
 20
-127.5823454811
 10
-25.2572437474
 20
-126.1229288473
 10
-27.2567934583
 20
-124.5341498932
 10
-28.9577120362
 20
-122.8334156134
 10
-30.3413638612
 20
-121.0393596085
 10
-31.3925893545
 20
-119.1716379317
 10
-32.0998710694
 20
-117.2507137325
 10
-32.4554598796
 20
-115.2976330583
 10
-32.4554598796
 20
-113.3337942697
 10
-32.0998710694
 20
-111.3807135955
 10
-31.3925893545
 20
-109.4597893963
 10
-30.3413638612
 20
-107.5920677195
 10
-28.9577120362
 20
-105.7980117147
 10
-27.2567934583
 20
-104.0972774348
 10
-25.2572437474
 20
-102.5084984807
 10
-22.9809703886
 20
-101.0490818469
  0
LWPOLYLINE
  5
1BC
330
19C
100
AcDbEntity
  8
0
  6
Continuous
 62
     7
370
    25
100
AcDbPolyline
 90
       12
 70
   128
 43
0.0
 10
-15.9099025768
 20
-113.2965305248
 10
-17.7784877785
 20
-114.5200882916
 10
-19.3666956077
 20
-115.8691963121
 10
-20.649479078
 20
-117.3225783471
 10
-21.6066079278
 20
-118.8573136937
 10
-22.2229876635
 20
-120.4491986585
 10
-22.4888976083
 20
-122.0731282649
 10
-22.4001442036
 20
-123.7034921727
 10
-21.9581271437
 20
-125.3145785693
 10
-21.1698173015
 20
-126.8809796598
 10
-20.0476467943
 20
-128.3779923632
 10
-18.7944575997
 20
-129.6222049317
  0
LWPOLYLINE
  5
1BD
330
19C
100
AcDbEntity
  8
0
  6
Continuous
 62
     7
370
    25
100
AcDbPolyline
 90
       25
 70
   128
 43
0.0
 10
18.7944575996
 20
-129.6222049317
 10
19.3666956075
 20
-129.0930472536
 10
20.6494790778
 20
-127.6396652186
 10
21.6066079277
 20
-126.104929872
 10
22.2229876633
 20
-124.5130449072
 10
22.4888976082
 20
-122.8891153008
 10
22.4001442035
 20
-121.258751393
 10
21.9581271435
 20
-119.6476649964
 10
21.1698173014
 20
-118.0812639059
 10
20.0476467942
 20
-116.5842512025
 10
18.6093129211
 20
-115.1802356708
 10
16.8774990666
 20
-113.8913594744
 10
14.8795169697
 20
-112.7379489609
 10
12.6468760016
 20
-111.7381941031
 10
10.2147862441
 20
-110.9078616323
 10
7.6216032054
 20
-110.2600463876
 10
4.9082229313
 20
-109.8049648024
 10
2.1174370496
 20
-109.5497937852
 10
-0.7067420793
 20
-109.4985575353
 10
-3.5197754635
 20
-109.6520640789
 10
-6.277299886
 20
-110.0078925263
 10
-8.9358275394
 20
-110.5604312502
 10
-11.4534318545
 20
-111.3009663849
 10
-13.7904087073
 20
-112.2178192489
 10
-15.9099025768
 20
-113.2965305248
  0
LWPOLYLINE
  5
1BE
330
19C
100
AcDbEntity
  8
0
  6
Continuous
 62
     7
370
    25
100
AcDbPolyline
 90
       20
 70
   128
 43
0.0
 10
20.5358839177
 20
-127.78863706
 10
19.3666956076
 20
-126.4842268666
 10
17.7784877785
 20
-125.135118846
 10
15.9099025767
 20
-123.9115610793
 10
13.7904087072
 20
-122.8328498034
 10
11.4534318544
 20
-121.9159969394
 10
8.9358275393
 20
-121.1754618047
 10
6.2772998858
 20
-120.6229230808
 10
3.5197754634
 20
-120.2670946334
 10
0.7067420792
 20
-120.1135880897
 10
-2.1174370498
 20
-120.1648243396
 10
-4.9082229315
 20
-120.4199953569
 10
-7.6216032056
 20
-120.8750769421
 10
-10.2147862443
 20
-121.5228921868
 10
-12.6468760018
 20
-122.3532246576
 10
-14.8795169699
 20
-123.3529795154
 10
-16.8774990669
 20
-124.5063900289
 10
-18.6093129214
 20
-125.7952662253
 10
-20.0476467944
 20
-127.199281757
 10
-20.5358839179
 20
-127.78863706
  0
SPLINE
  5
1BF
330
19C
100
AcDbEntity
  8
0
  6
Continuous
 62
     8
370
    25
100
AcDbSpline
210
0.0
220
0.0
230
1.0
 70
     8
 71
     3
 72
    11
 73
     7
 74
     0
 42
0.000000001
 43
0.00000001
 40
0.0
 40
0.0
 40
0.0
 40
0.0
 40
0.0874152691929958
 40
0.5413490717869455
 40
0.9973262580398498
 40
1.0
 40
1.0
 40
1.0
 40
1.0
 10
60.13703306385007
 20
-226.4628351488732
 30
0.0
 10
60.13910280596671
 20
-226.0098821911288
 30
0.0
 10
60.15192039474771
 20
-223.2048154619203
 30
0.0
 10
60.18962812024996
 20
-217.4531267847487
 30
0.0
 10
60.22479070651003
 20
-211.9487589870712
 30
0.0
 10
60.24293119728981
 20
-209.070426018696
 30
0.0
 10
60.24303694871948
 20
-209.0536465483855
 30
0.0
  0
SPLINE
  5
1C0
330
19C
100
AcDbEntity
  8
0
  6
Continuous
 62
     8
370
    25
100
AcDbSpline
210
0.0
220
0.0
230
1.0
 70
     8
 71
     3
 72
    11
 73
     7
 74
     0
 42
0.000000001
 43
0.00000001
 40
0.0
 40
0.0
 40
0.0
 40
0.0
 40
0.0023381715276676
 40
0.3633099493133458
 40
0.7242807770745111
 40
0.9999999999999999
 40
0.9999999999999999
 40
0.9999999999999999
 40
0.9999999999999999
 10
60.24303694871946
 20
-209.0536465483854
 30
0.0
 10
60.24733806184948
 20
-209.0713158310795
 30
0.0
 10
60.91565395517323
 20
-211.8168056824583
 30
0.0
 10
62.24826474304998
 20
-217.1109231137463
 30
0.0
 10
64.08485263219328
 20
-223.9967249478906
 30
0.0
 10
65.26005031118655
 20
-227.9863658498966
 30
0.0
 10
65.76897076704479
 20
-229.7140835801588
 30
0.0
  0
LWPOLYLINE
  5
1C1
330
19C
100
AcDbEntity
  8
0
  6
Continuous
 62
     8
370
    25
100
AcDbPolyline
 90
       10
 70
   128
 43
0.0
 10
207.4747474507
 20
-174.1342979848
 10
202.9619357639
 20
-173.3712339384
 10
197.0919644551
 20
-172.1074446317
 10
191.1522980989
 20
-170.5272059481
 10
185.1526794192
 20
-168.6331099235
 10
179.1029494783
 20
-166.4282634084
 10
173.0130315352
 20
-163.9162829711
 10
166.8929147684
 20
-161.1012889663
 10
160.7526378911
 20
-157.987898776
 10
154.6022726847
 20
-154.581219236
  0
SPLINE
  5
1C2
330
19C
100
AcDbEntity
  8
0
  6
Continuous
 62
     8
370
    25
100
AcDbSpline
210
0.0
220
0.0
230
1.0
 70
     8
 71
     3
 72
    11
 73
     7
 74
     0
 42
0.000000001
 43
0.00000001
 40
0.0
 40
0.0
 40
0.0
 40
0.0
 40
0.0026723532804859
 40
0.4431969715358076
 40
0.885972044122284
 40
1.0
 40
1.0
 40
1.0
 40
1.0
 10
-164.1086946785657
 20
-79.5381486948399
 30
0.0
 10
-164.1377640790821
 20
-79.53820778649003
 30
0.0
 10
-168.9587847006146
 20
-79.54800785318616
 30
0.0
 10
-178.5938315712188
 20
-79.36264944944722
 30
0.0
 10
-189.4342676765343
 20
-78.88596119917824
 30
0.0
 10
-195.4505698019483
 20
-78.31990926626175
 30
0.0
 10
-196.6826511632799
 20
-78.20398722286134
 30
0.0
  0
SPLINE
  5
1C3
330
19C
100
AcDbEntity
  8
0
  6
Continuous
 62
     8
370
    25
100
AcDbSpline
210
0.0
220
0.0
230
1.0
 70
     8
 71
     3
 72
    11
 73
     7
 74
     0
 42
0.000000001
 43
0.00000001
 40
0.0
 40
0.0
 40
0.0
 40
0.0
 40
0.3161197926760091
 40
0.6336992149695946
 40
0.952674626697721
 40
1.0
 40
1.0
 40
1.0
 40
1.0
 10
-403.5858559405564
 20
60.92176485016631
 30
0.0
 10
-402.4605829167636
 20
57.92841537484006
 30
0.0
 10
-400.2048411115209
 20
51.92789513981627
 30
0.0
 10
-395.9233449231293
 20
43.22486732035507
 30
0.0
 10
-392.5883205910401
 20
37.08077647595582
 30
0.0
 10
-390.5066447943462
 20
33.9388879762675
 30
0.0
 10
-390.2376961919986
 20
33.53296188438227
 30
0.0
  0
SPLINE
  5
1C4
330
19C
100
AcDbEntity
  8
0
  6
Continuous
 62
     8
370
    25
100
AcDbSpline
210
0.0
220
0.0
230
1.0
 70
     8
 71
     3
 72
    11
 73
     7
 74
     0
 42
0.000000001
 43
0.00000001
 40
0.0
 40
0.0
 40
0.0
 40
0.0
 40
0.2530648998805523
 40
0.62465560326101
 40
0.9976635998665637
 40
1.0
 40
1.0
 40
1.0
 40
1.0
 10
-203.3151524062686
 20
-74.37512575489183
 30
0.0
 10
-200.0228818944718
 20
-74.96726589968006
 30
0.0
 10
-191.8963687999433
 20
-76.42888171258954
 30
0.0
 10
-178.8426538302915
 20
-78.14908393654937
 30
0.0
 10
-169.0570315127809
 20
-79.13641357613957
 30
0.0
 10
-164.1393059644332
 20
-79.53566349042201
 30
0.0
 10
-164.1086946785657
 20
-79.5381486948399
 30
0.0
  0
LINE
  5
1C5
330
19C
100
AcDbEntity
  8
0
  6
Continuous
 62
     7
370
    25
100
AcDbLine
 10
-349.3514416845
 20
-38.7067425959
 30
0.0
 11
75.6908984033
 21
-284.0784626447
 31
0.0
  0
LINE
  5
1C6
330
19C
100
AcDbEntity
  8
0
  6
Continuous
 62
     7
370
    25
100
AcDbLine
 10
77.4948711139
 20
-284.0576603899
 30
0.0
 11
290.050483666
 21
-161.3519171288
 31
0.0
  0
LINE
  5
1C7
330
19C
100
AcDbEntity
  8
0
  6
Continuous
 62
     7
370
    25
100
AcDbLine
 10
88.3883476483
 20
-251.0454943855
 30
0.0
 11
-434.8706704297
 21
51.0255069889
 31
0.0
  0
LINE
  5
1C8
330
19C
100
AcDbEntity
  8
0
  6
Continuous
 62
     7
370
    25
100
AcDbLine
 10
328.8046532517
 20
-112.2561153756
 30
0.0
 11
88.3883476483
 21
-251.0454943855
 31
0.0
  0
LINE
  5
1C9
330
19C
100
AcDbEntity
  8
0
  6
Continuous
 62
     7
370
    25
100
AcDbLine
 10
296.9848480983
 20
-122.4612167734
 30
0.0
 11
105.5310265138
 21
-232.985155406
 31
0.0
  0
LINE
  5
1CA
330
19C
100
AcDbEntity
  8
0
  6
Continuous
 62
     7
370
    25
100
AcDbLine
 10
154.6022726847
 20
-154.581219236
 30
0.0
 11
60.2430369487
 21
-209.0536465484
 31
0.0
  0
LINE
  5
1CB
330
19C
100
AcDbEntity
  8
0
  6
Continuous
 62
     7
370
    25
100
AcDbLine
 10
60.2430369487
 20
-209.0536465484
 30
0.0
 11
-164.1086946786
 21
-79.5381486948
 31
0.0
  0
LINE
  5
1CC
330
19C
100
AcDbEntity
  8
0
  6
Continuous
 62
     7
370
    25
100
AcDbLine
 10
70.492637625
 20
-232.4409984132
 30
0.0
 11
-402.6432462478
 21
40.6945334933
 31
0.0
  0
LINE
  5
1CD
330
19C
100
AcDbEntity
  8
0
  6
Continuous
 62
     7
370
    25
100
AcDbLine
 10
328.8046532517
 20
-112.2561153756
 30
0.0
 11
-194.4543648263
 21
189.8148859988
 31
0.0
  0
LINE
  5
1CE
330
19C
100
AcDbEntity
  8
0
  6
Continuous
 62
     7
370
    25
100
AcDbLine
 10
-194.4543648263
 20
189.8148859988
 30
0.0
 11
-434.8706704297
 21
51.0255069889
 31
0.0
  0
LINE
  5
1CF
330
19C
100
AcDbEntity
  8
0
  6
Continuous
 62
     7
370
    25
100
AcDbLine
 10
295.6296699014
 20
-101.268686257
 30
0.0
 11
-175.4215170996
 21
170.663375762
 31
0.0
  0
LINE
  5
1D0
330
19C
100
AcDbEntity
  8
0
  6
Continuous
 62
     7
370
    25
100
AcDbLine
 10
-212.132034356
 20
171.4457034828
 30
0.0
 11
-403.5858559406
 21
60.9217648502
 31
0.0
  0
LINE
  5
1D1
330
19C
100
AcDbEntity
  8
0
  6
Continuous
 62
     7
370
    25
100
AcDbLine
 10
-52.0717894127
 20
5.5529003123
 30
0.0
 11
172.2799422144
 21
-123.9625975411
 31
0.0
  0
LINE
  5
1D2
330
19C
100
AcDbEntity
  8
0
  6
Continuous
 62
     7
370
    25
100
AcDbLine
 10
-69.7494589423
 20
-25.0657213826
 30
0.0
 11
-164.1086946786
 21
-79.5381486948
 31
0.0
  0
LINE
  5
1D3
330
19C
100
AcDbEntity
  8
0
  6
Continuous
 62
     7
370
    25
100
AcDbLine
 10
154.6022726847
 20
-154.581219236
 30
0.0
 11
-69.7494589423
 21
-25.0657213826
 31
0.0
  0
ARC
  5
1D4
330
19C
100
AcDbEntity
  8
0
  6
Continuous
 62
     7
370
    25
100
AcDbCircle
 10
134.0069197338
 20
-122.2780721376
 30
0.0
 40
38.31007538015522
100
AcDbArc
 50
302.5201547614
 51
357.479845093
  0
ARC
  5
1D5
330
19C
100
AcDbEntity
  8
0
  6
Continuous
 62
     7
370
    25
100
AcDbCircle
 10
-90.3447301254
 20
7.2373785071
 30
0.0
 40
38.30999161562054
100
AcDbArc
 50
302.5200896024
 51
357.479910252
  0
VIEWPORT
  5
245
330
19C
100
AcDbEntity
  8
0
100
AcDbViewport
 10
0.0
 20
0.0
 30
0.0
 40
205.6
 41
156.0
 68
     1
 69
     1
 12
-35.0021541698
 22
-57.6078718791
 13
0.0
 23
0.0
 14
10.0
 24
10.0
 15
10.0
 25
10.0
 16
0.0
 26
0.0
 36
1.0
 17
0.0
 27
0.0
 37
0.0
 42
50.0
 43
0.0
 44
0.0
 45
629.3179300739
 50
0.0
 51
0.0
 72
   100
 90
   557152
  1

281
     0
 71
     1
 74
     0
110
0.0
120
0.0
130
0.0
111
1.0
121
0.0
131
0.0
112
0.0
122
1.0
132
0.0
 79
     0
146
0.0
170
     0
 61
     5
348
2F
292
     1
282
     1
141
0.0
142
0.0
 63
   256
361
246
  0
ENDBLK
  5
19F
330
19C
100
AcDbEntity
  8
0
100
AcDbBlockEnd
  0
BLOCK
  5
1D8
330
1D6
100
AcDbEntity
  8
0
100
AcDbBlockBegin
  2
*Paper_Space8
 70
     0
 10
0.0
 20
0.0
 30
0.0
  3
*Paper_Space8
  1

  0
SPLINE
  5
1DC
330
1D6
100
AcDbEntity
  8
0
  6
Continuous
 62
     7
370
    25
100
AcDbSpline
210
0.0
220
0.0
230
1.0
 70
     8
 71
     3
 72
    24
 73
    20
 74
     0
 42
0.000000001
 43
0.00000001
 40
0.0
 40
0.0
 40
0.0
 40
0.0
 40
0.0587144860515182
 40
0.1172081815525494
 40
0.1759315056648562
 40
0.2353075031935568
 40
0.2948838601769317
 40
0.3555703025956837
 40
0.4099601289933815
 40
0.4644651802837662
 40
0.5193526243151488
 40
0.574339133201202
 40
0.6298074713695898
 40
0.685361886441634
 40
0.7412684751908886
 40
0.7972500122015215
 40
0.872491528300413
 40
0.947887659127653
 40
1.0
 40
1.0
 40
1.0
 40
1.0
 10
-441.5750753085111
 20
-22.66432563399605
 30
0.0
 10
-440.2482079151256
 20
-25.51785215674469
 30
0.0
 10
-437.5994626939954
 20
-31.21417477208484
 30
0.0
 10
-432.8687793882239
 20
-39.31765524838685
 30
0.0
 10
-427.616179340663
 20
-47.10233342252022
 30
0.0
 10
-421.8041339833077
 20
-54.53976148467438
 30
0.0
 10
-415.4490834824733
 20
-61.66027359282764
 30
0.0
 10
-408.8358664221747
 20
-68.18774705429675
 30
0.0
 10
-402.0485415371843
 20
-74.16065372083096
 30
0.0
 10
-395.1859051073051
 20
-79.59949984591292
 30
0.0
 10
-388.014709311316
 20
-84.73052421075913
 30
0.0
 10
-380.539740408844
 20
-89.56662682430701
 30
0.0
 10
-372.7934616612061
 20
-94.1008603473021
 30
0.0
 10
-364.7822952570541
 20
-98.34292608941996
 30
0.0
 10
-356.5424589146565
 20
-102.2849511004988
 30
0.0
 10
-347.1277570283103
 20
-106.3521548905598
 30
0.0
 10
-336.479852841746
 20
-110.3942843038294
 30
0.0
 10
-325.8176984315696
 20
-113.9537856438697
 30
0.0
 10
-318.9448975482906
 20
-115.8246511226825
 30
0.0
 10
-316.1360038520269
 20
-116.5892683928816
 30
0.0
  0
SPLINE
  5
1DE
330
1D6
100
AcDbEntity
  8
0
  6
Continuous
 62
     7
370
    25
100
AcDbSpline
210
0.0
220
0.0
230
1.0
 70
     8
 71
     3
 72
    22
 73
    18
 74
     0
 42
0.000000001
 43
0.00000001
 40
0.0
 40
0.0
 40
0.0
 40
0.0
 40
0.0613374239121715
 40
0.1483851304262334
 40
0.2184859805004844
 40
0.284676517359701
 40
0.3509925716702916
 40
0.4101686349849458
 40
0.4694526439666794
 40
0.5248478166413078
 40
0.5803491677471926
 40
0.6554914217349791
 40
0.7258135833984122
 40
0.7964380688216087
 40
0.8589249356745775
 40
0.9216742808158159
 40
0.9999999999999999
 40
0.9999999999999999
 40
0.9999999999999999
 40
0.9999999999999999
 10
160.437770636319
 20
-246.0957010759585
 30
0.0
 10
161.664368575236
 20
-246.4245760427976
 30
0.0
 10
164.6317070048278
 20
-247.2201776793812
 30
0.0
 10
168.9369580364905
 20
-247.5566887304967
 30
0.0
 10
173.2864076431776
 20
-247.3491011167516
 30
0.0
 10
177.1787819933036
 20
-246.6152980813694
 30
0.0
 10
180.8074555104987
 20
-245.4200330184402
 30
0.0
 10
184.2492447053204
 20
-243.784292283885
 30
0.0
 10
187.4323453896584
 20
-241.8000594834483
 30
0.0
 10
190.4898518442072
 20
-239.4191240284269
 30
0.0
 10
193.7642691118686
 20
-236.336420839903
 30
0.0
 10
197.2069347310342
 20
-232.3747237574972
 30
0.0
 10
200.7790273529992
 20
-227.3267790779458
 30
0.0
 10
204.0112335253586
 20
-221.8368923959475
 30
0.0
 10
206.9860103301431
 20
-215.8478858931191
 30
0.0
 10
209.9484801129453
 20
-208.9939944915934
 30
0.0
 10
211.8426694742536
 20
-203.5549035246245
 30
0.0
 10
212.8943347327806
 20
-200.5350877000978
 30
0.0
  0
SPLINE
  5
1E1
330
1D6
100
AcDbEntity
  8
0
  6
Continuous
 62
     7
370
    25
100
AcDbSpline
210
0.0
220
0.0
230
1.0
 70
     8
 71
     3
 72
    34
 73
    30
 74
     0
 42
0.000000001
 43
0.00000001
 40
0.0
 40
0.0
 40
0.0
 40
0.0
 40
0.1249999999999925
 40
0.1249999999999925
 40
0.1874999999999891
 40
0.1874999999999891
 40
0.2187499999999875
 40
0.2187499999999875
 40
0.2499999999999858
 40
0.2499999999999858
 40
0.3749999999999826
 40
0.3749999999999826
 40
0.4374999999999822
 40
0.4374999999999822
 40
0.4999999999999818
 40
0.4999999999999818
 40
0.5624999999999813
 40
0.5624999999999813
 40
0.5937499999999829
 40
0.5937499999999829
 40
0.6249999999999845
 40
0.6249999999999845
 40
0.7499999999999902
 40
0.7499999999999902
 40
0.8124999999999927
 40
0.8124999999999927
 40
0.8749999999999951
 40
0.8749999999999951
 40
1.0
 40
1.0
 40
1.0
 40
1.0
 10
220.0313945727761
 20
-182.5332475542587
 30
0.0
 10
219.2664158277022
 20
-183.2798902609583
 30
0.0
 10
218.3654739537583
 20
-183.9728496014849
 30
0.0
 10
216.8158855029399
 20
-184.9340414026684
 30
0.0
 10
216.2660907015245
 20
-185.2413042688691
 30
0.0
 10
215.3900324879571
 20
-185.6819173314547
 30
0.0
 10
215.0887293972516
 20
-185.8256879657638
 30
0.0
 10
214.4755954278297
 20
-186.1032126110604
 30
0.0
 10
214.1631216723068
 20
-186.2373235351927
 30
0.0
 10
212.5718093845304
 20
-186.8850860407535
 30
0.0
 10
211.2069685578608
 20
-187.3310134870558
 30
0.0
 10
209.0230314426066
 20
-187.89227665069
 30
0.0
 10
208.2687709835078
 20
-188.0617460573474
 30
0.0
 10
206.7461173876676
 20
-188.3573598466306
 30
0.0
 10
205.9746041571458
 20
-188.4844993011571
 30
0.0
 10
204.4118586807103
 20
-188.6987699378675
 30
0.0
 10
203.6206245636529
 20
-188.785897323653
 30
0.0
 10
202.4190478652071
 20
-188.8867115186609
 30
0.0
 10
202.0160638278728
 20
-188.9153282130069
 30
0.0
 10
201.2051389738308
 20
-188.9625047010295
 30
0.0
 10
200.7963635489368
 20
-188.981072182879
 30
0.0
 10
198.7600538839851
 20
-189.047924587916
 30
0.0
 10
197.1425746494666
 20
-189.0200230738593
 30
0.0
 10
194.732692357349
 20
-188.863244434998
 30
0.0
 10
193.9321404041205
 20
-188.7916941278076
 30
0.0
 10
192.3365693998404
 20
-188.6096699968691
 30
0.0
 10
191.5469896918038
 20
-188.4996973393933
 30
0.0
 10
189.2236070479956
 20
-188.1177875002091
 30
0.0
 10
187.7256581118744
 20
-187.7932476488615
 30
0.0
 10
186.2779422056856
 20
-187.3997894863588
 30
0.0
  0
SPLINE
  5
1E5
330
1D6
100
AcDbEntity
  8
0
  6
Continuous
 62
     7
370
    25
100
AcDbSpline
210
0.0
220
0.0
230
1.0
 70
     8
 71
     3
 72
    34
 73
    30
 74
     0
 42
0.000000001
 43
0.00000001
 40
0.0
 40
0.0
 40
0.0
 40
0.0
 40
0.1249999999999934
 40
0.1249999999999934
 40
0.1874999999999901
 40
0.1874999999999901
 40
0.2187499999999885
 40
0.2187499999999885
 40
0.2499999999999868
 40
0.2499999999999868
 40
0.3749999999999889
 40
0.3749999999999889
 40
0.43749999999999
 40
0.43749999999999
 40
0.499999999999991
 40
0.499999999999991
 40
0.6249999999999954
 40
0.6249999999999954
 40
0.6874999999999977
 40
0.6874999999999977
 40
0.7187499999999983
 40
0.7187499999999983
 40
0.749999999999999
 40
0.749999999999999
 40
0.8749999999999992
 40
0.8749999999999992
 40
0.9374999999999999
 40
0.9374999999999999
 40
1.0
 40
1.0
 40
1.0
 40
1.0
 10
334.2541814211307
 20
-41.34364516691073
 30
0.0
 10
335.7710318439395
 20
-41.75589260965717
 30
0.0
 10
337.1970618050395
 20
-42.22951879903362
 30
0.0
 10
339.2026725224545
 20
-43.03013627965787
 30
0.0
 10
339.8488273074766
 20
-43.31213517197843
 30
0.0
 10
340.7835150339701
 20
-43.75847951717164
 30
0.0
 10
341.0893107992488
 20
-43.9111583206013
 30
0.0
 10
341.6890843553881
 20
-44.2245028110783
 30
0.0
 10
341.9837711050125
 20
-44.38559352124977
 30
0.0
 10
343.4140214737706
 20
-45.20418780464243
 30
0.0
 10
344.4266196330889
 20
-45.90297612051878
 30
0.0
 10
345.747675341738
 20
-47.01717418859109
 30
0.0
 10
346.1548437741607
 20
-47.3996461769302
 30
0.0
 10
346.8999795124853
 20
-48.1876811268888
 30
0.0
 10
347.239496393302
 20
-48.5957126725259
 30
0.0
 10
348.1299345381364
 20
-49.83176977627039
 30
0.0
 10
348.55882789995
 20
-50.67422621493621
 30
0.0
 10
348.9515416787976
 20
-51.96593290403711
 30
0.0
 10
349.0403925885098
 20
-52.40120374026228
 30
0.0
 10
349.1072422532902
 20
-53.06153703364507
 30
0.0
 10
349.1183604976661
 20
-53.28325255789918
 30
0.0
 10
349.11783900555
 20
-53.72365901837566
 30
0.0
 10
349.1063051236945
 20
-53.94299663415262
 30
0.0
 10
348.9929414997223
 20
-55.0354081995173
 30
0.0
 10
348.7257592488478
 20
-55.89578545801871
 30
0.0
 10
348.0524004074927
 20
-57.16542070812739
 30
0.0
 10
347.7805664115633
 20
-57.58686462884943
 30
0.0
 10
347.1511761032092
 20
-58.40838362158679
 30
0.0
 10
346.7934441277929
 20
-58.80960111829041
 30
0.0
 10
346.3922471396754
 20
-59.20118167795525
 30
0.0
  0
SPLINE
  5
1E7
330
1D6
100
AcDbEntity
  8
0
  6
Continuous
 62
     7
370
    25
100
AcDbSpline
210
0.0
220
0.0
230
1.0
 70
     8
 71
     3
 72
    34
 73
    30
 74
     0
 42
0.000000001
 43
0.00000001
 40
0.0
 40
0.0
 40
0.0
 40
0.0
 40
0.1249999999999966
 40
0.1249999999999966
 40
0.1874999999999948
 40
0.1874999999999948
 40
0.2187499999999946
 40
0.2187499999999946
 40
0.2499999999999944
 40
0.2499999999999944
 40
0.3749999999999963
 40
0.3749999999999963
 40
0.4062499999999966
 40
0.4062499999999966
 40
0.4374999999999969
 40
0.4374999999999969
 40
0.4999999999999976
 40
0.4999999999999976
 40
0.5624999999999981
 40
0.5624999999999981
 40
0.6249999999999988
 40
0.6249999999999988
 40
0.7499999999999993
 40
0.7499999999999993
 40
0.8124999999999994
 40
0.8124999999999994
 40
0.8749999999999997
 40
0.8749999999999997
 40
1.0
 40
1.0
 40
1.0
 40
1.0
 10
-290.3888004680679
 20
113.8622624944681
 30
0.0
 10
-289.5876618888081
 20
114.6441983078641
 30
0.0
 10
-288.6365345823106
 20
115.3666248636814
 30
0.0
 10
-286.9954744124097
 20
116.3652119552511
 30
0.0
 10
-286.4124328739139
 20
116.6837825007691
 30
0.0
 10
-285.4825694086739
 20
117.1396971312884
 30
0.0
 10
-285.1635163501009
 20
117.2878749671979
 30
0.0
 10
-284.5146991396116
 20
117.5733977446691
 30
0.0
 10
-284.1840093830045
 20
117.7112095216665
 30
0.0
 10
-282.4998628129561
 20
118.376078235431
 30
0.0
 10
-281.0552245405112
 20
118.8312832466927
 30
0.0
 10
-279.1295149807672
 20
119.3057978453758
 30
0.0
 10
-278.7372621030353
 20
119.3961420009902
 30
0.0
 10
-277.9480275810185
 20
119.5655922928494
 30
0.0
 10
-277.5506323564433
 20
119.6448369543623
 30
0.0
 10
-276.3503362893269
 20
119.8665704106267
 30
0.0
 10
-275.5393444719728
 20
119.9930969868999
 30
0.0
 10
-273.8964503514064
 20
120.2048970455386
 30
0.0
 10
-273.0645461330307
 20
120.2901667495882
 30
0.0
 10
-271.3798979730778
 20
120.419592667351
 30
0.0
 10
-270.523661654471
 20
120.4636937007607
 30
0.0
 10
-267.9714439508581
 20
120.5324123048623
 30
0.0
 10
-266.2797241635413
 20
120.4956122336933
 30
0.0
 10
-263.7560654724257
 20
120.3225634830436
 30
0.0
 10
-262.9158234865235
 20
120.2449405289042
 30
0.0
 10
-261.2458296696299
 20
120.0502307654441
 30
0.0
 10
-260.4241728929334
 20
119.9341593056954
 30
0.0
 10
-257.99775329986
 20
119.5318571640083
 30
0.0
 10
-256.4312195932196
 20
119.1919899716994
 30
0.0
 10
-254.9159653030513
 20
118.7801763236042
 30
0.0
  0
SPLINE
  5
1E9
330
1D6
100
AcDbEntity
  8
0
  6
Continuous
 62
     7
370
    25
100
AcDbSpline
210
0.0
220
0.0
230
1.0
 70
     8
 71
     3
 72
    34
 73
    30
 74
     0
 42
0.000000001
 43
0.00000001
 40
0.0
 40
0.0
 40
0.0
 40
0.0
 40
0.1249999999999993
 40
0.1249999999999993
 40
0.187500000000001
 40
0.187500000000001
 40
0.2187500000000019
 40
0.2187500000000019
 40
0.2500000000000028
 40
0.2500000000000028
 40
0.3750000000000041
 40
0.3750000000000041
 40
0.4375000000000047
 40
0.4375000000000047
 40
0.5000000000000053
 40
0.5000000000000053
 40
0.6250000000000048
 40
0.6250000000000048
 40
0.6875000000000033
 40
0.6875000000000033
 40
0.7500000000000019
 40
0.7500000000000019
 40
0.8749999999999989
 40
0.8749999999999989
 40
0.9062499999999992
 40
0.9062499999999992
 40
0.9374999999999994
 40
0.9374999999999994
 40
1.0
 40
1.0
 40
1.0
 40
1.0
 10
-405.4996518526806
 20
-26.56731968129171
 30
0.0
 10
-406.9483053496737
 20
-26.17360670169872
 30
0.0
 10
-408.3098739876302
 20
-25.72087825558635
 30
0.0
 10
-410.2223414217488
 20
-24.95376506473461
 30
0.0
 10
-410.8380571150726
 20
-24.68330528544448
 30
0.0
 10
-411.7278481755224
 20
-24.25472198365448
 30
0.0
 10
-412.0188058655567
 20
-24.10803923482527
 30
0.0
 10
-412.5891374377977
 20
-23.8068236489815
 30
0.0
 10
-412.8688381307524
 20
-23.65206206512827
 30
0.0
 10
-414.2232716511162
 20
-22.86654441085314
 30
0.0
 10
-415.1785352108344
 20
-22.19516801520563
 30
0.0
 10
-416.4180580092867
 20
-21.12334264176133
 30
0.0
 10
-416.7988025714564
 20
-20.75520675642982
 30
0.0
 10
-417.4925983997442
 20
-19.99626439031586
 30
0.0
 10
-417.8061513452269
 20
-19.60404048573716
 30
0.0
 10
-418.6208332259038
 20
-18.41967042314815
 30
0.0
 10
-419.0056455878886
 20
-17.61196986544401
 30
0.0
 10
-419.3422757262871
 20
-16.37288055028563
 30
0.0
 10
-419.4141453880469
 20
-15.95484261737147
 30
0.0
 10
-419.4728795951582
 20
-15.11063072745618
 30
0.0
 10
-419.4593234089305
 20
-14.69152249940794
 30
0.0
 10
-419.2937857490974
 20
-13.44291854048892
 30
0.0
 10
-419.0181313666687
 20
-12.6220599940438
 30
0.0
 10
-418.4614309161547
 20
-11.61080191726179
 30
0.0
 10
-418.3390651592102
 20
-11.40884687973091
 30
0.0
 10
-418.0744962266448
 20
-11.009518945845
 30
0.0
 10
-417.9322725595155
 20
-10.81200250251141
 30
0.0
 10
-417.4760551252113
 20
-10.22583715279611
 30
0.0
 10
-417.1325853077521
 20
-9.843557019404662
 30
0.0
 10
-416.7496530349677
 20
-9.469803381835312
 30
0.0
  0
LWPOLYLINE
  5
1EB
330
1D6
100
AcDbEntity
  8
0
  6
Continuous
 62
     7
370
    25
100
AcDbPolyline
 90
       31
 70
   128
 43
0.0
 10
-112.302925382
 20
-54.5410845335
 10
-119.9955321964
 20
-52.299390911
 10
-127.6755209716
 20
-49.7593584505
 10
-135.3302943655
 20
-46.92515352
 10
-142.9472963965
 20
-43.8014250127
 10
-150.5140330385
 20
-40.3932967222
 10
-158.0180927147
 20
-36.7063589376
 10
-165.4471666564
 20
-32.746659274
 10
-172.7890690924
 20
-28.5206927528
 10
-180.0317572373
 20
-24.0353911479
 10
-187.1633510451
 20
-19.2981116157
 10
-194.1721526959
 20
-14.3166246272
 10
-201.0466657832
 20
-9.0991012225
 10
-207.7756141718
 20
-3.6540996077
 10
-214.3479604932
 20
2.0094488828
 10
-220.7529242508
 20
7.8822544364
 10
-226.9799995022
 20
13.9546839997
 10
-233.0189720922
 20
20.2167770801
 10
-238.8599364069
 20
26.6582620834
 10
-244.4933116218
 20
33.268573162
 10
-249.9098574167
 20
40.0368675463
 10
-255.1006891328
 20
46.9520433295
 10
-260.057292346
 20
54.002757678
 10
-264.7715368325
 20
61.1774454368
 10
-269.2356899052
 20
68.4643380996
 10
-273.4424290974
 20
75.8514831127
 10
-277.3848541733
 20
83.3267634802
 10
-281.0564984467
 20
90.8779176393
 10
-284.4513393882
 20
98.492559573
 10
-287.5638085036
 20
106.1581991265
 10
-290.3888004681
 20
113.8622624945
  0
LWPOLYLINE
  5
1EC
330
1D6
100
AcDbEntity
  8
0
  6
Continuous
 62
     7
370
    25
100
AcDbPolyline
 90
       14
 70
   128
 43
0.0
 10
168.3063720536
 20
-130.8046788466
 10
169.7127198754
 20
-129.2757973912
 10
171.0985599791
 20
-127.4567247348
 10
172.4436836955
 20
-125.3739870528
 10
173.7284760916
 20
-123.0579553506
 10
174.9342020014
 20
-120.5424025857
 10
176.043279226
 20
-117.8640111818
 10
177.039534922
 20
-115.0618381169
 10
177.908441438
 20
-112.1767453843
 10
178.6373281604
 20
-109.2508041325
 10
179.2155662795
 20
-106.3266811738
 10
179.6347237814
 20
-103.4470168053
 10
179.8886884059
 20
-100.6538030181
 10
179.9737567768
 20
-97.9877711589
  0
LWPOLYLINE
  5
1ED
330
1D6
100
AcDbEntity
  8
0
  6
Continuous
 62
     7
370
    25
100
AcDbPolyline
 90
       28
 70
   128
 43
0.0
 10
179.9737567768
 20
-97.9877711589
 10
187.2189663426
 20
-99.8052582237
 10
194.4506731813
 20
-101.3161467823
 10
201.6553997305
 20
-102.517621027
 10
208.8197187105
 20
-103.4074417987
 10
215.930278148
 20
-103.983950759
 10
222.9738262602
 20
-104.2460734819
 10
229.9372361518
 20
-104.1933214554
 10
236.8075302792
 20
-103.8257929922
 10
243.5719046363
 20
-103.1441730464
 10
250.2177526174
 20
-102.1497319371
 10
256.7326885115
 20
-100.8443229809
 10
263.1045705855
 20
-99.230379038
 10
269.3215237122
 20
-97.3109079776
 10
275.371961502
 20
-95.089487073
 10
281.2446078959
 20
-92.5702563343
 10
286.9285181806
 20
-89.7579107926
 10
292.4130993858
 20
-86.6576917503
 10
297.6881300263
 20
-83.275377013
 10
302.7437791512
 20
-79.6172701212
 10
307.5706246658
 20
-75.6901886029
 10
312.1596708914
 20
-71.5014512679
 10
316.5023653303
 20
-67.0588645676
 10
320.5906146047
 20
-62.3707080467
 10
324.4167995403
 20
-57.4457189123
 10
327.9737893661
 20
-52.2930757513
 10
331.2549550035
 20
-46.9223814239
 10
334.2541814211
 20
-41.3436451669
  0
LWPOLYLINE
  5
1EE
330
1D6
100
AcDbEntity
  8
0
  6
Continuous
 62
     7
370
    25
100
AcDbPolyline
 90
       28
 70
   128
 43
0.0
 10
-254.915965303
 20
118.7801763236
 10
-251.9167388854
 20
111.5711891173
 10
-248.635573248
 20
104.416993763
 10
-245.0785834222
 20
97.3309233669
 10
-241.2523984866
 20
90.326184072
 10
-237.1641492122
 20
83.4158304467
 10
-232.8214547733
 20
76.6127411548
 10
-228.2324085477
 20
69.9295949542
 10
-223.405563033
 20
63.3788470678
 10
-218.3499139082
 20
56.9727059707
 10
-213.0748832677
 20
50.7231106376
 10
-207.5903020624
 20
44.6417082929
 10
-201.9063917778
 20
38.7398327034
 10
-196.0337453839
 20
33.0284830561
 10
-189.9833075941
 20
27.5183034594
 10
-183.7663544674
 20
22.2195631058
 10
-177.3944723934
 20
17.1421371332
 10
-170.8795364993
 20
12.2954882214
 10
-164.2336885182
 20
7.6886489562
 10
-157.4693141611
 20
3.3302049959
 10
-150.5990200337
 20
-0.7717209298
 10
-143.6356101421
 20
-4.6094841578
 10
-136.5920620299
 20
-8.1759323387
 10
-129.4815025924
 20
-11.4644187669
 10
-122.3171836124
 20
-14.4688147672
 10
-115.1124570632
 20
-17.1835211173
 10
-107.8807502245
 20
-19.6034784828
 10
-100.6355406587
 20
-21.7241768458
  0
LWPOLYLINE
  5
1F1
330
1D6
100
AcDbEntity
  8
0
  6
Continuous
 62
     7
370
    25
100
AcDbPolyline
 90
       42
 70
   128
 43
0.0
 10
-28.7435889546
 20
-112.1915305211
 10
-27.0006826327
 20
-110.6868810447
 10
-24.9619511816
 20
-109.2843055418
 10
-22.6497313698
 20
-107.9991709229
 10
-20.0893563613
 20
-106.845557392
 10
-17.3088781605
 20
-105.8361041803
 10
-14.3387602685
 20
-104.9818710683
 10
-11.2115439184
 20
-104.2922172129
 10
-7.961491547
 20
-103.7746986061
 10
-4.6242114082
 20
-103.4349852899
 10
-1.2362674415
 20
-103.2767992345
 10
2.1652213301
 20
-103.3018735595
 10
5.5429874836
 20
-103.5099335453
 10
8.8600235063
 20
-103.8986996432
 10
12.0799872574
 20
-104.4639124504
 10
15.1676001402
 20
-105.1993793772
 10
18.0890336218
 20
-106.097042494
 10
20.8122798657
 20
-107.1470668158
 10
23.3075024161
 20
-108.3379480564
 10
25.5473630927
 20
-109.6566386719
 10
27.5073215131
 20
-111.0886908117
 10
29.1659039627
 20
-112.6184146131
 10
30.5049386651
 20
-114.2290501018
 10
31.509754876
 20
-115.9029508186
 10
32.1693436186
 20
-117.6217771567
 10
32.4764783006
 20
-119.3666972952
 10
32.4277938902
 20
-121.1185935239
 10
32.023823784
 20
-122.8582717011
 10
31.2689939631
 20
-124.5666715487
 10
30.1715745008
 20
-126.2250754803
 10
28.7435889544
 20
-127.8153136755
 10
27.0006826325
 20
-129.3199631519
 10
24.9619511815
 20
-130.7225386549
 10
22.6497313696
 20
-132.0076732737
 10
20.0893563611
 20
-133.1612868046
 10
17.3088781604
 20
-134.1707400164
 10
14.3387602684
 20
-135.0249731283
 10
11.2115439183
 20
-135.7146269837
 10
7.9614915469
 20
-136.2321455906
 10
4.624211408
 20
-136.5718589068
 10
1.2362674413
 20
-136.7300449621
 10
-0.1154703436
 20
-136.7420538832
  0
LWPOLYLINE
  5
1F2
330
1D6
100
AcDbEntity
  8
0
  6
Continuous
 62
     7
370
    25
100
AcDbPolyline
 90
       12
 70
   128
 43
0.0
 10
-26.7636611138
 20
-129.4996466335
 10
-27.5073215132
 20
-128.9181533849
 10
-29.1659039628
 20
-127.3884295836
 10
-30.5049386653
 20
-125.7777940948
 10
-31.5097548761
 20
-124.1038933781
 10
-32.1693436187
 20
-122.3850670399
 10
-32.4764783007
 20
-120.6401469014
 10
-32.4277938904
 20
-118.8882506727
 10
-32.0238237842
 20
-117.1485724955
 10
-31.2689939632
 20
-115.4401726479
 10
-30.1715745009
 20
-113.7817687163
 10
-28.7435889546
 20
-112.1915305211
  0
LWPOLYLINE
  5
1F4
330
1D6
100
AcDbEntity
  8
0
  6
Continuous
 62
     7
370
    25
100
AcDbPolyline
 90
       26
 70
   128
 43
0.0
 10
20.9516770979
 20
-132.7995762559
 10
21.0585749131
 20
-132.6561478294
 10
21.8856357824
 20
-131.2646072837
 10
22.3675471016
 20
-129.8306515243
 10
22.4967088413
 20
-128.3768948902
 10
22.2710840436
 20
-126.9262639919
 10
21.6942309465
 20
-125.5016361452
 10
20.7752468678
 20
-124.1254785823
 10
19.5286247355
 20
-122.81949413
 10
17.9740245253
 20
-121.6042789433
 10
16.1359632111
 20
-120.4989976917
 10
14.043428118
 20
-119.5210813207
 10
11.7294197743
 20
-118.6859521557
 10
9.2304314739
 20
-118.0067806825
 10
6.5858737553
 20
-117.494277841
 10
3.8374528732
 20
-117.1565261071
 10
1.028513067
 20
-116.9988520274
 10
-1.7966470047
 20
-117.0237422163
 10
-4.5934728799
 20
-117.2308041408
 10
-7.3178569437
 20
-117.6167723105
 10
-9.9268340321
 20
-118.1755597769
 10
-12.3792590177
 20
-118.8983541278
 10
-14.6364556937
 20
-119.7737564645
 10
-16.66282672
 20
-120.7879611692
 10
-18.426415015
 20
-121.9249736279
 10
-19.8994077378
 20
-123.1668624749
  0
LWPOLYLINE
  5
1F5
330
1D6
100
AcDbEntity
  8
0
  6
Continuous
 62
     7
370
    25
100
AcDbPolyline
 90
       14
 70
   128
 43
0.0
 10
-100.6355406587
 20
-21.7241768458
 10
-100.7206090297
 20
-24.3902087051
 10
-100.9745736542
 20
-27.1834224923
 10
-101.3937311561
 20
-30.0630868607
 10
-101.9719692752
 20
-32.9872098195
 10
-102.7008559976
 20
-35.9131510712
 10
-103.5697625136
 20
-38.7982438039
 10
-104.5660182096
 20
-41.6004168687
 10
-105.6750954342
 20
-44.2788082726
 10
-106.8808213439
 20
-46.7943610375
 10
-108.1656137401
 20
-49.1103927397
 10
-109.5107374564
 20
-51.1931304217
 10
-110.8965775602
 20
-53.0122030781
 10
-112.302925382
 20
-54.5410845335
  0
LWPOLYLINE
  5
1F6
330
1D6
100
AcDbEntity
  8
0
  6
Continuous
 62
     7
370
    25
100
AcDbPolyline
 90
       17
 70
   128
 43
0.0
 10
19.0611571566
 20
-133.5609841668
 10
18.7883992446
 20
-133.3424802811
 10
17.0887145429
 20
-132.1799380505
 10
15.1195306046
 20
-131.136279818
 10
12.9119026366
 20
-130.2279646976
 10
10.5006462509
 20
-129.4693173613
 10
7.923788401
 20
-128.8723021307
 10
5.2219676746
 20
-128.4463342928
 10
2.4377933985
 20
-128.1981316147
 10
-0.3848263357
 20
-128.1316084009
 10
-3.2013771288
 20
-128.2478137624
 10
-5.9674402921
 20
-128.544915071
 10
-8.6393933572
 20
-129.0182268618
 10
-11.1750980282
 20
-129.660284725
 10
-13.5345647276
 20
-130.4609630245
 10
-15.6805832561
 20
-131.4076345853
 10
-17.0303147026
 20
-132.1449616277
  0
LWPOLYLINE
  5
1F7
330
1D6
100
AcDbEntity
  8
0
  6
Continuous
 62
     8
370
    25
100
AcDbPolyline
 90
       16
 70
   128
 43
0.0
 10
276.4744439861
 20
-127.4431009852
 10
270.3514071649
 20
-129.7214533955
 10
263.7790608434
 20
-131.8125560824
 10
257.0501124548
 20
-133.599989721
 10
250.1755993675
 20
-135.0808224175
 10
243.1667977167
 20
-136.2526251895
 10
236.0352039089
 20
-137.1134759509
 10
228.792515764
 20
-137.6619626643
 10
221.450613328
 20
-137.8971856572
 10
214.0215393864
 20
-137.8187590977
 10
206.5174797101
 20
-137.4268116274
 10
198.9507430682
 20
-136.7219861504
 10
191.3337410372
 20
-135.7054387789
 10
183.6789676432
 20
-134.3788369364
 10
175.998978868
 20
-132.7443566231
 10
168.3063720536
 20
-130.8046788466
  0
SPLINE
  5
1F9
330
1D6
100
AcDbEntity
  8
0
  6
Continuous
 62
     8
370
    25
100
AcDbSpline
210
0.0
220
0.0
230
1.0
 70
     8
 71
     3
 72
     9
 73
     5
 74
     0
 42
0.000000001
 43
0.00000001
 40
0.0
 40
0.0
 40
0.0
 40
0.0
 40
0.5279044557229181
 40
1.0
 40
1.0
 40
1.0
 40
1.0
 10
-416.7496530349671
 20
-9.469803381835368
 30
0.0
 10
-415.4948727516102
 20
-12.37307317804649
 30
0.0
 10
-413.1179648286822
 20
-17.87268539904083
 30
0.0
 10
-410.1643560697918
 20
-23.04984330512376
 30
0.0
 10
-408.7699705351819
 20
-25.49395648460437
 30
0.0
  0
LINE
  5
1FB
330
1D6
100
AcDbEntity
  8
0
  6
Continuous
 62
     7
370
    25
100
AcDbLine
 10
-316.151669524
 20
-116.6459950481
 30
0.0
 11
160.4178895184
 21
-246.1673895454
 31
0.0
  0
LINE
  5
1FC
330
1D6
100
AcDbEntity
  8
0
  6
Continuous
 62
     7
370
    25
100
AcDbLine
 10
192.5421112747
 20
-237.4556063957
 30
0.0
 11
339.9523943335
 21
-93.5786510592
 31
0.0
  0
LINE
  5
1FD
330
1D6
100
AcDbEntity
  8
0
  6
Continuous
 62
     7
370
    25
100
AcDbLine
 10
212.8943347328
 20
-200.5350877001
 30
0.0
 11
-441.5750753085
 21
-22.664325634
 31
0.0
  0
LINE
  5
1FE
330
1D6
100
AcDbEntity
  8
0
  6
Continuous
 62
     7
370
    25
100
AcDbLine
 10
371.570766969
 20
-45.6620253866
 30
0.0
 11
212.8943347328
 21
-200.5350877001
 31
0.0
  0
LINE
  5
1FF
330
1D6
100
AcDbEntity
  8
0
  6
Continuous
 62
     7
370
    25
100
AcDbLine
 10
346.3922471397
 20
-59.201181678
 30
0.0
 11
220.0313945728
 21
-182.5332475543
 31
0.0
  0
LINE
  5
200
330
1D6
100
AcDbEntity
  8
0
  6
Continuous
 62
     7
370
    25
100
AcDbLine
 10
371.570766969
 20
-45.6620253866
 30
0.0
 11
-282.8986430723
 21
132.2087366795
 31
0.0
  0
LINE
  5
201
330
1D6
100
AcDbEntity
  8
0
  6
Continuous
 62
     7
370
    25
100
AcDbLine
 10
-282.8986430723
 20
132.2087366795
 30
0.0
 11
-441.5750753085
 21
-22.664325634
 31
0.0
  0
LINE
  5
202
330
1D6
100
AcDbEntity
  8
0
  6
Continuous
 62
     7
370
    25
100
AcDbLine
 10
334.2541814211
 20
-41.3436451669
 30
0.0
 11
-254.915965303
 21
118.7801763236
 31
0.0
  0
LINE
  5
203
330
1D6
100
AcDbEntity
  8
0
  6
Continuous
 62
     7
370
    25
100
AcDbLine
 10
-290.3888004681
 20
113.8622624945
 30
0.0
 11
-416.749653035
 21
-9.4698033818
 31
0.0
  0
LINE
  5
204
330
1D6
100
AcDbEntity
  8
0
  6
Continuous
 62
     7
370
    25
100
AcDbLine
 10
186.2779422059
 20
-187.3997894864
 30
0.0
 11
-405.4996518526
 21
-26.5673196813
 31
0.0
  0
LINE
  5
205
330
1D6
100
AcDbEntity
  8
0
  6
Continuous
 62
     7
370
    25
100
AcDbLine
 10
-100.6355406587
 20
-21.7241768458
 30
0.0
 11
179.9737567768
 21
-97.9877711589
 31
0.0
  0
LINE
  5
206
330
1D6
100
AcDbEntity
  8
0
  6
Continuous
 62
     7
370
    25
100
AcDbLine
 10
168.3063720536
 20
-130.8046788466
 30
0.0
 11
-112.302925382
 21
-54.5410845335
 31
0.0
  0
LINE
  5
207
330
1D6
100
AcDbEntity
  8
0
  6
Continuous
 62
     8
370
    25
100
AcDbLine
 10
168.3063720536
 20
-130.8046788466
 30
0.0
 11
126.8650829893
 21
-171.2526474149
 31
0.0
  0
LINE
  5
208
330
1D6
100
AcDbEntity
  8
0
  6
Continuous
 62
     8
370
    25
100
AcDbLine
 10
-112.302925382
 20
-54.5410845335
 30
0.0
 11
-153.7442144465
 21
-94.9890531018
 31
0.0
  0
ARC
  5
209
330
1D6
100
AcDbEntity
  8
0
  6
Continuous
 62
     7
370
    25
100
AcDbCircle
 10
243.9919680244
 20
4.1322103291
 30
0.0
 40
136.9518742137703
100
AcDbArc
 50
314.482164792
 51
338.6792085884
  0
ARC
  5
20A
330
1D6
100
AcDbEntity
  8
0
  6
Continuous
 62
     7
370
    25
100
AcDbCircle
 10
-15.4570097152
 20
-128.5663481889
 30
0.0
 40
6.992091687558047
100
AcDbArc
 50
129.4456570679
 51
198.3621004064
  0
VIEWPORT
  5
247
330
1D6
100
AcDbEntity
  8
0
100
AcDbViewport
 10
0.0
 20
0.0
 30
0.0
 40
205.6
 41
156.0
 68
     1
 69
     1
 12
-35.0021541698
 22
-57.6078718791
 13
0.0
 23
0.0
 14
10.0
 24
10.0
 15
10.0
 25
10.0
 16
0.0
 26
0.0
 36
1.0
 17
0.0
 27
0.0
 37
0.0
 42
50.0
 43
0.0
 44
0.0
 45
629.3179300739
 50
0.0
 51
0.0
 72
   100
 90
   557152
  1

281
     0
 71
     1
 74
     0
110
0.0
120
0.0
130
0.0
111
1.0
121
0.0
131
0.0
112
0.0
122
1.0
132
0.0
 79
     0
146
0.0
170
     0
 61
     5
348
2F
292
     1
282
     1
141
0.0
142
0.0
 63
   256
361
248
  0
ENDBLK
  5
1D9
330
1D6
100
AcDbEntity
  8
0
100
AcDbBlockEnd
  0
BLOCK
  5
20D
330
20B
100
AcDbEntity
  8
0
100
AcDbBlockBegin
  2
*Paper_Space9
 70
     0
 10
0.0
 20
0.0
 30
0.0
  3
*Paper_Space9
  1

  0
SPLINE
  5
211
330
20B
100
AcDbEntity
  8
0
  6
Continuous
 62
     7
370
    25
100
AcDbSpline
210
0.0
220
0.0
230
1.0
 70
     8
 71
     3
 72
    29
 73
    25
 74
     0
 42
0.000000001
 43
0.00000001
 40
0.0
 40
0.0
 40
0.0
 40
0.0
 40
0.0437480384277031
 40
0.0876822901916102
 40
0.1317762856833382
 40
0.1760312253403843
 40
0.2209446567758202
 40
0.26599863440161
 40
0.3066871274699898
 40
0.3475649020631794
 40
0.3885225738129283
 40
0.4298031571231169
 40
0.471152754864839
 40
0.5128141920102242
 40
0.554535632449277
 40
0.5964148685394808
 40
0.6527023051615201
 40
0.7092355086357578
 40
0.7658757599852757
 40
0.8229449061857548
 40
0.8801078814970796
 40
0.9376687352007915
 40
0.9953140279139144
 40
1.0
 40
1.0
 40
1.0
 40
1.0
 10
-432.7238889634128
 20
-32.78725347816989
 30
0.0
 10
-431.4074392317878
 20
-35.84885003165491
 30
0.0
 10
-428.7689363059533
 20
-41.98507481110268
 30
0.0
 10
-424.0933446319458
 20
-50.75918494570798
 30
0.0
 10
-418.9231508039632
 20
-59.21007117878791
 30
0.0
 10
-413.2178754258481
 20
-67.31847067066046
 30
0.0
 10
-407.0209670374331
 20
-75.07384473361523
 30
0.0
 10
-400.5805831064968
 20
-82.21349400668238
 30
0.0
 10
-393.9970367969836
 20
-88.75486506942303
 30
0.0
 10
-387.3372411951704
 20
-94.7395001398008
 30
0.0
 10
-380.378614620573
 20
-100.4090616700054
 30
0.0
 10
-373.1475039426368
 20
-105.7585698369711
 30
0.0
 10
-365.6486691069792
 20
-110.7992913741741
 30
0.0
 10
-357.9150835354448
 20
-115.5226161404181
 30
0.0
 10
-349.9575419364062
 20
-119.9349664758399
 30
0.0
 10
-340.8764028736566
 20
-124.4999398743901
 30
0.0
 10
-330.6035771314586
 20
-129.0885295994542
 30
0.0
 10
-319.0973226581702
 20
-133.5527545206904
 30
0.0
 10
-307.3146569259598
 20
-137.4893205801835
 30
0.0
 10
-295.2912578745702
 20
-140.8985675527662
 30
0.0
 10
-283.0340974402731
 20
-143.8119086133244
 30
0.0
 10
-270.5769909924442
 20
-146.1617566665464
 30
0.0
 10
-261.8517407544347
 20
-147.5818394648772
 30
0.0
 10
-257.2670326945806
 20
-148.0752411799099
 30
0.0
 10
-256.9223611391335
 20
-148.1123343894143
 30
0.0
  0
SPLINE
  5
213
330
20B
100
AcDbEntity
  8
0
  6
Continuous
 62
     7
370
    25
100
AcDbSpline
210
0.0
220
0.0
230
1.0
 70
     8
 71
     3
 72
    26
 73
    22
 74
     0
 42
0.000000001
 43
0.00000001
 40
0.0
 40
0.0
 40
0.0
 40
0.0
 40
0.0414450337744345
 40
0.1048235443868866
 40
0.1683175037643871
 40
0.2328492765831559
 40
0.2978082413222604
 40
0.3629266079032068
 40
0.413858271839307
 40
0.464883025816887
 40
0.51177825109307
 40
0.5587607952499002
 40
0.6016151553927511
 40
0.644549628266343
 40
0.6860688993854159
 40
0.7403679984238116
 40
0.7948874309268604
 40
0.844570062469676
 40
0.8944650224335384
 40
0.9414063494742618
 40
1.0
 40
1.0
 40
1.0
 40
1.0
 10
166.0141886162165
 20
-201.3468579771066
 30
0.0
 10
167.5172885939243
 20
-201.5382261984005
 30
0.0
 10
171.3189568007524
 20
-202.0222382358431
 30
0.0
 10
177.386917957609
 20
-202.0800308060771
 30
0.0
 10
184.2383638188939
 20
-201.5767041788575
 30
0.0
 10
191.0767525699705
 20
-200.3458445769594
 30
0.0
 10
197.8868573428653
 20
-198.3712968216942
 30
0.0
 10
204.1246303364513
 20
-195.8120144582764
 30
0.0
 10
209.7876248601149
 20
-192.8303359412379
 30
0.0
 10
214.7493875314779
 20
-189.6711524674753
 30
0.0
 10
219.4908289037658
 20
-186.1092083040988
 30
0.0
 10
223.8754249257127
 20
-182.2933780939193
 30
0.0
 10
228.0399504347484
 20
-178.1522549845472
 30
0.0
 10
231.9392053665749
 20
-173.7712565922805
 30
0.0
 10
236.0775867069714
 20
-168.5451289522473
 30
0.0
 10
240.4120154993124
 20
-162.3148696776407
 30
0.0
 10
244.7788920820443
 20
-155.0497755372081
 30
0.0
 10
248.814374898823
 20
-147.3328554287848
 30
0.0
 10
252.4336754077312
 20
-139.3844354893209
 30
0.0
 10
256.0542780129686
 20
-130.3842738987869
 30
0.0
 10
258.2587767392109
 20
-123.7052974441559
 30
0.0
 10
259.4827276124514
 20
-119.9970897837541
 30
0.0
  0
SPLINE
  5
216
330
20B
100
AcDbEntity
  8
0
  6
Continuous
 62
     7
370
    25
100
AcDbSpline
210
0.0
220
0.0
230
1.0
 70
     8
 71
     3
 72
    34
 73
    30
 74
     0
 42
0.000000001
 43
0.00000001
 40
0.0
 40
0.0
 40
0.0
 40
0.0
 40
0.1249999999999925
 40
0.1249999999999925
 40
0.1874999999999891
 40
0.1874999999999891
 40
0.2187499999999875
 40
0.2187499999999875
 40
0.2499999999999858
 40
0.2499999999999858
 40
0.3749999999999826
 40
0.3749999999999826
 40
0.4374999999999822
 40
0.4374999999999822
 40
0.4999999999999818
 40
0.4999999999999818
 40
0.5624999999999813
 40
0.5624999999999813
 40
0.5937499999999829
 40
0.5937499999999829
 40
0.6249999999999845
 40
0.6249999999999845
 40
0.7499999999999902
 40
0.7499999999999902
 40
0.8124999999999927
 40
0.8124999999999927
 40
0.8749999999999951
 40
0.8749999999999951
 40
1.0
 40
1.0
 40
1.0
 40
1.0
 10
262.235457481085
 20
-108.1413198149737
 30
0.0
 10
261.6559342301468
 20
-108.6524112819734
 30
0.0
 10
260.9285842552484
 20
-109.1346400307225
 30
0.0
 10
259.622091644731
 20
-109.8159137508674
 30
0.0
 10
259.1504261924128
 20
-110.0359433154201
 30
0.0
 10
258.3870800111879
 20
-110.3550835095697
 30
0.0
 10
258.1226734601261
 20
-110.4598557587997
 30
0.0
 10
257.5810046863744
 20
-110.6634020813409
 30
0.0
 10
257.3031903737267
 20
-110.7624319136726
 30
0.0
 10
255.8799167804881
 20
-111.244138608787
 30
0.0
 10
254.6328301216973
 20
-111.5868727362585
 30
0.0
 10
252.6006926881678
 20
-112.0374964546189
 30
0.0
 10
251.892997380485
 20
-112.1774746857561
 30
0.0
 10
250.4531634313693
 20
-112.4301905791739
 30
0.0
 10
249.7181680342676
 20
-112.5436961168668
 30
0.0
 10
248.2189882533161
 20
-112.745827348532
 30
0.0
 10
247.4548010997137
 20
-112.8344506816475
 30
0.0
 10
246.2867229781592
 20
-112.9488062187983
 30
0.0
 10
245.8937244630302
 20
-112.9838228329542
 30
0.0
 10
245.100390181669
 20
-113.0476020017347
 30
0.0
 10
244.699228083428
 20
-113.0764039532894
 30
0.0
 10
242.694677489227
 20
-113.2034132443419
 30
0.0
 10
241.0829440420545
 20
-113.2522771804445
 30
0.0
 10
238.6539153069987
 20
-113.2510908724111
 30
0.0
 10
237.842320740662
 20
-113.2381933572457
 30
0.0
 10
236.2152609565423
 20
-113.1871725264704
 30
0.0
 10
235.4053137225622
 20
-113.1491464879596
 30
0.0
 10
233.0079753869404
 20
-112.999805607954
 30
0.0
 10
231.4435114526922
 20
-112.8532280739091
 30
0.0
 10
229.9123191405522
 20
-112.660315975561
 30
0.0
  0
SPLINE
  5
219
330
20B
100
AcDbEntity
  8
0
  6
Continuous
 62
     7
370
    25
100
AcDbSpline
210
0.0
220
0.0
230
1.0
 70
     8
 71
     3
 72
    34
 73
    30
 74
     0
 42
0.000000001
 43
0.00000001
 40
0.0
 40
0.0
 40
0.0
 40
0.0
 40
0.1249999999999934
 40
0.1249999999999934
 40
0.1874999999999901
 40
0.1874999999999901
 40
0.2187499999999885
 40
0.2187499999999885
 40
0.2499999999999868
 40
0.2499999999999868
 40
0.3749999999999889
 40
0.3749999999999889
 40
0.43749999999999
 40
0.43749999999999
 40
0.499999999999991
 40
0.499999999999991
 40
0.6249999999999954
 40
0.6249999999999954
 40
0.6874999999999977
 40
0.6874999999999977
 40
0.7187499999999983
 40
0.7187499999999983
 40
0.749999999999999
 40
0.749999999999999
 40
0.8749999999999992
 40
0.8749999999999992
 40
0.9374999999999999
 40
0.9374999999999999
 40
1.0
 40
1.0
 40
1.0
 40
1.0
 10
341.623112100334
 20
-12.75085908090365
 30
0.0
 10
343.2274252781766
 20
-12.95298354240425
 30
0.0
 10
344.7563787261811
 20
-13.19827631031426
 30
0.0
 10
346.9390897177142
 20
-13.62963871920969
 30
0.0
 10
347.6480881257337
 20
-13.78406474132891
 30
0.0
 10
348.6829219273295
 20
-14.03212326214698
 30
0.0
 10
349.0230814249013
 20
-14.11755048579898
 30
0.0
 10
349.6935942668644
 20
-14.29402219084012
 30
0.0
 10
350.0247533267368
 20
-14.38531035783017
 30
0.0
 10
351.6408580881188
 20
-14.85197336207492
 30
0.0
 10
352.8137140806761
 20
-15.25893899655208
 30
0.0
 10
354.3925565684397
 20
-15.91995232364257
 30
0.0
 10
354.8885723910967
 20
-16.14877122079826
 30
0.0
 10
355.817489102329
 20
-16.62409562687664
 30
0.0
 10
356.2525213170484
 20
-16.87212252411673
 30
0.0
 10
357.4333689644616
 20
-17.6291752511052
 30
0.0
 10
358.0615667825239
 20
-18.1525071523368
 30
0.0
 10
358.7619064674883
 20
-18.96584914028625
 30
0.0
 10
358.9547539927555
 20
-19.24171912354239
 30
0.0
 10
359.1798962961248
 20
-19.66303650909944
 30
0.0
 10
359.2442505912866
 20
-19.80496700967735
 30
0.0
 10
359.3496490558737
 20
-20.08782520356042
 30
0.0
 10
359.390953788534
 20
-20.2291638351392
 30
0.0
 10
359.5411836467826
 20
-20.93541005462772
 30
0.0
 10
359.4829761187548
 20
-21.49899071141917
 30
0.0
 10
359.1201447729076
 20
-22.34217423577699
 30
0.0
 10
358.9517596614589
 20
-22.62405635715679
 30
0.0
 10
358.5247881377682
 20
-23.17763647323497
 30
0.0
 10
358.2663021637257
 20
-23.45007540567467
 30
0.0
 10
357.9623682514207
 20
-23.71811992133377
 30
0.0
  0
SPLINE
  5
21B
330
20B
100
AcDbEntity
  8
0
  6
Continuous
 62
     7
370
    25
100
AcDbSpline
210
0.0
220
0.0
230
1.0
 70
     8
 71
     3
 72
    34
 73
    30
 74
     0
 42
0.000000001
 43
0.00000001
 40
0.0
 40
0.0
 40
0.0
 40
0.0
 40
0.1249999999999966
 40
0.1249999999999966
 40
0.1874999999999948
 40
0.1874999999999948
 40
0.2187499999999946
 40
0.2187499999999946
 40
0.2499999999999944
 40
0.2499999999999944
 40
0.3749999999999963
 40
0.3749999999999963
 40
0.4062499999999966
 40
0.4062499999999966
 40
0.4374999999999969
 40
0.4374999999999969
 40
0.4999999999999976
 40
0.4999999999999976
 40
0.5624999999999981
 40
0.5624999999999981
 40
0.6249999999999988
 40
0.6249999999999988
 40
0.7499999999999993
 40
0.7499999999999993
 40
0.8124999999999994
 40
0.8124999999999994
 40
0.8749999999999997
 40
0.8749999999999997
 40
1.0
 40
1.0
 40
1.0
 40
1.0
 10
-315.5359613899608
 20
61.1346937813968
 30
0.0
 10
-314.9290446136524
 20
61.66994406695142
 30
0.0
 10
-314.1589824213332
 20
62.17316923723004
 30
0.0
 10
-312.7707159163417
 20
62.88223556173261
 30
0.0
 10
-312.26877920585
 20
63.11089981116658
 30
0.0
 10
-311.4557220839426
 20
63.44208845832144
 30
0.0
 10
-311.1747621689331
 20
63.55042395265781
 30
0.0
 10
-310.5996084637416
 20
63.76058011035385
 30
0.0
 10
-310.3046084688245
 20
63.862738800054
 30
0.0
 10
-308.7933294700928
 20
64.35926435703337
 30
0.0
 10
-307.4692910909359
 20
64.7112513887474
 30
0.0
 10
-305.672529965028
 20
65.09550192957983
 30
0.0
 10
-305.3050251706346
 20
65.16971791923815
 30
0.0
 10
-304.5626205334842
 20
65.31112788988813
 30
0.0
 10
-304.1873436101189
 20
65.37842791018502
 30
0.0
 10
-303.0496168424816
 20
65.5703870178565
 30
0.0
 10
-302.2752994830547
 20
65.68512895346906
 30
0.0
 10
-300.6959941078756
 20
65.88898272863389
 30
0.0
 10
-299.891003283039
 20
65.97809222075985
 30
0.0
 10
-298.250454768848
 20
66.13076784312344
 30
0.0
 10
-297.4114183261465
 20
66.19444272950145
 30
0.0
 10
-294.8953814438032
 20
66.34395142934909
 30
0.0
 10
-293.2078390938339
 20
66.39016581506412
 30
0.0
 10
-290.661997241378
 20
66.38322817955195
 30
0.0
 10
-289.8095578432944
 20
66.36806943443003
 30
0.0
 10
-288.1055975240744
 20
66.31197445297438
 30
0.0
 10
-287.2623535057178
 20
66.27135606168447
 30
0.0
 10
-284.7578674294962
 20
66.11317309955164
 30
0.0
 10
-283.1216607242724
 20
65.95958382175155
 30
0.0
 10
-281.5190357132987
 20
65.75767204928479
 30
0.0
  0
SPLINE
  5
21D
330
20B
100
AcDbEntity
  8
0
  6
Continuous
 62
     7
370
    25
100
AcDbSpline
210
0.0
220
0.0
230
1.0
 70
     8
 71
     3
 72
    34
 73
    30
 74
     0
 42
0.000000001
 43
0.00000001
 40
0.0
 40
0.0
 40
0.0
 40
0.0
 40
0.1249999999999993
 40
0.1249999999999993
 40
0.187500000000001
 40
0.187500000000001
 40
0.2187500000000019
 40
0.2187500000000019
 40
0.2500000000000028
 40
0.2500000000000028
 40
0.3750000000000041
 40
0.3750000000000041
 40
0.4375000000000047
 40
0.4375000000000047
 40
0.5000000000000053
 40
0.5000000000000053
 40
0.6250000000000048
 40
0.6250000000000048
 40
0.6875000000000033
 40
0.6875000000000033
 40
0.7500000000000019
 40
0.7500000000000019
 40
0.8749999999999989
 40
0.8749999999999989
 40
0.9062499999999992
 40
0.9062499999999992
 40
0.9374999999999994
 40
0.9374999999999994
 40
1.0
 40
1.0
 40
1.0
 40
1.0
 10
-395.9876234139862
 20
-33.8043353669537
 30
0.0
 10
-397.5198073791329
 20
-33.61129833207032
 30
0.0
 10
-398.9797700906
 20
-33.37676496643951
 30
0.0
 10
-401.0619974387706
 20
-32.96307387661483
 30
0.0
 10
-401.7380160531967
 20
-32.81480169822526
 30
0.0
 10
-402.7240274740174
 20
-32.57629592574973
 30
0.0
 10
-403.0480211358872
 20
-32.49410683518533
 30
0.0
 10
-403.6864017710137
 20
-32.32420891702917
 30
0.0
 10
-404.0011680509663
 20
-32.23636667767342
 30
0.0
 10
-405.5340850260068
 20
-31.78781571835863
 30
0.0
 10
-406.643455490912
 20
-31.39608725297259
 30
0.0
 10
-408.1312024836556
 20
-30.75892005942783
 30
0.0
 10
-408.5975501489175
 20
-30.53821706262645
 30
0.0
 10
-409.4685256650946
 20
-30.07945668675929
 30
0.0
 10
-409.8739922165983
 20
-29.84050972699093
 30
0.0
 10
-410.9672364678726
 20
-29.11352347552771
 30
0.0
 10
-411.5433341015688
 20
-28.61069237926051
 30
0.0
 10
-412.1753677767093
 20
-27.82882658948507
 30
0.0
 10
-412.3472203819895
 20
-27.56332275062701
 30
0.0
 10
-412.6085317692304
 20
-27.02358027076576
 30
0.0
 10
-412.695873780882
 20
-26.75386199212473
 30
0.0
 10
-412.831895016059
 20
-25.94515213930623
 30
0.0
 10
-412.7557765116384
 20
-25.4066012854863
 30
0.0
 10
-412.446566539754
 20
-24.73416867276948
 30
0.0
 10
-412.3737124599435
 20
-24.59941738794089
 30
0.0
 10
-412.2072176608071
 20
-24.33203849787671
 30
0.0
 10
-412.1135911302326
 20
-24.19931785822635
 30
0.0
 10
-411.8018573176583
 20
-23.80403592365846
 30
0.0
 10
-411.552969312724
 20
-23.54434775270614
 30
0.0
 10
-411.2628721602969
 20
-23.28850611224311
 30
0.0
  0
LWPOLYLINE
  5
220
330
20B
100
AcDbEntity
  8
0
  6
Continuous
 62
     7
370
    25
100
AcDbPolyline
 90
       28
 70
   128
 43
0.0
 10
178.4467602214
 20
-100.6156109278
 10
186.1097341098
 20
-101.414301939
 10
193.7584266935
 20
-101.8779985468
 10
201.3785832837
 20
-102.0058365707
 10
208.9560023733
 20
-101.7975777621
 10
216.4765621041
 20
-101.253610248
 10
223.9262465854
 20
-100.3749478078
 10
231.291172015
 20
-99.1632279842
 10
238.5576125541
 20
-97.620709031
 10
245.7120259082
 20
-95.7502657045
 10
252.7410785647
 20
-93.5553839061
 10
259.6316706432
 20
-91.0401541855
 10
266.370960309
 20
-88.2092641173
 10
272.946387706
 20
-85.0679895649
 10
279.3456983643
 20
-81.622184848
 10
285.556966039
 20
-77.878271832
 10
291.5686149361
 20
-73.8432279598
 10
297.3694412867
 20
-69.5245732479
 10
302.9486342268
 20
-64.9303562718
 10
308.2957959453
 20
-60.0691391659
 10
313.4009610625
 20
-54.9499816664
 10
318.2546152019
 20
-49.5824242272
 10
322.8477127222
 20
-43.976470239
 10
327.1716935753
 20
-38.1425673867
 10
331.2184992594
 20
-32.0915881783
 10
334.9805878379
 20
-25.8348096817
 10
338.4509479945
 20
-19.3838925082
 10
341.6231121004
 20
-12.7508590809
  0
LWPOLYLINE
  5
221
330
20B
100
AcDbEntity
  8
0
  6
Continuous
 62
     7
370
    25
100
AcDbPolyline
 90
       28
 70
   128
 43
0.0
 10
-281.5190357133
 20
65.7576720493
 10
-278.3468716074
 20
58.3253283992
 10
-274.8765114508
 20
50.9999626611
 10
-271.1144228724
 20
43.795226947
 10
-267.0676171882
 20
36.7245485539
 10
-262.7436363351
 20
29.8011049392
 10
-258.1505388149
 20
23.0377991624
 10
-253.2968846754
 20
16.4472358378
 10
-248.1917195582
 20
10.0416976436
 10
-242.8445578397
 20
3.833122431
 10
-237.2653648996
 20
-2.166919024
 10
-231.4645385491
 20
-7.9472445849
 10
-225.4528896519
 20
-13.4970815946
 10
-219.2416219773
 20
-18.8060869521
 10
-212.8423113189
 20
-23.8643663886
 10
-206.2668839219
 20
-28.6624929074
 10
-199.5275942562
 20
-33.1915243527
 10
-192.6370021776
 20
-37.443020075
 10
-185.6079495211
 20
-41.4090566612
 10
-178.4535361671
 20
-45.0822427022
 10
-171.1870956279
 20
-48.4557325672
 10
-163.8221701983
 20
-51.5232391623
 10
-156.372485717
 20
-54.2790456476
 10
-148.8519259862
 20
-56.718016091
 10
-141.2745068966
 20
-58.8356050406
 10
-133.6543503065
 20
-60.6278659956
 10
-126.0056577227
 20
-62.0914587613
 10
-118.3426838343
 20
-63.2236556741
  0
LWPOLYLINE
  5
225
330
20B
100
AcDbEntity
  8
0
  6
Continuous
 62
     8
370
    25
100
AcDbPolyline
 90
        3
 70
   128
 43
0.0
 10
178.2178124311
 20
-106.1474203168
 10
178.3823151643
 20
-103.5135229257
 10
178.4467602214
 20
-100.6156109278
  0
LWPOLYLINE
  5
226
330
20B
100
AcDbEntity
  8
0
  6
Continuous
 62
     8
370
    25
100
AcDbPolyline
 90
        3
 70
   128
 43
0.0
 10
-118.3426838343
 20
-63.2236556741
 10
-118.4071288914
 20
-66.1215676719
 10
-118.5716316246
 20
-68.7554650631
  0
LINE
  5
227
330
20B
100
AcDbEntity
  8
0
  6
Continuous
 62
     7
370
    25
100
AcDbLine
 10
-256.9246101777
 20
-148.1313181932
 30
0.0
 11
166.005332299
 21
-201.4154824426
 31
0.0
  0
LINE
  5
228
330
20B
100
AcDbEntity
  8
0
  6
Continuous
 62
     7
370
    25
100
AcDbLine
 10
222.1544337701
 20
-183.7651176232
 30
0.0
 11
328.4363174044
 21
-90.0333066316
 31
0.0
  0
LINE
  5
229
330
20B
100
AcDbEntity
  8
0
  6
Continuous
 62
     7
370
    25
100
AcDbLine
 10
259.4827276125
 20
-119.9970897838
 30
0.0
 11
-432.7238889634
 21
-32.7872534782
 31
0.0
  0
LINE
  5
22A
330
20B
100
AcDbEntity
  8
0
  6
Continuous
 62
     7
370
    25
100
AcDbLine
 10
379.6908803866
 20
-13.9834638469
 30
0.0
 11
259.4827276125
 21
-119.9970897838
 31
0.0
  0
LINE
  5
22B
330
20B
100
AcDbEntity
  8
0
  6
Continuous
 62
     7
370
    25
100
AcDbLine
 10
379.6908803866
 20
-13.9834638469
 30
0.0
 11
-312.5157361893
 21
73.2263724587
 31
0.0
  0
LINE
  5
22C
330
20B
100
AcDbEntity
  8
0
  6
Continuous
 62
     7
370
    25
100
AcDbLine
 10
-312.5157361893
 20
73.2263724587
 30
0.0
 11
-432.7238889634
 21
-32.7872534782
 31
0.0
  0
LINE
  5
22D
330
20B
100
AcDbEntity
  8
0
  6
Continuous
 62
     7
370
    25
100
AcDbLine
 10
341.6231121004
 20
-12.7508590809
 30
0.0
 11
-281.5190357133
 21
65.7576720493
 31
0.0
  0
LINE
  5
22E
330
20B
100
AcDbEntity
  8
0
  6
Continuous
 62
     7
370
    25
100
AcDbLine
 10
-315.53596139
 20
61.1346937814
 30
0.0
 11
-411.2628721603
 21
-23.2885061122
 31
0.0
  0
LINE
  5
22F
330
20B
100
AcDbEntity
  8
0
  6
Continuous
 62
     7
370
    25
100
AcDbLine
 10
229.9123191408
 20
-112.6603159756
 30
0.0
 11
-395.9876234139
 21
-33.804335367
 31
0.0
  0
LINE
  5
230
330
20B
100
AcDbEntity
  8
0
  6
Continuous
 62
     7
370
    25
100
AcDbLine
 10
357.9623682514
 20
-23.7181199213
 30
0.0
 11
262.2354574811
 21
-108.141319815
 31
0.0
  0
LINE
  5
231
330
20B
100
AcDbEntity
  8
0
  6
Continuous
 62
     7
370
    25
100
AcDbLine
 10
-118.3426838343
 20
-63.2236556741
 30
0.0
 11
178.4467602214
 21
-100.6156109278
 31
0.0
  0
LINE
  5
232
330
20B
100
AcDbEntity
  8
0
  6
Continuous
 62
     8
370
    25
100
AcDbLine
 10
-411.2628721603
 20
-23.2885061122
 30
0.0
 11
-408.0034150906
 21
-30.7536964605
 31
0.0
  0
ARC
  5
233
330
20B
100
AcDbEntity
  8
0
  6
Continuous
 62
     7
370
    25
100
AcDbCircle
 10
206.6200971281
 20
47.3626584202
 30
0.0
 40
183.6214658881996
100
AcDbArc
 50
311.560420045
 51
340.4827803304
  0
ARC
  5
234
330
20B
100
AcDbEntity
  8
0
  6
Continuous
 62
     8
370
    25
100
AcDbCircle
 10
-88.3786886053
 20
142.0600952064
 30
0.0
 40
241.1417574265426
100
AcDbArc
 50
199.6085807126
 51
234.829703665
  0
VIEWPORT
  5
249
330
20B
100
AcDbEntity
  8
0
100
AcDbViewport
 10
0.0
 20
0.0
 30
0.0
 40
205.6
 41
156.0
 68
     1
 69
     1
 12
-35.0021541698
 22
-57.6078718791
 13
0.0
 23
0.0
 14
10.0
 24
10.0
 15
10.0
 25
10.0
 16
0.0
 26
0.0
 36
1.0
 17
0.0
 27
0.0
 37
0.0
 42
50.0
 43
0.0
 44
0.0
 45
629.3179300739
 50
0.0
 51
0.0
 72
   100
 90
   557152
  1

281
     0
 71
     1
 74
     0
110
0.0
120
0.0
130
0.0
111
1.0
121
0.0
131
0.0
112
0.0
122
1.0
132
0.0
 79
     0
146
0.0
170
     0
 61
     5
348
2F
292
     1
282
     1
141
0.0
142
0.0
 63
   256
361
24A
  0
ENDBLK
  5
20E
330
20B
100
AcDbEntity
  8
0
100
AcDbBlockEnd
  0
ENDSEC
  0
SECTION
  2
ENTITIES
  0
SPLINE
  5
75
330
1F
100
AcDbEntity
  8
0
  6
Continuous
 62
     7
370
    25
100
AcDbSpline
210
0.0
220
0.0
230
1.0
 70
     8
 71
     3
 72
    24
 73
    20
 74
     0
 42
0.000000001
 43
0.00000001
 40
0.0
 40
0.0
 40
0.0
 40
0.0
 40
0.0599426281936227
 40
0.1201529855345749
 40
0.1756399790310732
 40
0.2313063091205302
 40
0.2933345572543237
 40
0.3555708742453171
 40
0.4097932587126893
 40
0.464305457705516
 40
0.5189237394639843
 40
0.5741088602123278
 40
0.6293863154530362
 40
0.6852075000716126
 40
0.7411094974716568
 40
0.7972516412526951
 40
0.8722654036771889
 40
0.9476709934257613
 40
0.9999999999999999
 40
0.9999999999999999
 40
0.9999999999999999
 40
0.9999999999999999
 10
-441.5750753085111
 20
-22.66432563399605
 30
0.0
 10
-440.2191515690484
 20
-25.57685116310542
 30
0.0
 10
-437.5012479608282
 20
-31.41491079301981
 30
0.0
 10
-432.7565685911238
 20
-39.49150547494872
 30
0.0
 10
-427.6483930166839
 20
-47.03690330809206
 30
0.0
 10
-422.0017665986032
 20
-54.29987571392199
 30
0.0
 10
-415.6574592334412
 20
-61.45093924713913
 30
0.0
 10
-408.9042247352369
 20
-68.12690178577563
 30
0.0
 10
-402.0618524138146
 20
-74.1492614070181
 30
0.0
 10
-395.2181026373965
 20
-79.57482333160596
 30
0.0
 10
-388.0511951357929
 20
-84.70560744952432
 30
0.0
 10
-380.5895332748706
 20
-89.53598729160277
 30
0.0
 10
-372.8318588200912
 20
-94.07959227354785
 30
0.0
 10
-364.8183579658764
 20
-98.32509023259715
 30
0.0
 10
-356.5582972819569
 20
-102.277943912257
 30
0.0
 10
-347.1474759868253
 20
-106.344028203569
 30
0.0
 10
-336.5031031904668
 20
-110.3859861091953
 30
0.0
 10
-325.8414392671722
 20
-113.9461706233369
 30
0.0
 10
-318.9571096226987
 20
-115.8218222156332
 30
0.0
 10
-316.1368076716561
 20
-116.5902200289884
 30
0.0
  0
SPLINE
  5
77
330
1F
100
AcDbEntity
  8
0
  6
Continuous
 62
     7
370
    25
100
AcDbSpline
210
0.0
220
0.0
230
1.0
 70
     8
 71
     3
 72
    22
 73
    18
 74
     0
 42
0.000000001
 43
0.00000001
 40
0.0
 40
0.0
 40
0.0
 40
0.0
 40
0.0613375439075615
 40
0.1483854207144532
 40
0.2217340375601312
 40
0.2952392696562266
 40
0.3558436940041806
 40
0.4165549408289687
 40
0.4710110569106496
 40
0.5255597166284725
 40
0.5803498606105725
 40
0.6593206004555566
 40
0.7386745926958166
 40
0.8029267446949526
 40
0.8674403631353541
 40
0.9216741275859505
 40
1.0
 40
1.0
 40
1.0
 40
1.0
 10
160.437770636319
 20
-246.0957010759585
 30
0.0
 10
161.6643673228004
 20
-246.4245560177865
 30
0.0
 10
164.6317027225485
 20
-247.2201092106356
 30
0.0
 10
169.0009762757208
 20
-247.562075214895
 30
0.0
 10
173.5549094865243
 20
-247.3311679647164
 30
0.0
 10
177.53501495126
 20
-246.5241664734475
 30
0.0
 10
181.2159494276491
 20
-245.247568326426
 30
0.0
 10
184.4850603708076
 20
-243.6496372183135
 30
0.0
 10
187.5883436316766
 20
-241.6825908254762
 30
0.0
 10
190.5299416736244
 20
-239.3824354318936
 30
0.0
 10
193.8438204051157
 20
-236.25889625678
 30
0.0
 10
197.4916770280365
 20
-232.0381017108677
 30
0.0
 10
201.1556134240048
 20
-226.7439904266054
 30
0.0
 10
204.441881915609
 20
-221.0217520071691
 30
0.0
 10
207.2067531015009
 20
-215.3523015468014
 30
0.0
 10
210.0633279198108
 20
-208.668127056715
 30
0.0
 10
211.8428586062585
 20
-203.5558139944918
 30
0.0
 10
212.8943347327806
 20
-200.5350877000978
 30
0.0
  0
SPLINE
  5
7A
330
1F
100
AcDbEntity
  8
0
  6
Continuous
 62
     7
370
    25
100
AcDbSpline
210
0.0
220
0.0
230
1.0
 70
     8
 71
     3
 72
    34
 73
    30
 74
     0
 42
0.000000001
 43
0.00000001
 40
0.0
 40
0.0
 40
0.0
 40
0.0
 40
0.1249999999999925
 40
0.1249999999999925
 40
0.1874999999999891
 40
0.1874999999999891
 40
0.2187499999999875
 40
0.2187499999999875
 40
0.2499999999999858
 40
0.2499999999999858
 40
0.3749999999999826
 40
0.3749999999999826
 40
0.4374999999999822
 40
0.4374999999999822
 40
0.4999999999999818
 40
0.4999999999999818
 40
0.5624999999999813
 40
0.5624999999999813
 40
0.5937499999999829
 40
0.5937499999999829
 40
0.6249999999999845
 40
0.6249999999999845
 40
0.7499999999999902
 40
0.7499999999999902
 40
0.8124999999999927
 40
0.8124999999999927
 40
0.8749999999999951
 40
0.8749999999999951
 40
1.0
 40
1.0
 40
1.0
 40
1.0
 10
220.0313945727761
 20
-182.5332475542587
 30
0.0
 10
219.2664158277022
 20
-183.2798902609583
 30
0.0
 10
218.3654739537583
 20
-183.9728496014849
 30
0.0
 10
216.8158855029399
 20
-184.9340414026684
 30
0.0
 10
216.2660907015245
 20
-185.2413042688691
 30
0.0
 10
215.3900324879571
 20
-185.6819173314547
 30
0.0
 10
215.0887293972516
 20
-185.8256879657638
 30
0.0
 10
214.4755954278297
 20
-186.1032126110604
 30
0.0
 10
214.1631216723068
 20
-186.2373235351927
 30
0.0
 10
212.5718093845304
 20
-186.8850860407535
 30
0.0
 10
211.2069685578608
 20
-187.3310134870558
 30
0.0
 10
209.0230314426066
 20
-187.89227665069
 30
0.0
 10
208.2687709835078
 20
-188.0617460573474
 30
0.0
 10
206.7461173876676
 20
-188.3573598466306
 30
0.0
 10
205.9746041571458
 20
-188.4844993011571
 30
0.0
 10
204.4118586807103
 20
-188.6987699378675
 30
0.0
 10
203.6206245636529
 20
-188.785897323653
 30
0.0
 10
202.4190478652071
 20
-188.8867115186609
 30
0.0
 10
202.0160638278728
 20
-188.9153282130069
 30
0.0
 10
201.2051389738308
 20
-188.9625047010295
 30
0.0
 10
200.7963635489368
 20
-188.981072182879
 30
0.0
 10
198.7600538839851
 20
-189.047924587916
 30
0.0
 10
197.1425746494666
 20
-189.0200230738593
 30
0.0
 10
194.732692357349
 20
-188.863244434998
 30
0.0
 10
193.9321404041205
 20
-188.7916941278076
 30
0.0
 10
192.3365693998404
 20
-188.6096699968691
 30
0.0
 10
191.5469896918038
 20
-188.4996973393933
 30
0.0
 10
189.2236070479956
 20
-188.1177875002091
 30
0.0
 10
187.7256581118744
 20
-187.7932476488615
 30
0.0
 10
186.2779422056856
 20
-187.3997894863588
 30
0.0
  0
SPLINE
  5
7E
330
1F
100
AcDbEntity
  8
0
  6
Continuous
 62
     7
370
    25
100
AcDbSpline
210
0.0
220
0.0
230
1.0
 70
     8
 71
     3
 72
    34
 73
    30
 74
     0
 42
0.000000001
 43
0.00000001
 40
0.0
 40
0.0
 40
0.0
 40
0.0
 40
0.1249999999999934
 40
0.1249999999999934
 40
0.1874999999999901
 40
0.1874999999999901
 40
0.2187499999999885
 40
0.2187499999999885
 40
0.2499999999999868
 40
0.2499999999999868
 40
0.3749999999999889
 40
0.3749999999999889
 40
0.43749999999999
 40
0.43749999999999
 40
0.499999999999991
 40
0.499999999999991
 40
0.6249999999999954
 40
0.6249999999999954
 40
0.6874999999999977
 40
0.6874999999999977
 40
0.7187499999999983
 40
0.7187499999999983
 40
0.749999999999999
 40
0.749999999999999
 40
0.8749999999999992
 40
0.8749999999999992
 40
0.9374999999999999
 40
0.9374999999999999
 40
1.0
 40
1.0
 40
1.0
 40
1.0
 10
334.2541814211307
 20
-41.34364516691073
 30
0.0
 10
335.7710318439395
 20
-41.75589260965717
 30
0.0
 10
337.1970618050395
 20
-42.22951879903362
 30
0.0
 10
339.2026725224545
 20
-43.03013627965787
 30
0.0
 10
339.8488273074766
 20
-43.31213517197843
 30
0.0
 10
340.7835150339701
 20
-43.75847951717164
 30
0.0
 10
341.0893107992488
 20
-43.9111583206013
 30
0.0
 10
341.6890843553881
 20
-44.2245028110783
 30
0.0
 10
341.9837711050125
 20
-44.38559352124977
 30
0.0
 10
343.4140214737706
 20
-45.20418780464243
 30
0.0
 10
344.4266196330889
 20
-45.90297612051878
 30
0.0
 10
345.747675341738
 20
-47.01717418859109
 30
0.0
 10
346.1548437741607
 20
-47.3996461769302
 30
0.0
 10
346.8999795124853
 20
-48.1876811268888
 30
0.0
 10
347.239496393302
 20
-48.5957126725259
 30
0.0
 10
348.1299345381364
 20
-49.83176977627039
 30
0.0
 10
348.55882789995
 20
-50.67422621493621
 30
0.0
 10
348.9515416787976
 20
-51.96593290403711
 30
0.0
 10
349.0403925885098
 20
-52.40120374026228
 30
0.0
 10
349.1072422532902
 20
-53.06153703364507
 30
0.0
 10
349.1183604976661
 20
-53.28325255789918
 30
0.0
 10
349.11783900555
 20
-53.72365901837566
 30
0.0
 10
349.1063051236945
 20
-53.94299663415262
 30
0.0
 10
348.9929414997223
 20
-55.0354081995173
 30
0.0
 10
348.7257592488478
 20
-55.89578545801871
 30
0.0
 10
348.0524004074927
 20
-57.16542070812739
 30
0.0
 10
347.7805664115633
 20
-57.58686462884943
 30
0.0
 10
347.1511761032092
 20
-58.40838362158679
 30
0.0
 10
346.7934441277929
 20
-58.80960111829041
 30
0.0
 10
346.3922471396754
 20
-59.20118167795525
 30
0.0
  0
SPLINE
  5
80
330
1F
100
AcDbEntity
  8
0
  6
Continuous
 62
     7
370
    25
100
AcDbSpline
210
0.0
220
0.0
230
1.0
 70
     8
 71
     3
 72
    34
 73
    30
 74
     0
 42
0.000000001
 43
0.00000001
 40
0.0
 40
0.0
 40
0.0
 40
0.0
 40
0.1249999999999966
 40
0.1249999999999966
 40
0.1874999999999948
 40
0.1874999999999948
 40
0.2187499999999946
 40
0.2187499999999946
 40
0.2499999999999944
 40
0.2499999999999944
 40
0.3749999999999963
 40
0.3749999999999963
 40
0.4062499999999966
 40
0.4062499999999966
 40
0.4374999999999969
 40
0.4374999999999969
 40
0.4999999999999976
 40
0.4999999999999976
 40
0.5624999999999981
 40
0.5624999999999981
 40
0.6249999999999988
 40
0.6249999999999988
 40
0.7499999999999993
 40
0.7499999999999993
 40
0.8124999999999994
 40
0.8124999999999994
 40
0.8749999999999997
 40
0.8749999999999997
 40
1.0
 40
1.0
 40
1.0
 40
1.0
 10
-290.3888004680679
 20
113.8622624944681
 30
0.0
 10
-289.5876618888081
 20
114.6441983078641
 30
0.0
 10
-288.6365345823106
 20
115.3666248636814
 30
0.0
 10
-286.9954744124097
 20
116.3652119552511
 30
0.0
 10
-286.4124328739139
 20
116.6837825007691
 30
0.0
 10
-285.4825694086739
 20
117.1396971312884
 30
0.0
 10
-285.1635163501009
 20
117.2878749671979
 30
0.0
 10
-284.5146991396116
 20
117.5733977446691
 30
0.0
 10
-284.1840093830045
 20
117.7112095216665
 30
0.0
 10
-282.4998628129561
 20
118.376078235431
 30
0.0
 10
-281.0552245405112
 20
118.8312832466927
 30
0.0
 10
-279.1295149807672
 20
119.3057978453758
 30
0.0
 10
-278.7372621030353
 20
119.3961420009902
 30
0.0
 10
-277.9480275810185
 20
119.5655922928494
 30
0.0
 10
-277.5506323564433
 20
119.6448369543623
 30
0.0
 10
-276.3503362893269
 20
119.8665704106267
 30
0.0
 10
-275.5393444719728
 20
119.9930969868999
 30
0.0
 10
-273.8964503514064
 20
120.2048970455386
 30
0.0
 10
-273.0645461330307
 20
120.2901667495882
 30
0.0
 10
-271.3798979730778
 20
120.419592667351
 30
0.0
 10
-270.523661654471
 20
120.4636937007607
 30
0.0
 10
-267.9714439508581
 20
120.5324123048623
 30
0.0
 10
-266.2797241635413
 20
120.4956122336933
 30
0.0
 10
-263.7560654724257
 20
120.3225634830436
 30
0.0
 10
-262.9158234865235
 20
120.2449405289042
 30
0.0
 10
-261.2458296696299
 20
120.0502307654441
 30
0.0
 10
-260.4241728929334
 20
119.9341593056954
 30
0.0
 10
-257.99775329986
 20
119.5318571640083
 30
0.0
 10
-256.4312195932196
 20
119.1919899716994
 30
0.0
 10
-254.9159653030513
 20
118.7801763236042
 30
0.0
  0
SPLINE
  5
82
330
1F
100
AcDbEntity
  8
0
  6
Continuous
 62
     7
370
    25
100
AcDbSpline
210
0.0
220
0.0
230
1.0
 70
     8
 71
     3
 72
    34
 73
    30
 74
     0
 42
0.000000001
 43
0.00000001
 40
0.0
 40
0.0
 40
0.0
 40
0.0
 40
0.1249999999999993
 40
0.1249999999999993
 40
0.187500000000001
 40
0.187500000000001
 40
0.2187500000000019
 40
0.2187500000000019
 40
0.2500000000000028
 40
0.2500000000000028
 40
0.3750000000000041
 40
0.3750000000000041
 40
0.4375000000000047
 40
0.4375000000000047
 40
0.5000000000000053
 40
0.5000000000000053
 40
0.6250000000000048
 40
0.6250000000000048
 40
0.6875000000000033
 40
0.6875000000000033
 40
0.7500000000000019
 40
0.7500000000000019
 40
0.8749999999999989
 40
0.8749999999999989
 40
0.9062499999999992
 40
0.9062499999999992
 40
0.9374999999999994
 40
0.9374999999999994
 40
1.0
 40
1.0
 40
1.0
 40
1.0
 10
-405.4996518526806
 20
-26.56731968129171
 30
0.0
 10
-406.9483053496737
 20
-26.17360670169872
 30
0.0
 10
-408.3098739876302
 20
-25.72087825558635
 30
0.0
 10
-410.2223414217488
 20
-24.95376506473461
 30
0.0
 10
-410.8380571150726
 20
-24.68330528544448
 30
0.0
 10
-411.7278481755224
 20
-24.25472198365448
 30
0.0
 10
-412.0188058655567
 20
-24.10803923482527
 30
0.0
 10
-412.5891374377977
 20
-23.8068236489815
 30
0.0
 10
-412.8688381307524
 20
-23.65206206512827
 30
0.0
 10
-414.2232716511162
 20
-22.86654441085314
 30
0.0
 10
-415.1785352108344
 20
-22.19516801520563
 30
0.0
 10
-416.4180580092867
 20
-21.12334264176133
 30
0.0
 10
-416.7988025714564
 20
-20.75520675642982
 30
0.0
 10
-417.4925983997442
 20
-19.99626439031586
 30
0.0
 10
-417.8061513452269
 20
-19.60404048573716
 30
0.0
 10
-418.6208332259038
 20
-18.41967042314815
 30
0.0
 10
-419.0056455878886
 20
-17.61196986544401
 30
0.0
 10
-419.3422757262871
 20
-16.37288055028563
 30
0.0
 10
-419.4141453880469
 20
-15.95484261737147
 30
0.0
 10
-419.4728795951582
 20
-15.11063072745618
 30
0.0
 10
-419.4593234089305
 20
-14.69152249940794
 30
0.0
 10
-419.2937857490974
 20
-13.44291854048892
 30
0.0
 10
-419.0181313666687
 20
-12.6220599940438
 30
0.0
 10
-418.4614309161547
 20
-11.61080191726179
 30
0.0
 10
-418.3390651592102
 20
-11.40884687973091
 30
0.0
 10
-418.0744962266448
 20
-11.009518945845
 30
0.0
 10
-417.9322725595155
 20
-10.81200250251141
 30
0.0
 10
-417.4760551252113
 20
-10.22583715279611
 30
0.0
 10
-417.1325853077521
 20
-9.843557019404662
 30
0.0
 10
-416.7496530349677
 20
-9.469803381835312
 30
0.0
  0
LWPOLYLINE
  5
84
330
1F
100
AcDbEntity
  8
0
  6
Continuous
 62
     7
370
    25
100
AcDbPolyline
 90
       31
 70
   128
 43
0.0
 10
-112.302925382
 20
-54.5410845335
 10
-119.9955321964
 20
-52.299390911
 10
-127.6755209716
 20
-49.7593584505
 10
-135.3302943655
 20
-46.92515352
 10
-142.9472963965
 20
-43.8014250127
 10
-150.5140330385
 20
-40.3932967222
 10
-158.0180927147
 20
-36.7063589376
 10
-165.4471666564
 20
-32.746659274
 10
-172.7890690924
 20
-28.5206927528
 10
-180.0317572373
 20
-24.0353911479
 10
-187.1633510451
 20
-19.2981116157
 10
-194.1721526959
 20
-14.3166246272
 10
-201.0466657832
 20
-9.0991012225
 10
-207.7756141718
 20
-3.6540996077
 10
-214.3479604932
 20
2.0094488828
 10
-220.7529242508
 20
7.8822544364
 10
-226.9799995022
 20
13.9546839997
 10
-233.0189720922
 20
20.2167770801
 10
-238.8599364069
 20
26.6582620834
 10
-244.4933116218
 20
33.268573162
 10
-249.9098574167
 20
40.0368675463
 10
-255.1006891328
 20
46.9520433295
 10
-260.057292346
 20
54.002757678
 10
-264.7715368325
 20
61.1774454368
 10
-269.2356899052
 20
68.4643380996
 10
-273.4424290974
 20
75.8514831127
 10
-277.3848541733
 20
83.3267634802
 10
-281.0564984467
 20
90.8779176393
 10
-284.4513393882
 20
98.492559573
 10
-287.5638085036
 20
106.1581991265
 10
-290.3888004681
 20
113.8622624945
  0
LWPOLYLINE
  5
85
330
1F
100
AcDbEntity
  8
0
  6
Continuous
 62
     7
370
    25
100
AcDbPolyline
 90
       14
 70
   128
 43
0.0
 10
168.3063720536
 20
-130.8046788466
 10
169.7127198754
 20
-129.2757973912
 10
171.0985599791
 20
-127.4567247348
 10
172.4436836955
 20
-125.3739870528
 10
173.7284760916
 20
-123.0579553506
 10
174.9342020014
 20
-120.5424025857
 10
176.043279226
 20
-117.8640111818
 10
177.039534922
 20
-115.0618381169
 10
177.908441438
 20
-112.1767453843
 10
178.6373281604
 20
-109.2508041325
 10
179.2155662795
 20
-106.3266811738
 10
179.6347237814
 20
-103.4470168053
 10
179.8886884059
 20
-100.6538030181
 10
179.9737567768
 20
-97.9877711589
  0
LWPOLYLINE
  5
86
330
1F
100
AcDbEntity
  8
0
  6
Continuous
 62
     7
370
    25
100
AcDbPolyline
 90
       28
 70
   128
 43
0.0
 10
179.9737567768
 20
-97.9877711589
 10
187.2189663426
 20
-99.8052582237
 10
194.4506731813
 20
-101.3161467823
 10
201.6553997305
 20
-102.517621027
 10
208.8197187105
 20
-103.4074417987
 10
215.930278148
 20
-103.983950759
 10
222.9738262602
 20
-104.2460734819
 10
229.9372361518
 20
-104.1933214554
 10
236.8075302792
 20
-103.8257929922
 10
243.5719046363
 20
-103.1441730464
 10
250.2177526174
 20
-102.1497319371
 10
256.7326885115
 20
-100.8443229809
 10
263.1045705855
 20
-99.230379038
 10
269.3215237122
 20
-97.3109079776
 10
275.371961502
 20
-95.089487073
 10
281.2446078959
 20
-92.5702563343
 10
286.9285181806
 20
-89.7579107926
 10
292.4130993858
 20
-86.6576917503
 10
297.6881300263
 20
-83.275377013
 10
302.7437791512
 20
-79.6172701212
 10
307.5706246658
 20
-75.6901886029
 10
312.1596708914
 20
-71.5014512679
 10
316.5023653303
 20
-67.0588645676
 10
320.5906146047
 20
-62.3707080467
 10
324.4167995403
 20
-57.4457189123
 10
327.9737893661
 20
-52.2930757513
 10
331.2549550035
 20
-46.9223814239
 10
334.2541814211
 20
-41.3436451669
  0
LWPOLYLINE
  5
87
330
1F
100
AcDbEntity
  8
0
  6
Continuous
 62
     7
370
    25
100
AcDbPolyline
 90
       28
 70
   128
 43
0.0
 10
-254.915965303
 20
118.7801763236
 10
-251.9167388854
 20
111.5711891173
 10
-248.635573248
 20
104.416993763
 10
-245.0785834222
 20
97.3309233669
 10
-241.2523984866
 20
90.326184072
 10
-237.1641492122
 20
83.4158304467
 10
-232.8214547733
 20
76.6127411548
 10
-228.2324085477
 20
69.9295949542
 10
-223.405563033
 20
63.3788470678
 10
-218.3499139082
 20
56.9727059707
 10
-213.0748832677
 20
50.7231106376
 10
-207.5903020624
 20
44.6417082929
 10
-201.9063917778
 20
38.7398327034
 10
-196.0337453839
 20
33.0284830561
 10
-189.9833075941
 20
27.5183034594
 10
-183.7663544674
 20
22.2195631058
 10
-177.3944723934
 20
17.1421371332
 10
-170.8795364993
 20
12.2954882214
 10
-164.2336885182
 20
7.6886489562
 10
-157.4693141611
 20
3.3302049959
 10
-150.5990200337
 20
-0.7717209298
 10
-143.6356101421
 20
-4.6094841578
 10
-136.5920620299
 20
-8.1759323387
 10
-129.4815025924
 20
-11.4644187669
 10
-122.3171836124
 20
-14.4688147672
 10
-115.1124570632
 20
-17.1835211173
 10
-107.8807502245
 20
-19.6034784828
 10
-100.6355406587
 20
-21.7241768458
  0
LWPOLYLINE
  5
8A
330
1F
100
AcDbEntity
  8
0
  6
Continuous
 62
     7
370
    25
100
AcDbPolyline
 90
       42
 70
   128
 43
0.0
 10
-28.7435889546
 20
-112.1915305211
 10
-27.0006826327
 20
-110.6868810447
 10
-24.9619511816
 20
-109.2843055418
 10
-22.6497313698
 20
-107.9991709229
 10
-20.0893563613
 20
-106.845557392
 10
-17.3088781605
 20
-105.8361041803
 10
-14.3387602685
 20
-104.9818710683
 10
-11.2115439184
 20
-104.2922172129
 10
-7.961491547
 20
-103.7746986061
 10
-4.6242114082
 20
-103.4349852899
 10
-1.2362674415
 20
-103.2767992345
 10
2.1652213301
 20
-103.3018735595
 10
5.5429874836
 20
-103.5099335453
 10
8.8600235063
 20
-103.8986996432
 10
12.0799872574
 20
-104.4639124504
 10
15.1676001402
 20
-105.1993793772
 10
18.0890336218
 20
-106.097042494
 10
20.8122798657
 20
-107.1470668158
 10
23.3075024161
 20
-108.3379480564
 10
25.5473630927
 20
-109.6566386719
 10
27.5073215131
 20
-111.0886908117
 10
29.1659039627
 20
-112.6184146131
 10
30.5049386651
 20
-114.2290501018
 10
31.509754876
 20
-115.9029508186
 10
32.1693436186
 20
-117.6217771567
 10
32.4764783006
 20
-119.3666972952
 10
32.4277938902
 20
-121.1185935239
 10
32.023823784
 20
-122.8582717011
 10
31.2689939631
 20
-124.5666715487
 10
30.1715745008
 20
-126.2250754803
 10
28.7435889544
 20
-127.8153136755
 10
27.0006826325
 20
-129.3199631519
 10
24.9619511815
 20
-130.7225386549
 10
22.6497313696
 20
-132.0076732737
 10
20.0893563611
 20
-133.1612868046
 10
17.3088781604
 20
-134.1707400164
 10
14.3387602684
 20
-135.0249731283
 10
11.2115439183
 20
-135.7146269837
 10
7.9614915469
 20
-136.2321455906
 10
4.624211408
 20
-136.5718589068
 10
1.2362674413
 20
-136.7300449621
 10
-0.1154703436
 20
-136.7420538832
  0
LWPOLYLINE
  5
8B
330
1F
100
AcDbEntity
  8
0
  6
Continuous
 62
     7
370
    25
100
AcDbPolyline
 90
       12
 70
   128
 43
0.0
 10
-26.7636611138
 20
-129.4996466335
 10
-27.5073215132
 20
-128.9181533849
 10
-29.1659039628
 20
-127.3884295836
 10
-30.5049386653
 20
-125.7777940948
 10
-31.5097548761
 20
-124.1038933781
 10
-32.1693436187
 20
-122.3850670399
 10
-32.4764783007
 20
-120.6401469014
 10
-32.4277938904
 20
-118.8882506727
 10
-32.0238237842
 20
-117.1485724955
 10
-31.2689939632
 20
-115.4401726479
 10
-30.1715745009
 20
-113.7817687163
 10
-28.7435889546
 20
-112.1915305211
  0
LWPOLYLINE
  5
8D
330
1F
100
AcDbEntity
  8
0
  6
Continuous
 62
     7
370
    25
100
AcDbPolyline
 90
       26
 70
   128
 43
0.0
 10
20.9516770979
 20
-132.7995762559
 10
21.0585749131
 20
-132.6561478294
 10
21.8856357824
 20
-131.2646072837
 10
22.3675471016
 20
-129.8306515243
 10
22.4967088413
 20
-128.3768948902
 10
22.2710840436
 20
-126.9262639919
 10
21.6942309465
 20
-125.5016361452
 10
20.7752468678
 20
-124.1254785823
 10
19.5286247355
 20
-122.81949413
 10
17.9740245253
 20
-121.6042789433
 10
16.1359632111
 20
-120.4989976917
 10
14.043428118
 20
-119.5210813207
 10
11.7294197743
 20
-118.6859521557
 10
9.2304314739
 20
-118.0067806825
 10
6.5858737553
 20
-117.494277841
 10
3.8374528732
 20
-117.1565261071
 10
1.028513067
 20
-116.9988520274
 10
-1.7966470047
 20
-117.0237422163
 10
-4.5934728799
 20
-117.2308041408
 10
-7.3178569437
 20
-117.6167723105
 10
-9.9268340321
 20
-118.1755597769
 10
-12.3792590177
 20
-118.8983541278
 10
-14.6364556937
 20
-119.7737564645
 10
-16.66282672
 20
-120.7879611692
 10
-18.426415015
 20
-121.9249736279
 10
-19.8994077378
 20
-123.1668624749
  0
LWPOLYLINE
  5
8E
330
1F
100
AcDbEntity
  8
0
  6
Continuous
 62
     7
370
    25
100
AcDbPolyline
 90
       14
 70
   128
 43
0.0
 10
-100.6355406587
 20
-21.7241768458
 10
-100.7206090297
 20
-24.3902087051
 10
-100.9745736542
 20
-27.1834224923
 10
-101.3937311561
 20
-30.0630868607
 10
-101.9719692752
 20
-32.9872098195
 10
-102.7008559976
 20
-35.9131510712
 10
-103.5697625136
 20
-38.7982438039
 10
-104.5660182096
 20
-41.6004168687
 10
-105.6750954342
 20
-44.2788082726
 10
-106.8808213439
 20
-46.7943610375
 10
-108.1656137401
 20
-49.1103927397
 10
-109.5107374564
 20
-51.1931304217
 10
-110.8965775602
 20
-53.0122030781
 10
-112.302925382
 20
-54.5410845335
  0
LWPOLYLINE
  5
8F
330
1F
100
AcDbEntity
  8
0
  6
Continuous
 62
     7
370
    25
100
AcDbPolyline
 90
       17
 70
   128
 43
0.0
 10
19.0611571566
 20
-133.5609841668
 10
18.7883992446
 20
-133.3424802811
 10
17.0887145429
 20
-132.1799380505
 10
15.1195306046
 20
-131.136279818
 10
12.9119026366
 20
-130.2279646976
 10
10.5006462509
 20
-129.4693173613
 10
7.923788401
 20
-128.8723021307
 10
5.2219676746
 20
-128.4463342928
 10
2.4377933985
 20
-128.1981316147
 10
-0.3848263357
 20
-128.1316084009
 10
-3.2013771288
 20
-128.2478137624
 10
-5.9674402921
 20
-128.544915071
 10
-8.6393933572
 20
-129.0182268618
 10
-11.1750980282
 20
-129.660284725
 10
-13.5345647276
 20
-130.4609630245
 10
-15.6805832561
 20
-131.4076345853
 10
-17.0303147026
 20
-132.1449616277
  0
LWPOLYLINE
  5
90
330
1F
100
AcDbEntity
  8
0
  6
Continuous
 62
     8
370
    25
100
AcDbPolyline
 90
       16
 70
   128
 43
0.0
 10
276.4744439861
 20
-127.4431009852
 10
270.3514071649
 20
-129.7214533955
 10
263.7790608434
 20
-131.8125560824
 10
257.0501124548
 20
-133.599989721
 10
250.1755993675
 20
-135.0808224175
 10
243.1667977167
 20
-136.2526251895
 10
236.0352039089
 20
-137.1134759509
 10
228.792515764
 20
-137.6619626643
 10
221.450613328
 20
-137.8971856572
 10
214.0215393864
 20
-137.8187590977
 10
206.5174797101
 20
-137.4268116274
 10
198.9507430682
 20
-136.7219861504
 10
191.3337410372
 20
-135.7054387789
 10
183.6789676432
 20
-134.3788369364
 10
175.998978868
 20
-132.7443566231
 10
168.3063720536
 20
-130.8046788466
  0
SPLINE
  5
92
330
1F
100
AcDbEntity
  8
0
  6
Continuous
 62
     8
370
    25
100
AcDbSpline
210
0.0
220
0.0
230
1.0
 70
     8
 71
     3
 72
     9
 73
     5
 74
     0
 42
0.000000001
 43
0.00000001
 40
0.0
 40
0.0
 40
0.0
 40
0.0
 40
0.5277822868613314
 40
1.0
 40
1.0
 40
1.0
 40
1.0
 10
-416.7496530349671
 20
-9.469803381835368
 30
0.0
 10
-415.4951742152567
 20
-12.37237254817287
 30
0.0
 10
-413.1182872849075
 20
-17.8719302987727
 30
0.0
 10
-410.1648451229438
 20
-23.04912536687284
 30
0.0
 10
-408.770177419334
 20
-25.49388858240388
 30
0.0
  0
LINE
  5
94
330
1F
100
AcDbEntity
  8
0
  6
Continuous
 62
     7
370
    25
100
AcDbLine
 10
-316.1521789753
 20
-116.6458565902
 30
0.0
 11
160.4178895184
 21
-246.1673895454
 31
0.0
  0
LINE
  5
95
330
1F
100
AcDbEntity
  8
0
  6
Continuous
 62
     7
370
    25
100
AcDbLine
 10
192.5418318693
 20
-237.455879104
 30
0.0
 11
339.9523943335
 21
-93.5786510592
 31
0.0
  0
LINE
  5
96
330
1F
100
AcDbEntity
  8
0
  6
Continuous
 62
     7
370
    25
100
AcDbLine
 10
212.8943347328
 20
-200.5350877001
 30
0.0
 11
-441.5750753085
 21
-22.664325634
 31
0.0
  0
LINE
  5
97
330
1F
100
AcDbEntity
  8
0
  6
Continuous
 62
     7
370
    25
100
AcDbLine
 10
371.570766969
 20
-45.6620253866
 30
0.0
 11
212.8943347328
 21
-200.5350877001
 31
0.0
  0
LINE
  5
98
330
1F
100
AcDbEntity
  8
0
  6
Continuous
 62
     7
370
    25
100
AcDbLine
 10
346.3922471397
 20
-59.201181678
 30
0.0
 11
220.0313945728
 21
-182.5332475543
 31
0.0
  0
LINE
  5
99
330
1F
100
AcDbEntity
  8
0
  6
Continuous
 62
     7
370
    25
100
AcDbLine
 10
371.570766969
 20
-45.6620253866
 30
0.0
 11
-282.8986430723
 21
132.2087366795
 31
0.0
  0
LINE
  5
9A
330
1F
100
AcDbEntity
  8
0
  6
Continuous
 62
     7
370
    25
100
AcDbLine
 10
-282.8986430723
 20
132.2087366795
 30
0.0
 11
-441.5750753085
 21
-22.664325634
 31
0.0
  0
LINE
  5
9B
330
1F
100
AcDbEntity
  8
0
  6
Continuous
 62
     7
370
    25
100
AcDbLine
 10
334.2541814211
 20
-41.3436451669
 30
0.0
 11
-254.915965303
 21
118.7801763236
 31
0.0
  0
LINE
  5
9C
330
1F
100
AcDbEntity
  8
0
  6
Continuous
 62
     7
370
    25
100
AcDbLine
 10
-290.3888004681
 20
113.8622624945
 30
0.0
 11
-416.749653035
 21
-9.4698033818
 31
0.0
  0
LINE
  5
9D
330
1F
100
AcDbEntity
  8
0
  6
Continuous
 62
     7
370
    25
100
AcDbLine
 10
186.2779422059
 20
-187.3997894864
 30
0.0
 11
-405.4996518526
 21
-26.5673196813
 31
0.0
  0
LINE
  5
9E
330
1F
100
AcDbEntity
  8
0
  6
Continuous
 62
     7
370
    25
100
AcDbLine
 10
-100.6355406587
 20
-21.7241768458
 30
0.0
 11
179.9737567768
 21
-97.9877711589
 31
0.0
  0
LINE
  5
9F
330
1F
100
AcDbEntity
  8
0
  6
Continuous
 62
     7
370
    25
100
AcDbLine
 10
168.3063720536
 20
-130.8046788466
 30
0.0
 11
-112.302925382
 21
-54.5410845335
 31
0.0
  0
LINE
  5
A0
330
1F
100
AcDbEntity
  8
0
  6
Continuous
 62
     8
370
    25
100
AcDbLine
 10
168.3063720536
 20
-130.8046788466
 30
0.0
 11
126.8650829893
 21
-171.2526474149
 31
0.0
  0
LINE
  5
A1
330
1F
100
AcDbEntity
  8
0
  6
Continuous
 62
     8
370
    25
100
AcDbLine
 10
-112.302925382
 20
-54.5410845335
 30
0.0
 11
-153.7442144465
 21
-94.9890531018
 31
0.0
  0
ARC
  5
A2
330
1F
100
AcDbEntity
  8
0
  6
Continuous
 62
     7
370
    25
100
AcDbCircle
 10
243.9919680244
 20
4.1322103291
 30
0.0
 40
136.9518742137703
100
AcDbArc
 50
314.482164792
 51
338.6792085884
  0
ARC
  5
A3
330
1F
100
AcDbEntity
  8
0
  6
Continuous
 62
     7
370
    25
100
AcDbCircle
 10
-15.4570097152
 20
-128.5663481889
 30
0.0
 40
6.992091687558047
100
AcDbArc
 50
129.4456570679
 51
198.3621004064
  0
SPLINE
  5
A4
330
1B
100
AcDbEntity
 67
     1
  8
0
  6
Continuous
 62
     7
370
    25
100
AcDbSpline
210
0.0
220
0.0
230
1.0
 70
     8
 71
     3
 72
    51
 73
    47
 74
     0
 42
0.000000001
 43
0.00000001
 40
0.0
 40
0.0
 40
0.0
 40
0.0
 40
0.0624999999999992
 40
0.0624999999999992
 40
0.1249999999999983
 40
0.1249999999999983
 40
0.1406249999999981
 40
0.1406249999999981
 40
0.1562499999999979
 40
0.1562499999999979
 40
0.1874999999999977
 40
0.1874999999999977
 40
0.2499999999999972
 40
0.2499999999999972
 40
0.3124999999999966
 40
0.3124999999999966
 40
0.3749999999999959
 40
0.3749999999999959
 40
0.3906249999999958
 40
0.3906249999999958
 40
0.4062499999999957
 40
0.4062499999999957
 40
0.4374999999999957
 40
0.4374999999999957
 40
0.499999999999996
 40
0.499999999999996
 40
0.5624999999999962
 40
0.5624999999999962
 40
0.5937499999999967
 40
0.5937499999999967
 40
0.624999999999997
 40
0.624999999999997
 40
0.6874999999999976
 40
0.6874999999999976
 40
0.7499999999999981
 40
0.7499999999999981
 40
0.8749999999999992
 40
0.8749999999999992
 40
0.9374999999999997
 40
0.9374999999999997
 40
0.9687499999999998
 40
0.9687499999999998
 40
0.9843749999999999
 40
0.9921874999999999
 40
0.9921874999999999
 40
1.0
 40
1.0
 40
1.0
 40
1.0
 10
-359.9999999999999
 20
-210.7565910530892
 30
0.0
 10
-357.8106508346575
 20
-210.2122200404332
 30
0.0
 10
-355.3905427472005
 20
-209.3852843829758
 30
0.0
 10
-350.1138099851179
 20
-207.2303223259599
 30
0.0
 10
-347.2570916561793
 20
-205.9020048363696
 30
0.0
 10
-343.4212021216332
 20
-203.9537345042953
 30
0.0
 10
-342.6401434544885
 20
-203.5493221538877
 30
0.0
 10
-341.0541988509414
 20
-202.7134793178488
 30
0.0
 10
-340.2515833109065
 20
-202.2832586053626
 30
0.0
 10
-337.8155620879398
 20
-200.9572209823131
 30
0.0
 10
-336.1540040202622
 20
-200.026070898952
 30
0.0
 10
-331.0618547190506
 20
-197.101709763356
 30
0.0
 10
-327.5240504932547
 20
-194.9780544621608
 30
0.0
 10
-320.182323544726
 20
-190.4243643524013
 30
0.0
 10
-316.3783258373574
 20
-187.9941594452925
 30
0.0
 10
-308.5164176707842
 20
-182.8556578731379
 30
0.0
 10
-304.4584673720274
 20
-180.1472646448367
 30
0.0
 10
-299.2313097364217
 20
-176.5999616289776
 30
0.0
 10
-298.1781292322465
 20
-175.8823915007873
 30
0.0
 10
-296.0563203068303
 20
-174.4312631447922
 30
0.0
 10
-294.9866467431284
 20
-173.6969836287031
 30
0.0
 10
-291.763195260843
 20
-171.4764680523682
 30
0.0
 10
-289.5961733079421
 20
-169.9734083705574
 30
0.0
 10
-283.0424587351038
 20
-165.4001079678953
 30
0.0
 10
-278.6032089818747
 20
-162.2659122789358
 30
0.0
 10
-269.5900856402268
 20
-155.8435656833145
 30
0.0
 10
-265.0161948716942
 20
-152.5553645336626
 30
0.0
 10
-258.0564958850948
 20
-147.5164613029285
 30
0.0
 10
-255.7200992847707
 20
-145.8190274360807
 30
0.0
 10
-251.0144413088853
 20
-142.3897019457805
 30
0.0
 10
-248.6434323753614
 20
-140.6565135572951
 30
0.0
 10
-241.526358675198
 20
-135.4399473823076
 30
0.0
 10
-236.7619628145235
 20
-131.9292495631377
 30
0.0
 10
-227.1934198584184
 20
-124.8499052005373
 30
0.0
 10
-222.3892731439126
 20
-121.2812376099023
 30
0.0
 10
-207.9158838116863
 20
-110.4974948296493
 30
0.0
 10
-198.1859843436957
 20
-103.2051369939256
 30
0.0
 10
-183.4595602333294
 20
-92.13760849246766
 30
0.0
 10
-178.5287542241528
 20
-88.42680381917648
 30
0.0
 10
-171.0975546156774
 20
-82.83043307763049
 30
0.0
 10
-168.614650645212
 20
-80.95994345571924
 30
0.0
 10
-164.881232771536
 20
-78.14690067478449
 30
0.0
 10
-163.012257720536
 20
-76.73855177398714
 30
0.0
 10
-161.1398200975835
 20
-75.32750309490356
 30
0.0
 10
-159.8907513963983
 20
-74.38620839653439
 30
0.0
 10
-159.2649415445751
 20
-73.91459478402051
 30
0.0
 10
-158.6406308046244
 20
-73.44411091323188
 30
0.0
  0
SPLINE
  5
A5
330
1B
100
AcDbEntity
 67
     1
  8
0
  6
Continuous
 62
     7
370
    25
100
AcDbSpline
210
0.0
220
0.0
230
1.0
 70
     8
 71
     3
 72
    48
 73
    44
 74
     0
 42
0.000000001
 43
0.00000001
 40
0.0
 40
0.0
 40
0.0
 40
0.0
 40
0.0625000000000005
 40
0.0625000000000005
 40
0.0937500000000008
 40
0.0937500000000008
 40
0.1093750000000009
 40
0.1093750000000009
 40
0.1250000000000011
 40
0.1250000000000011
 40
0.1875000000000017
 40
0.1875000000000017
 40
0.2500000000000023
 40
0.2500000000000023
 40
0.3125000000000028
 40
0.3125000000000028
 40
0.3750000000000033
 40
0.3750000000000033
 40
0.4062500000000035
 40
0.4062500000000035
 40
0.4375000000000037
 40
0.4375000000000037
 40
0.5000000000000037
 40
0.5000000000000037
 40
0.5625000000000037
 40
0.5625000000000037
 40
0.5937500000000037
 40
0.5937500000000037
 40
0.6093750000000036
 40
0.6093750000000036
 40
0.6250000000000034
 40
0.6250000000000034
 40
0.6875000000000029
 40
0.6875000000000029
 40
0.7500000000000023
 40
0.7500000000000023
 40
0.8750000000000012
 40
0.8750000000000012
 40
0.9375000000000008
 40
0.9375000000000008
 40
0.9687500000000004
 40
0.9687500000000004
 40
1.0
 40
1.0
 40
1.0
 40
1.0
 10
-334.5575919091178
 20
-234.8659477326087
 30
0.0
 10
-332.5561834727484
 20
-234.0324077545805
 30
0.0
 10
-330.3662929205896
 20
-232.8993693332811
 30
0.0
 10
-326.8091494804526
 20
-230.7925781597814
 30
0.0
 10
-325.577971573452
 20
-230.022241473722
 30
0.0
 10
-323.6636555430633
 20
-228.7683147027996
 30
0.0
 10
-323.0142877255433
 20
-228.3339258900084
 30
0.0
 10
-321.6930846870758
 20
-227.4328281026477
 30
0.0
 10
-321.0204163142718
 20
-226.9655276459598
 30
0.0
 10
-317.6109988768316
 20
-224.5564382827926
 30
0.0
 10
-314.7530788975124
 20
-222.4099983894291
 30
0.0
 10
-308.7967371175291
 20
-217.7365059949202
 30
0.0
 10
-305.6982300495346
 20
-215.209187726862
 30
0.0
 10
-299.2732239617345
 20
-209.8124342882246
 30
0.0
 10
-295.9466795340883
 20
-206.9428522744725
 30
0.0
 10
-289.0725132487845
 20
-200.8876448599282
 30
0.0
 10
-285.524869537478
 20
-197.7019365293453
 30
0.0
 10
-280.0393024305802
 20
-192.6990306046359
 30
0.0
 10
-278.1801863679784
 20
-190.9909394833487
 30
0.0
 10
-274.4362927025883
 20
-187.5284281465762
 30
0.0
 10
-272.5488788634339
 20
-185.7716442858605
 30
0.0
 10
-266.841198038275
 20
-180.4287294190845
 30
0.0
 10
-262.9755640700127
 20
-176.7702082764426
 30
0.0
 10
-255.1264779961948
 20
-169.2765499473001
 30
0.0
 10
-251.1430156674958
 20
-165.4413644836943
 30
0.0
 10
-245.0801935987494
 20
-159.5646922144466
 30
0.0
 10
-243.0446319053887
 20
-157.5851178734599
 30
0.0
 10
-239.9693094588726
 20
-154.5855293172202
 30
0.0
 10
-238.9401483050119
 20
-153.5802434959143
 30
0.0
 10
-236.8815013139558
 20
-151.5665847399003
 30
0.0
 10
-235.8511793002563
 20
-150.5573975102106
 30
0.0
 10
-230.6945308125123
 20
-145.5000400098672
 30
0.0
 10
-226.553099162004
 20
-141.4176958329534
 30
0.0
 10
-218.2366862724002
 20
-133.1879536582031
 30
0.0
 10
-214.0617076925141
 20
-129.0405350978249
 30
0.0
 10
-201.4840151142421
 20
-116.5095400918219
 30
0.0
 10
-193.0287964991493
 20
-108.0377325075209
 30
0.0
 10
-180.2273190908626
 20
-95.17695868646213
 30
0.0
 10
-175.940328203081
 20
-90.86438219800226
 30
0.0
 10
-169.4777523445745
 20
-84.35892050650554
 30
0.0
 10
-167.3182068372285
 20
-82.18432732544183
 30
0.0
 10
-162.9879462413437
 20
-77.82316964142484
 30
0.0
 10
-160.8186017670387
 20
-75.63798540723997
 30
0.0
 10
-158.6406308046253
 20
-73.44411091323184
 30
0.0
  0
SPLINE
  5
A6
330
1B
100
AcDbEntity
 67
     1
  8
0
  6
Continuous
 62
     7
370
    25
100
AcDbSpline
210
0.0
220
0.0
230
1.0
 70
     8
 71
     3
 72
    34
 73
    30
 74
     0
 42
0.000000001
 43
0.00000001
 40
0.0
 40
0.0
 40
0.0
 40
0.0
 40
0.1249999999999993
 40
0.1249999999999993
 40
0.187500000000001
 40
0.187500000000001
 40
0.2187500000000019
 40
0.2187500000000019
 40
0.2500000000000028
 40
0.2500000000000028
 40
0.3750000000000041
 40
0.3750000000000041
 40
0.4375000000000047
 40
0.4375000000000047
 40
0.5000000000000053
 40
0.5000000000000053
 40
0.6250000000000048
 40
0.6250000000000048
 40
0.6875000000000033
 40
0.6875000000000033
 40
0.7500000000000019
 40
0.7500000000000019
 40
0.8749999999999989
 40
0.8749999999999989
 40
0.9062499999999992
 40
0.9062499999999992
 40
0.9374999999999994
 40
0.9374999999999994
 40
1.0
 40
1.0
 40
1.0
 40
1.0
 10
-334.5575919091178
 20
-234.8659477326087
 30
0.0
 10
-336.1955654665177
 20
-234.8659477326088
 30
0.0
 10
-337.8099957323864
 20
-234.7239648741234
 30
0.0
 10
-340.1965267294075
 20
-234.2992256710081
 30
0.0
 10
-340.9861506341965
 20
-234.1221465754319
 30
0.0
 10
-342.1614534368725
 20
-233.8014490921371
 30
0.0
 10
-342.5516964513504
 20
-233.6853555863663
 30
0.0
 10
-343.3290508111767
 20
-233.4342823738737
 30
0.0
 10
-343.7166584699947
 20
-233.2990623864859
 30
0.0
 10
-345.6263311383475
 20
-232.5822873723459
 30
0.0
 10
-347.0795429684428
 20
-231.8752237816586
 30
0.0
 10
-349.1470207147142
 20
-230.6131757724308
 30
0.0
 10
-349.8173398898631
 20
-230.1587083217751
 30
0.0
 10
-351.1186517424179
 20
-229.1792515563822
 30
0.0
 10
-351.7513724952075
 20
-228.6520623874257
 30
0.0
 10
-353.5450942146883
 20
-226.9984824901666
 30
0.0
 10
-354.6173171233091
 20
-225.7910974972081
 30
0.0
 10
-356.0378243935474
 20
-223.8204497145436
 30
0.0
 10
-356.4801871333822
 20
-223.136140485697
 30
0.0
 10
-357.2971049053812
 20
-221.713879434679
 30
0.0
 10
-357.6648853119098
 20
-220.9878644566088
 30
0.0
 10
-358.6498878581713
 20
-218.7665188289565
 30
0.0
 10
-359.1499049582147
 20
-217.2283022879673
 30
0.0
 10
-359.5738880048846
 20
-215.2319707141568
 30
0.0
 10
-359.6486645743275
 20
-214.8280680519327
 30
0.0
 10
-359.7765210900286
 20
-214.0188731016852
 30
0.0
 10
-359.8297129865467
 20
-213.613324752964
 30
0.0
 10
-359.9573725105295
 20
-212.3938530285401
 30
0.0
 10
-360.0000000000002
 20
-211.5771097080144
 30
0.0
 10
-360.0000000000004
 20
-210.7565910530893
 30
0.0
  0
SPLINE
  5
A8
330
1B
100
AcDbEntity
 67
     1
  8
0
  6
Continuous
 62
     7
370
    25
100
AcDbSpline
210
0.0
220
0.0
230
1.0
 70
     8
 71
     3
 72
    48
 73
    44
 74
     0
 42
0.000000001
 43
0.00000001
 40
0.0
 40
0.0
 40
0.0
 40
0.0
 40
0.0624999999999994
 40
0.0624999999999994
 40
0.0937499999999992
 40
0.0937499999999992
 40
0.1093749999999992
 40
0.1093749999999992
 40
0.1249999999999992
 40
0.1249999999999992
 40
0.1874999999999997
 40
0.1874999999999997
 40
0.2500000000000002
 40
0.2500000000000002
 40
0.3125000000000007
 40
0.3125000000000007
 40
0.3750000000000012
 40
0.3750000000000012
 40
0.4062500000000014
 40
0.4062500000000014
 40
0.4375000000000017
 40
0.4375000000000017
 40
0.500000000000002
 40
0.500000000000002
 40
0.5625000000000022
 40
0.5625000000000022
 40
0.5937500000000023
 40
0.5937500000000023
 40
0.6093750000000022
 40
0.6093750000000022
 40
0.6250000000000021
 40
0.6250000000000021
 40
0.6875000000000018
 40
0.6875000000000018
 40
0.7500000000000014
 40
0.7500000000000014
 40
0.8750000000000007
 40
0.8750000000000007
 40
0.9375000000000002
 40
0.9375000000000002
 40
0.96875
 40
0.96875
 40
1.0
 40
1.0
 40
1.0
 40
1.0
 10
334.5575919091178
 20
-234.8659477326087
 30
0.0
 10
332.5561834727519
 20
-234.0324077545791
 30
0.0
 10
330.3662929206112
 20
-232.8993693332964
 30
0.0
 10
326.8091494804827
 20
-230.7925781597981
 30
0.0
 10
325.5779715734841
 20
-230.0222414737445
 30
0.0
 10
323.6636555431003
 20
-228.7683147028231
 30
0.0
 10
323.0142877255813
 20
-228.3339258900351
 30
0.0
 10
321.6930846871174
 20
-227.4328281026753
 30
0.0
 10
321.0204163143114
 20
-226.9655276459888
 30
0.0
 10
317.6109988768794
 20
-224.5564382828233
 30
0.0
 10
314.7530788975632
 20
-222.4099983894727
 30
0.0
 10
308.7967371175944
 20
-217.7365059949676
 30
0.0
 10
305.6982300496031
 20
-215.2091877269241
 30
0.0
 10
299.2732239618196
 20
-209.8124342882913
 30
0.0
 10
295.9466795341762
 20
-206.9428522745555
 30
0.0
 10
289.0725132488908
 20
-200.8876448600162
 30
0.0
 10
285.5248695375871
 20
-197.7019365294515
 30
0.0
 10
280.0393024307044
 20
-192.6990306047458
 30
0.0
 10
278.1801863681002
 20
-190.990939483465
 30
0.0
 10
274.4362927027234
 20
-187.5284281466974
 30
0.0
 10
272.5488788635723
 20
-185.7716442859938
 30
0.0
 10
266.8411980384453
 20
-180.4287294192359
 30
0.0
 10
262.9755640702001
 20
-176.7702082766305
 30
0.0
 10
255.1264779964572
 20
-169.2765499475414
 30
0.0
 10
251.1430156677898
 20
-165.4413644839898
 30
0.0
 10
245.0801935991251
 20
-159.5646922148055
 30
0.0
 10
243.0446319057856
 20
-157.5851178738528
 30
0.0
 10
239.9693094593172
 20
-154.585529317651
 30
0.0
 10
238.9401483054426
 20
-153.5802434963386
 30
0.0
 10
236.8815013143572
 20
-151.5665847402899
 30
0.0
 10
235.8511793006385
 20
-150.5573975105886
 30
0.0
 10
230.6945308128252
 20
-145.500040010161
 30
0.0
 10
226.5530991622452
 20
-141.4176958332084
 30
0.0
 10
218.2366862725551
 20
-133.1879536583397
 30
0.0
 10
214.0617076926046
 20
-129.0405350979361
 30
0.0
 10
201.4840151142413
 20
-116.5095400917784
 30
0.0
 10
193.0287964990245
 20
-108.0377325074819
 30
0.0
 10
180.2273190907416
 20
-95.17695868629716
 30
0.0
 10
175.9403282028815
 20
-90.86438219788769
 30
0.0
 10
169.4777523444251
 20
-84.35892050631132
 30
0.0
 10
167.3182068370116
 20
-82.18432732530947
 30
0.0
 10
162.9879462412092
 20
-77.82316964120137
 30
0.0
 10
160.8186017767556
 20
-75.63798539723054
 30
0.0
 10
158.6406308042664
 20
-73.44411091323185
 30
0.0
  0
SPLINE
  5
AA
330
1B
100
AcDbEntity
 67
     1
  8
0
  6
Continuous
 62
     7
370
    25
100
AcDbSpline
210
0.0
220
0.0
230
1.0
 70
     8
 71
     3
 72
    51
 73
    47
 74
     0
 42
0.000000001
 43
0.00000001
 40
0.0
 40
0.0
 40
0.0
 40
0.0
 40
0.062500000000001
 40
0.062500000000001
 40
0.125000000000002
 40
0.125000000000002
 40
0.1406250000000023
 40
0.1406250000000023
 40
0.1562500000000026
 40
0.1562500000000026
 40
0.1875000000000028
 40
0.1875000000000028
 40
0.2500000000000031
 40
0.2500000000000031
 40
0.3125000000000033
 40
0.3125000000000033
 40
0.3750000000000035
 40
0.3750000000000035
 40
0.3906250000000034
 40
0.3906250000000034
 40
0.4062500000000033
 40
0.4062500000000033
 40
0.437500000000003
 40
0.437500000000003
 40
0.500000000000002
 40
0.500000000000002
 40
0.562500000000001
 40
0.562500000000001
 40
0.5937500000000007
 40
0.5937500000000007
 40
0.6250000000000004
 40
0.6250000000000004
 40
0.6875000000000004
 40
0.6875000000000004
 40
0.7500000000000004
 40
0.7500000000000004
 40
0.8750000000000006
 40
0.8750000000000006
 40
0.9375000000000007
 40
0.9375000000000007
 40
0.9687500000000006
 40
0.9687500000000006
 40
0.9843750000000006
 40
0.9921875000000003
 40
0.9921875000000003
 40
1.0
 40
1.0
 40
1.0
 40
1.0
 10
359.9999999999999
 20
-210.7565910530892
 30
0.0
 10
357.8106508346598
 20
-210.2122200404338
 30
0.0
 10
355.3905427472059
 20
-209.3852843829776
 30
0.0
 10
350.1138099851298
 20
-207.2303223259652
 30
0.0
 10
347.2570916561951
 20
-205.9020048363771
 30
0.0
 10
343.4212021216543
 20
-203.9537345043062
 30
0.0
 10
342.6401434545107
 20
-203.5493221538993
 30
0.0
 10
341.0541988509657
 20
-202.7134793178618
 30
0.0
 10
340.251583310932
 20
-202.2832586053763
 30
0.0
 10
337.8155620879685
 20
-200.957220982329
 30
0.0
 10
336.1540040202931
 20
-200.0260708989696
 30
0.0
 10
331.0618547190884
 20
-197.1017097633783
 30
0.0
 10
327.5240504932975
 20
-194.9780544621866
 30
0.0
 10
320.1823235447792
 20
-190.4243643524349
 30
0.0
 10
316.3783258374161
 20
-187.9941594453302
 30
0.0
 10
308.5164176708542
 20
-182.8556578731842
 30
0.0
 10
304.4584673721033
 20
-180.1472646448877
 30
0.0
 10
299.2313097365055
 20
-176.5999616290345
 30
0.0
 10
298.1781292323317
 20
-175.8823915008455
 30
0.0
 10
296.0563203069187
 20
-174.4312631448529
 30
0.0
 10
294.9866467432183
 20
-173.696983628765
 30
0.0
 10
291.7631952609381
 20
-171.4764680524341
 30
0.0
 10
289.5961733080428
 20
-169.9734083706274
 30
0.0
 10
283.0424587352272
 20
-165.4001079679821
 30
0.0
 10
278.6032089820216
 20
-162.2659122790398
 30
0.0
 10
269.5900856404381
 20
-155.8435656834658
 30
0.0
 10
265.016194871946
 20
-152.5553645338438
 30
0.0
 10
258.0564958854206
 20
-147.5164613031649
 30
0.0
 10
255.7200992851233
 20
-145.8190274363371
 30
0.0
 10
251.014441309296
 20
-142.3897019460804
 30
0.0
 10
248.6434323757548
 20
-140.6565135575829
 30
0.0
 10
241.5263586754914
 20
-135.4399473825235
 30
0.0
 10
236.7619628147562
 20
-131.9292495633094
 30
0.0
 10
227.193419858541
 20
-124.8499052006283
 30
0.0
 10
222.389273143986
 20
-121.2812376099568
 30
0.0
 10
207.9158838116286
 20
-110.4974948296061
 30
0.0
 10
198.1859843435725
 20
-103.2051369938332
 30
0.0
 10
183.459560233142
 20
-92.13760849232638
 30
0.0
 10
178.5287542239497
 20
-88.42680381902306
 30
0.0
 10
171.0975546154594
 20
-82.83043307746532
 30
0.0
 10
168.6146506449902
 20
-80.95994345555161
 30
0.0
 10
164.8812327713113
 20
-78.1469006746141
 30
0.0
 10
163.0122577203108
 20
-76.73855177381517
 30
0.0
 10
161.1398200973597
 20
-75.32750309472954
 30
0.0
 10
159.8907513961772
 20
-74.38620839635699
 30
0.0
 10
159.2649415453604
 20
-73.91459478250746
 30
0.0
 10
158.6406308042706
 20
-73.44411091323188
 30
0.0
  0
SPLINE
  5
AB
330
1B
100
AcDbEntity
 67
     1
  8
0
  6
Continuous
 62
     7
370
    25
100
AcDbSpline
210
0.0
220
0.0
230
1.0
 70
     8
 71
     3
 72
    34
 73
    30
 74
     0
 42
0.000000001
 43
0.00000001
 40
0.0
 40
0.0
 40
0.0
 40
0.0
 40
0.1249999999999925
 40
0.1249999999999925
 40
0.1874999999999891
 40
0.1874999999999891
 40
0.2187499999999875
 40
0.2187499999999875
 40
0.2499999999999858
 40
0.2499999999999858
 40
0.3749999999999826
 40
0.3749999999999826
 40
0.4374999999999822
 40
0.4374999999999822
 40
0.4999999999999818
 40
0.4999999999999818
 40
0.5624999999999813
 40
0.5624999999999813
 40
0.5937499999999829
 40
0.5937499999999829
 40
0.6249999999999845
 40
0.6249999999999845
 40
0.7499999999999902
 40
0.7499999999999902
 40
0.8124999999999927
 40
0.8124999999999927
 40
0.8749999999999951
 40
0.8749999999999951
 40
1.0
 40
1.0
 40
1.0
 40
1.0
 10
359.9999999999999
 20
-210.7565910530892
 30
0.0
 10
359.9999999999999
 20
-212.3957303358398
 30
0.0
 10
359.8311072258802
 20
-214.006138455824
 30
0.0
 10
359.3315951951573
 20
-216.3798729840157
 30
0.0
 10
359.1237691599418
 20
-217.1640883381753
 30
0.0
 10
358.7482234836584
 20
-218.3295569175665
 30
0.0
 10
358.6120215542943
 20
-218.7170551454429
 30
0.0
 10
358.321230289588
 20
-219.4797644280572
 30
0.0
 10
358.1663957947852
 20
-219.8558883980429
 30
0.0
 10
357.3459723623481
 20
-221.71087766345
 30
0.0
 10
356.5429540486287
 20
-223.113584640003
 30
0.0
 10
355.1200221693184
 20
-225.0966133933005
 30
0.0
 10
354.6065031600872
 20
-225.7396344057792
 30
0.0
 10
353.5277075101102
 20
-226.9578747974769
 30
0.0
 10
352.9605730739935
 20
-227.5362590373807
 30
0.0
 10
351.7726113454745
 20
-228.6335284941202
 30
0.0
 10
351.1517789581394
 20
-229.1524080650737
 30
0.0
 10
350.1804342888221
 20
-229.8862954756434
 30
0.0
 10
349.8499585675152
 20
-230.1235065629222
 30
0.0
 10
349.1755103230971
 20
-230.5829724364478
 30
0.0
 10
348.8308066239244
 20
-230.805629932539
 30
0.0
 10
347.0904349358409
 20
-231.8707645307099
 30
0.0
 10
345.6346243771215
 20
-232.5777224361956
 30
0.0
 10
343.3612177800625
 20
-233.433184712463
 30
0.0
 10
342.5883606983368
 20
-233.6839331609355
 30
0.0
 10
341.0122698701584
 20
-234.1160088128761
 30
0.0
 10
340.2143009028646
 20
-234.295658097644
 30
0.0
 10
337.8133963063304
 20
-234.7241583891791
 30
0.0
 10
336.1945053448617
 20
-234.8659477326098
 30
0.0
 10
334.5575919091181
 20
-234.8659477326097
 30
0.0
  0
SPLINE
  5
B3
330
1B
100
AcDbEntity
 67
     1
  8
0
  6
Continuous
 62
     7
370
    25
100
AcDbSpline
210
0.0
220
0.0
230
1.0
 70
     8
 71
     3
 72
    34
 73
    30
 74
     0
 42
0.000000001
 43
0.00000001
 40
0.0
 40
0.0
 40
0.0
 40
0.0
 40
0.1249999999999934
 40
0.1249999999999934
 40
0.1874999999999901
 40
0.1874999999999901
 40
0.2187499999999885
 40
0.2187499999999885
 40
0.2499999999999868
 40
0.2499999999999868
 40
0.3749999999999889
 40
0.3749999999999889
 40
0.43749999999999
 40
0.43749999999999
 40
0.499999999999991
 40
0.499999999999991
 40
0.6249999999999954
 40
0.6249999999999954
 40
0.6874999999999977
 40
0.6874999999999977
 40
0.7187499999999983
 40
0.7187499999999983
 40
0.749999999999999
 40
0.749999999999999
 40
0.8749999999999992
 40
0.8749999999999992
 40
0.9374999999999999
 40
0.9374999999999999
 40
1.0
 40
1.0
 40
1.0
 40
1.0
 10
333.0834886143604
 20
85.00000000000001
 30
0.0
 10
334.798571543611
 20
85.00000000000001
 30
0.0
 10
336.4889488037462
 20
84.85221555243336
 30
0.0
 10
338.9882169067009
 20
84.41341266595518
 30
0.0
 10
339.8152177205166
 20
84.23072450708152
 30
0.0
 10
341.046321898309
 20
83.90048100848551
 30
0.0
 10
341.4551212262263
 20
83.78101600029522
 30
0.0
 10
342.2695050672462
 20
83.52285559477632
 30
0.0
 10
342.6761017257804
 20
83.38376121986616
 30
0.0
 10
344.6828001676361
 20
82.64557072959624
 30
0.0
 10
346.2115587294923
 20
81.91819346273479
 30
0.0
 10
348.3895411528305
 20
80.62143452831799
 30
0.0
 10
349.0962205603118
 20
80.15468116641023
 30
0.0
 10
350.4693002451168
 20
79.14922701247085
 30
0.0
 10
351.1393078714874
 20
78.60701037264575
 30
0.0
 10
353.046865377634
 20
76.90002911540658
 30
0.0
 10
354.1895679334932
 20
75.65353407801406
 30
0.0
 10
355.7073551750507
 20
73.61870625463723
 30
0.0
 10
356.1803518207477
 20
72.91272993035808
 30
0.0
 10
356.8378277319164
 20
71.81001077385757
 30
0.0
 10
357.0485656920092
 20
71.43447197357638
 30
0.0
 10
357.4471733484226
 20
70.67796711995695
 30
0.0
 10
357.6357226451914
 20
70.29593999696337
 30
0.0
 10
358.5253370463914
 20
68.36715573414403
 30
0.0
 10
359.0686564458362
 20
66.76503196918337
 30
0.0
 10
359.6235899812843
 20
64.2705738192948
 30
0.0
 10
359.7650612715474
 20
63.42001095077104
 30
0.0
 10
359.9528263636628
 20
61.71557337262617
 30
0.0
 10
360.0
 20
60.8596549218908
 30
0.0
 10
359.9999999999999
 20
60.00000000000006
 30
0.0
  0
SPLINE
  5
B5
330
1B
100
AcDbEntity
 67
     1
  8
0
  6
Continuous
 62
     7
370
    25
100
AcDbSpline
210
0.0
220
0.0
230
1.0
 70
     8
 71
     3
 72
    34
 73
    30
 74
     0
 42
0.000000001
 43
0.00000001
 40
0.0
 40
0.0
 40
0.0
 40
0.0
 40
0.1249999999999966
 40
0.1249999999999966
 40
0.1874999999999948
 40
0.1874999999999948
 40
0.2187499999999946
 40
0.2187499999999946
 40
0.2499999999999944
 40
0.2499999999999944
 40
0.3749999999999963
 40
0.3749999999999963
 40
0.4062499999999966
 40
0.4062499999999966
 40
0.4374999999999969
 40
0.4374999999999969
 40
0.4999999999999976
 40
0.4999999999999976
 40
0.5624999999999981
 40
0.5624999999999981
 40
0.6249999999999988
 40
0.6249999999999988
 40
0.7499999999999993
 40
0.7499999999999993
 40
0.8124999999999994
 40
0.8124999999999994
 40
0.8749999999999997
 40
0.8749999999999997
 40
1.0
 40
1.0
 40
1.0
 40
1.0
 10
-359.9999999999999
 20
60.0
 30
0.0
 10
-359.9999999999999
 20
61.71661987296789
 30
0.0
 10
-359.8134236729909
 20
63.40105010403754
 30
0.0
 10
-359.2668976767018
 20
65.88168887244115
 30
0.0
 10
-359.0399139386469
 20
66.70083775692103
 30
0.0
 10
-358.6306472494944
 20
67.91769269533502
 30
0.0
 10
-358.4827404581737
 20
68.32104275294209
 30
0.0
 10
-358.1676376970904
 20
69.11413955050241
 30
0.0
 10
-358.0000461229285
 20
69.50511991093883
 30
0.0
 10
-357.1130189481752
 20
71.43280911382288
 30
0.0
 10
-356.2478330782238
 20
72.88868853015545
 30
0.0
 10
-354.9746761880626
 20
74.60223992431075
 30
0.0
 10
-354.7096248752375
 20
74.94044059489576
 30
0.0
 10
-354.1651568503348
 20
75.59975101753413
 30
0.0
 10
-353.885499883314
 20
75.9212916597774
 30
0.0
 10
-353.0248573223332
 20
76.86222272598093
 30
0.0
 10
-352.4222519565459
 20
77.45797901204406
 30
0.0
 10
-351.161166630931
 20
78.58841101999803
 30
0.0
 10
-350.5026815536239
 20
79.12308114760141
 30
0.0
 10
-349.1300258887968
 20
80.13154753985712
 30
0.0
 10
-348.4127165787937
 20
80.60687892571208
 30
0.0
 10
-346.2177575054271
 20
81.91599004461072
 30
0.0
 10
-344.6882239388528
 20
82.64231516237474
 30
0.0
 10
-342.2994484719006
 20
83.52293748964235
 30
0.0
 10
-341.4859861520152
 20
83.7817812060348
 30
0.0
 10
-339.8325795105009
 20
84.2268060028572
 30
0.0
 10
-339.0007146480576
 20
84.4109527066888
 30
0.0
 10
-336.4902040733991
 20
84.85252241376278
 30
0.0
 10
-334.7967668173501
 20
84.99999999999919
 30
0.0
 10
-333.0834886143957
 20
85.00000000000001
 30
0.0
  0
CIRCLE
  5
BC
330
1B
100
AcDbEntity
 67
     1
  8
0
  6
Continuous
 62
     7
370
    25
100
AcDbCircle
 10
-0.0000000001
 20
-0.0000000001
 30
0.0
 40
32.49999999999877
  0
CIRCLE
  5
BD
330
1B
100
AcDbEntity
 67
     1
  8
0
  6
Continuous
 62
     7
370
    25
100
AcDbCircle
 10
-0.0000000001
 20
-0.0000000001
 30
0.0
 40
22.49999999999999
  0
LINE
  5
BE
330
1B
100
AcDbEntity
 67
     1
  8
0
  6
Continuous
 62
     7
370
    25
100
AcDbLine
 10
158.6406308047
 20
-73.4441109132
 30
0.0
 11
-158.6406308045
 21
-73.4441109132
 31
0.0
  0
LINE
  5
BF
330
1B
100
AcDbEntity
 67
     1
  8
0
  6
Continuous
 62
     7
370
    25
100
AcDbLine
 10
334.5575919093
 20
-234.8659477326
 30
0.0
 11
-334.557591909
 21
-234.8659477326
 31
0.0
  0
LINE
  5
C0
330
1B
100
AcDbEntity
 67
     1
  8
0
  6
Continuous
 62
     7
370
    25
100
AcDbLine
 10
-158.6406308044
 20
85.0
 30
0.0
 11
-158.6406308045
 21
-73.4441109132
 31
0.0
  0
LINE
  5
C1
330
1B
100
AcDbEntity
 67
     1
  8
0
  6
Continuous
 62
     7
370
    25
100
AcDbLine
 10
-360.0
 20
60.0
 30
0.0
 11
-360.0
 21
-210.7565910531
 31
0.0
  0
LINE
  5
C2
330
1B
100
AcDbEntity
 67
     1
  8
0
  6
Continuous
 62
     7
370
    25
100
AcDbLine
 10
360.0
 20
60.0
 30
0.0
 11
-360.0
 21
60.0
 31
0.0
  0
LINE
  5
C3
330
1B
100
AcDbEntity
 67
     1
  8
0
  6
Continuous
 62
     7
370
    25
100
AcDbLine
 10
360.0
 20
60.0
 30
0.0
 11
360.0
 21
-210.7565910531
 31
0.0
  0
LINE
  5
C4
330
1B
100
AcDbEntity
 67
     1
  8
0
  6
Continuous
 62
     7
370
    25
100
AcDbLine
 10
158.6406308044
 20
85.0
 30
0.0
 11
158.6406308047
 21
-73.4441109132
 31
0.0
  0
LINE
  5
C5
330
1B
100
AcDbEntity
 67
     1
  8
0
  6
Continuous
 62
     7
370
    25
100
AcDbLine
 10
370.0
 20
95.0
 30
0.0
 11
-370.0
 21
95.0
 31
0.0
  0
LINE
  5
C6
330
1B
100
AcDbEntity
 67
     1
  8
0
  6
Continuous
 62
     7
370
    25
100
AcDbLine
 10
333.0834886144
 20
85.0
 30
0.0
 11
-333.0834886144
 21
85.0
 31
0.0
  0
LINE
  5
C7
330
1B
100
AcDbEntity
 67
     1
  8
0
  6
Continuous
 62
     7
370
    25
100
AcDbLine
 10
-370.0
 20
95.0
 30
0.0
 11
-370.0
 21
-245.0
 31
0.0
  0
LINE
  5
C8
330
1B
100
AcDbEntity
 67
     1
  8
0
  6
Continuous
 62
     7
370
    25
100
AcDbLine
 10
370.0
 20
95.0
 30
0.0
 11
370.0
 21
-245.0
 31
0.0
  0
LINE
  5
C9
330
1B
100
AcDbEntity
 67
     1
  8
0
  6
Continuous
 62
     7
370
    25
100
AcDbLine
 10
370.0
 20
-245.0
 30
0.0
 11
-370.0
 21
-245.0
 31
0.0
  0
VIEWPORT
  5
235
330
1B
100
AcDbEntity
 67
     1
  8
0
100
AcDbViewport
 10
0.0
 20
0.0
 30
0.0
 40
205.6
 41
156.0
 68
     1
 69
     1
 12
-35.0021541698
 22
-57.6078718791
 13
0.0
 23
0.0
 14
10.0
 24
10.0
 15
10.0
 25
10.0
 16
0.0
 26
0.0
 36
1.0
 17
0.0
 27
0.0
 37
0.0
 42
50.0
 43
0.0
 44
0.0
 45
629.3179300739
 50
0.0
 51
0.0
 72
   100
 90
   557152
  1

281
     0
 71
     1
 74
     0
110
0.0
120
0.0
130
0.0
111
1.0
121
0.0
131
0.0
112
0.0
122
1.0
132
0.0
 79
     0
146
0.0
170
     0
 61
     5
348
2F
292
     1
282
     1
141
0.0
142
0.0
 63
   256
361
236
  0
ENDSEC
  0
SECTION
  2
OBJECTS
  0
DICTIONARY
  5
C
330
0
100
AcDbDictionary
281
     1
  3
ACAD_DETAILVIEWSTYLE
350
253
  3
ACAD_GROUP
350
D
  3
ACAD_LAYOUT
350
1A
  3
ACAD_MATERIAL
350
43
  3
ACAD_MLEADERSTYLE
350
6B
  3
ACAD_MLINESTYLE
350
17
  3
ACAD_PLOTSETTINGS
350
19
  3
ACAD_PLOTSTYLENAME
350
E
  3
ACAD_SCALELIST
350
47
  3
ACAD_SECTIONVIEWSTYLE
350
254
  3
ACAD_TABLESTYLE
350
69
  3
ACAD_VISUALSTYLE
350
2A
  3
ACDB_RECOMPOSE_DATA
350
250
  3
AcDbVariableDictionary
350
24B
  0
SUN
  5
6D
330
29
100
AcDbSun
 90
        1
290
     0
 63
     7
421
 16777215
 40
1.0
291
     1
 91
  2455826
 92
 54000000
292
     0
 70
     2
 71
   256
280
     1
  0
SUN
  5
238
330
237
100
AcDbSun
 90
        1
290
     0
 63
     7
421
 16777215
 40
1.0
291
     1
 91
  2455826
 92
 54000000
292
     0
 70
     2
 71
   256
280
     1
  0
SUN
  5
23A
330
239
100
AcDbSun
 90
        1
290
     0
 63
     7
421
 16777215
 40
1.0
291
     1
 91
  2455826
 92
 54000000
292
     0
 70
     2
 71
   256
280
     1
  0
SUN
  5
23C
330
23B
100
AcDbSun
 90
        1
290
     0
 63
     7
421
 16777215
 40
1.0
291
     1
 91
  2455826
 92
 54000000
292
     0
 70
     2
 71
   256
280
     1
  0
SUN
  5
23E
330
23D
100
AcDbSun
 90
        1
290
     0
 63
     7
421
 16777215
 40
1.0
291
     1
 91
  2455826
 92
 54000000
292
     0
 70
     2
 71
   256
280
     1
  0
SUN
  5
240
330
23F
100
AcDbSun
 90
        1
290
     0
 63
     7
421
 16777215
 40
1.0
291
     1
 91
  2455826
 92
 54000000
292
     0
 70
     2
 71
   256
280
     1
  0
SUN
  5
242
330
241
100
AcDbSun
 90
        1
290
     0
 63
     7
421
 16777215
 40
1.0
291
     1
 91
  2455826
 92
 54000000
292
     0
 70
     2
 71
   256
280
     1
  0
SUN
  5
244
330
243
100
AcDbSun
 90
        1
290
     0
 63
     7
421
 16777215
 40
1.0
291
     1
 91
  2455826
 92
 54000000
292
     0
 70
     2
 71
   256
280
     1
  0
SUN
  5
246
330
245
100
AcDbSun
 90
        1
290
     0
 63
     7
421
 16777215
 40
1.0
291
     1
 91
  2455826
 92
 54000000
292
     0
 70
     2
 71
   256
280
     1
  0
SUN
  5
248
330
247
100
AcDbSun
 90
        1
290
     0
 63
     7
421
 16777215
 40
1.0
291
     1
 91
  2455826
 92
 54000000
292
     0
 70
     2
 71
   256
280
     1
  0
SUN
  5
24A
330
249
100
AcDbSun
 90
        1
290
     0
 63
     7
421
 16777215
 40
1.0
291
     1
 91
  2455826
 92
 54000000
292
     0
 70
     2
 71
   256
280
     1
  0
SUN
  5
236
330
235
100
AcDbSun
 90
        1
290
     0
 63
     7
421
 16777215
 40
1.0
291
     1
 91
  2455826
 92
 54000000
292
     0
 70
     2
 71
   256
280
     1
  0
DICTIONARY
  5
253
102
{ACAD_REACTORS
330
C
102
}
330
C
100
AcDbDictionary
281
     1
  0
DICTIONARY
  5
D
102
{ACAD_REACTORS
330
C
102
}
330
C
100
AcDbDictionary
281
     1
  0
DICTIONARY
  5
1A
102
{ACAD_REACTORS
330
C
102
}
330
C
100
AcDbDictionary
281
     1
  3
_Dimetrisch
350
20C
  3
_Isometrisch
350
19D
  3
_Links
350
157
  3
_Normal auf
350
129
  3
_Oben
350
1E
  3
_Rechts
350
DD
  3
_Rückseite
350
13F
  3
_Trimetrisch
350
1D7
  3
_Unten
350
16E
  3
_Vorderseite
350
26
  3
Beschriftungsansicht 1
350
F4
  3
Model
350
22
  0
DICTIONARY
  5
43
102
{ACAD_REACTORS
330
C
102
}
330
C
100
AcDbDictionary
281
     1
  3
ByBlock
350
45
  3
ByLayer
350
44
  3
Global
350
46
  0
DICTIONARY
  5
6B
102
{ACAD_REACTORS
330
C
102
}
330
C
100
AcDbDictionary
281
     1
  3
Standard
350
6C
  0
DICTIONARY
  5
17
102
{ACAD_REACTORS
330
C
102
}
330
C
100
AcDbDictionary
281
     1
  3
Standard
350
18
  0
DICTIONARY
  5
19
102
{ACAD_REACTORS
330
C
102
}
330
C
100
AcDbDictionary
281
     1
  0
ACDBDICTIONARYWDFLT
  5
E
102
{ACAD_REACTORS
330
C
102
}
330
C
100
AcDbDictionary
281
     1
  3
Normal
350
F
100
AcDbDictionaryWithDefault
340
F
  0
DICTIONARY
  5
47
102
{ACAD_REACTORS
330
C
102
}
330
C
100
AcDbDictionary
281
     1
  3
A0
350
48
  3
A1
350
49
  3
A2
350
4A
  3
A3
350
4B
  3
A4
350
4C
  3
A5
350
4D
  3
A6
350
4E
  3
A7
350
4F
  3
A8
350
50
  3
A9
350
51
  3
B0
350
52
  3
B1
350
53
  3
B2
350
54
  3
B3
350
55
  3
B4
350
56
  3
B5
350
57
  3
B6
350
58
  3
B7
350
59
  3
B8
350
5A
  3
B9
350
5B
  3
C0
350
5C
  3
C1
350
5D
  3
C2
350
5E
  3
C3
350
5F
  3
C4
350
60
  3
C5
350
61
  3
C6
350
62
  3
C7
350
63
  3
C8
350
64
  3
C9
350
65
  3
D0
350
66
  3
D1
350
67
  3
D2
350
68
  0
DICTIONARY
  5
254
102
{ACAD_REACTORS
330
C
102
}
330
C
100
AcDbDictionary
281
     1
  0
DICTIONARY
  5
69
102
{ACAD_REACTORS
330
C
102
}
330
C
100
AcDbDictionary
281
     1
  3
Standard
350
6A
  0
DICTIONARY
  5
2A
102
{ACAD_REACTORS
330
C
102
}
330
C
100
AcDbDictionary
281
     1
  3
2dWireframe
350
2F
  3
Basic
350
32
  3
Brighten
350
36
  3
ColorChange
350
3A
  3
Conceptual
350
34
  3
Dim
350
35
  3
EdgeColorOff
350
3D
  3
Facepattern
350
39
  3
Flat
350
2B
  3
FlatWithEdges
350
2C
  3
Gouraud
350
2D
  3
GouraudWithEdges
350
2E
  3
Hidden
350
31
  3
JitterOff
350
3B
  3
Linepattern
350
38
  3
OverhangOff
350
3C
  3
Realistic
350
33
  3
Shaded
350
42
  3
Shaded with edges
350
41
  3
Shades of Gray
350
3E
  3
Sketchy
350
3F
  3
Thicken
350
37
  3
Wireframe
350
30
  3
X-Ray
350
40
  0
XRECORD
  5
250
102
{ACAD_REACTORS
330
C
102
}
330
C
100
AcDbXrecord
280
     1
 90
        1
330
6A
  0
DICTIONARY
  5
24B
102
{ACAD_REACTORS
330
C
102
}
330
C
100
AcDbDictionary
281
     1
  3
CANNOSCALE
350
24C
  3
CENTEREXE
350
255
  3
CENTERLTYPEFILE
350
256
  3
CMLEADERSTYLE
350
252
  3
CTABLESTYLE
350
251
  0
LAYOUT
  5
20C
102
{ACAD_REACTORS
330
1A
102
}
330
1A
100
AcDbPlotSettings
  1

  2
none_device
  4
ISO_A4_(210.00_x_297.00_MM)
  6

 40
7.5
 41
20.0
 42
7.5
 43
20.0
 44
210.0
 45
297.0
 46
0.0
 47
0.0
 48
0.0
 49
0.0
140
0.0
141
0.0
142
1.0
143
2.8793774319
 70
   688
 72
     1
 73
     1
 74
     1
  7

 75
     0
 76
     0
 77
     2
 78
   300
147
0.3472972973
148
370.0
149
245.0
100
AcDbLayout
  1
_Dimetrisch
 70
     1
 71
    11
 10
0.0
 20
0.0
 11
0.0
 21
0.0
 12
0.0
 22
0.0
 32
0.0
 14
0.0
 24
0.0
 34
0.0
 15
0.0
 25
0.0
 35
0.0
146
0.0
 13
0.0
 23
0.0
 33
0.0
 16
1.0
 26
0.0
 36
0.0
 17
0.0
 27
1.0
 37
0.0
 76
     0
330
20B
331
249
  0
LAYOUT
  5
19D
102
{ACAD_REACTORS
330
1A
102
}
330
1A
100
AcDbPlotSettings
  1

  2
none_device
  4
ISO_A4_(210.00_x_297.00_MM)
  6

 40
7.5
 41
20.0
 42
7.5
 43
20.0
 44
210.0
 45
297.0
 46
0.0
 47
0.0
 48
0.0
 49
0.0
140
0.0
141
0.0
142
1.0
143
2.8793774319
 70
   688
 72
     1
 73
     1
 74
     1
  7

 75
     0
 76
     0
 77
     2
 78
   300
147
0.3472972973
148
370.0
149
245.0
100
AcDbLayout
  1
_Isometrisch
 70
     1
 71
     9
 10
0.0
 20
0.0
 11
0.0
 21
0.0
 12
0.0
 22
0.0
 32
0.0
 14
0.0
 24
0.0
 34
0.0
 15
0.0
 25
0.0
 35
0.0
146
0.0
 13
0.0
 23
0.0
 33
0.0
 16
1.0
 26
0.0
 36
0.0
 17
0.0
 27
1.0
 37
0.0
 76
     0
330
19C
331
245
  0
LAYOUT
  5
157
102
{ACAD_REACTORS
330
1A
102
}
330
1A
100
AcDbPlotSettings
  1

  2
none_device
  4
ISO_A4_(210.00_x_297.00_MM)
  6

 40
7.5
 41
20.0
 42
7.5
 43
20.0
 44
210.0
 45
297.0
 46
0.0
 47
0.0
 48
0.0
 49
0.0
140
0.0
141
0.0
142
1.0
143
2.8793774319
 70
   688
 72
     1
 73
     1
 74
     1
  7

 75
     0
 76
     0
 77
     2
 78
   300
147
0.3472972973
148
370.0
149
245.0
100
AcDbLayout
  1
_Links
 70
     1
 71
     7
 10
0.0
 20
0.0
 11
0.0
 21
0.0
 12
0.0
 22
0.0
 32
0.0
 14
0.0
 24
0.0
 34
0.0
 15
0.0
 25
0.0
 35
0.0
146
0.0
 13
0.0
 23
0.0
 33
0.0
 16
1.0
 26
0.0
 36
0.0
 17
0.0
 27
1.0
 37
0.0
 76
     0
330
156
331
241
  0
LAYOUT
  5
129
102
{ACAD_REACTORS
330
1A
102
}
330
1A
100
AcDbPlotSettings
  1

  2
none_device
  4
ISO_A4_(210.00_x_297.00_MM)
  6

 40
7.5
 41
20.0
 42
7.5
 43
20.0
 44
210.0
 45
297.0
 46
0.0
 47
0.0
 48
0.0
 49
0.0
140
0.0
141
0.0
142
1.0
143
2.8793774319
 70
   688
 72
     1
 73
     1
 74
     1
  7

 75
     0
 76
     0
 77
     2
 78
   300
147
0.3472972973
148
370.0
149
245.0
100
AcDbLayout
  1
_Normal auf
 70
     1
 71
     5
 10
0.0
 20
0.0
 11
0.0
 21
0.0
 12
0.0
 22
0.0
 32
0.0
 14
0.0
 24
0.0
 34
0.0
 15
0.0
 25
0.0
 35
0.0
146
0.0
 13
0.0
 23
0.0
 33
0.0
 16
1.0
 26
0.0
 36
0.0
 17
0.0
 27
1.0
 37
0.0
 76
     0
330
128
331
23D
  0
LAYOUT
  5
1E
102
{ACAD_REACTORS
330
1A
102
}
330
1A
100
AcDbPlotSettings
  1

  2
none_device
  4
ISO_A4_(210.00_x_297.00_MM)
  6

 40
7.5
 41
20.0
 42
7.5
 43
20.0
 44
210.0
 45
297.0
 46
0.0
 47
0.0
 48
0.0
 49
0.0
140
0.0
141
0.0
142
1.0
143
2.8793774319
 70
   688
 72
     1
 73
     1
 74
     1
  7

 75
     0
 76
     0
 77
     2
 78
   300
147
0.3472972973
148
370.0
149
245.0
100
AcDbLayout
  1
_Oben
 70
     1
 71
     1
 10
-427.5875486381
 20
-266.5953307393
 11
427.5875486381
 21
338.0739299611
 12
0.0
 22
0.0
 32
0.0
 14
-370.0
 24
-245.0
 34
0.0
 15
370.0
 25
95.0
 35
0.0
146
0.0
 13
0.0
 23
0.0
 33
0.0
 16
1.0
 26
0.0
 36
0.0
 17
0.0
 27
1.0
 37
0.0
 76
     0
330
1B
331
235
  0
LAYOUT
  5
DD
102
{ACAD_REACTORS
330
1A
102
}
330
1A
100
AcDbPlotSettings
  1

  2
none_device
  4
ISO_A4_(210.00_x_297.00_MM)
  6

 40
7.5
 41
20.0
 42
7.5
 43
20.0
 44
210.0
 45
297.0
 46
0.0
 47
0.0
 48
0.0
 49
0.0
140
0.0
141
0.0
142
1.0
143
2.8793774319
 70
   688
 72
     1
 73
     1
 74
     1
  7

 75
     0
 76
     0
 77
     2
 78
   300
147
0.3472972973
148
370.0
149
245.0
100
AcDbLayout
  1
_Rechts
 70
     1
 71
     3
 10
0.0
 20
0.0
 11
0.0
 21
0.0
 12
0.0
 22
0.0
 32
0.0
 14
0.0
 24
0.0
 34
0.0
 15
0.0
 25
0.0
 35
0.0
146
0.0
 13
0.0
 23
0.0
 33
0.0
 16
1.0
 26
0.0
 36
0.0
 17
0.0
 27
1.0
 37
0.0
 76
     0
330
DC
331
239
  0
LAYOUT
  5
13F
102
{ACAD_REACTORS
330
1A
102
}
330
1A
100
AcDbPlotSettings
  1

  2
none_device
  4
ISO_A4_(210.00_x_297.00_MM)
  6

 40
7.5
 41
20.0
 42
7.5
 43
20.0
 44
210.0
 45
297.0
 46
0.0
 47
0.0
 48
0.0
 49
0.0
140
0.0
141
0.0
142
1.0
143
2.8793774319
 70
   688
 72
     1
 73
     1
 74
     1
  7

 75
     0
 76
     0
 77
     2
 78
   300
147
0.3472972973
148
370.0
149
245.0
100
AcDbLayout
  1
_Rückseite
 70
     1
 71
     6
 10
0.0
 20
0.0
 11
0.0
 21
0.0
 12
0.0
 22
0.0
 32
0.0
 14
0.0
 24
0.0
 34
0.0
 15
0.0
 25
0.0
 35
0.0
146
0.0
 13
0.0
 23
0.0
 33
0.0
 16
1.0
 26
0.0
 36
0.0
 17
0.0
 27
1.0
 37
0.0
 76
     0
330
13E
331
23F
  0
LAYOUT
  5
1D7
102
{ACAD_REACTORS
330
1A
102
}
330
1A
100
AcDbPlotSettings
  1

  2
none_device
  4
ISO_A4_(210.00_x_297.00_MM)
  6

 40
7.5
 41
20.0
 42
7.5
 43
20.0
 44
210.0
 45
297.0
 46
0.0
 47
0.0
 48
0.0
 49
0.0
140
0.0
141
0.0
142
1.0
143
2.8793774319
 70
   688
 72
     1
 73
     1
 74
     1
  7

 75
     0
 76
     0
 77
     2
 78
   300
147
0.3472972973
148
370.0
149
245.0
100
AcDbLayout
  1
_Trimetrisch
 70
     1
 71
    10
 10
0.0
 20
0.0
 11
0.0
 21
0.0
 12
0.0
 22
0.0
 32
0.0
 14
0.0
 24
0.0
 34
0.0
 15
0.0
 25
0.0
 35
0.0
146
0.0
 13
0.0
 23
0.0
 33
0.0
 16
1.0
 26
0.0
 36
0.0
 17
0.0
 27
1.0
 37
0.0
 76
     0
330
1D6
331
247
  0
LAYOUT
  5
16E
102
{ACAD_REACTORS
330
1A
102
}
330
1A
100
AcDbPlotSettings
  1

  2
none_device
  4
ISO_A4_(210.00_x_297.00_MM)
  6

 40
7.5
 41
20.0
 42
7.5
 43
20.0
 44
210.0
 45
297.0
 46
0.0
 47
0.0
 48
0.0
 49
0.0
140
0.0
141
0.0
142
1.0
143
2.8793774319
 70
   688
 72
     1
 73
     1
 74
     1
  7

 75
     0
 76
     0
 77
     2
 78
   300
147
0.3472972973
148
370.0
149
245.0
100
AcDbLayout
  1
_Unten
 70
     1
 71
     8
 10
0.0
 20
0.0
 11
0.0
 21
0.0
 12
0.0
 22
0.0
 32
0.0
 14
0.0
 24
0.0
 34
0.0
 15
0.0
 25
0.0
 35
0.0
146
0.0
 13
0.0
 23
0.0
 33
0.0
 16
1.0
 26
0.0
 36
0.0
 17
0.0
 27
1.0
 37
0.0
 76
     0
330
16D
331
243
  0
LAYOUT
  5
26
102
{ACAD_REACTORS
330
1A
102
}
330
1A
100
AcDbPlotSettings
  1

  2
none_device
  4
ISO_A4_(210.00_x_297.00_MM)
  6

 40
7.5
 41
20.0
 42
7.5
 43
20.0
 44
210.0
 45
297.0
 46
0.0
 47
0.0
 48
0.0
 49
0.0
140
0.0
141
0.0
142
1.0
143
2.8793774319
 70
   688
 72
     1
 73
     1
 74
     1
  7

 75
     0
 76
     0
 77
     2
 78
   300
147
0.3472972973
148
370.0
149
245.0
100
AcDbLayout
  1
_Vorderseite
 70
     1
 71
     2
 10
0.0
 20
0.0
 11
0.0
 21
0.0
 12
0.0
 22
0.0
 32
0.0
 14
0.0
 24
0.0
 34
0.0
 15
0.0
 25
0.0
 35
0.0
146
0.0
 13
0.0
 23
0.0
 33
0.0
 16
1.0
 26
0.0
 36
0.0
 17
0.0
 27
1.0
 37
0.0
 76
     0
330
23
331
237
  0
LAYOUT
  5
F4
102
{ACAD_REACTORS
330
1A
102
}
330
1A
100
AcDbPlotSettings
  1

  2
none_device
  4
ISO_A4_(210.00_x_297.00_MM)
  6

 40
7.5
 41
20.0
 42
7.5
 43
20.0
 44
210.0
 45
297.0
 46
0.0
 47
0.0
 48
0.0
 49
0.0
140
0.0
141
0.0
142
1.0
143
2.8793774319
 70
   688
 72
     1
 73
     1
 74
     1
  7

 75
     0
 76
     0
 77
     2
 78
   300
147
0.3472972973
148
370.0
149
245.0
100
AcDbLayout
  1
Beschriftungsansicht 1
 70
     1
 71
     4
 10
0.0
 20
0.0
 11
0.0
 21
0.0
 12
0.0
 22
0.0
 32
0.0
 14
0.0
 24
0.0
 34
0.0
 15
0.0
 25
0.0
 35
0.0
146
0.0
 13
0.0
 23
0.0
 33
0.0
 16
1.0
 26
0.0
 36
0.0
 17
0.0
 27
1.0
 37
0.0
 76
     0
330
F3
331
23B
  0
LAYOUT
  5
22
102
{ACAD_REACTORS
330
1A
102
}
330
1A
100
AcDbPlotSettings
  1

  2
none_device
  4
ANSI_A_(11.00_x_8.50_Inches)
  6

 40
6.35
 41
19.05
 42
6.35000508
 43
19.05000254
 44
279.4
 45
215.9
 46
145.2566018511
 47
108.4963394853
 48
0.0
 49
0.0
140
0.0
141
0.0
142
0.0133924315
143
1.0
 70
  1696
 72
     0
 73
     0
 74
     0
  7

 75
     0
 76
     0
 77
     2
 78
   300
147
0.0179189148
148
-1300.4909072572
149
0.0
100
AcDbLayout
  1
Model
 70
     1
 71
     0
 10
0.0
 20
0.0
 11
420.0
 21
297.0
 12
0.0
 22
0.0
 32
0.0
 14
-441.5750753085
 24
-247.4244804377
 34
0.0
 15
371.570766969
 25
132.2087366795
 35
0.0
146
0.0
 13
0.0
 23
0.0
 33
0.0
 16
1.0
 26
0.0
 36
0.0
 17
0.0
 27
1.0
 37
0.0
 76
     0
330
1F
331
29
  0
MATERIAL
  5
45
102
{ACAD_REACTORS
330
43
102
}
330
43
100
AcDbMaterial
  1
ByBlock
 72
     1
 94
      127
  0
MATERIAL
  5
44
102
{ACAD_REACTORS
330
43
102
}
330
43
100
AcDbMaterial
  1
ByLayer
 72
     1
 94
      127
  0
MATERIAL
  5
46
102
{ACAD_REACTORS
330
43
102
}
330
43
100
AcDbMaterial
  1
Global
 72
     1
 94
      127
  0
MLEADERSTYLE
  5
6C
102
{ACAD_REACTORS
330
6B
102
}
330
6B
100
AcDbMLeaderStyle
170
     2
171
     1
172
     0
 90
        2
 40
0.0
 41
0.0
173
     1
 91
-1056964608
340
14
 92
       -2
290
     1
 42
2.0
291
     1
 43
8.0
  3
Standard
341
0
 44
4.0
300

342
11
174
     1
178
     6
175
     1
176
     0
 93
-1056964608
 45
4.0
292
     0
297
     0
 46
4.0
343
0
 94
-1056964608
 47
1.0
 49
1.0
140
1.0
293
     1
141
0.0
294
     1
177
     0
142
1.0
295
     0
296
     0
143
3.75
1001
ACAD_MLEADERVER
1070
     2
  0
MLINESTYLE
  5
18
102
{ACAD_REACTORS
330
17
102
}
330
17
100
AcDbMlineStyle
  2
Standard
 70
     0
  3

 62
   256
 51
90.0
 52
90.0
 71
     2
 49
0.5
 62
   256
  6
BYLAYER
 49
-0.5
 62
   256
  6
BYLAYER
  0
ACDBPLACEHOLDER
  5
F
102
{ACAD_REACTORS
330
E
102
}
330
E
  0
SCALE
  5
48
102
{ACAD_REACTORS
330
47
102
}
330
47
100
AcDbScale
 70
     0
300
1:1
140
1.0
141
1.0
290
     1
  0
SCALE
  5
49
102
{ACAD_REACTORS
330
47
102
}
330
47
100
AcDbScale
 70
     0
300
1:2
140
1.0
141
2.0
290
     0
  0
SCALE
  5
4A
102
{ACAD_REACTORS
330
47
102
}
330
47
100
AcDbScale
 70
     0
300
1:4
140
1.0
141
4.0
290
     0
  0
SCALE
  5
4B
102
{ACAD_REACTORS
330
47
102
}
330
47
100
AcDbScale
 70
     0
300
1:5
140
1.0
141
5.0
290
     0
  0
SCALE
  5
4C
102
{ACAD_REACTORS
330
47
102
}
330
47
100
AcDbScale
 70
     0
300
1:8
140
1.0
141
8.0
290
     0
  0
SCALE
  5
4D
102
{ACAD_REACTORS
330
47
102
}
330
47
100
AcDbScale
 70
     0
300
1:10
140
1.0
141
10.0
290
     0
  0
SCALE
  5
4E
102
{ACAD_REACTORS
330
47
102
}
330
47
100
AcDbScale
 70
     0
300
1:16
140
1.0
141
16.0
290
     0
  0
SCALE
  5
4F
102
{ACAD_REACTORS
330
47
102
}
330
47
100
AcDbScale
 70
     0
300
1:20
140
1.0
141
20.0
290
     0
  0
SCALE
  5
50
102
{ACAD_REACTORS
330
47
102
}
330
47
100
AcDbScale
 70
     0
300
1:30
140
1.0
141
30.0
290
     0
  0
SCALE
  5
51
102
{ACAD_REACTORS
330
47
102
}
330
47
100
AcDbScale
 70
     0
300
1:40
140
1.0
141
40.0
290
     0
  0
SCALE
  5
52
102
{ACAD_REACTORS
330
47
102
}
330
47
100
AcDbScale
 70
     0
300
1:50
140
1.0
141
50.0
290
     0
  0
SCALE
  5
53
102
{ACAD_REACTORS
330
47
102
}
330
47
100
AcDbScale
 70
     0
300
1:100
140
1.0
141
100.0
290
     0
  0
SCALE
  5
54
102
{ACAD_REACTORS
330
47
102
}
330
47
100
AcDbScale
 70
     0
300
2:1
140
2.0
141
1.0
290
     0
  0
SCALE
  5
55
102
{ACAD_REACTORS
330
47
102
}
330
47
100
AcDbScale
 70
     0
300
4:1
140
4.0
141
1.0
290
     0
  0
SCALE
  5
56
102
{ACAD_REACTORS
330
47
102
}
330
47
100
AcDbScale
 70
     0
300
8:1
140
8.0
141
1.0
290
     0
  0
SCALE
  5
57
102
{ACAD_REACTORS
330
47
102
}
330
47
100
AcDbScale
 70
     0
300
10:1
140
10.0
141
1.0
290
     0
  0
SCALE
  5
58
102
{ACAD_REACTORS
330
47
102
}
330
47
100
AcDbScale
 70
     0
300
100:1
140
100.0
141
1.0
290
     0
  0
SCALE
  5
59
102
{ACAD_REACTORS
330
47
102
}
330
47
100
AcDbScale
 70
     0
300
1/128" = 1'-0"
140
0.0078125
141
12.0
290
     0
  0
SCALE
  5
5A
102
{ACAD_REACTORS
330
47
102
}
330
47
100
AcDbScale
 70
     0
300
1/64" = 1'-0"
140
0.015625
141
12.0
290
     0
  0
SCALE
  5
5B
102
{ACAD_REACTORS
330
47
102
}
330
47
100
AcDbScale
 70
     0
300
1/32" = 1'-0"
140
0.03125
141
12.0
290
     0
  0
SCALE
  5
5C
102
{ACAD_REACTORS
330
47
102
}
330
47
100
AcDbScale
 70
     0
300
1/16" = 1'-0"
140
0.0625
141
12.0
290
     0
  0
SCALE
  5
5D
102
{ACAD_REACTORS
330
47
102
}
330
47
100
AcDbScale
 70
     0
300
3/32" = 1'-0"
140
0.09375
141
12.0
290
     0
  0
SCALE
  5
5E
102
{ACAD_REACTORS
330
47
102
}
330
47
100
AcDbScale
 70
     0
300
1/8" = 1'-0"
140
0.125
141
12.0
290
     0
  0
SCALE
  5
5F
102
{ACAD_REACTORS
330
47
102
}
330
47
100
AcDbScale
 70
     0
300
3/16" = 1'-0"
140
0.1875
141
12.0
290
     0
  0
SCALE
  5
60
102
{ACAD_REACTORS
330
47
102
}
330
47
100
AcDbScale
 70
     0
300
1/4" = 1'-0"
140
0.25
141
12.0
290
     0
  0
SCALE
  5
61
102
{ACAD_REACTORS
330
47
102
}
330
47
100
AcDbScale
 70
     0
300
3/8" = 1'-0"
140
0.375
141
12.0
290
     0
  0
SCALE
  5
62
102
{ACAD_REACTORS
330
47
102
}
330
47
100
AcDbScale
 70
     0
300
1/2" = 1'-0"
140
0.5
141
12.0
290
     0
  0
SCALE
  5
63
102
{ACAD_REACTORS
330
47
102
}
330
47
100
AcDbScale
 70
     0
300
3/4" = 1'-0"
140
0.75
141
12.0
290
     0
  0
SCALE
  5
64
102
{ACAD_REACTORS
330
47
102
}
330
47
100
AcDbScale
 70
     0
300
1" = 1'-0"
140
1.0
141
12.0
290
     0
  0
SCALE
  5
65
102
{ACAD_REACTORS
330
47
102
}
330
47
100
AcDbScale
 70
     0
300
1-1/2" = 1'-0"
140
1.5
141
12.0
290
     0
  0
SCALE
  5
66
102
{ACAD_REACTORS
330
47
102
}
330
47
100
AcDbScale
 70
     0
300
3" = 1'-0"
140
3.0
141
12.0
290
     0
  0
SCALE
  5
67
102
{ACAD_REACTORS
330
47
102
}
330
47
100
AcDbScale
 70
     0
300
6" = 1'-0"
140
6.0
141
12.0
290
     0
  0
SCALE
  5
68
102
{ACAD_REACTORS
330
47
102
}
330
47
100
AcDbScale
 70
     0
300
1'-0" = 1'-0"
140
12.0
141
12.0
290
     0
  0
TABLESTYLE
  5
6A
102
{ACAD_REACTORS
330
69
102
}
102
{ACAD_XDICTIONARY
360
24D
102
}
330
69
100
AcDbTableStyle
  3
Standard
 70
     0
 71
     0
 40
0.06
 41
0.06
280
     0
281
     0
  7
Standard
140
4.5
170
     2
 62
     0
 63
   257
283
     0
 90
        4
 91
        0
  1

274
    -2
284
     1
 64
     0
275
    -2
285
     1
 65
     0
276
    -2
286
     1
 66
     0
277
    -2
287
     1
 67
     0
278
    -2
288
     1
 68
     0
279
    -2
289
     1
 69
     0
  7
Standard
140
6.0
170
     5
 62
     0
 63
   257
283
     0
 90
        4
 91
        0
  1

274
    -2
284
     1
 64
     0
275
    -2
285
     1
 65
     0
276
    -2
286
     1
 66
     0
277
    -2
287
     1
 67
     0
278
    -2
288
     1
 68
     0
279
    -2
289
     1
 69
     0
  7
Standard
140
4.5
170
     5
 62
     0
 63
   257
283
     0
 90
        4
 91
        0
  1

274
    -2
284
     1
 64
     0
275
    -2
285
     1
 65
     0
276
    -2
286
     1
 66
     0
277
    -2
287
     1
 67
     0
278
    -2
288
     1
 68
     0
279
    -2
289
     1
 69
     0
  0
VISUALSTYLE
  5
2F
102
{ACAD_REACTORS
330
2A
102
}
330
2A
100
AcDbVisualStyle
  2
2dWireframe
 70
     4
 71
     0
 72
     2
 73
     0
 90
        0
 40
0.6
 41
30.0
 62
     5
 63
     7
421
 16777215
 74
     1
 91
        4
 64
     7
 65
   257
 75
     1
175
     1
 42
1.0
 92
        0
 66
   257
 43
1.0
 76
     1
 77
     6
 78
     2
 67
     7
 79
     5
170
     0
171
     0
290
     0
174
     0
 93
        1
 44
0.0
173
     0
291
     0
 45
0.0
  0
VISUALSTYLE
  5
32
102
{ACAD_REACTORS
330
2A
102
}
330
2A
100
AcDbVisualStyle
  2
Basic
 70
     7
 71
     1
 72
     0
 73
     1
 90
        0
 40
0.6
 41
30.0
 62
     5
 63
     7
421
 16777215
 74
     0
 91
        4
 64
     7
 65
   257
 75
     1
175
     1
 42
1.0
 92
        8
 66
     7
 43
1.0
 76
     1
 77
     6
 78
     2
 67
     7
 79
     5
170
     0
171
     0
290
     0
174
     0
 93
        1
 44
0.0
173
     0
291
     1
 45
0.0
  0
VISUALSTYLE
  5
36
102
{ACAD_REACTORS
330
2A
102
}
330
2A
100
AcDbVisualStyle
  2
Brighten
 70
    12
 71
     2
 72
     2
 73
     0
 90
        0
 40
0.6
 41
30.0
 62
     5
 63
     7
421
 16777215
 74
     1
 91
        4
 64
     7
 65
   257
 75
     1
175
     1
 42
1.0
 92
        8
 66
     7
 43
1.0
 76
     1
 77
     6
 78
     2
 67
     7
 79
     5
170
     0
171
     0
290
     0
174
     0
 93
        1
 44
50.0
173
     0
291
     1
 45
0.0
  0
VISUALSTYLE
  5
3A
102
{ACAD_REACTORS
330
2A
102
}
330
2A
100
AcDbVisualStyle
  2
ColorChange
 70
    16
 71
     2
 72
     2
 73
     3
 90
        0
 40
0.6
 41
30.0
 62
     5
 63
     8
421
  8421504
 74
     1
 91
        4
 64
     7
 65
   257
 75
     1
175
     1
 42
1.0
 92
        8
 66
     8
424
  8421504
 43
1.0
 76
     1
 77
     6
 78
     2
 67
     7
 79
     5
170
     0
171
     0
290
     0
174
     0
 93
        1
 44
0.0
173
     0
291
     1
 45
0.0
  0
VISUALSTYLE
  5
34
102
{ACAD_REACTORS
330
2A
102
}
330
2A
100
AcDbVisualStyle
  2
Conceptual
 70
     9
 71
     3
 72
     2
 73
     0
 90
        0
 40
0.6
 41
30.0
 62
     5
 63
     7
421
 16777215
 74
     2
 91
        2
 64
     7
 65
   257
 75
     1
175
     1
 42
179.0
 92
        8
 66
     7
 43
1.0
 76
     1
 77
     6
 78
     2
 67
     7
 79
     3
170
     0
171
     0
290
     0
174
     0
 93
        1
 44
0.0
173
     0
291
     0
 45
0.0
  0
VISUALSTYLE
  5
35
102
{ACAD_REACTORS
330
2A
102
}
330
2A
100
AcDbVisualStyle
  2
Dim
 70
    11
 71
     2
 72
     2
 73
     0
 90
        0
 40
0.6
 41
30.0
 62
     5
 63
     7
421
 16777215
 74
     1
 91
        4
 64
     7
 65
   257
 75
     1
175
     1
 42
1.0
 92
        8
 66
     7
 43
1.0
 76
     1
 77
     6
 78
     2
 67
     7
 79
     5
170
     0
171
     0
290
     0
174
     0
 93
        1
 44
-50.0
173
     0
291
     1
 45
0.0
  0
VISUALSTYLE
  5
3D
102
{ACAD_REACTORS
330
2A
102
}
330
2A
100
AcDbVisualStyle
  2
EdgeColorOff
 70
    22
 71
     2
 72
     2
 73
     0
 90
        0
 40
0.6
 41
30.0
 62
     5
 63
     7
421
 16777215
 74
     1
 91
        4
 64
     7
 65
   257
 75
     1
175
     1
 42
1.0
 92
        8
 66
     7
 43
1.0
 76
     1
 77
     6
 78
     2
 67
     7
 79
     5
170
     0
171
     0
290
     0
174
     0
 93
        1
 44
0.0
173
     0
291
     1
 45
0.0
  0
VISUALSTYLE
  5
39
102
{ACAD_REACTORS
330
2A
102
}
330
2A
100
AcDbVisualStyle
  2
Facepattern
 70
    15
 71
     2
 72
     2
 73
     0
 90
        0
 40
0.6
 41
30.0
 62
     5
 63
     7
421
 16777215
 74
     1
 91
        4
 64
     7
 65
   257
 75
     1
175
     1
 42
1.0
 92
        8
 66
     7
 43
1.0
 76
     1
 77
     6
 78
     2
 67
     7
 79
     5
170
     0
171
     0
290
     0
174
     0
 93
        1
 44
0.0
173
     0
291
     1
 45
0.0
  0
VISUALSTYLE
  5
2B
102
{ACAD_REACTORS
330
2A
102
}
330
2A
100
AcDbVisualStyle
  2
Flat
 70
     0
 71
     2
 72
     1
 73
     1
 90
        2
 40
0.6
 41
30.0
 62
     5
 63
     7
421
 16777215
 74
     0
 91
        0
 64
     7
 65
   257
 75
     1
175
     1
 42
1.0
 92
        8
 66
     7
 43
1.0
 76
     1
 77
     6
 78
     2
 67
     7
 79
     5
170
     0
171
     0
290
     0
174
     0
 93
       13
 44
0.0
173
     0
291
     1
 45
0.0
  0
VISUALSTYLE
  5
2C
102
{ACAD_REACTORS
330
2A
102
}
330
2A
100
AcDbVisualStyle
  2
FlatWithEdges
 70
     1
 71
     2
 72
     1
 73
     1
 90
        2
 40
0.6
 41
30.0
 62
     5
 63
     7
421
 16777215
 74
     1
 91
        0
 64
     7
 65
   257
 75
     1
175
     1
 42
1.0
 92
        0
 66
   257
 43
1.0
 76
     1
 77
     6
 78
     2
 67
     7
 79
     5
170
     0
171
     0
290
     0
174
     0
 93
       13
 44
0.0
173
     0
291
     1
 45
0.0
  0
VISUALSTYLE
  5
2D
102
{ACAD_REACTORS
330
2A
102
}
330
2A
100
AcDbVisualStyle
  2
Gouraud
 70
     2
 71
     2
 72
     2
 73
     1
 90
        2
 40
0.6
 41
30.0
 62
     5
 63
     7
421
 16777215
 74
     0
 91
        0
 64
     7
 65
   257
 75
     1
175
     1
 42
1.0
 92
        0
 66
     7
 43
1.0
 76
     1
 77
     6
 78
     2
 67
     7
 79
     5
170
     0
171
     0
290
     0
174
     0
 93
       13
 44
0.0
173
     0
291
     1
 45
0.0
  0
VISUALSTYLE
  5
2E
102
{ACAD_REACTORS
330
2A
102
}
330
2A
100
AcDbVisualStyle
  2
GouraudWithEdges
 70
     3
 71
     2
 72
     2
 73
     1
 90
        2
 40
0.6
 41
30.0
 62
     5
 63
     7
421
 16777215
 74
     1
 91
        0
 64
     7
 65
   257
 75
     1
175
     1
 42
1.0
 92
        0
 66
   257
 43
1.0
 76
     1
 77
     6
 78
     2
 67
     7
 79
     5
170
     0
171
     0
290
     0
174
     0
 93
       13
 44
0.0
173
     0
291
     1
 45
0.0
  0
VISUALSTYLE
  5
31
102
{ACAD_REACTORS
330
2A
102
}
330
2A
100
AcDbVisualStyle
  2
Hidden
 70
     6
 71
     1
 72
     2
 73
     2
 90
        0
 40
0.6
 41
30.0
 62
     5
 63
     7
421
 16777215
 74
     2
 91
        2
 64
     7
 65
   257
 75
     2
175
     1
 42
40.0
 92
        0
 66
   257
 43
1.0
 76
     1
 77
     6
 78
     2
 67
     7
 79
     3
170
     0
171
     0
290
     0
174
     0
 93
        1
 44
0.0
173
     0
291
     0
 45
0.0
  0
VISUALSTYLE
  5
3B
102
{ACAD_REACTORS
330
2A
102
}
330
2A
100
AcDbVisualStyle
  2
JitterOff
 70
    20
 71
     2
 72
     2
 73
     0
 90
        0
 40
0.6
 41
30.0
 62
     5
 63
     7
421
 16777215
 74
     1
 91
        4
 64
     7
 65
   257
 75
     1
175
     1
 42
1.0
 92
       10
 66
     7
 43
1.0
 76
     1
 77
     6
 78
     2
 67
     7
 79
     5
170
     0
171
     0
290
     0
174
     0
 93
        1
 44
0.0
173
     0
291
     1
 45
0.0
  0
VISUALSTYLE
  5
38
102
{ACAD_REACTORS
330
2A
102
}
330
2A
100
AcDbVisualStyle
  2
Linepattern
 70
    14
 71
     2
 72
     2
 73
     0
 90
        0
 40
0.6
 41
30.0
 62
     5
 63
     7
421
 16777215
 74
     1
 91
        4
 64
     7
 65
   257
 75
     7
175
     7
 42
1.0
 92
        8
 66
     7
 43
1.0
 76
     1
 77
     6
 78
     2
 67
     7
 79
     5
170
     0
171
     0
290
     0
174
     0
 93
        1
 44
0.0
173
     0
291
     1
 45
0.0
  0
VISUALSTYLE
  5
3C
102
{ACAD_REACTORS
330
2A
102
}
330
2A
100
AcDbVisualStyle
  2
OverhangOff
 70
    21
 71
     2
 72
     2
 73
     0
 90
        0
 40
0.6
 41
30.0
 62
     5
 63
     7
421
 16777215
 74
     1
 91
        4
 64
     7
 65
   257
 75
     1
175
     1
 42
1.0
 92
        9
 66
     7
 43
1.0
 76
     1
 77
     6
 78
     2
 67
     7
 79
     5
170
     0
171
     0
290
     0
174
     0
 93
        1
 44
0.0
173
     0
291
     1
 45
0.0
  0
VISUALSTYLE
  5
33
102
{ACAD_REACTORS
330
2A
102
}
330
2A
100
AcDbVisualStyle
  2
Realistic
 70
     8
 71
     2
 72
     3
 73
     0
 90
        2
 40
0.6
 41
30.0
 62
     5
 63
     7
421
 16777215
 74
     0
 91
        0
 64
     7
 65
   257
 75
     1
175
     1
 42
1.0
 92
        8
 66
   257
 43
1.0
 76
     1
 77
     6
 78
     2
 67
     7
 79
     3
170
     0
171
     0
290
     0
174
     0
 93
       13
 44
0.0
173
     0
291
     0
 45
0.0
  0
VISUALSTYLE
  5
42
102
{ACAD_REACTORS
330
2A
102
}
330
2A
100
AcDbVisualStyle
  2
Shaded
 70
    27
 71
     2
 72
     2
 73
     1
 90
        2
 40
0.6
 41
30.0
 62
     5
 63
     7
421
 16777215
 74
     0
 91
        4
 64
     7
 65
   257
 75
     1
175
     1
 42
1.0
 92
        8
 66
   257
 43
1.0
 76
     1
 77
     6
 78
     2
 67
     8
425
  7895160
 79
     3
170
     0
171
     0
290
     0
174
     0
 93
        5
 44
0.0
173
     0
291
     0
 45
0.0
  0
VISUALSTYLE
  5
41
102
{ACAD_REACTORS
330
2A
102
}
330
2A
100
AcDbVisualStyle
  2
Shaded with edges
 70
    26
 71
     2
 72
     2
 73
     1
 90
        2
 40
0.6
 41
30.0
 62
     5
 63
     7
421
 16777215
 74
     1
 91
       10
 64
     7
 65
   257
 75
     2
175
     1
 42
1.0
 92
        8
 66
   257
 43
1.0
 76
     1
 77
     6
 78
     2
 67
     7
 79
     3
170
     0
171
     0
290
     0
174
     0
 93
        5
 44
0.0
173
     0
291
     0
 45
0.0
  0
VISUALSTYLE
  5
3E
102
{ACAD_REACTORS
330
2A
102
}
330
2A
100
AcDbVisualStyle
  2
Shades of Gray
 70
    23
 71
     2
 72
     2
 73
     3
 90
        0
 40
0.6
 41
30.0
 62
     5
 63
     7
421
 16777215
 74
     2
 91
        2
 64
     7
 65
     7
 75
     1
175
     1
 42
40.0
 92
        8
 66
     7
 43
1.0
 76
     1
 77
     6
 78
     2
 67
     7
 79
     3
170
     0
171
     0
290
     0
174
     0
 93
        1
 44
0.0
173
     0
291
     0
 45
0.0
  0
VISUALSTYLE
  5
3F
102
{ACAD_REACTORS
330
2A
102
}
330
2A
100
AcDbVisualStyle
  2
Sketchy
 70
    24
 71
     1
 72
     2
 73
     2
 90
        0
 40
0.6
 41
30.0
 62
     5
 63
     7
421
 16777215
 74
     2
 91
        2
 64
     7
 65
     7
 75
     1
175
     1
 42
40.0
 92
       11
 66
     7
 43
1.0
 76
     1
 77
     6
 78
     2
 67
     7
 79
     6
170
     0
171
     0
290
     0
174
     0
 93
        1
 44
0.0
173
     0
291
     0
 45
0.0
  0
VISUALSTYLE
  5
37
102
{ACAD_REACTORS
330
2A
102
}
330
2A
100
AcDbVisualStyle
  2
Thicken
 70
    13
 71
     2
 72
     2
 73
     0
 90
        0
 40
0.6
 41
30.0
 62
     5
 63
     7
421
 16777215
 74
     1
 91
        4
 64
     7
 65
   257
 75
     1
175
     1
 42
1.0
 92
       12
 66
     7
 43
1.0
 76
     1
 77
     6
 78
     2
 67
     7
 79
     5
170
     0
171
     0
290
     0
174
     0
 93
        1
 44
0.0
173
     0
291
     1
 45
0.0
  0
VISUALSTYLE
  5
30
102
{ACAD_REACTORS
330
2A
102
}
330
2A
100
AcDbVisualStyle
  2
Wireframe
 70
     5
 71
     0
 72
     2
 73
     0
 90
        0
 40
0.6
 41
30.0
 62
     5
 63
     7
421
 16777215
 74
     1
 91
        4
 64
     7
 65
   257
 75
     1
175
     1
 42
1.0
 92
        0
 66
   257
 43
1.0
 76
     1
 77
     6
 78
     2
 67
     7
 79
     3
170
     0
171
     0
290
     0
174
     0
 93
        1
 44
0.0
173
     0
291
     0
 45
0.0
  0
VISUALSTYLE
  5
40
102
{ACAD_REACTORS
330
2A
102
}
330
2A
100
AcDbVisualStyle
  2
X-Ray
 70
    25
 71
     2
 72
     2
 73
     1
 90
        1
 40
0.5
 41
30.0
 62
     5
 63
     7
421
 16777215
 74
     1
 91
        0
 64
     7
 65
   257
 75
     1
175
     1
 42
1.0
 92
        8
 66
     7
 43
1.0
 76
     1
 77
     6
 78
     2
 67
     7
 79
     3
170
     0
171
     0
290
     0
174
     0
 93
       13
 44
0.0
173
     0
291
     0
 45
0.0
  0
DICTIONARYVAR
  5
24C
102
{ACAD_REACTORS
330
24B
102
}
330
24B
100
DictionaryVariables
280
     0
  1
1:1
  0
DICTIONARYVAR
  5
255
102
{ACAD_REACTORS
330
24B
102
}
330
24B
100
DictionaryVariables
280
     0
  1
3.500000
  0
DICTIONARYVAR
  5
256
102
{ACAD_REACTORS
330
24B
102
}
330
24B
100
DictionaryVariables
280
     0
  1
acadiso.lin
  0
DICTIONARYVAR
  5
252
102
{ACAD_REACTORS
330
24B
102
}
330
24B
100
DictionaryVariables
280
     0
  1
Standard
  0
DICTIONARYVAR
  5
251
102
{ACAD_REACTORS
330
24B
102
}
330
24B
100
DictionaryVariables
280
     0
  1
Standard
  0
DICTIONARY
  5
24D
330
6A
100
AcDbDictionary
280
     1
281
     1
  3
ACAD_ROUNDTRIP_2008_TABLESTYLE_CELLSTYLEMAP
360
24E
  0
CELLSTYLEMAP
  5
24E
102
{ACAD_REACTORS
330
24D
102
}
330
24D
100
AcDbCellStyleMap
 90
        3
300
CELLSTYLE
  1
TABLEFORMAT_BEGIN
 90
        5
170
     1
 91
        0
 92
    32768
 62
   257
 93
        1
300
CONTENTFORMAT
  1
CONTENTFORMAT_BEGIN
 90
        0
 91
        0
 92
        4
 93
        0
300

 40
0.0
140
1.0
 94
        5
 62
     0
340
11
144
6.0
309
CONTENTFORMAT_END
171
     1
301
MARGIN
  1
CELLMARGIN_BEGIN
 40
1.5
 40
1.5
 40
1.5
 40
1.5
 40
1.5
 40
1.5
309
CELLMARGIN_END
 94
        6
 95
        1
302
GRIDFORMAT
  1
GRIDFORMAT_BEGIN
 90
        0
 91
        1
 62
     0
 92
       -2
340
14
 93
        0
 40
0.045
309
GRIDFORMAT_END
 95
        2
302
GRIDFORMAT
  1
GRIDFORMAT_BEGIN
 90
        0
 91
        1
 62
     0
 92
       -2
340
14
 93
        0
 40
0.045
309
GRIDFORMAT_END
 95
        4
302
GRIDFORMAT
  1
GRIDFORMAT_BEGIN
 90
        0
 91
        1
 62
     0
 92
       -2
340
14
 93
        0
 40
0.045
309
GRIDFORMAT_END
 95
        8
302
GRIDFORMAT
  1
GRIDFORMAT_BEGIN
 90
        0
 91
        1
 62
     0
 92
       -2
340
14
 93
        0
 40
0.045
309
GRIDFORMAT_END
 95
       16
302
GRIDFORMAT
  1
GRIDFORMAT_BEGIN
 90
        0
 91
        1
 62
     0
 92
       -2
340
14
 93
        0
 40
0.045
309
GRIDFORMAT_END
 95
       32
302
GRIDFORMAT
  1
GRIDFORMAT_BEGIN
 90
        0
 91
        1
 62
     0
 92
       -2
340
14
 93
        0
 40
0.045
309
GRIDFORMAT_END
309
TABLEFORMAT_END
  1
CELLSTYLE_BEGIN
 90
        1
 91
        1
300
_TITLE
309
CELLSTYLE_END
300
CELLSTYLE
  1
TABLEFORMAT_BEGIN
 90
        5
170
     1
 91
        0
 92
        0
 62
   257
 93
        1
300
CONTENTFORMAT
  1
CONTENTFORMAT_BEGIN
 90
        0
 91
        0
 92
        4
 93
        0
300

 40
0.0
140
1.0
 94
        5
 62
     0
340
11
144
4.5
309
CONTENTFORMAT_END
171
     1
301
MARGIN
  1
CELLMARGIN_BEGIN
 40
1.5
 40
1.5
 40
1.5
 40
1.5
 40
1.5
 40
1.5
309
CELLMARGIN_END
 94
        6
 95
        1
302
GRIDFORMAT
  1
GRIDFORMAT_BEGIN
 90
        0
 91
        1
 62
     0
 92
       -2
340
14
 93
        0
 40
0.045
309
GRIDFORMAT_END
 95
        2
302
GRIDFORMAT
  1
GRIDFORMAT_BEGIN
 90
        0
 91
        1
 62
     0
 92
       -2
340
14
 93
        0
 40
0.045
309
GRIDFORMAT_END
 95
        4
302
GRIDFORMAT
  1
GRIDFORMAT_BEGIN
 90
        0
 91
        1
 62
     0
 92
       -2
340
14
 93
        0
 40
0.045
309
GRIDFORMAT_END
 95
        8
302
GRIDFORMAT
  1
GRIDFORMAT_BEGIN
 90
        0
 91
        1
 62
     0
 92
       -2
340
14
 93
        0
 40
0.045
309
GRIDFORMAT_END
 95
       16
302
GRIDFORMAT
  1
GRIDFORMAT_BEGIN
 90
        0
 91
        1
 62
     0
 92
       -2
340
14
 93
        0
 40
0.045
309
GRIDFORMAT_END
 95
       32
302
GRIDFORMAT
  1
GRIDFORMAT_BEGIN
 90
        0
 91
        1
 62
     0
 92
       -2
340
14
 93
        0
 40
0.045
309
GRIDFORMAT_END
309
TABLEFORMAT_END
  1
CELLSTYLE_BEGIN
 90
        2
 91
        1
300
_HEADER
309
CELLSTYLE_END
300
CELLSTYLE
  1
TABLEFORMAT_BEGIN
 90
        5
170
     1
 91
        0
 92
        0
 62
   257
 93
        1
300
CONTENTFORMAT
  1
CONTENTFORMAT_BEGIN
 90
        0
 91
        0
 92
        4
 93
        0
300

 40
0.0
140
1.0
 94
        2
 62
     0
340
11
144
4.5
309
CONTENTFORMAT_END
171
     1
301
MARGIN
  1
CELLMARGIN_BEGIN
 40
1.5
 40
1.5
 40
1.5
 40
1.5
 40
1.5
 40
1.5
309
CELLMARGIN_END
 94
        6
 95
        1
302
GRIDFORMAT
  1
GRIDFORMAT_BEGIN
 90
        0
 91
        1
 62
     0
 92
       -2
340
14
 93
        0
 40
0.045
309
GRIDFORMAT_END
 95
        2
302
GRIDFORMAT
  1
GRIDFORMAT_BEGIN
 90
        0
 91
        1
 62
     0
 92
       -2
340
14
 93
        0
 40
0.045
309
GRIDFORMAT_END
 95
        4
302
GRIDFORMAT
  1
GRIDFORMAT_BEGIN
 90
        0
 91
        1
 62
     0
 92
       -2
340
14
 93
        0
 40
0.045
309
GRIDFORMAT_END
 95
        8
302
GRIDFORMAT
  1
GRIDFORMAT_BEGIN
 90
        0
 91
        1
 62
     0
 92
       -2
340
14
 93
        0
 40
0.045
309
GRIDFORMAT_END
 95
       16
302
GRIDFORMAT
  1
GRIDFORMAT_BEGIN
 90
        0
 91
        1
 62
     0
 92
       -2
340
14
 93
        0
 40
0.045
309
GRIDFORMAT_END
 95
       32
302
GRIDFORMAT
  1
GRIDFORMAT_BEGIN
 90
        0
 91
        1
 62
     0
 92
       -2
340
14
 93
        0
 40
0.045
309
GRIDFORMAT_END
309
TABLEFORMAT_END
  1
CELLSTYLE_BEGIN
 90
        3
 91
        2
300
_DATA
309
CELLSTYLE_END
  0
ENDSEC
  0
EOF
