  0
SECTION
  2
HEADER
  9
$ACADVER
  1
AC1021
  9
$ACADMAINTVER
 70
    25
  9
$DWGCODEPAGE
  3
ANSI_1252
  9
$INSBASE
 10
0.0
 20
0.0
 30
0.0
  9
$EXTMIN
 10
-382.9718594751
 20
-255.4808228165
 30
0.0
  9
$EXTMAX
 10
382.9718594751
 20
227.5303842718
 30
0.0
  9
$LIMMIN
 10
0.0
 20
0.0
  9
$LIMMAX
 10
420.0
 20
297.0
  9
$ORTHOMODE
 70
     0
  9
$REGENMODE
 70
     1
  9
$FILLMODE
 70
     1
  9
$QTEXTMODE
 70
     0
  9
$MIRRTEXT
 70
     1
  9
$LTSCALE
 40
1.0
  9
$ATTMODE
 70
     1
  9
$TEXTSIZE
 40
3.5
  9
$TRACEWID
 40
1.0
  9
$TEXTSTYLE
  7
Standard
  9
$CLAYER
  8
0
  9
$CELTYPE
  6
ByLayer
  9
$CECOLOR
 62
   256
  9
$CELTSCALE
 40
1.0
  9
$DISPSILH
 70
     0
  9
$DIMSCALE
 40
1.0
  9
$DIMASZ
 40
8.0
  9
$DIMEXO
 40
1.0
  9
$DIMDLI
 40
3.75
  9
$DIMRND
 40
0.0
  9
$DIMDLE
 40
0.0
  9
$DIMEXE
 40
1.0
  9
$DIMTP
 40
0.0
  9
$DIMTM
 40
0.0
  9
$DIMTXT
 40
16.9333333333
  9
$DIMCEN
 40
2.5
  9
$DIMTSZ
 40
0.0
  9
$DIMTOL
 70
     0
  9
$DIMLIM
 70
     0
  9
$DIMTIH
 70
     1
  9
$DIMTOH
 70
     1
  9
$DIMSE1
 70
     0
  9
$DIMSE2
 70
     0
  9
$DIMTAD
 70
     1
  9
$DIMZIN
 70
     0
  9
$DIMBLK
  1

  9
$DIMASO
 70
     1
  9
$DIMSHO
 70
     1
  9
$DIMPOST
  1

  9
$DIMAPOST
  1

  9
$DIMALT
 70
     0
  9
$DIMALTD
 70
     3
  9
$DIMALTF
 40
0.0393700787
  9
$DIMLFAC
 40
1.0
  9
$DIMTOFL
 70
     1
  9
$DIMTVP
 40
0.0
  9
$DIMTIX
 70
     0
  9
$DIMSOXD
 70
     0
  9
$DIMSAH
 70
     0
  9
$DIMBLK1
  1

  9
$DIMBLK2
  1

  9
$DIMSTYLE
  2
ISO-25
  9
$DIMCLRD
 70
     0
  9
$DIMCLRE
 70
     0
  9
$DIMCLRT
 70
     0
  9
$DIMTFAC
 40
1.0
  9
$DIMGAP
 40
1.524
  9
$DIMJUST
 70
     0
  9
$DIMSD1
 70
     0
  9
$DIMSD2
 70
     0
  9
$DIMTOLJ
 70
     0
  9
$DIMTZIN
 70
     0
  9
$DIMALTZ
 70
     0
  9
$DIMALTTZ
 70
     0
  9
$DIMUPT
 70
     0
  9
$DIMDEC
 70
     2
  9
$DIMTDEC
 70
     2
  9
$DIMALTU
 70
     2
  9
$DIMALTTD
 70
     3
  9
$DIMTXSTY
  7
Standard
  9
$DIMAUNIT
 70
     0
  9
$DIMADEC
 70
     2
  9
$DIMALTRND
 40
0.0
  9
$DIMAZIN
 70
     0
  9
$DIMDSEP
 70
    44
  9
$DIMATFIT
 70
     3
  9
$DIMFRAC
 70
     0
  9
$DIMLDRBLK
  1

  9
$DIMLUNIT
 70
     2
  9
$DIMLWD
 70
    -2
  9
$DIMLWE
 70
    -2
  9
$DIMTMOVE
 70
     0
  9
$DIMFXL
 40
1.0
  9
$DIMFXLON
 70
     0
  9
$DIMJOGANG
 40
0.7853981634
  9
$DIMTFILL
 70
     0
  9
$DIMTFILLCLR
 70
     0
  9
$DIMARCSYM
 70
     0
  9
$DIMLTYPE
  6

  9
$DIMLTEX1
  6

  9
$DIMLTEX2
  6

  9
$LUNITS
 70
     2
  9
$LUPREC
 70
     2
  9
$SKETCHINC
 40
1.0
  9
$FILLETRAD
 40
10.0
  9
$AUNITS
 70
     0
  9
$AUPREC
 70
     2
  9
$MENU
  1
.
  9
$ELEVATION
 40
0.0
  9
$PELEVATION
 40
0.0
  9
$THICKNESS
 40
0.0
  9
$LIMCHECK
 70
     0
  9
$CHAMFERA
 40
0.0
  9
$CHAMFERB
 40
0.0
  9
$CHAMFERC
 40
0.0
  9
$CHAMFERD
 40
0.0
  9
$SKPOLY
 70
     0
  9
$TDCREATE
 40
2458583.506155833
  9
$TDUCREATE
 40
2458583.4228225
  9
$TDUPDATE
 40
2458583.506188032
  9
$TDUUPDATE
 40
2458583.422854699
  9
$TDINDWG
 40
0.0000000116
  9
$TDUSRTIMER
 40
0.0000000116
  9
$USRTIMER
 70
     1
  9
$ANGBASE
 50
0.0
  9
$ANGDIR
 70
     0
  9
$PDMODE
 70
     0
  9
$PDSIZE
 40
-1.0
  9
$PLINEWID
 40
0.0
  9
$SPLFRAME
 70
     0
  9
$SPLINETYPE
 70
     6
  9
$SPLINESEGS
 70
     8
  9
$HANDSEED
  5
113
  9
$SURFTAB1
 70
     6
  9
$SURFTAB2
 70
     6
  9
$SURFTYPE
 70
     6
  9
$SURFU
 70
     6
  9
$SURFV
 70
     6
  9
$UCSBASE
  2

  9
$UCSNAME
  2

  9
$UCSORG
 10
0.0
 20
0.0
 30
0.0
  9
$UCSXDIR
 10
1.0
 20
0.0
 30
0.0
  9
$UCSYDIR
 10
0.0
 20
1.0
 30
0.0
  9
$UCSORTHOREF
  2

  9
$UCSORTHOVIEW
 70
     0
  9
$UCSORGTOP
 10
0.0
 20
0.0
 30
0.0
  9
$UCSORGBOTTOM
 10
0.0
 20
0.0
 30
0.0
  9
$UCSORGLEFT
 10
0.0
 20
0.0
 30
0.0
  9
$UCSORGRIGHT
 10
0.0
 20
0.0
 30
0.0
  9
$UCSORGFRONT
 10
0.0
 20
0.0
 30
0.0
  9
$UCSORGBACK
 10
0.0
 20
0.0
 30
0.0
  9
$PUCSBASE
  2

  9
$PUCSNAME
  2

  9
$PUCSORG
 10
0.0
 20
0.0
 30
0.0
  9
$PUCSXDIR
 10
1.0
 20
0.0
 30
0.0
  9
$PUCSYDIR
 10
0.0
 20
1.0
 30
0.0
  9
$PUCSORTHOREF
  2

  9
$PUCSORTHOVIEW
 70
     0
  9
$PUCSORGTOP
 10
0.0
 20
0.0
 30
0.0
  9
$PUCSORGBOTTOM
 10
0.0
 20
0.0
 30
0.0
  9
$PUCSORGLEFT
 10
0.0
 20
0.0
 30
0.0
  9
$PUCSORGRIGHT
 10
0.0
 20
0.0
 30
0.0
  9
$PUCSORGFRONT
 10
0.0
 20
0.0
 30
0.0
  9
$PUCSORGBACK
 10
0.0
 20
0.0
 30
0.0
  9
$USERI1
 70
     0
  9
$USERI2
 70
     0
  9
$USERI3
 70
     0
  9
$USERI4
 70
     0
  9
$USERI5
 70
     0
  9
$USERR1
 40
0.0
  9
$USERR2
 40
0.0
  9
$USERR3
 40
0.0
  9
$USERR4
 40
0.0
  9
$USERR5
 40
0.0
  9
$WORLDVIEW
 70
     1
  9
$SHADEDGE
 70
     3
  9
$SHADEDIF
 70
    70
  9
$TILEMODE
 70
     1
  9
$MAXACTVP
 70
    64
  9
$PINSBASE
 10
0.0
 20
0.0
 30
0.0
  9
$PLIMCHECK
 70
     0
  9
$PEXTMIN
 10
-365.0
 20
-225.0
 30
0.0
  9
$PEXTMAX
 10
365.0
 20
225.0
 30
0.0
  9
$PLIMMIN
 10
-421.8093385214
 20
-246.3035019455
  9
$PLIMMAX
 10
421.8093385214
 20
350.1945525292
  9
$UNITMODE
 70
     0
  9
$VISRETAIN
 70
     1
  9
$PLINEGEN
 70
     0
  9
$PSLTSCALE
 70
     1
  9
$TREEDEPTH
 70
  3020
  9
$CMLSTYLE
  2
Standard
  9
$CMLJUST
 70
     0
  9
$CMLSCALE
 40
20.0
  9
$PROXYGRAPHICS
 70
     1
  9
$MEASUREMENT
 70
     1
  9
$CELWEIGHT
370
    -1
  9
$ENDCAPS
280
     0
  9
$JOINSTYLE
280
     0
  9
$LWDISPLAY
290
     1
  9
$INSUNITS
 70
     4
  9
$HYPERLINKBASE
  1

  9
$STYLESHEET
  1

  9
$XEDIT
290
     1
  9
$CEPSNTYPE
380
     0
  9
$PSTYLEMODE
290
     1
  9
$FINGERPRINTGUID
  2
{4d17bae1-dca4-4c13-86cf-76b8b86f1485}
  9
$VERSIONGUID
  2
{FAEB1C32-E019-11D5-929B-00C0DF256EC4}
  9
$EXTNAMES
290
     1
  9
$PSVPSCALE
 40
0.0
  9
$OLESTARTUP
290
     0
  9
$SORTENTS
280
   127
  9
$INDEXCTL
280
     0
  9
$HIDETEXT
280
     1
  9
$XCLIPFRAME
290
     0
  9
$HALOGAP
280
     0
  9
$OBSCOLOR
 70
   257
  9
$OBSLTYPE
280
     0
  9
$INTERSECTIONDISPLAY
280
     0
  9
$INTERSECTIONCOLOR
 70
   257
  9
$DIMASSOC
280
     2
  9
$PROJECTNAME
  1

  9
$CAMERADISPLAY
290
     0
  9
$LENSLENGTH
 40
50.0
  9
$CAMERAHEIGHT
 40
0.0
  9
$STEPSPERSEC
 40
2.0
  9
$STEPSIZE
 40
6.0
  9
$3DDWFPREC
 40
2.0
  9
$PSOLWIDTH
 40
5.0
  9
$PSOLHEIGHT
 40
80.0
  9
$LOFTANG1
 40
1.5707963268
  9
$LOFTANG2
 40
1.5707963268
  9
$LOFTMAG1
 40
0.0
  9
$LOFTMAG2
 40
0.0
  9
$LOFTPARAM
 70
     7
  9
$LOFTNORMALS
280
     1
  9
$LATITUDE
 40
37.795
  9
$LONGITUDE
 40
-122.394
  9
$NORTHDIRECTION
 40
0.0
  9
$TIMEZONE
 70
 -8000
  9
$LIGHTGLYPHDISPLAY
280
     1
  9
$TILEMODELIGHTSYNCH
280
     1
  9
$CMATERIAL
347
44
  9
$SOLIDHIST
280
     0
  9
$SHOWHIST
280
     1
  9
$DWFFRAME
280
     2
  9
$DGNFRAME
280
     2
  9
$REALWORLDSCALE
290
     1
  9
$INTERFERECOLOR
 62
   256
  9
$CSHADOW
280
     0
  9
$SHADOWPLANELOCATION
 40
0.0
  0
ENDSEC
  0
SECTION
  2
CLASSES
  0
CLASS
  1
ACDBDICTIONARYWDFLT
  2
AcDbDictionaryWithDefault
  3
ObjectDBX Classes
 90
        0
 91
        3
280
     0
281
     0
  0
CLASS
  1
VISUALSTYLE
  2
AcDbVisualStyle
  3
ObjectDBX Classes
 90
     4095
 91
        3
280
     0
281
     0
  0
CLASS
  1
MATERIAL
  2
AcDbMaterial
  3
ObjectDBX Classes
 90
     1153
 91
        3
280
     0
281
     0
  0
CLASS
  1
SCALE
  2
AcDbScale
  3
ObjectDBX Classes
 90
     1153
 91
        3
280
     0
281
     0
  0
CLASS
  1
TABLESTYLE
  2
AcDbTableStyle
  3
ObjectDBX Classes
 90
     4095
 91
        3
280
     0
281
     0
  0
CLASS
  1
MLEADERSTYLE
  2
AcDbMLeaderStyle
  3
ACDB_MLEADERSTYLE_CLASS
 90
     4095
 91
        3
280
     0
281
     0
  0
CLASS
  1
SUN
  2
AcDbSun
  3
SCENEOE
 90
     1153
 91
        3
280
     0
281
     0
  0
CLASS
  1
DICTIONARYVAR
  2
AcDbDictionaryVar
  3
ObjectDBX Classes
 90
        0
 91
        3
280
     0
281
     0
  0
CLASS
  1
CELLSTYLEMAP
  2
AcDbCellStyleMap
  3
ObjectDBX Classes
 90
     1152
 91
        3
280
     0
281
     0
  0
ENDSEC
  0
SECTION
  2
TABLES
  0
TABLE
  2
VPORT
  5
8
330
0
100
AcDbSymbolTable
 70
     1
  0
VPORT
  5
29
330
8
100
AcDbSymbolTableRecord
100
AcDbViewportTableRecord
  2
*Active
 70
     0
 10
0.0
 20
0.0
 11
1.0
 21
1.0
 12
0.0
 22
-13.9752192724
 13
0.0
 23
0.0
 14
10.0
 24
10.0
 15
10.0
 25
10.0
 16
0.0
 26
0.0
 36
1.0
 17
0.0
 27
0.0
 37
0.0
 40
492.6714312301
 41
1.5857680064
 42
50.0
 43
0.0
 44
0.0
 50
0.0
 51
0.0
 71
     0
 72
   100
 73
     1
 74
     3
 75
     0
 76
     0
 77
     0
 78
     0
281
     0
 65
     1
110
0.0
120
0.0
130
0.0
111
1.0
121
0.0
131
0.0
112
0.0
122
1.0
132
0.0
 79
     0
146
0.0
348
2F
 60
     3
 61
     5
292
     1
282
     1
141
0.0
142
0.0
 63
   250
361
6D
  0
ENDTAB
  0
TABLE
  2
LTYPE
  5
5
330
0
100
AcDbSymbolTable
 70
     6
  0
LTYPE
  5
14
330
5
100
AcDbSymbolTableRecord
100
AcDbLinetypeTableRecord
  2
ByBlock
 70
     0
  3

 72
    65
 73
     0
 40
0.0
  0
LTYPE
  5
15
330
5
100
AcDbSymbolTableRecord
100
AcDbLinetypeTableRecord
  2
ByLayer
 70
     0
  3

 72
    65
 73
     0
 40
0.0
  0
LTYPE
  5
16
330
5
100
AcDbSymbolTableRecord
100
AcDbLinetypeTableRecord
  2
Continuous
 70
     0
  3
Solid line
 72
    65
 73
     0
 40
0.0
  0
LTYPE
  5
6E
330
5
100
AcDbSymbolTableRecord
100
AcDbLinetypeTableRecord
  2
HIDDEN
 70
     0
  3
Hidden __ __ __ __ __ __ __ __ __ __ __ __ __ __
 72
    65
 73
     2
 40
1.905
 49
1.27
 74
     0
 49
-0.635
 74
     0
  0
LTYPE
  5
6F
330
5
100
AcDbSymbolTableRecord
100
AcDbLinetypeTableRecord
  2
PHANTOM
 70
     0
  3
Phantom ______  __  __  ______  __  __  ______
 72
    65
 73
     6
 40
12.7
 49
6.35
 74
     0
 49
-1.27
 74
     0
 49
1.27
 74
     0
 49
-1.27
 74
     0
 49
1.27
 74
     0
 49
-1.27
 74
     0
  0
LTYPE
  5
70
330
5
100
AcDbSymbolTableRecord
100
AcDbLinetypeTableRecord
  2
CENTER
 70
     0
  3
Center ____ _ ____ _ ____ _ ____ _ ____ _ ____
 72
    65
 73
     4
 40
10.16
 49
6.35
 74
     0
 49
-1.27
 74
     0
 49
1.27
 74
     0
 49
-1.27
 74
     0
  0
LTYPE
  5
71
330
5
100
AcDbSymbolTableRecord
100
AcDbLinetypeTableRecord
  2
CENTERX2
 70
     0
  3
Center (2x) ________  __  ________  __  _____
 72
    65
 73
     4
 40
20.32
 49
12.7
 74
     0
 49
-2.54
 74
     0
 49
2.54
 74
     0
 49
-2.54
 74
     0
  0
LTYPE
  5
72
330
5
100
AcDbSymbolTableRecord
100
AcDbLinetypeTableRecord
  2
DOT2
 70
     0
  3
Dot (.5x) ........................................
 72
    65
 73
     2
 40
0.635
 49
0.0
 74
     0
 49
-0.635
 74
     0
  0
ENDTAB
  0
TABLE
  2
LAYER
  5
2
330
0
100
AcDbSymbolTable
 70
     1
  0
LAYER
  5
10
330
2
100
AcDbSymbolTableRecord
100
AcDbLayerTableRecord
  2
0
 70
     0
 62
     7
  6
Continuous
370
    -3
390
F
347
46
  0
ENDTAB
  0
TABLE
  2
STYLE
  5
3
330
0
100
AcDbSymbolTable
 70
     1
  0
STYLE
  5
11
330
3
100
AcDbSymbolTableRecord
100
AcDbTextStyleTableRecord
  2
Standard
 70
     0
 40
0.0
 41
1.0
 50
0.0
 71
     0
 42
3.5
  3
txt
  4

  0
ENDTAB
  0
TABLE
  2
VIEW
  5
6
330
0
100
AcDbSymbolTable
 70
     0
  0
ENDTAB
  0
TABLE
  2
UCS
  5
7
330
0
100
AcDbSymbolTable
 70
     0
  0
ENDTAB
  0
TABLE
  2
APPID
  5
9
330
0
100
AcDbSymbolTable
 70
     2
  0
APPID
  5
12
330
9
100
AcDbSymbolTableRecord
100
AcDbRegAppTableRecord
  2
ACAD
 70
     0
  0
APPID
  5
10B
330
9
100
AcDbSymbolTableRecord
100
AcDbRegAppTableRecord
  2
ACAD_MLEADERVER
 70
     0
  0
ENDTAB
  0
TABLE
  2
DIMSTYLE
  5
A
330
0
100
AcDbSymbolTable
 70
     1
100
AcDbDimStyleTable
  0
DIMSTYLE
105
27
330
A
100
AcDbSymbolTableRecord
100
AcDbDimStyleTableRecord
  2
ISO-25
 70
     0
 41
2.5
 42
0.625
 43
3.75
 44
1.25
 73
     0
 74
     0
 77
     1
 78
     8
140
2.5
141
2.5
143
0.0393700787
147
0.625
171
     3
172
     1
178
     0
271
     2
272
     2
274
     3
278
    44
283
     0
284
     8
340
11
  0
ENDTAB
  0
TABLE
  2
BLOCK_RECORD
  5
1
330
0
100
AcDbSymbolTable
 70
     9
  0
BLOCK_RECORD
  5
1F
330
1
100
AcDbSymbolTableRecord
100
AcDbBlockTableRecord
  2
*Model_Space
340
22
 70
     0
280
     1
281
     0
  0
BLOCK_RECORD
  5
1B
330
1
100
AcDbSymbolTableRecord
100
AcDbBlockTableRecord
  2
*Paper_Space
340
1E
 70
     0
280
     1
281
     0
  0
BLOCK_RECORD
  5
23
330
1
100
AcDbSymbolTableRecord
100
AcDbBlockTableRecord
  2
*Paper_Space0
340
26
 70
     0
280
     1
281
     0
  0
BLOCK_RECORD
  5
8B
330
1
100
AcDbSymbolTableRecord
100
AcDbBlockTableRecord
  2
*Paper_Space1
340
8C
 70
     0
280
     1
281
     0
  0
BLOCK_RECORD
  5
9C
330
1
100
AcDbSymbolTableRecord
100
AcDbBlockTableRecord
  2
*Paper_Space2
340
9D
 70
     0
280
     1
281
     0
  0
BLOCK_RECORD
  5
AF
330
1
100
AcDbSymbolTableRecord
100
AcDbBlockTableRecord
  2
*Paper_Space3
340
B0
 70
     0
280
     1
281
     0
  0
BLOCK_RECORD
  5
BD
330
1
100
AcDbSymbolTableRecord
100
AcDbBlockTableRecord
  2
*Paper_Space4
340
BE
 70
     0
280
     1
281
     0
  0
BLOCK_RECORD
  5
CD
330
1
100
AcDbSymbolTableRecord
100
AcDbBlockTableRecord
  2
*Paper_Space5
340
CE
 70
     0
280
     1
281
     0
  0
BLOCK_RECORD
  5
D5
330
1
100
AcDbSymbolTableRecord
100
AcDbBlockTableRecord
  2
*Paper_Space6
340
D6
 70
     0
280
     1
281
     0
  0
BLOCK_RECORD
  5
E0
330
1
100
AcDbSymbolTableRecord
100
AcDbBlockTableRecord
  2
*Paper_Space7
340
E1
 70
     0
280
     1
281
     0
  0
BLOCK_RECORD
  5
EB
330
1
100
AcDbSymbolTableRecord
100
AcDbBlockTableRecord
  2
*Paper_Space8
340
EC
 70
     0
280
     1
281
     0
  0
ENDTAB
  0
ENDSEC
  0
SECTION
  2
BLOCKS
  0
BLOCK
  5
20
330
1F
100
AcDbEntity
  8
0
100
AcDbBlockBegin
  2
*Model_Space
 70
     0
 10
0.0
 20
0.0
 30
0.0
  3
*Model_Space
  1

  0
ENDBLK
  5
21
330
1F
100
AcDbEntity
  8
0
100
AcDbBlockEnd
  0
BLOCK
  5
1C
330
1B
100
AcDbEntity
 67
     1
  8
0
100
AcDbBlockBegin
  2
*Paper_Space
 70
     0
 10
0.0
 20
0.0
 30
0.0
  3
*Paper_Space
  1

  0
ENDBLK
  5
1D
330
1B
100
AcDbEntity
 67
     1
  8
0
100
AcDbBlockEnd
  0
BLOCK
  5
24
330
23
100
AcDbEntity
  8
0
100
AcDbBlockBegin
  2
*Paper_Space0
 70
     0
 10
0.0
 20
0.0
 30
0.0
  3
*Paper_Space0
  1

  0
SPLINE
  5
7C
330
23
100
AcDbEntity
  8
0
  6
Continuous
 62
     7
370
    25
100
AcDbSpline
210
0.0
220
0.0
230
1.0
 70
     8
 71
     3
 72
    12
 73
     8
 74
     0
 42
0.000000001
 43
0.00000001
 40
0.0
 40
0.0
 40
0.0
 40
0.0
 40
0.1504560043334778
 40
0.3134810585577428
 40
0.4824249598631912
 40
0.7418745990743696
 40
1.0
 40
1.0
 40
1.0
 40
1.0
 10
53.9956267740391
 20
-134.5355704364555
 30
0.0
 10
58.79119399182098
 20
-134.4323019317108
 30
0.0
 10
68.78294868765252
 20
-134.2171379020235
 30
0.0
 10
84.15492258894936
 20
-133.7064627220347
 30
0.0
 10
102.9929701510993
 20
-132.9080824391701
 30
0.0
 10
124.8492150494656
 20
-131.7273684396634
 30
0.0
 10
141.3061772885199
 20
-130.523033501675
 30
0.0
 10
149.5136054806735
 20
-129.9224067043804
 30
0.0
  0
SPLINE
  5
7D
330
23
100
AcDbEntity
  8
0
  6
Continuous
 62
     7
370
    25
100
AcDbSpline
210
0.0
220
0.0
230
1.0
 70
     8
 71
     3
 72
    36
 73
    32
 74
     0
 42
0.000000001
 43
0.00000001
 40
0.0
 40
0.0
 40
0.0
 40
0.0
 40
0.0354816804962235
 40
0.0677107670265063
 40
0.0966852821831115
 40
0.122430764029381
 40
0.1450150982518712
 40
0.164581532519396
 40
0.1813679629829687
 40
0.1957489881414439
 40
0.20830006149089
 40
0.2198375234815032
 40
0.2313454429391652
 40
0.2435618988523224
 40
0.2693901129957319
 40
0.297193689766308
 40
0.3209898954854554
 40
0.3462587188661005
 40
0.3730726980794653
 40
0.4014765687884626
 40
0.4315582387983442
 40
0.4637456917345224
 40
0.4983071211630604
 40
0.5353641056641806
 40
0.5749433734892982
 40
0.6169993335466735
 40
0.7158615341297232
 40
0.8152309188586782
 40
0.8799365456518904
 40
0.9423752500683734
 40
1.0
 40
1.0
 40
1.0
 40
1.0
 10
-248.6779801957122
 20
-119.1506668514683
 30
0.0
 10
-248.5573413492422
 20
-119.170677000327
 30
0.0
 10
-248.3271225796282
 20
-119.2088629742883
 30
0.0
 10
-247.4675084123467
 20
-119.3505113468068
 30
0.0
 10
-246.3021417009808
 20
-119.5371206193907
 30
0.0
 10
-244.8440568880534
 20
-119.7633869967458
 30
0.0
 10
-243.1352802352268
 20
-120.0139336912734
 30
0.0
 10
-241.2035285432516
 20
-120.2904466048102
 30
0.0
 10
-239.0665640649186
 20
-120.5916217703505
 30
0.0
 10
-236.7256847103205
 20
-120.9150860654834
 30
0.0
 10
-234.1655962084276
 20
-121.2612120939304
 30
0.0
 10
-231.381844965702
 20
-121.6285451181755
 30
0.0
 10
-228.4336780428536
 20
-122.0073916932926
 30
0.0
 10
-224.3978687568673
 20
-122.5129492124958
 30
0.0
 10
-219.0730875977187
 20
-123.1614162522634
 30
0.0
 10
-212.9252368109302
 20
-123.8805938517723
 30
0.0
 10
-206.9040325731968
 20
-124.5594259763104
 30
0.0
 10
-201.0186697948114
 20
-125.2004443584169
 30
0.0
 10
-194.8445774763697
 20
-125.8494271521938
 30
0.0
 10
-188.2680800150029
 20
-126.5152970394246
 30
0.0
 10
-181.7263592562965
 20
-127.1491544862972
 30
0.0
 10
-175.2847682165936
 20
-127.7485856978354
 30
0.0
 10
-168.8583673991999
 20
-128.3237353745875
 30
0.0
 10
-162.4849354148099
 20
-128.8741507852721
 30
0.0
 10
-155.7707725118147
 20
-129.4280982947522
 30
0.0
 10
-147.6278586068391
 20
-130.086090888696
 30
0.0
 10
-123.8268843530028
 20
-131.7929061647445
 30
0.0
 10
-103.1635524207334
 20
-132.8971470599139
 30
0.0
 10
-84.1192022971378
 20
-133.7087526138208
 30
0.0
 10
-68.79095797968282
 20
-134.2166244568328
 30
0.0
 10
-58.79379142619936
 20
-134.4321354200909
 30
0.0
 10
-53.9956267740395
 20
-134.5355704364553
 30
0.0
  0
SPLINE
  5
7E
330
23
100
AcDbEntity
  8
0
  6
Continuous
 62
     7
370
    25
100
AcDbSpline
210
0.0
220
0.0
230
1.0
 70
     8
 71
     3
 72
    28
 73
    24
 74
     0
 42
0.000000001
 43
0.00000001
 40
0.0
 40
0.0
 40
0.0
 40
0.0
 40
0.0540995426329759
 40
0.1074194102033052
 40
0.1627165112825658
 40
0.2204072094534619
 40
0.2795060177767365
 40
0.3367307095923983
 40
0.3920499308635309
 40
0.4456397236618824
 40
0.4981258208030359
 40
0.5501171829324787
 40
0.6017578563976993
 40
0.6535532733172754
 40
0.6825015462433209
 40
0.714945410789241
 40
0.7510745214291216
 40
0.7911420565653603
 40
0.8262592278245495
 40
0.8643461447705676
 40
0.9057041565619962
 40
0.95073805961717
 40
1.0
 40
1.0
 40
1.0
 40
1.0
 10
-365.0000000000001
 20
0.0
 30
0.0
 10
-364.4939089488725
 20
-3.175235287351224
 30
0.0
 10
-363.489020560257
 20
-9.479944813972768
 30
0.0
 10
-361.1428680716225
 20
-18.86942587880272
 30
0.0
 10
-358.1379406501798
 20
-28.28832478241992
 30
0.0
 10
-354.3238971966336
 20
-37.78448602333019
 30
0.0
 10
-349.7697994324921
 20
-47.0760978330751
 30
0.0
 10
-344.6125991325104
 20
-55.88357164682208
 30
0.0
 10
-339.0254419378218
 20
-64.02968826578538
 30
0.0
 10
-333.0642058366019
 20
-71.5492587142336
 30
0.0
 10
-326.7431152918805
 20
-78.50334363956615
 30
0.0
 10
-320.0594497405809
 20
-84.94376254369513
 30
0.0
 10
-312.9967398213246
 20
-90.90216050347196
 30
0.0
 10
-306.6614987232409
 20
-95.57310310456529
 30
0.0
 10
-301.05047690837
 20
-99.2814280901703
 30
0.0
 10
-296.0945255492713
 20
-102.2856417506341
 30
0.0
 10
-290.4328238007709
 20
-105.3891107519809
 30
0.0
 10
-284.4842234153919
 20
-108.2851605536537
 30
0.0
 10
-278.298118874474
 20
-110.9393797701944
 30
0.0
 10
-271.9231409392997
 20
-113.3316763698551
 30
0.0
 10
-264.8725458858054
 20
-115.571097479104
 30
0.0
 10
-257.0711396967662
 20
-117.620396024484
 30
0.0
 10
-251.558097957077
 20
-118.6255534912441
 30
0.0
 10
-248.6779801957127
 20
-119.1506668514682
 30
0.0
  0
SPLINE
  5
7F
330
23
100
AcDbEntity
  8
0
  6
Continuous
 62
     7
370
    25
100
AcDbSpline
210
0.0
220
0.0
230
1.0
 70
     8
 71
     3
 72
    26
 73
    22
 74
     0
 42
0.000000001
 43
0.00000001
 40
0.0
 40
0.0
 40
0.0
 40
0.0
 40
0.0657565257145638
 40
0.1320463572301783
 40
0.1991533589219278
 40
0.2673407535627706
 40
0.3363319988643243
 40
0.4042167036769633
 40
0.4711734962505636
 40
0.5375780987697645
 40
0.5905387252753775
 40
0.6435282105525528
 40
0.6967086960314464
 40
0.7491652145129404
 40
0.7979340879306036
 40
0.8356581010949736
 40
0.8707396562664097
 40
0.9031675946883033
 40
0.9329168786229637
 40
0.963918480708337
 40
1.0
 40
1.0
 40
1.0
 40
1.0
 10
248.6779801957124
 20
-119.1506668514686
 30
0.0
 10
252.5187834787025
 20
-118.425795366703
 30
0.0
 10
260.231540149547
 20
-116.9701734647977
 30
0.0
 10
271.5797085966291
 20
-113.5510280808384
 30
0.0
 10
282.7489147707116
 20
-109.200242614266
 30
0.0
 10
293.6434917701134
 20
-103.8165434189234
 30
0.0
 10
304.0698055493938
 20
-97.48680573726983
 30
0.0
 10
313.8465109734045
 20
-90.31680586760393
 30
0.0
 10
322.8593668187905
 20
-82.44041758972965
 30
0.0
 10
330.5556185477846
 20
-74.46640381374587
 30
0.0
 10
337.0938751162047
 20
-66.57731494934566
 30
0.0
 10
342.6263043230695
 20
-58.903056082784
 30
0.0
 10
347.6146378557599
 20
-50.89982019153747
 30
0.0
 10
351.9354952204578
 20
-42.80087746652462
 30
0.0
 10
355.348453743258
 20
-35.27913574412183
 30
0.0
 10
357.9676250054945
 20
-28.54563174897033
 30
0.0
 10
359.962198743342
 20
-22.61870599429337
 30
0.0
 10
361.5715014653928
 20
-17.06774638180367
 30
0.0
 10
362.8976976553112
 20
-11.69258274687518
 30
0.0
 10
364.0758264883278
 20
-6.059641252301281
 30
0.0
 10
364.6767731252287
 20
-2.119341097184688
 30
0.0
 10
365.0
 20
0.0
 30
0.0
  0
SPLINE
  5
80
330
23
100
AcDbEntity
  8
0
  6
Continuous
 62
     7
370
    25
100
AcDbSpline
210
0.0
220
0.0
230
1.0
 70
     8
 71
     3
 72
    31
 73
    27
 74
     0
 42
0.000000001
 43
0.00000001
 40
0.0
 40
0.0
 40
0.0
 40
0.0
 40
0.0681620834427408
 40
0.1323100746529733
 40
0.1923700819921536
 40
0.2483854252014297
 40
0.3005531524356599
 40
0.349307937691203
 40
0.3953434342706473
 40
0.4388021185114238
 40
0.4797564956181247
 40
0.5183241316354429
 40
0.563386703438824
 40
0.6052477116103397
 40
0.6250474994690025
 40
0.643698928785004
 40
0.6623982390813334
 40
0.6827403572442575
 40
0.7060483648490905
 40
0.7332549265921785
 40
0.7649671719767271
 40
0.8015706705456499
 40
0.8432975905704935
 40
0.8902579575940177
 40
0.9424931623632645
 40
1.0
 40
1.0
 40
1.0
 40
1.0
 10
149.5136054807622
 20
-129.9224067043735
 30
0.0
 10
151.6988806201302
 20
-129.7506333286274
 30
0.0
 10
155.9407391758467
 20
-129.417202379624
 30
0.0
 10
162.4436022169535
 20
-128.8768004990742
 30
0.0
 10
168.8683533930734
 20
-128.3230952105741
 30
0.0
 10
175.2823639766091
 20
-127.7487398244984
 30
0.0
 10
181.7269397899697
 20
-127.1491172704958
 30
0.0
 10
188.2679380026426
 20
-126.515306143296
 30
0.0
 10
194.8446123662372
 20
-125.8494249155373
 30
0.0
 10
201.0186612444337
 20
-125.2004449065489
 30
0.0
 10
206.9040346512334
 20
-124.5594258430953
 30
0.0
 10
212.9252361630771
 20
-123.8805938933037
 30
0.0
 10
219.0730877724294
 20
-123.1614162410634
 30
0.0
 10
224.3978687370918
 20
-122.5129492137636
 30
0.0
 10
228.4336780462141
 20
-122.0073916930773
 30
0.0
 10
231.3818449648217
 20
-121.6285451182319
 30
0.0
 10
234.165596208683
 20
-121.2612120939142
 30
0.0
 10
236.7256847102361
 20
-120.9150860654889
 30
0.0
 10
239.0665640649447
 20
-120.5916217703492
 30
0.0
 10
241.2035285432407
 20
-120.2904466048111
 30
0.0
 10
243.1352802352288
 20
-120.0139336912735
 30
0.0
 10
244.8440568880516
 20
-119.7633869967462
 30
0.0
 10
246.302141700981
 20
-119.5371206193912
 30
0.0
 10
247.4675084123465
 20
-119.350511346807
 30
0.0
 10
248.3271225796286
 20
-119.2088629742887
 30
0.0
 10
248.5573413492425
 20
-119.1706770003272
 30
0.0
 10
248.6779801957125
 20
-119.1506668514686
 30
0.0
  0
SPLINE
  5
81
330
23
100
AcDbEntity
  8
0
  6
Continuous
 62
     7
370
    25
100
AcDbSpline
210
0.0
220
0.0
230
1.0
 70
     8
 71
     3
 72
     9
 73
     5
 74
     0
 42
0.000000001
 43
0.00000001
 40
0.0
 40
0.0
 40
0.0
 40
0.0
 40
0.5043134040543676
 40
1.0
 40
1.0
 40
1.0
 40
1.0
 10
-54.00737074684562
 20
-134.4079596876013
 30
0.0
 10
-53.92085029908444
 20
-135.3413476676085
 30
0.0
 10
-53.74928942629062
 20
-137.1921570502331
 30
0.0
 10
-53.58261719230364
 20
-139.0694507007734
 30
0.0
 10
-53.49999999999999
 20
-140.0
 30
0.0
  0
SPLINE
  5
82
330
23
100
AcDbEntity
  8
0
  6
Continuous
 62
     7
370
    25
100
AcDbSpline
210
0.0
220
0.0
230
1.0
 70
     8
 71
     3
 72
     9
 73
     5
 74
     0
 42
0.000000001
 43
0.00000001
 40
0.0
 40
0.0
 40
0.0
 40
0.0
 40
0.4956865959456381
 40
1.0
 40
1.0
 40
1.0
 40
1.0
 10
53.50000000000002
 20
-140.0
 30
0.0
 10
53.58261719230371
 20
-139.0694507007734
 30
0.0
 10
53.74928942629075
 20
-137.1921570502331
 30
0.0
 10
53.92085029908421
 20
-135.3413476676085
 30
0.0
 10
54.00737074684521
 20
-134.4079596876014
 30
0.0
  0
SPLINE
  5
83
330
23
100
AcDbEntity
  8
0
  6
Continuous
 62
     7
370
    25
100
AcDbSpline
210
0.0
220
0.0
230
1.0
 70
    24
 71
     3
 72
    24
 73
    20
 74
     0
 42
0.000000001
 43
0.00000001
 40
0.704
 40
0.704
 40
0.704
 40
0.704
 40
0.7500000000000001
 40
0.8006451082767936
 40
0.8006451082767936
 40
0.8146871704288455
 40
0.8287292325808975
 40
0.8427712947329494
 40
0.8550141729903354
 40
0.8550141729903354
 40
0.8848974811891053
 40
0.8848974811891053
 40
0.8949858270096644
 40
0.8949858270096644
 40
0.9789971654019329
 40
0.9842478740514496
 40
0.9894985827009665
 40
0.9947492913504832
 40
1.0
 40
1.0
 40
1.0
 40
1.0
 10
364.9999999999999
 20
0.0
 30
0.0
 10
365.0
 20
0.0
 30
0.0
 10
365.0
 20
0.0
 30
0.0
 10
364.9999999999999
 20
0.0
 30
0.0
 10
364.9999999999999
 20
0.0
 30
0.0
 10
362.2998761980976
 20
0.0
 30
0.0
 10
350.8098550527882
 20
0.0
 30
0.0
 10
333.0611113867998
 20
0.0
 30
0.0
 10
318.1569436913201
 20
0.0
 30
0.0
 10
292.6078481722155
 20
0.0
 30
0.0
 10
271.6352839968876
 20
0.0
 30
0.0
 10
242.6961156564453
 20
0.0
 30
0.0
 10
235.3922313128906
 20
0.0
 30
0.0
 10
167.264787777513
 20
0.0
 30
0.0
 10
102.6397561362012
 20
0.0
 30
0.0
 10
34.21325204540039
 20
0.0
 30
0.0
 10
22.80883469693366
 20
0.0
 30
0.0
 10
11.40441734846683
 20
0.0
 30
0.0
 10
3.801472449488974
 20
0.0
 30
0.0
 10
0.0000000000000054
 20
0.0
 30
0.0
  0
SPLINE
  5
85
330
23
100
AcDbEntity
  8
0
  6
Continuous
 62
     7
370
    25
100
AcDbSpline
210
0.0
220
0.0
230
1.0
 70
     8
 71
     3
 72
    18
 73
    14
 74
     0
 42
0.000000001
 43
0.00000001
 40
0.0
 40
0.0
 40
0.0
 40
0.0
 40
0.4071970927361242
 40
0.5878613540461312
 40
0.6349575917281339
 40
0.6796088597043405
 40
0.7229924902815444
 40
0.7650436473330425
 40
0.8079366838072746
 40
0.852936302781493
 40
0.8988811095330078
 40
0.9452558857786455
 40
1.0
 40
1.0
 40
1.0
 40
1.0
 10
0.0000000000000037
 20
-133.9263082475211
 30
0.0
 10
-9.643877032288676
 20
-133.9529015373091
 30
0.0
 10
-23.56652705014983
 20
-133.9912936762075
 30
0.0
 10
-38.55934419861632
 20
-134.1205316444346
 30
0.0
 10
-45.03289651932396
 20
-134.1759747584177
 30
0.0
 10
-48.17668411729696
 20
-134.2062777543657
 30
0.0
 10
-50.78090663439576
 20
-134.2364202493638
 30
0.0
 10
-52.69396373221422
 20
-134.2662137357289
 30
0.0
 10
-53.81646909449929
 20
-134.295681886396
 30
0.0
 10
-53.85286109552684
 20
-134.3237258174507
 30
0.0
 10
-53.93660686279114
 20
-134.3512242302866
 30
0.0
 10
-54.00209011763821
 20
-134.3804891772628
 30
0.0
 10
-53.97331737520967
 20
-134.3965935636402
 30
0.0
 10
-53.95774028283163
 20
-134.4053122151525
 30
0.0
  0
SPLINE
  5
86
330
23
100
AcDbEntity
  8
0
  6
Continuous
 62
     7
370
    25
100
AcDbSpline
210
0.0
220
0.0
230
1.0
 70
     8
 71
     3
 72
    18
 73
    14
 74
     0
 42
0.000000001
 43
0.00000001
 40
0.0
 40
0.0
 40
0.0
 40
0.0
 40
0.1680227666601162
 40
0.2131099063454415
 40
0.2560166182117326
 40
0.2980220440836938
 40
0.3389592736928089
 40
0.3810205617766008
 40
0.4253479669625484
 40
0.4701347511291851
 40
0.5148279451467284
 40
0.6896483723448059
 40
1.0
 40
1.0
 40
1.0
 40
1.0
 10
53.99239581540945
 20
-134.422954750104
 30
0.0
 10
53.94190824068351
 20
-134.3919150315311
 30
0.0
 10
53.87787285705469
 20
-134.352546131414
 30
0.0
 10
53.85157978962716
 20
-134.2973780112703
 30
0.0
 10
52.74951993715963
 20
-134.2670946416826
 30
0.0
 10
50.82230856284251
 20
-134.2369788320688
 30
0.0
 10
48.2559163660593
 20
-134.2071582450457
 30
0.0
 10
45.22065864604683
 20
-134.1777018494275
 30
0.0
 10
42.00340997100074
 20
-134.1499722963227
 30
0.0
 10
38.74874564674013
 20
-134.1222181415768
 30
0.0
 10
32.30574167801473
 20
-134.0694007697988
 30
0.0
 10
19.39469559087429
 20
-133.9689981499462
 30
0.0
 10
7.566305663616495
 20
-133.9429625357508
 30
0.0
 10
0.0000000000000037
 20
-133.9263082475211
 30
0.0
  0
SPLINE
  5
87
330
23
100
AcDbEntity
  8
0
  6
Continuous
 62
     7
370
    25
100
AcDbSpline
210
0.0
220
0.0
230
1.0
 70
    24
 71
     3
 72
    29
 73
    25
 74
     0
 42
0.000000001
 43
0.00000001
 40
0.0
 40
0.0
 40
0.0
 40
0.0
 40
0.0052507086495168
 40
0.0105014172990336
 40
0.0157521259485502
 40
0.0210028345980671
 40
0.1050141729903355
 40
0.1050141729903355
 40
0.1151025188108948
 40
0.1151025188108948
 40
0.1449858270096646
 40
0.1449858270096646
 40
0.1572287052670508
 40
0.1712707674191028
 40
0.1853128295711548
 40
0.1993548917232068
 40
0.1993548917232068
 40
0.2500000000000004
 40
0.3006451082767941
 40
0.3006451082767941
 40
0.3146871704288462
 40
0.3287292325808981
 40
0.3427712947329502
 40
0.3441725190932587
 40
0.3441725190932587
 40
0.3441725190932587
 40
0.3441725190932587
 10
0.0000000000000005
 20
-140.0
 30
0.0
 10
-0.7250000000000052
 20
-140.0
 30
0.0
 10
-2.175000000000016
 20
-140.0
 30
0.0
 10
-4.350000000000004
 20
-140.0
 30
0.0
 10
-6.524999999999991
 20
-140.0
 30
0.0
 10
-19.57499999999997
 20
-140.0
 30
0.0
 10
-31.89999999999998
 20
-140.0
 30
0.0
 10
-44.89296449453126
 20
-140.0
 30
0.0
 10
-46.21978983743155
 20
-140.0
 30
0.0
 10
-50.99554343159813
 20
-140.0
 30
0.0
 10
-53.49999999999998
 20
-140.0
 30
0.0
 10
-53.5
 20
-140.0
 30
0.0
 10
-53.49999999999994
 20
-140.0
 30
0.0
 10
-53.49999999999999
 20
-140.0
 30
0.0
 10
-53.49999999999998
 20
-140.0
 30
0.0
 10
-53.49999999999999
 20
-140.0
 30
0.0
 10
-53.49999999999998
 20
-140.0
 30
0.0
 10
-53.49999999999996
 20
-140.0
 30
0.0
 10
-53.49999999999998
 20
-140.0
 30
0.0
 10
-53.49999999999998
 20
-140.0
 30
0.0
 10
-53.49999999999998
 20
-140.0
 30
0.0
 10
-53.49999999999998
 20
-140.0
 30
0.0
 10
-53.49999999999999
 20
-140.0
 30
0.0
 10
-53.49999999999998
 20
-140.0
 30
0.0
 10
-53.49999999999998
 20
-140.0
 30
0.0
  0
LINE
  5
89
330
23
100
AcDbEntity
  8
0
  6
Continuous
 62
     7
370
    25
100
AcDbLine
 10
0.0
 20
0.0
 30
0.0
 11
-365.0
 21
0.0
 31
0.0
  0
LINE
  5
8A
330
23
100
AcDbEntity
  8
0
  6
Continuous
 62
     7
370
    25
100
AcDbLine
 10
0.0
 20
-140.0
 30
0.0
 11
53.5
 21
-140.0
 31
0.0
  0
VIEWPORT
  5
F5
330
23
100
AcDbEntity
  8
0
100
AcDbViewport
 10
0.0
 20
0.0
 30
0.0
 40
205.6
 41
156.0
 68
     1
 69
     1
 12
0.0
 22
-13.9752192724
 13
0.0
 23
0.0
 14
10.0
 24
10.0
 15
10.0
 25
10.0
 16
0.0
 26
0.0
 36
1.0
 17
0.0
 27
0.0
 37
0.0
 42
50.0
 43
0.0
 44
0.0
 45
592.7867926039
 50
0.0
 51
0.0
 72
   100
 90
   557152
  1

281
     0
 71
     1
 74
     0
110
0.0
120
0.0
130
0.0
111
1.0
121
0.0
131
0.0
112
0.0
122
1.0
132
0.0
 79
     0
146
0.0
170
     0
 61
     5
348
2F
292
     1
282
     1
141
0.0
142
0.0
 63
   256
361
F6
  0
ENDBLK
  5
25
330
23
100
AcDbEntity
  8
0
100
AcDbBlockEnd
  0
BLOCK
  5
8D
330
8B
100
AcDbEntity
  8
0
100
AcDbBlockBegin
  2
*Paper_Space1
 70
     0
 10
0.0
 20
0.0
 30
0.0
  3
*Paper_Space1
  1

  0
SPLINE
  5
8F
330
8B
100
AcDbEntity
  8
0
  6
Continuous
 62
     7
370
    25
100
AcDbSpline
210
0.0
220
0.0
230
1.0
 70
     8
 71
     3
 72
    15
 73
    11
 74
     0
 42
0.000000001
 43
0.00000001
 40
0.0
 40
0.0
 40
0.0
 40
0.0
 40
0.065126234552227
 40
0.1403146673882285
 40
0.2303643444260609
 40
0.3388651502909583
 40
0.4684522506688268
 40
0.6210308509418343
 40
0.7979315556992439
 40
1.0
 40
1.0
 40
1.0
 40
1.0
 10
54.0450159843561
 20
-134.1030824523467
 30
0.0
 10
54.88604179419815
 20
-134.0317900870235
 30
0.0
 10
56.69803442027675
 20
-133.8781904724223
 30
0.0
 10
59.09545253392465
 20
-133.648697353672
 30
0.0
 10
61.42926159688111
 20
-133.4162747348022
 30
0.0
 10
63.69753927728511
 20
-133.1832749575941
 30
0.0
 10
65.93304072376655
 20
-132.9518380078171
 30
0.0
 10
68.14407109981617
 20
-132.7224146035135
 30
0.0
 10
70.36202406198701
 20
-132.4921526561263
 30
0.0
 10
71.71694454924095
 20
-132.3473925551072
 30
0.0
 10
72.4393956397613
 20
-132.2702056693609
 30
0.0
  0
SPLINE
  5
90
330
8B
100
AcDbEntity
  8
0
  6
Continuous
 62
     7
370
    25
100
AcDbSpline
210
0.0
220
0.0
230
1.0
 70
     8
 71
     3
 72
    34
 73
    30
 74
     0
 42
0.000000001
 43
0.00000001
 40
0.0
 40
0.0
 40
0.0
 40
0.0
 40
0.0459073681410411
 40
0.0921041494869209
 40
0.1412183587852189
 40
0.1933569842627704
 40
0.2471177799775215
 40
0.2997129271318827
 40
0.35075358843999
 40
0.399997898582516
 40
0.4469048793911112
 40
0.4911623153625979
 40
0.517469244950911
 40
0.5427268596589181
 40
0.5684807715913008
 40
0.5981209925617302
 40
0.6315238082254105
 40
0.6683736519965979
 40
0.7083371610724538
 40
0.751028586501586
 40
0.7844562581393373
 40
0.8185715941798621
 40
0.8488879722618796
 40
0.874960964456799
 40
0.8980207794884808
 40
0.9188992411386063
 40
0.9486074237924774
 40
0.9754277260616333
 40
1.0
 40
1.0
 40
1.0
 40
1.0
 10
-225.0000000000001
 20
0.0
 30
0.0
 10
-224.6965763319173
 20
-3.392415605975807
 30
0.0
 10
-224.0878161259935
 20
-10.19863357810181
 30
0.0
 10
-222.1786058546933
 20
-20.51055235793574
 30
0.0
 10
-219.4149657932118
 20
-31.09958283751619
 30
0.0
 10
-215.5982236295793
 20
-41.95848551341859
 30
0.0
 10
-210.7603833565865
 20
-52.68636166754381
 30
0.0
 10
-205.0626061335242
 20
-62.88961944488918
 30
0.0
 10
-198.7172670271513
 20
-72.30048836660079
 30
0.0
 10
-191.8958293901609
 20
-80.83674136291047
 30
0.0
 10
-184.7785164931396
 20
-88.45049946976553
 30
0.0
 10
-178.3695249837885
 20
-94.36254257427171
 30
0.0
 10
-172.8805795894682
 20
-98.87843525856253
 30
0.0
 10
-168.3032678002419
 20
-102.3344052703352
 30
0.0
 10
-163.3837014262164
 20
-105.7388716233171
 30
0.0
 10
-157.8047604328061
 20
-109.2418913143402
 30
0.0
 10
-151.3359938214379
 20
-112.8592603892458
 30
0.0
 10
-143.9825097723422
 20
-116.4383907408139
 30
0.0
 10
-135.7835620025739
 20
-119.8189193313175
 30
0.0
 10
-127.6163836786307
 20
-122.560816919767
 30
0.0
 10
-119.7200848111591
 20
-124.6945650700941
 30
0.0
 10
-112.6103887497898
 20
-126.1615248827405
 30
0.0
 10
-106.0158633157019
 20
-127.4088819567745
 30
0.0
 10
-100.2125753496531
 20
-128.4277997666629
 30
0.0
 10
-95.08872592336706
 20
-129.2663051188569
 30
0.0
 10
-89.68955509137103
 20
-130.0897073770337
 30
0.0
 10
-84.00462194492994
 20
-130.886727340537
 30
0.0
 10
-78.0381658324812
 20
-131.6457238280711
 30
0.0
 10
-74.25042422244476
 20
-132.0682051540668
 30
0.0
 10
-72.4393956397612
 20
-132.2702056693609
 30
0.0
  0
SPLINE
  5
91
330
8B
100
AcDbEntity
  8
0
  6
Continuous
 62
     7
370
    25
100
AcDbSpline
210
0.0
220
0.0
230
1.0
 70
     8
 71
     3
 72
    31
 73
    27
 74
     0
 42
0.000000001
 43
0.00000001
 40
0.0
 40
0.0
 40
0.0
 40
0.0
 40
0.0218764823649253
 40
0.0468195579223405
 40
0.0753807499792622
 40
0.1062796734989559
 40
0.1388376818026934
 40
0.1747926301910935
 40
0.2174021440454641
 40
0.2683857982386511
 40
0.3190918787744635
 40
0.368151478316061
 40
0.4148105826128723
 40
0.4586268623984645
 40
0.4992234941270817
 40
0.543652909749276
 40
0.5885605621394272
 40
0.635476748643417
 40
0.684241135762734
 40
0.7346082671616534
 40
0.7775154659960608
 40
0.8210767597171049
 40
0.8651171848904797
 40
0.9095716882655985
 40
0.9545915601186555
 40
1.0
 40
1.0
 40
1.0
 40
1.0
 10
72.43939563976132
 20
-132.2702056693609
 30
0.0
 10
74.05177062010338
 20
-132.0909351184025
 30
0.0
 10
77.50253946517572
 20
-131.7072642976391
 30
0.0
 10
83.04935069457372
 20
-131.0120529254908
 30
0.0
 10
89.25005798122352
 20
-130.1578857718087
 30
0.0
 10
95.99642839851165
 20
-129.131380305945
 30
0.0
 10
103.2669685608549
 20
-127.9090573395694
 30
0.0
 10
111.3697853749361
 20
-126.4110117080321
 30
0.0
 10
120.7894462149197
 20
-124.5026223775408
 30
0.0
 10
131.0839618471181
 20
-121.5286961417429
 30
0.0
 10
141.5502547959681
 20
-117.5680294468075
 30
0.0
 10
151.3725795591384
 20
-112.9115172265674
 30
0.0
 10
160.3603243760791
 20
-107.7645248940791
 30
0.0
 10
168.427868739208
 20
-102.3284030291374
 30
0.0
 10
175.9728159271285
 20
-96.45548811252695
 30
0.0
 10
183.1600612942508
 20
-90.02526662550609
 30
0.0
 10
190.1908673445639
 20
-82.75609432566806
 30
0.0
 10
196.8679886984363
 20
-74.73631500997905
 30
0.0
 10
203.1456773238897
 20
-65.8970793179578
 30
0.0
 10
208.5377228398851
 20
-56.83472794050487
 30
0.0
 10
213.0654171821185
 20
-47.7447433000696
 30
0.0
 10
216.7630201702084
 20
-38.79219080430761
 30
0.0
 10
219.8592795997517
 20
-29.49230688819797
 30
0.0
 10
222.2989838295447
 20
-19.88972221444223
 30
0.0
 10
224.1048847647261
 20
-10.03789753963304
 30
0.0
 10
224.7007747471554
 20
-3.355537154281343
 30
0.0
 10
225.0
 20
0.0
 30
0.0
  0
SPLINE
  5
92
330
8B
100
AcDbEntity
  8
0
  6
Continuous
 62
     7
370
    25
100
AcDbSpline
210
0.0
220
0.0
230
1.0
 70
     8
 71
     3
 72
    15
 73
    11
 74
     0
 42
0.000000001
 43
0.00000001
 40
0.0
 40
0.0
 40
0.0
 40
0.0
 40
0.2020684443007541
 40
0.3789691490581625
 40
0.5315477493311699
 40
0.661134849709039
 40
0.7696356555739375
 40
0.8596853326117712
 40
0.9348737654477728
 40
1.0
 40
1.0
 40
1.0
 40
1.0
 10
-72.43939563976055
 20
-132.270205669361
 30
0.0
 10
-71.71694454924025
 20
-132.3473925551073
 30
0.0
 10
-70.36202406198636
 20
-132.4921526561264
 30
0.0
 10
-68.14407109981556
 20
-132.7224146035136
 30
0.0
 10
-65.933040723766
 20
-132.9518380078173
 30
0.0
 10
-63.6975392772845
 20
-133.1832749575941
 30
0.0
 10
-61.42926159688069
 20
-133.4162747348023
 30
0.0
 10
-59.09545253392423
 20
-133.6486973536721
 30
0.0
 10
-56.69803442027654
 20
-133.8781904724224
 30
0.0
 10
-54.88604179419801
 20
-134.0317900870235
 30
0.0
 10
-54.045015984356
 20
-134.1030824523467
 30
0.0
  0
SPLINE
  5
93
330
8B
100
AcDbEntity
  8
0
  6
Continuous
 62
     7
370
    25
100
AcDbSpline
210
0.0
220
0.0
230
1.0
 70
     8
 71
     3
 72
     9
 73
     5
 74
     0
 42
0.000000001
 43
0.00000001
 40
0.0
 40
0.0
 40
0.0
 40
0.0
 40
0.4998100204930879
 40
1.0
 40
1.0
 40
1.0
 40
1.0
 10
-54.15549611007646
 20
-134.1350049669873
 30
0.0
 10
-54.0408308943662
 20
-135.1111532263457
 30
0.0
 10
-53.81141329366039
 20
-137.0641918196806
 30
0.0
 10
-53.60383072217652
 20
-139.0211494186671
 30
0.0
 10
-53.50000000000004
 20
-140.0
 30
0.0
  0
SPLINE
  5
94
330
8B
100
AcDbEntity
  8
0
  6
Continuous
 62
     7
370
    25
100
AcDbSpline
210
0.0
220
0.0
230
1.0
 70
     8
 71
     3
 72
     9
 73
     5
 74
     0
 42
0.000000001
 43
0.00000001
 40
0.0
 40
0.0
 40
0.0
 40
0.0
 40
0.5001899795069227
 40
1.0
 40
1.0
 40
1.0
 40
1.0
 10
53.49999999999999
 20
-140.0
 30
0.0
 10
53.60383072217648
 20
-139.021149418667
 30
0.0
 10
53.81141329366032
 20
-137.0641918196806
 30
0.0
 10
54.04083089436624
 20
-135.1111532263457
 30
0.0
 10
54.15549611007655
 20
-134.1350049669873
 30
0.0
  0
LWPOLYLINE
  5
95
330
8B
100
AcDbEntity
  8
0
  6
Continuous
 62
     7
370
    25
100
AcDbPolyline
 90
        2
 70
   128
 43
0.0
 10
225.0
 20
0.0
 10
225.0
 20
0.0
  0
SPLINE
  5
97
330
8B
100
AcDbEntity
  8
0
  6
Continuous
 62
     7
370
    25
100
AcDbSpline
210
0.0
220
0.0
230
1.0
 70
     8
 71
     3
 72
    28
 73
    24
 74
     0
 42
0.000000001
 43
0.00000001
 40
0.0
 40
0.0
 40
0.0
 40
0.0
 40
0.0117255203865289
 40
0.0380292365162879
 40
0.062967412801413
 40
0.0871976010191267
 40
0.1106835895492297
 40
0.1346397760917641
 40
0.1597725098663237
 40
0.185433140394573
 40
0.2113339131523189
 40
0.3145397215020935
 40
0.4999981841268019
 40
0.6179593853866017
 40
0.7359421461667286
 40
0.8380129642147263
 40
0.8639491234196545
 40
0.8886310020593481
 40
0.912794420286577
 40
0.9363433637760279
 40
0.9605389164706386
 40
0.9860380420764769
 40
1.0
 40
1.0
 40
1.0
 40
1.0
 10
54.16032726075687
 20
-134.1357888644446
 30
0.0
 10
54.1716903507986
 20
-134.1397140279743
 30
0.0
 10
54.20854412142095
 20
-134.1524444627283
 30
0.0
 10
54.37756467422061
 20
-134.1761680232133
 30
0.0
 10
53.49814530740353
 20
-134.2062284927817
 30
0.0
 10
51.76444406138355
 20
-134.2364335451532
 30
0.0
 10
49.34895429639899
 20
-134.2662075614084
 30
0.0
 10
46.41562762182272
 20
-134.2956937404326
 30
0.0
 10
43.22141550752784
 20
-134.3236823168025
 30
0.0
 10
39.97975378979329
 20
-134.3513898022067
 30
0.0
 10
33.41825218484488
 20
-134.4049560553489
 30
0.0
 10
20.09035340189704
 20
-134.5004230434581
 30
0.0
 10
2.859675010485264
 20
-134.5663305033317
 30
0.0
 10
-14.99528243604305
 20
-134.5227337920612
 30
0.0
 10
-29.32779595521606
 20
-134.4380974480891
 30
0.0
 10
-39.71870351140948
 20
-134.3542920016991
 30
0.0
 10
-46.23129576654537
 20
-134.2974100922723
 30
0.0
 10
-49.27511912830828
 20
-134.2670860198695
 30
0.0
 10
-51.72559275536791
 20
-134.2369824907383
 30
0.0
 10
-53.44993249874313
 20
-134.207151990408
 30
0.0
 10
-54.34944251256336
 20
-134.177724376623
 30
0.0
 10
-54.21835054206271
 20
-134.1542377005561
 30
0.0
 10
-54.17245121715191
 20
-134.14009986026
 30
0.0
 10
-54.15621130719997
 20
-134.1350976678798
 30
0.0
  0
SPLINE
  5
98
330
8B
100
AcDbEntity
  8
0
  6
Continuous
 62
     7
370
    25
100
AcDbSpline
210
0.0
220
0.0
230
1.0
 70
    24
 71
     3
 72
    31
 73
    27
 74
     0
 42
0.000000001
 43
0.00000001
 40
0.094172519093259
 40
0.094172519093259
 40
0.094172519093259
 40
0.094172519093259
 40
0.1050141729903355
 40
0.1050141729903355
 40
0.1151025188108948
 40
0.1151025188108948
 40
0.1449858270096646
 40
0.1449858270096646
 40
0.1572287052670508
 40
0.1712707674191028
 40
0.1853128295711548
 40
0.1993548917232068
 40
0.1993548917232068
 40
0.2500000000000004
 40
0.3006451082767941
 40
0.3006451082767941
 40
0.3146871704288462
 40
0.3287292325808981
 40
0.3427712947329502
 40
0.3550141729903354
 40
0.3550141729903354
 40
0.3848974811891062
 40
0.3848974811891062
 40
0.3949858270096647
 40
0.3949858270096647
 40
0.405827480906741
 40
0.405827480906741
 40
0.405827480906741
 40
0.405827480906741
 10
53.5
 20
-140.0
 30
0.0
 10
53.5
 20
-140.0
 30
0.0
 10
53.5
 20
-140.0
 30
0.0
 10
53.50000000000001
 20
-140.0
 30
0.0
 10
53.21457232555482
 20
-140.0
 30
0.0
 10
51.17203984155657
 20
-140.0
 30
0.0
 10
47.62618560469959
 20
-140.0
 30
0.0
 10
41.80954499114662
 20
-140.0
 30
0.0
 10
38.18020977777567
 20
-140.0
 30
0.0
 10
32.61199435988706
 20
-140.0
 30
0.0
 10
26.7953537463341
 20
-140.0
 30
0.0
 10
22.9175933372988
 20
-140.0
 30
0.0
 10
13.98580875518745
 20
-140.0
 30
0.0
 10
-0.0000000000001323
 20
-140.0
 30
0.0
 10
-13.98580875518767
 20
-140.0
 30
0.0
 10
-22.91759333729919
 20
-140.0
 30
0.0
 10
-26.7953537463345
 20
-140.0
 30
0.0
 10
-32.61199435988747
 20
-140.0
 30
0.0
 10
-38.18020977777596
 20
-140.0
 30
0.0
 10
-41.80954499114677
 20
-140.0
 30
0.0
 10
-47.62618560469971
 20
-140.0
 30
0.0
 10
-51.17203984155679
 20
-140.0
 30
0.0
 10
-53.2145723255549
 20
-140.0
 30
0.0
 10
-53.50000000000001
 20
-140.0000000000001
 30
0.0
 10
-53.50000000000002
 20
-140.0
 30
0.0
 10
-53.50000000000002
 20
-140.0
 30
0.0
 10
-53.50000000000002
 20
-140.0
 30
0.0
  0
LWPOLYLINE
  5
99
330
8B
100
AcDbEntity
  8
0
  6
Continuous
 62
     7
370
    25
100
AcDbPolyline
 90
        2
 70
   128
 43
0.0
 10
-53.5
 20
-140.0
 10
-53.5
 20
-140.0
  0
LWPOLYLINE
  5
9A
330
8B
100
AcDbEntity
  8
0
  6
Continuous
 62
     7
370
    25
100
AcDbPolyline
 90
        2
 70
   128
 43
0.0
 10
53.5
 20
-140.0
 10
53.5
 20
-140.0
  0
LINE
  5
9B
330
8B
100
AcDbEntity
  8
0
  6
Continuous
 62
     7
370
    25
100
AcDbLine
 10
-225.0
 20
0.0
 30
0.0
 11
225.0
 21
0.0
 31
0.0
  0
VIEWPORT
  5
F7
330
8B
100
AcDbEntity
  8
0
100
AcDbViewport
 10
0.0
 20
0.0
 30
0.0
 40
205.6
 41
156.0
 68
     1
 69
     1
 12
0.0
 22
-13.9752192724
 13
0.0
 23
0.0
 14
10.0
 24
10.0
 15
10.0
 25
10.0
 16
0.0
 26
0.0
 36
1.0
 17
0.0
 27
0.0
 37
0.0
 42
50.0
 43
0.0
 44
0.0
 45
592.7867926039
 50
0.0
 51
0.0
 72
   100
 90
   557152
  1

281
     0
 71
     1
 74
     0
110
0.0
120
0.0
130
0.0
111
1.0
121
0.0
131
0.0
112
0.0
122
1.0
132
0.0
 79
     0
146
0.0
170
     0
 61
     5
348
2F
292
     1
282
     1
141
0.0
142
0.0
 63
   256
361
F8
  0
ENDBLK
  5
8E
330
8B
100
AcDbEntity
  8
0
100
AcDbBlockEnd
  0
BLOCK
  5
9E
330
9C
100
AcDbEntity
  8
0
100
AcDbBlockBegin
  2
*Paper_Space2
 70
     0
 10
0.0
 20
0.0
 30
0.0
  3
*Paper_Space2
  1

  0
SPLINE
  5
A0
330
9C
100
AcDbEntity
  8
0
  6
Continuous
 62
     7
370
    25
100
AcDbSpline
210
0.0
220
0.0
230
1.0
 70
     8
 71
     3
 72
    12
 73
     8
 74
     0
 42
0.000000001
 43
0.00000001
 40
0.0
 40
0.0
 40
0.0
 40
0.0
 40
0.1504560043334778
 40
0.3134810585577428
 40
0.4824249598631912
 40
0.7418745990743696
 40
1.0
 40
1.0
 40
1.0
 40
1.0
 10
53.9956267740391
 20
-134.5355704364555
 30
0.0
 10
58.79119399182098
 20
-134.4323019317108
 30
0.0
 10
68.78294868765252
 20
-134.2171379020235
 30
0.0
 10
84.15492258894936
 20
-133.7064627220347
 30
0.0
 10
102.9929701510993
 20
-132.9080824391701
 30
0.0
 10
124.8492150494656
 20
-131.7273684396634
 30
0.0
 10
141.3061772885199
 20
-130.523033501675
 30
0.0
 10
149.5136054806735
 20
-129.9224067043804
 30
0.0
  0
SPLINE
  5
A1
330
9C
100
AcDbEntity
  8
0
  6
Continuous
 62
     7
370
    25
100
AcDbSpline
210
0.0
220
0.0
230
1.0
 70
     8
 71
     3
 72
    36
 73
    32
 74
     0
 42
0.000000001
 43
0.00000001
 40
0.0
 40
0.0
 40
0.0
 40
0.0
 40
0.0354816804962235
 40
0.0677107670265063
 40
0.0966852821831115
 40
0.122430764029381
 40
0.1450150982518712
 40
0.164581532519396
 40
0.1813679629829687
 40
0.1957489881414439
 40
0.20830006149089
 40
0.2198375234815032
 40
0.2313454429391652
 40
0.2435618988523224
 40
0.2693901129957319
 40
0.297193689766308
 40
0.3209898954854554
 40
0.3462587188661005
 40
0.3730726980794653
 40
0.4014765687884626
 40
0.4315582387983442
 40
0.4637456917345224
 40
0.4983071211630604
 40
0.5353641056641806
 40
0.5749433734892982
 40
0.6169993335466735
 40
0.7158615341297232
 40
0.8152309188586782
 40
0.8799365456518904
 40
0.9423752500683734
 40
1.0
 40
1.0
 40
1.0
 40
1.0
 10
-248.6779801957122
 20
-119.1506668514683
 30
0.0
 10
-248.5573413492422
 20
-119.170677000327
 30
0.0
 10
-248.3271225796282
 20
-119.2088629742883
 30
0.0
 10
-247.4675084123467
 20
-119.3505113468068
 30
0.0
 10
-246.3021417009808
 20
-119.5371206193907
 30
0.0
 10
-244.8440568880534
 20
-119.7633869967458
 30
0.0
 10
-243.1352802352268
 20
-120.0139336912734
 30
0.0
 10
-241.2035285432516
 20
-120.2904466048102
 30
0.0
 10
-239.0665640649186
 20
-120.5916217703505
 30
0.0
 10
-236.7256847103205
 20
-120.9150860654834
 30
0.0
 10
-234.1655962084276
 20
-121.2612120939304
 30
0.0
 10
-231.381844965702
 20
-121.6285451181755
 30
0.0
 10
-228.4336780428536
 20
-122.0073916932926
 30
0.0
 10
-224.3978687568673
 20
-122.5129492124958
 30
0.0
 10
-219.0730875977187
 20
-123.1614162522634
 30
0.0
 10
-212.9252368109302
 20
-123.8805938517723
 30
0.0
 10
-206.9040325731968
 20
-124.5594259763104
 30
0.0
 10
-201.0186697948114
 20
-125.2004443584169
 30
0.0
 10
-194.8445774763697
 20
-125.8494271521938
 30
0.0
 10
-188.2680800150029
 20
-126.5152970394246
 30
0.0
 10
-181.7263592562965
 20
-127.1491544862972
 30
0.0
 10
-175.2847682165936
 20
-127.7485856978354
 30
0.0
 10
-168.8583673991999
 20
-128.3237353745875
 30
0.0
 10
-162.4849354148099
 20
-128.8741507852721
 30
0.0
 10
-155.7707725118147
 20
-129.4280982947522
 30
0.0
 10
-147.6278586068391
 20
-130.086090888696
 30
0.0
 10
-123.8268843530028
 20
-131.7929061647445
 30
0.0
 10
-103.1635524207334
 20
-132.8971470599139
 30
0.0
 10
-84.1192022971378
 20
-133.7087526138208
 30
0.0
 10
-68.79095797968282
 20
-134.2166244568328
 30
0.0
 10
-58.79379142619936
 20
-134.4321354200909
 30
0.0
 10
-53.9956267740395
 20
-134.5355704364553
 30
0.0
  0
SPLINE
  5
A2
330
9C
100
AcDbEntity
  8
0
  6
Continuous
 62
     7
370
    25
100
AcDbSpline
210
0.0
220
0.0
230
1.0
 70
     8
 71
     3
 72
    28
 73
    24
 74
     0
 42
0.000000001
 43
0.00000001
 40
0.0
 40
0.0
 40
0.0
 40
0.0
 40
0.0540995426329759
 40
0.1074194102033052
 40
0.1627165112825658
 40
0.2204072094534619
 40
0.2795060177767365
 40
0.3367307095923983
 40
0.3920499308635309
 40
0.4456397236618824
 40
0.4981258208030359
 40
0.5501171829324787
 40
0.6017578563976993
 40
0.6535532733172754
 40
0.6825015462433209
 40
0.714945410789241
 40
0.7510745214291216
 40
0.7911420565653603
 40
0.8262592278245495
 40
0.8643461447705676
 40
0.9057041565619962
 40
0.95073805961717
 40
1.0
 40
1.0
 40
1.0
 40
1.0
 10
-365.0000000000001
 20
0.0
 30
0.0
 10
-364.4939089488725
 20
-3.175235287351224
 30
0.0
 10
-363.489020560257
 20
-9.479944813972768
 30
0.0
 10
-361.1428680716225
 20
-18.86942587880272
 30
0.0
 10
-358.1379406501798
 20
-28.28832478241992
 30
0.0
 10
-354.3238971966336
 20
-37.78448602333019
 30
0.0
 10
-349.7697994324921
 20
-47.0760978330751
 30
0.0
 10
-344.6125991325104
 20
-55.88357164682208
 30
0.0
 10
-339.0254419378218
 20
-64.02968826578538
 30
0.0
 10
-333.0642058366019
 20
-71.5492587142336
 30
0.0
 10
-326.7431152918805
 20
-78.50334363956615
 30
0.0
 10
-320.0594497405809
 20
-84.94376254369513
 30
0.0
 10
-312.9967398213246
 20
-90.90216050347196
 30
0.0
 10
-306.6614987232409
 20
-95.57310310456529
 30
0.0
 10
-301.05047690837
 20
-99.2814280901703
 30
0.0
 10
-296.0945255492713
 20
-102.2856417506341
 30
0.0
 10
-290.4328238007709
 20
-105.3891107519809
 30
0.0
 10
-284.4842234153919
 20
-108.2851605536537
 30
0.0
 10
-278.298118874474
 20
-110.9393797701944
 30
0.0
 10
-271.9231409392997
 20
-113.3316763698551
 30
0.0
 10
-264.8725458858054
 20
-115.571097479104
 30
0.0
 10
-257.0711396967662
 20
-117.620396024484
 30
0.0
 10
-251.558097957077
 20
-118.6255534912441
 30
0.0
 10
-248.6779801957127
 20
-119.1506668514682
 30
0.0
  0
SPLINE
  5
A3
330
9C
100
AcDbEntity
  8
0
  6
Continuous
 62
     7
370
    25
100
AcDbSpline
210
0.0
220
0.0
230
1.0
 70
     8
 71
     3
 72
    26
 73
    22
 74
     0
 42
0.000000001
 43
0.00000001
 40
0.0
 40
0.0
 40
0.0
 40
0.0
 40
0.0657565257145638
 40
0.1320463572301783
 40
0.1991533589219278
 40
0.2673407535627706
 40
0.3363319988643243
 40
0.4042167036769633
 40
0.4711734962505636
 40
0.5375780987697645
 40
0.5905387252753775
 40
0.6435282105525528
 40
0.6967086960314464
 40
0.7491652145129404
 40
0.7979340879306036
 40
0.8356581010949736
 40
0.8707396562664097
 40
0.9031675946883033
 40
0.9329168786229637
 40
0.963918480708337
 40
1.0
 40
1.0
 40
1.0
 40
1.0
 10
248.6779801957124
 20
-119.1506668514686
 30
0.0
 10
252.5187834787025
 20
-118.425795366703
 30
0.0
 10
260.231540149547
 20
-116.9701734647977
 30
0.0
 10
271.5797085966291
 20
-113.5510280808384
 30
0.0
 10
282.7489147707116
 20
-109.200242614266
 30
0.0
 10
293.6434917701134
 20
-103.8165434189234
 30
0.0
 10
304.0698055493938
 20
-97.48680573726983
 30
0.0
 10
313.8465109734045
 20
-90.31680586760393
 30
0.0
 10
322.8593668187905
 20
-82.44041758972965
 30
0.0
 10
330.5556185477846
 20
-74.46640381374587
 30
0.0
 10
337.0938751162047
 20
-66.57731494934566
 30
0.0
 10
342.6263043230695
 20
-58.903056082784
 30
0.0
 10
347.6146378557599
 20
-50.89982019153747
 30
0.0
 10
351.9354952204578
 20
-42.80087746652462
 30
0.0
 10
355.348453743258
 20
-35.27913574412183
 30
0.0
 10
357.9676250054945
 20
-28.54563174897033
 30
0.0
 10
359.962198743342
 20
-22.61870599429337
 30
0.0
 10
361.5715014653928
 20
-17.06774638180367
 30
0.0
 10
362.8976976553112
 20
-11.69258274687518
 30
0.0
 10
364.0758264883278
 20
-6.059641252301281
 30
0.0
 10
364.6767731252287
 20
-2.119341097184688
 30
0.0
 10
365.0
 20
0.0
 30
0.0
  0
SPLINE
  5
A4
330
9C
100
AcDbEntity
  8
0
  6
Continuous
 62
     7
370
    25
100
AcDbSpline
210
0.0
220
0.0
230
1.0
 70
     8
 71
     3
 72
    31
 73
    27
 74
     0
 42
0.000000001
 43
0.00000001
 40
0.0
 40
0.0
 40
0.0
 40
0.0
 40
0.0681620834427408
 40
0.1323100746529733
 40
0.1923700819921536
 40
0.2483854252014297
 40
0.3005531524356599
 40
0.349307937691203
 40
0.3953434342706473
 40
0.4388021185114238
 40
0.4797564956181247
 40
0.5183241316354429
 40
0.563386703438824
 40
0.6052477116103397
 40
0.6250474994690025
 40
0.643698928785004
 40
0.6623982390813334
 40
0.6827403572442575
 40
0.7060483648490905
 40
0.7332549265921785
 40
0.7649671719767271
 40
0.8015706705456499
 40
0.8432975905704935
 40
0.8902579575940177
 40
0.9424931623632645
 40
1.0
 40
1.0
 40
1.0
 40
1.0
 10
149.5136054807622
 20
-129.9224067043735
 30
0.0
 10
151.6988806201302
 20
-129.7506333286274
 30
0.0
 10
155.9407391758467
 20
-129.417202379624
 30
0.0
 10
162.4436022169535
 20
-128.8768004990742
 30
0.0
 10
168.8683533930734
 20
-128.3230952105741
 30
0.0
 10
175.2823639766091
 20
-127.7487398244984
 30
0.0
 10
181.7269397899697
 20
-127.1491172704958
 30
0.0
 10
188.2679380026426
 20
-126.515306143296
 30
0.0
 10
194.8446123662372
 20
-125.8494249155373
 30
0.0
 10
201.0186612444337
 20
-125.2004449065489
 30
0.0
 10
206.9040346512334
 20
-124.5594258430953
 30
0.0
 10
212.9252361630771
 20
-123.8805938933037
 30
0.0
 10
219.0730877724294
 20
-123.1614162410634
 30
0.0
 10
224.3978687370918
 20
-122.5129492137636
 30
0.0
 10
228.4336780462141
 20
-122.0073916930773
 30
0.0
 10
231.3818449648217
 20
-121.6285451182319
 30
0.0
 10
234.165596208683
 20
-121.2612120939142
 30
0.0
 10
236.7256847102361
 20
-120.9150860654889
 30
0.0
 10
239.0665640649447
 20
-120.5916217703492
 30
0.0
 10
241.2035285432407
 20
-120.2904466048111
 30
0.0
 10
243.1352802352288
 20
-120.0139336912735
 30
0.0
 10
244.8440568880516
 20
-119.7633869967462
 30
0.0
 10
246.302141700981
 20
-119.5371206193912
 30
0.0
 10
247.4675084123465
 20
-119.350511346807
 30
0.0
 10
248.3271225796286
 20
-119.2088629742887
 30
0.0
 10
248.5573413492425
 20
-119.1706770003272
 30
0.0
 10
248.6779801957125
 20
-119.1506668514686
 30
0.0
  0
SPLINE
  5
A5
330
9C
100
AcDbEntity
  8
0
  6
Continuous
 62
     7
370
    25
100
AcDbSpline
210
0.0
220
0.0
230
1.0
 70
     8
 71
     3
 72
     9
 73
     5
 74
     0
 42
0.000000001
 43
0.00000001
 40
0.0
 40
0.0
 40
0.0
 40
0.0
 40
0.5043134040543676
 40
1.0
 40
1.0
 40
1.0
 40
1.0
 10
-54.00737074684562
 20
-134.4079596876013
 30
0.0
 10
-53.92085029908444
 20
-135.3413476676085
 30
0.0
 10
-53.74928942629062
 20
-137.1921570502331
 30
0.0
 10
-53.58261719230364
 20
-139.0694507007734
 30
0.0
 10
-53.49999999999999
 20
-140.0
 30
0.0
  0
SPLINE
  5
A6
330
9C
100
AcDbEntity
  8
0
  6
Continuous
 62
     7
370
    25
100
AcDbSpline
210
0.0
220
0.0
230
1.0
 70
     8
 71
     3
 72
     9
 73
     5
 74
     0
 42
0.000000001
 43
0.00000001
 40
0.0
 40
0.0
 40
0.0
 40
0.0
 40
0.4956865959456381
 40
1.0
 40
1.0
 40
1.0
 40
1.0
 10
53.50000000000002
 20
-140.0
 30
0.0
 10
53.58261719230371
 20
-139.0694507007734
 30
0.0
 10
53.74928942629075
 20
-137.1921570502331
 30
0.0
 10
53.92085029908421
 20
-135.3413476676085
 30
0.0
 10
54.00737074684521
 20
-134.4079596876014
 30
0.0
  0
SPLINE
  5
A7
330
9C
100
AcDbEntity
  8
0
  6
Continuous
 62
     7
370
    25
100
AcDbSpline
210
0.0
220
0.0
230
1.0
 70
    24
 71
     3
 72
    24
 73
    20
 74
     0
 42
0.000000001
 43
0.00000001
 40
0.704
 40
0.704
 40
0.704
 40
0.704
 40
0.7500000000000001
 40
0.8006451082767936
 40
0.8006451082767936
 40
0.8146871704288455
 40
0.8287292325808975
 40
0.8427712947329494
 40
0.8550141729903354
 40
0.8550141729903354
 40
0.8848974811891053
 40
0.8848974811891053
 40
0.8949858270096644
 40
0.8949858270096644
 40
0.9789971654019329
 40
0.9842478740514496
 40
0.9894985827009665
 40
0.9947492913504832
 40
1.0
 40
1.0
 40
1.0
 40
1.0
 10
364.9999999999999
 20
0.0
 30
0.0
 10
365.0
 20
0.0
 30
0.0
 10
365.0
 20
0.0
 30
0.0
 10
364.9999999999999
 20
0.0
 30
0.0
 10
364.9999999999999
 20
0.0
 30
0.0
 10
362.2998761980976
 20
0.0
 30
0.0
 10
350.8098550527882
 20
0.0
 30
0.0
 10
333.0611113867998
 20
0.0
 30
0.0
 10
318.1569436913201
 20
0.0
 30
0.0
 10
292.6078481722155
 20
0.0
 30
0.0
 10
271.6352839968876
 20
0.0
 30
0.0
 10
242.6961156564453
 20
0.0
 30
0.0
 10
235.3922313128906
 20
0.0
 30
0.0
 10
167.264787777513
 20
0.0
 30
0.0
 10
102.6397561362012
 20
0.0
 30
0.0
 10
34.21325204540039
 20
0.0
 30
0.0
 10
22.80883469693366
 20
0.0
 30
0.0
 10
11.40441734846683
 20
0.0
 30
0.0
 10
3.801472449488974
 20
0.0
 30
0.0
 10
0.0000000000000054
 20
0.0
 30
0.0
  0
SPLINE
  5
A9
330
9C
100
AcDbEntity
  8
0
  6
Continuous
 62
     7
370
    25
100
AcDbSpline
210
0.0
220
0.0
230
1.0
 70
     8
 71
     3
 72
    18
 73
    14
 74
     0
 42
0.000000001
 43
0.00000001
 40
0.0
 40
0.0
 40
0.0
 40
0.0
 40
0.4071970927361242
 40
0.5878613540461312
 40
0.6349575917281339
 40
0.6796088597043405
 40
0.7229924902815444
 40
0.7650436473330425
 40
0.8079366838072746
 40
0.852936302781493
 40
0.8988811095330078
 40
0.9452558857786455
 40
1.0
 40
1.0
 40
1.0
 40
1.0
 10
0.0000000000000037
 20
-133.9263082475211
 30
0.0
 10
-9.643877032288676
 20
-133.9529015373091
 30
0.0
 10
-23.56652705014983
 20
-133.9912936762075
 30
0.0
 10
-38.55934419861632
 20
-134.1205316444346
 30
0.0
 10
-45.03289651932396
 20
-134.1759747584177
 30
0.0
 10
-48.17668411729696
 20
-134.2062777543657
 30
0.0
 10
-50.78090663439576
 20
-134.2364202493638
 30
0.0
 10
-52.69396373221422
 20
-134.2662137357289
 30
0.0
 10
-53.81646909449929
 20
-134.295681886396
 30
0.0
 10
-53.85286109552684
 20
-134.3237258174507
 30
0.0
 10
-53.93660686279114
 20
-134.3512242302866
 30
0.0
 10
-54.00209011763821
 20
-134.3804891772628
 30
0.0
 10
-53.97331737520967
 20
-134.3965935636402
 30
0.0
 10
-53.95774028283163
 20
-134.4053122151525
 30
0.0
  0
SPLINE
  5
AA
330
9C
100
AcDbEntity
  8
0
  6
Continuous
 62
     7
370
    25
100
AcDbSpline
210
0.0
220
0.0
230
1.0
 70
     8
 71
     3
 72
    18
 73
    14
 74
     0
 42
0.000000001
 43
0.00000001
 40
0.0
 40
0.0
 40
0.0
 40
0.0
 40
0.1680227666601162
 40
0.2131099063454415
 40
0.2560166182117326
 40
0.2980220440836938
 40
0.3389592736928089
 40
0.3810205617766008
 40
0.4253479669625484
 40
0.4701347511291851
 40
0.5148279451467284
 40
0.6896483723448059
 40
1.0
 40
1.0
 40
1.0
 40
1.0
 10
53.99239581540945
 20
-134.422954750104
 30
0.0
 10
53.94190824068351
 20
-134.3919150315311
 30
0.0
 10
53.87787285705469
 20
-134.352546131414
 30
0.0
 10
53.85157978962716
 20
-134.2973780112703
 30
0.0
 10
52.74951993715963
 20
-134.2670946416826
 30
0.0
 10
50.82230856284251
 20
-134.2369788320688
 30
0.0
 10
48.2559163660593
 20
-134.2071582450457
 30
0.0
 10
45.22065864604683
 20
-134.1777018494275
 30
0.0
 10
42.00340997100074
 20
-134.1499722963227
 30
0.0
 10
38.74874564674013
 20
-134.1222181415768
 30
0.0
 10
32.30574167801473
 20
-134.0694007697988
 30
0.0
 10
19.39469559087429
 20
-133.9689981499462
 30
0.0
 10
7.566305663616495
 20
-133.9429625357508
 30
0.0
 10
0.0000000000000037
 20
-133.9263082475211
 30
0.0
  0
SPLINE
  5
AB
330
9C
100
AcDbEntity
  8
0
  6
Continuous
 62
     7
370
    25
100
AcDbSpline
210
0.0
220
0.0
230
1.0
 70
    24
 71
     3
 72
    29
 73
    25
 74
     0
 42
0.000000001
 43
0.00000001
 40
0.0
 40
0.0
 40
0.0
 40
0.0
 40
0.0052507086495168
 40
0.0105014172990336
 40
0.0157521259485502
 40
0.0210028345980671
 40
0.1050141729903355
 40
0.1050141729903355
 40
0.1151025188108948
 40
0.1151025188108948
 40
0.1449858270096646
 40
0.1449858270096646
 40
0.1572287052670508
 40
0.1712707674191028
 40
0.1853128295711548
 40
0.1993548917232068
 40
0.1993548917232068
 40
0.2500000000000004
 40
0.3006451082767941
 40
0.3006451082767941
 40
0.3146871704288462
 40
0.3287292325808981
 40
0.3427712947329502
 40
0.3441725190932587
 40
0.3441725190932587
 40
0.3441725190932587
 40
0.3441725190932587
 10
0.0000000000000005
 20
-140.0
 30
0.0
 10
-0.7250000000000052
 20
-140.0
 30
0.0
 10
-2.175000000000016
 20
-140.0
 30
0.0
 10
-4.350000000000004
 20
-140.0
 30
0.0
 10
-6.524999999999991
 20
-140.0
 30
0.0
 10
-19.57499999999997
 20
-140.0
 30
0.0
 10
-31.89999999999998
 20
-140.0
 30
0.0
 10
-44.89296449453126
 20
-140.0
 30
0.0
 10
-46.21978983743155
 20
-140.0
 30
0.0
 10
-50.99554343159813
 20
-140.0
 30
0.0
 10
-53.49999999999998
 20
-140.0
 30
0.0
 10
-53.5
 20
-140.0
 30
0.0
 10
-53.49999999999994
 20
-140.0
 30
0.0
 10
-53.49999999999999
 20
-140.0
 30
0.0
 10
-53.49999999999998
 20
-140.0
 30
0.0
 10
-53.49999999999999
 20
-140.0
 30
0.0
 10
-53.49999999999998
 20
-140.0
 30
0.0
 10
-53.49999999999996
 20
-140.0
 30
0.0
 10
-53.49999999999998
 20
-140.0
 30
0.0
 10
-53.49999999999998
 20
-140.0
 30
0.0
 10
-53.49999999999998
 20
-140.0
 30
0.0
 10
-53.49999999999998
 20
-140.0
 30
0.0
 10
-53.49999999999999
 20
-140.0
 30
0.0
 10
-53.49999999999998
 20
-140.0
 30
0.0
 10
-53.49999999999998
 20
-140.0
 30
0.0
  0
LINE
  5
AD
330
9C
100
AcDbEntity
  8
0
  6
Continuous
 62
     7
370
    25
100
AcDbLine
 10
0.0
 20
0.0
 30
0.0
 11
-365.0
 21
0.0
 31
0.0
  0
LINE
  5
AE
330
9C
100
AcDbEntity
  8
0
  6
Continuous
 62
     7
370
    25
100
AcDbLine
 10
0.0
 20
-140.0
 30
0.0
 11
53.5
 21
-140.0
 31
0.0
  0
VIEWPORT
  5
F9
330
9C
100
AcDbEntity
  8
0
100
AcDbViewport
 10
0.0
 20
0.0
 30
0.0
 40
205.6
 41
156.0
 68
     1
 69
     1
 12
0.0
 22
-13.9752192724
 13
0.0
 23
0.0
 14
10.0
 24
10.0
 15
10.0
 25
10.0
 16
0.0
 26
0.0
 36
1.0
 17
0.0
 27
0.0
 37
0.0
 42
50.0
 43
0.0
 44
0.0
 45
592.7867926039
 50
0.0
 51
0.0
 72
   100
 90
   557152
  1

281
     0
 71
     1
 74
     0
110
0.0
120
0.0
130
0.0
111
1.0
121
0.0
131
0.0
112
0.0
122
1.0
132
0.0
 79
     0
146
0.0
170
     0
 61
     5
348
2F
292
     1
282
     1
141
0.0
142
0.0
 63
   256
361
FA
  0
ENDBLK
  5
9F
330
9C
100
AcDbEntity
  8
0
100
AcDbBlockEnd
  0
BLOCK
  5
B1
330
AF
100
AcDbEntity
  8
0
100
AcDbBlockBegin
  2
*Paper_Space3
 70
     0
 10
0.0
 20
0.0
 30
0.0
  3
*Paper_Space3
  1

  0
SPLINE
  5
B3
330
AF
100
AcDbEntity
  8
0
  6
Continuous
 62
     7
370
    25
100
AcDbSpline
210
0.0
220
0.0
230
1.0
 70
     8
 71
     3
 72
    12
 73
     8
 74
     0
 42
0.000000001
 43
0.00000001
 40
0.0
 40
0.0
 40
0.0
 40
0.0
 40
0.1504560043334776
 40
0.3134810585577426
 40
0.4824249598631924
 40
0.7418745990743669
 40
1.0
 40
1.0
 40
1.0
 40
1.0
 10
53.99562677403951
 20
-134.5355704364553
 30
0.0
 10
58.79119399182142
 20
-134.4323019317106
 30
0.0
 10
68.78294868765298
 20
-134.2171379020233
 30
0.0
 10
84.15492258894996
 20
-133.7064627220346
 30
0.0
 10
102.9929701510999
 20
-132.9080824391701
 30
0.0
 10
124.8492150494662
 20
-131.7273684396631
 30
0.0
 10
141.3061772885206
 20
-130.5230335016749
 30
0.0
 10
149.5136054806744
 20
-129.9224067043804
 30
0.0
  0
SPLINE
  5
B4
330
AF
100
AcDbEntity
  8
0
  6
Continuous
 62
     7
370
    25
100
AcDbSpline
210
0.0
220
0.0
230
1.0
 70
     8
 71
     3
 72
    25
 73
    21
 74
     0
 42
0.000000001
 43
0.00000001
 40
0.0
 40
0.0
 40
0.0
 40
0.0
 40
0.0583638391399363
 40
0.1118458730482117
 40
0.1612129074940054
 40
0.2070094923057446
 40
0.2496953222561097
 40
0.2906732617378637
 40
0.3500774220341339
 40
0.4073753265214143
 40
0.4629036783519019
 40
0.5179906640369235
 40
0.5735359494499581
 40
0.629716487927242
 40
0.6867867382820659
 40
0.7452723117510435
 40
0.8054505365313182
 40
0.8676116699164022
 40
0.9322852308003405
 40
1.0
 40
1.0
 40
1.0
 40
1.0
 10
248.6779801957127
 20
-119.1506668514682
 30
0.0
 10
252.0884425704099
 20
-118.5171253366477
 30
0.0
 10
258.62410142043
 20
-117.3030344735109
 30
0.0
 10
267.8540044541284
 20
-114.7045224403956
 30
0.0
 10
276.1984822761152
 20
-111.8022811455699
 30
0.0
 10
283.7571026375941
 20
-108.637849197045
 30
0.0
 10
290.6778159475098
 20
-105.2749676462246
 30
0.0
 10
298.1172355664564
 20
-101.1577273252363
 30
0.0
 10
306.0153000788385
 20
-96.10369191475054
 30
0.0
 10
314.2082065354383
 20
-89.96008193228705
 30
0.0
 10
321.7473886599415
 20
-83.41555439863794
 30
0.0
 10
328.7329708922621
 20
-76.42999048280505
 30
0.0
 10
335.2383073248968
 20
-68.94347490387428
 30
0.0
 10
341.2658711322815
 20
-60.91901681700107
 30
0.0
 10
346.7979467108916
 20
-52.33605444308861
 30
0.0
 10
351.7970195363226
 20
-43.16041583386536
 30
0.0
 10
356.2217433099457
 20
-33.35920807913574
 30
0.0
 10
359.9780525383819
 20
-22.89446284614513
 30
0.0
 10
363.0697738516989
 20
-11.73724813339318
 30
0.0
 10
364.3468126250742
 20
-3.971877753211561
 30
0.0
 10
365.0000000000001
 20
0.0
 30
0.0
  0
SPLINE
  5
B5
330
AF
100
AcDbEntity
  8
0
  6
Continuous
 62
     7
370
    25
100
AcDbSpline
210
0.0
220
0.0
230
1.0
 70
     8
 71
     3
 72
    31
 73
    27
 74
     0
 42
0.000000001
 43
0.00000001
 40
0.0
 40
0.0
 40
0.0
 40
0.0
 40
0.0681620834428203
 40
0.1323100746531242
 40
0.1923700819923632
 40
0.2483854252016809
 40
0.3005531524359332
 40
0.3493079376914767
 40
0.3953434342709054
 40
0.4388021185116664
 40
0.4797564956183526
 40
0.518324131635657
 40
0.5633867034390236
 40
0.6052477116105257
 40
0.6250474994691833
 40
0.6436989287851783
 40
0.6623982390815006
 40
0.6827403572444161
 40
0.7060483648492372
 40
0.7332549265923116
 40
0.7649671719768455
 40
0.8015706705457502
 40
0.8432975905705719
 40
0.8902579575940711
 40
0.9424931623632932
 40
1.0
 40
1.0
 40
1.0
 40
1.0
 10
149.5136054806744
 20
-129.9224067043805
 30
0.0
 10
151.6988806200516
 20
-129.7506333286338
 30
0.0
 10
155.940739175786
 20
-129.4172023796293
 30
0.0
 10
162.443602216914
 20
-128.8768004990777
 30
0.0
 10
168.8683533930508
 20
-128.3230952105761
 30
0.0
 10
175.2823639765983
 20
-127.7487398244994
 30
0.0
 10
181.7269397899662
 20
-127.149117270496
 30
0.0
 10
188.2679380026427
 20
-126.5153061432958
 30
0.0
 10
194.8446123662386
 20
-125.8494249155372
 30
0.0
 10
201.0186612444353
 20
-125.2004449065488
 30
0.0
 10
206.9040346512351
 20
-124.5594258430952
 30
0.0
 10
212.9252361630792
 20
-123.8805938933036
 30
0.0
 10
219.0730877724316
 20
-123.1614162410631
 30
0.0
 10
224.3978687370941
 20
-122.5129492137634
 30
0.0
 10
228.4336780462162
 20
-122.007391693077
 30
0.0
 10
231.3818449648238
 20
-121.6285451182317
 30
0.0
 10
234.165596208685
 20
-121.2612120939139
 30
0.0
 10
236.7256847102381
 20
-120.9150860654887
 30
0.0
 10
239.0665640649463
 20
-120.5916217703488
 30
0.0
 10
241.2035285432424
 20
-120.2904466048108
 30
0.0
 10
243.1352802352303
 20
-120.0139336912731
 30
0.0
 10
244.8440568880528
 20
-119.7633869967457
 30
0.0
 10
246.302141700982
 20
-119.5371206193906
 30
0.0
 10
247.4675084123477
 20
-119.3505113468066
 30
0.0
 10
248.3271225796295
 20
-119.2088629742881
 30
0.0
 10
248.5573413492436
 20
-119.1706770003267
 30
0.0
 10
248.6779801957137
 20
-119.150666851468
 30
0.0
  0
SPLINE
  5
B6
330
AF
100
AcDbEntity
  8
0
  6
Continuous
 62
     7
370
    25
100
AcDbSpline
210
0.0
220
0.0
230
1.0
 70
     8
 71
     3
 72
    26
 73
    22
 74
     0
 42
0.000000001
 43
0.00000001
 40
0.0
 40
0.0
 40
0.0
 40
0.0
 40
0.036081519291663
 40
0.0670831213770363
 40
0.0968324053116967
 40
0.12926034373359
 40
0.1643418989050261
 40
0.2020659120693963
 40
0.2508347854870595
 40
0.3032913039685542
 40
0.3564717894474466
 40
0.4094612747246223
 40
0.4624219012302355
 40
0.5288265037494363
 40
0.595783296323037
 40
0.6636680011356756
 40
0.7326592464372296
 40
0.8008466410780721
 40
0.8679536427698217
 40
0.9342434742854362
 40
1.0
 40
1.0
 40
1.0
 40
1.0
 10
-365.0
 20
0.0
 30
0.0
 10
-364.6767731252287
 20
-2.119341097184688
 30
0.0
 10
-364.0758264883277
 20
-6.059641252301295
 30
0.0
 10
-362.8976976553113
 20
-11.69258274687517
 30
0.0
 10
-361.5715014653927
 20
-17.06774638180364
 30
0.0
 10
-359.9621987433422
 20
-22.61870599429341
 30
0.0
 10
-357.9676250054945
 20
-28.54563174897035
 30
0.0
 10
-355.3484537432581
 20
-35.27913574412185
 30
0.0
 10
-351.9354952204579
 20
-42.80087746652472
 30
0.0
 10
-347.6146378557598
 20
-50.89982019153737
 30
0.0
 10
-342.6263043230699
 20
-58.90305608278415
 30
0.0
 10
-337.0938751162046
 20
-66.5773149493456
 30
0.0
 10
-330.5556185477848
 20
-74.4664038137459
 30
0.0
 10
-322.8593668187906
 20
-82.44041758972966
 30
0.0
 10
-313.8465109734045
 20
-90.31680586760396
 30
0.0
 10
-304.069805549394
 20
-97.48680573726993
 30
0.0
 10
-293.6434917701133
 20
-103.8165434189233
 30
0.0
 10
-282.7489147707115
 20
-109.2002426142661
 30
0.0
 10
-271.5797085966291
 20
-113.5510280808384
 30
0.0
 10
-260.2315401495471
 20
-116.9701734647978
 30
0.0
 10
-252.5187834787025
 20
-118.425795366703
 30
0.0
 10
-248.6779801957124
 20
-119.1506668514686
 30
0.0
  0
SPLINE
  5
B7
330
AF
100
AcDbEntity
  8
0
  6
Continuous
 62
     7
370
    25
100
AcDbSpline
210
0.0
220
0.0
230
1.0
 70
     8
 71
     3
 72
    36
 73
    32
 74
     0
 42
0.000000001
 43
0.00000001
 40
0.0
 40
0.0
 40
0.0
 40
0.0
 40
0.035481680496241
 40
0.0677107670265391
 40
0.0966852821831573
 40
0.1224307640294375
 40
0.1450150982519359
 40
0.164581532519466
 40
0.1813679629830423
 40
0.1957489881415194
 40
0.208300061490966
 40
0.2198375234815785
 40
0.2313454429392405
 40
0.2435618988523982
 40
0.2693901129958097
 40
0.2971936897663898
 40
0.3209898954855405
 40
0.3462587188661892
 40
0.3730726980795573
 40
0.4014765687885593
 40
0.4315582387984571
 40
0.4637456917346652
 40
0.4983071211632426
 40
0.5353641056644104
 40
0.5749433734895806
 40
0.6169993335470106
 40
0.715861534129708
 40
0.8152309188586694
 40
0.8799365456518843
 40
0.9423752500683706
 40
1.0
 40
1.0
 40
1.0
 40
1.0
 10
-248.6779801957138
 20
-119.1506668514684
 30
0.0
 10
-248.5573413492436
 20
-119.1706770003271
 30
0.0
 10
-248.3271225796295
 20
-119.2088629742885
 30
0.0
 10
-247.4675084123474
 20
-119.3505113468068
 30
0.0
 10
-246.302141700981
 20
-119.537120619391
 30
0.0
 10
-244.8440568880529
 20
-119.7633869967462
 30
0.0
 10
-243.1352802352257
 20
-120.0139336912737
 30
0.0
 10
-241.2035285432498
 20
-120.2904466048105
 30
0.0
 10
-239.0665640649168
 20
-120.5916217703509
 30
0.0
 10
-236.7256847103183
 20
-120.9150860654837
 30
0.0
 10
-234.1655962084253
 20
-121.2612120939308
 30
0.0
 10
-231.3818449656993
 20
-121.6285451181757
 30
0.0
 10
-228.4336780428511
 20
-122.0073916932928
 30
0.0
 10
-224.3978687568651
 20
-122.512949212496
 30
0.0
 10
-219.0730875977169
 20
-123.1614162522634
 30
0.0
 10
-212.9252368109289
 20
-123.8805938517723
 30
0.0
 10
-206.9040325731958
 20
-124.5594259763102
 30
0.0
 10
-201.0186697948109
 20
-125.2004443584167
 30
0.0
 10
-194.8445774763693
 20
-125.8494271521937
 30
0.0
 10
-188.2680800150021
 20
-126.5152970394246
 30
0.0
 10
-181.7263592562926
 20
-127.1491544862978
 30
0.0
 10
-175.2847682165822
 20
-127.7485856978364
 30
0.0
 10
-168.8583673991764
 20
-128.3237353745896
 30
0.0
 10
-162.484935414769
 20
-128.8741507852752
 30
0.0
 10
-155.7707725117524
 20
-129.4280982947573
 30
0.0
 10
-147.6278586067582
 20
-130.0860908887019
 30
0.0
 10
-123.8268843529789
 20
-131.792906164746
 30
0.0
 10
-103.1635524207321
 20
-132.897147059914
 30
0.0
 10
-84.11920229713733
 20
-133.7087526138209
 30
0.0
 10
-68.79095797968237
 20
-134.216624456833
 30
0.0
 10
-58.79379142619891
 20
-134.432135420091
 30
0.0
 10
-53.9956267740391
 20
-134.5355704364555
 30
0.0
  0
SPLINE
  5
B8
330
AF
100
AcDbEntity
  8
0
  6
Continuous
 62
     7
370
    25
100
AcDbSpline
210
0.0
220
0.0
230
1.0
 70
     8
 71
     3
 72
     9
 73
     5
 74
     0
 42
0.000000001
 43
0.00000001
 40
0.0
 40
0.0
 40
0.0
 40
0.0
 40
0.5043134040543967
 40
1.0
 40
1.0
 40
1.0
 40
1.0
 10
-54.00737074684522
 20
-134.4079596876014
 30
0.0
 10
-53.92085029908414
 20
-135.3413476676085
 30
0.0
 10
-53.74928942629057
 20
-137.192157050233
 30
0.0
 10
-53.58261719230366
 20
-139.0694507007734
 30
0.0
 10
-53.50000000000003
 20
-140.0
 30
0.0
  0
SPLINE
  5
B9
330
AF
100
AcDbEntity
  8
0
  6
Continuous
 62
     7
370
    25
100
AcDbSpline
210
0.0
220
0.0
230
1.0
 70
     8
 71
     3
 72
     9
 73
     5
 74
     0
 42
0.000000001
 43
0.00000001
 40
0.0
 40
0.0
 40
0.0
 40
0.0
 40
0.4956865959456362
 40
1.0
 40
1.0
 40
1.0
 40
1.0
 10
53.49999999999998
 20
-140.0
 30
0.0
 10
53.58261719230364
 20
-139.0694507007734
 30
0.0
 10
53.74928942629062
 20
-137.1921570502331
 30
0.0
 10
53.92085029908445
 20
-135.3413476676085
 30
0.0
 10
54.00737074684564
 20
-134.4079596876012
 30
0.0
  0
SPLINE
  5
BA
330
AF
100
AcDbEntity
  8
0
  6
Continuous
 62
     7
370
    25
100
AcDbSpline
210
0.0
220
0.0
230
1.0
 70
    24
 71
     3
 72
    34
 73
    30
 74
     0
 42
0.000000001
 43
0.00000001
 40
0.2040000000000001
 40
0.2040000000000001
 40
0.2040000000000001
 40
0.2040000000000001
 40
0.2500000000000004
 40
0.3006451082767941
 40
0.3006451082767941
 40
0.3146871704288462
 40
0.3287292325808981
 40
0.3427712947329502
 40
0.3550141729903354
 40
0.3550141729903354
 40
0.3848974811891062
 40
0.3848974811891062
 40
0.3949858270096647
 40
0.3949858270096647
 40
0.4166666666666666
 40
0.5
 40
0.6050141729903356
 40
0.6050141729903356
 40
0.6151025188108948
 40
0.6151025188108948
 40
0.6449858270096647
 40
0.6449858270096647
 40
0.6572287052670507
 40
0.6712707674191027
 40
0.6853128295711547
 40
0.6993548917232066
 40
0.6993548917232066
 40
0.7500000000000001
 40
0.7975
 40
0.7975
 40
0.7975
 40
0.7975
 10
365.0000000000001
 20
0.0
 30
0.0
 10
364.9999999999999
 20
0.0
 30
0.0
 10
365.0000000000001
 20
0.0
 30
0.0
 10
365.0
 20
0.0
 30
0.0
 10
365.0000000000001
 20
0.0
 30
0.0
 10
362.2998761980978
 20
0.0
 30
0.0
 10
350.8098550527884
 20
0.0
 30
0.0
 10
333.0611113868003
 20
0.0
 30
0.0
 10
318.1569436913213
 20
0.0
 30
0.0
 10
292.6078481722166
 20
0.0
 30
0.0
 10
271.6352839968884
 20
0.0
 30
0.0
 10
242.696115656446
 20
0.0
 30
0.0
 10
235.3922313128919
 20
0.0
 30
0.0
 10
212.391586752892
 20
0.0
 30
0.0
 10
136.3621377631135
 20
0.0
 30
0.0
 10
-15.69676021644429
 20
0.0
 30
0.0
 10
-152.058897979556
 20
0.0
 30
0.0
 10
-235.3922313128904
 20
0.0
 30
0.0
 10
-242.6961156564451
 20
0.0
 30
0.0
 10
-271.6352839968876
 20
0.0
 30
0.0
 10
-292.6078481722158
 20
0.0
 30
0.0
 10
-318.1569436913201
 20
0.0
 30
0.0
 10
-333.0611113867999
 20
0.0
 30
0.0
 10
-350.8098550527882
 20
0.0
 30
0.0
 10
-362.2998761980976
 20
0.0
 30
0.0
 10
-364.9999999999999
 20
0.0
 30
0.0
 10
-365.0
 20
0.0
 30
0.0
 10
-365.0000000000001
 20
0.0
 30
0.0
 10
-364.9999999999999
 20
0.0
 30
0.0
 10
-364.9999999999999
 20
0.0
 30
0.0
  0
SPLINE
  5
BB
330
AF
100
AcDbEntity
  8
0
  6
Continuous
 62
     7
370
    25
100
AcDbSpline
210
0.0
220
0.0
230
1.0
 70
     8
 71
     3
 72
    29
 73
    25
 74
     0
 42
0.000000001
 43
0.00000001
 40
0.0
 40
0.0
 40
0.0
 40
0.0
 40
0.0852514667807294
 40
0.1081277999558455
 40
0.1298978266852512
 40
0.1512105585222276
 40
0.1719813084598012
 40
0.1933223836908946
 40
0.2158132424346385
 40
0.2385371810918396
 40
0.2612136339371778
 40
0.3499141007734236
 40
0.5073804489434454
 40
0.707973697958649
 40
0.7969724452571487
 40
0.8201729727205097
 40
0.8421690603050541
 40
0.8635406849231996
 40
0.8842559070313171
 40
0.9053858554027057
 40
0.9275535474995014
 40
0.9501868575748129
 40
0.9730319790292868
 40
1.0
 40
1.0
 40
1.0
 40
1.0
 10
53.99239581540989
 20
-134.4229547501039
 30
0.0
 10
53.94190824114478
 20
-134.3919150273821
 30
0.0
 10
53.87787285810046
 20
-134.3525461220028
 30
0.0
 10
53.85157978870316
 20
-134.2973780195913
 30
0.0
 10
52.74951994053116
 20
-134.2670946113332
 30
0.0
 10
50.82230855063097
 20
-134.2369789420033
 30
0.0
 10
48.25591641090486
 20
-134.207157841335
 30
0.0
 10
45.22065846945296
 20
-134.1777034391817
 30
0.0
 10
42.00341067217985
 20
-134.1499659841001
 30
0.0
 10
38.74874300684571
 20
-134.1222419067053
 30
0.0
 10
32.30576359136847
 20
-134.0692034991831
 30
0.0
 10
19.39419464167674
 20
-133.9735078456859
 30
0.0
 10
-2.068497534001984
 20
-133.8878704296156
 30
0.0
 10
-23.56715550049152
 20
-133.9969511756939
 30
0.0
 10
-38.55931999855081
 20
-134.1203137881491
 30
0.0
 10
-45.03289929336694
 20
-134.1759997311907
 30
0.0
 10
-48.17668341307409
 20
-134.2062714147409
 30
0.0
 10
-50.78090681427742
 20
-134.2364218687153
 30
0.0
 10
-52.69396368366827
 20
-134.2662132987062
 30
0.0
 10
-53.81646910832372
 20
-134.2956820108508
 30
0.0
 10
-53.85286109166306
 20
-134.3237257826711
 30
0.0
 10
-53.93660686383522
 20
-134.3512242396887
 30
0.0
 10
-54.00209011731994
 20
-134.3804891744008
 30
0.0
 10
-53.97331737509764
 20
-134.396593562635
 30
0.0
 10
-53.95774028283125
 20
-134.4053122151527
 30
0.0
  0
SPLINE
  5
BC
330
AF
100
AcDbEntity
  8
0
  6
Continuous
 62
     7
370
    25
100
AcDbSpline
210
0.0
220
0.0
230
1.0
 70
    24
 71
     3
 72
    41
 73
    37
 74
     0
 42
0.000000001
 43
0.00000001
 40
0.187077480906741
 40
0.187077480906741
 40
0.187077480906741
 40
0.187077480906741
 40
0.1993548917232068
 40
0.1993548917232068
 40
0.2500000000000004
 40
0.3006451082767941
 40
0.3006451082767941
 40
0.3146871704288462
 40
0.3287292325808981
 40
0.3427712947329502
 40
0.3550141729903354
 40
0.3550141729903354
 40
0.3848974811891062
 40
0.3848974811891062
 40
0.3949858270096647
 40
0.3949858270096647
 40
0.4166666666666666
 40
0.5
 40
0.6050141729903356
 40
0.6050141729903356
 40
0.6151025188108948
 40
0.6151025188108948
 40
0.6449858270096647
 40
0.6449858270096647
 40
0.6572287052670507
 40
0.6712707674191027
 40
0.6853128295711547
 40
0.6993548917232066
 40
0.6993548917232066
 40
0.7500000000000001
 40
0.8006451082767936
 40
0.8006451082767936
 40
0.8146871704288455
 40
0.8287292325808975
 40
0.8427712947329494
 40
0.8441725190932589
 40
0.8441725190932589
 40
0.8441725190932589
 40
0.8441725190932589
 10
53.49999999999997
 20
-140.0
 30
0.0
 10
53.49999999999998
 20
-140.0
 30
0.0
 10
53.49999999999999
 20
-140.0
 30
0.0
 10
53.49999999999998
 20
-140.0
 30
0.0
 10
53.49999999999996
 20
-140.0
 30
0.0
 10
53.49999999999998
 20
-140.0
 30
0.0
 10
53.49999999999998
 20
-140.0
 30
0.0
 10
53.49999999999998
 20
-140.0
 30
0.0
 10
53.49999999999998
 20
-140.0
 30
0.0
 10
53.49999999999999
 20
-140.0
 30
0.0
 10
53.49999999999997
 20
-140.0
 30
0.0
 10
53.50000000000004
 20
-140.0
 30
0.0
 10
50.99554343159796
 20
-140.0
 30
0.0
 10
46.21978983743133
 20
-140.0
 30
0.0
 10
44.89296449453114
 20
-140.0000000000001
 30
0.0
 10
40.50638336641025
 20
-140.0
 30
0.0
 10
26.00638336641033
 20
-140.0
 30
0.0
 10
-2.993616633589639
 20
-140.0
 30
0.0
 10
-28.99999999999993
 20
-140.0
 30
0.0
 10
-44.89296449453137
 20
-140.0
 30
0.0
 10
-46.21978983743162
 20
-140.0
 30
0.0
 10
-50.99554343159819
 20
-140.0
 30
0.0
 10
-53.50000000000002
 20
-140.0
 30
0.0
 10
-53.50000000000002
 20
-140.0
 30
0.0
 10
-53.50000000000004
 20
-140.0
 30
0.0
 10
-53.50000000000001
 20
-140.0
 30
0.0
 10
-53.50000000000001
 20
-140.0
 30
0.0
 10
-53.50000000000002
 20
-140.0
 30
0.0
 10
-53.50000000000002
 20
-140.0
 30
0.0
 10
-53.50000000000001
 20
-140.0
 30
0.0
 10
-53.50000000000002
 20
-140.0
 30
0.0
 10
-53.50000000000002
 20
-140.0
 30
0.0
 10
-53.50000000000002
 20
-140.0
 30
0.0
 10
-53.50000000000001
 20
-140.0
 30
0.0
 10
-53.50000000000001
 20
-140.0
 30
0.0
 10
-53.50000000000001
 20
-140.0
 30
0.0
 10
-53.50000000000001
 20
-140.0
 30
0.0
  0
VIEWPORT
  5
FB
330
AF
100
AcDbEntity
  8
0
100
AcDbViewport
 10
0.0
 20
0.0
 30
0.0
 40
205.6
 41
156.0
 68
     1
 69
     1
 12
0.0
 22
-13.9752192724
 13
0.0
 23
0.0
 14
10.0
 24
10.0
 15
10.0
 25
10.0
 16
0.0
 26
0.0
 36
1.0
 17
0.0
 27
0.0
 37
0.0
 42
50.0
 43
0.0
 44
0.0
 45
592.7867926039
 50
0.0
 51
0.0
 72
   100
 90
   557152
  1

281
     0
 71
     1
 74
     0
110
0.0
120
0.0
130
0.0
111
1.0
121
0.0
131
0.0
112
0.0
122
1.0
132
0.0
 79
     0
146
0.0
170
     0
 61
     5
348
2F
292
     1
282
     1
141
0.0
142
0.0
 63
   256
361
FC
  0
ENDBLK
  5
B2
330
AF
100
AcDbEntity
  8
0
100
AcDbBlockEnd
  0
BLOCK
  5
BF
330
BD
100
AcDbEntity
  8
0
100
AcDbBlockBegin
  2
*Paper_Space4
 70
     0
 10
0.0
 20
0.0
 30
0.0
  3
*Paper_Space4
  1

  0
SPLINE
  5
C1
330
BD
100
AcDbEntity
  8
0
  6
Continuous
 62
     7
370
    25
100
AcDbSpline
210
0.0
220
0.0
230
1.0
 70
     8
 71
     3
 72
    15
 73
    11
 74
     0
 42
0.000000001
 43
0.00000001
 40
0.0
 40
0.0
 40
0.0
 40
0.0
 40
0.0651262345522276
 40
0.1403146673882284
 40
0.2303643444260599
 40
0.3388651502909573
 40
0.4684522506688257
 40
0.6210308509418332
 40
0.7979315556992431
 40
1.0
 40
1.0
 40
1.0
 40
1.0
 10
54.04501598435596
 20
-134.1030824523468
 30
0.0
 10
54.88604179419804
 20
-134.0317900870236
 30
0.0
 10
56.69803442027668
 20
-133.8781904724224
 30
0.0
 10
59.09545253392463
 20
-133.648697353672
 30
0.0
 10
61.42926159688124
 20
-133.4162747348024
 30
0.0
 10
63.69753927728524
 20
-133.1832749575941
 30
0.0
 10
65.93304072376691
 20
-132.9518380078172
 30
0.0
 10
68.14407109981656
 20
-132.7224146035135
 30
0.0
 10
70.36202406198753
 20
-132.4921526561263
 30
0.0
 10
71.71694454924152
 20
-132.3473925551072
 30
0.0
 10
72.43939563976186
 20
-132.2702056693608
 30
0.0
  0
SPLINE
  5
C2
330
BD
100
AcDbEntity
  8
0
  6
Continuous
 62
     7
370
    25
100
AcDbSpline
210
0.0
220
0.0
230
1.0
 70
     8
 71
     3
 72
    34
 73
    30
 74
     0
 42
0.000000001
 43
0.00000001
 40
0.0
 40
0.0
 40
0.0
 40
0.0
 40
0.0459073681410413
 40
0.0921041494869213
 40
0.1412183587852189
 40
0.1933569842627695
 40
0.2471177799775216
 40
0.2997129271318838
 40
0.3507535884399907
 40
0.3999978985825154
 40
0.4469048793911106
 40
0.4911623153625977
 40
0.5174692449509114
 40
0.5427268596589186
 40
0.5684807715913012
 40
0.5981209925617307
 40
0.6315238082254108
 40
0.6683736519965982
 40
0.7083371610724539
 40
0.7510285865015865
 40
0.7844562581393378
 40
0.8185715941798618
 40
0.8488879722618792
 40
0.8749609644567988
 40
0.8980207794884806
 40
0.9188992411386055
 40
0.9486074237924775
 40
0.9754277260616334
 40
1.0
 40
1.0
 40
1.0
 40
1.0
 10
-225.0
 20
0.0
 30
0.0
 10
-224.6965763319172
 20
-3.392415605975807
 30
0.0
 10
-224.0878161259933
 20
-10.19863357810184
 30
0.0
 10
-222.1786058546929
 20
-20.51055235793574
 30
0.0
 10
-219.4149657932119
 20
-31.09958283751617
 30
0.0
 10
-215.5982236295793
 20
-41.95848551341864
 30
0.0
 10
-210.7603833565867
 20
-52.68636166754393
 30
0.0
 10
-205.0626061335241
 20
-62.88961944488928
 30
0.0
 10
-198.717267027151
 20
-72.30048836660072
 30
0.0
 10
-191.8958293901609
 20
-80.83674136291042
 30
0.0
 10
-184.7785164931396
 20
-88.45049946976539
 30
0.0
 10
-178.3695249837887
 20
-94.36254257427186
 30
0.0
 10
-172.8805795894683
 20
-98.87843525856272
 30
0.0
 10
-168.303267800242
 20
-102.3344052703354
 30
0.0
 10
-163.3837014262164
 20
-105.7388716233173
 30
0.0
 10
-157.8047604328062
 20
-109.2418913143403
 30
0.0
 10
-151.3359938214379
 20
-112.8592603892459
 30
0.0
 10
-143.9825097723422
 20
-116.4383907408139
 30
0.0
 10
-135.7835620025741
 20
-119.8189193313177
 30
0.0
 10
-127.6163836786307
 20
-122.5608169197672
 30
0.0
 10
-119.7200848111591
 20
-124.6945650700941
 30
0.0
 10
-112.6103887497899
 20
-126.1615248827405
 30
0.0
 10
-106.0158633157021
 20
-127.4088819567747
 30
0.0
 10
-100.2125753496533
 20
-128.4277997666628
 30
0.0
 10
-95.08872592336722
 20
-129.2663051188568
 30
0.0
 10
-89.68955509137126
 20
-130.089707377034
 30
0.0
 10
-84.00462194493008
 20
-130.886727340537
 30
0.0
 10
-78.0381658324813
 20
-131.645723828071
 30
0.0
 10
-74.25042422244486
 20
-132.0682051540668
 30
0.0
 10
-72.43939563976132
 20
-132.2702056693609
 30
0.0
  0
SPLINE
  5
C3
330
BD
100
AcDbEntity
  8
0
  6
Continuous
 62
     7
370
    25
100
AcDbSpline
210
0.0
220
0.0
230
1.0
 70
     8
 71
     3
 72
    15
 73
    11
 74
     0
 42
0.000000001
 43
0.00000001
 40
0.0
 40
0.0
 40
0.0
 40
0.0
 40
0.2020684443007537
 40
0.3789691490581609
 40
0.5315477493311668
 40
0.6611348497090344
 40
0.7696356555739317
 40
0.8596853326117654
 40
0.934873765447769
 40
1.0
 40
1.0
 40
1.0
 40
1.0
 10
-72.43939563976126
 20
-132.2702056693609
 30
0.0
 10
-71.71694454924095
 20
-132.3473925551072
 30
0.0
 10
-70.362024061987
 20
-132.4921526561264
 30
0.0
 10
-68.14407109981609
 20
-132.7224146035135
 30
0.0
 10
-65.93304072376652
 20
-132.9518380078173
 30
0.0
 10
-63.69753927728497
 20
-133.1832749575941
 30
0.0
 10
-61.42926159688112
 20
-133.4162747348025
 30
0.0
 10
-59.09545253392454
 20
-133.6486973536721
 30
0.0
 10
-56.69803442027668
 20
-133.8781904724225
 30
0.0
 10
-54.88604179419809
 20
-134.0317900870236
 30
0.0
 10
-54.04501598435603
 20
-134.1030824523468
 30
0.0
  0
SPLINE
  5
C4
330
BD
100
AcDbEntity
  8
0
  6
Continuous
 62
     7
370
    25
100
AcDbSpline
210
0.0
220
0.0
230
1.0
 70
     8
 71
     3
 72
    31
 73
    27
 74
     0
 42
0.000000001
 43
0.00000001
 40
0.0
 40
0.0
 40
0.0
 40
0.0
 40
0.0218764823649255
 40
0.0468195579223408
 40
0.0753807499792616
 40
0.106279673498956
 40
0.138837681802693
 40
0.174792630191093
 40
0.2174021440454646
 40
0.2683857982386514
 40
0.3190918787744635
 40
0.368151478316061
 40
0.4148105826128731
 40
0.4586268623984649
 40
0.4992234941270818
 40
0.5436529097492755
 40
0.5885605621394268
 40
0.6354767486434174
 40
0.6842411357627349
 40
0.7346082671616541
 40
0.77751546599606
 40
0.8210767597171047
 40
0.8651171848904795
 40
0.9095716882655988
 40
0.9545915601186556
 40
1.0
 40
1.0
 40
1.0
 40
1.0
 10
72.4393956397612
 20
-132.2702056693609
 30
0.0
 10
74.0517706201033
 20
-132.0909351184026
 30
0.0
 10
77.50253946517564
 20
-131.7072642976392
 30
0.0
 10
83.04935069457356
 20
-131.0120529254908
 30
0.0
 10
89.25005798122336
 20
-130.1578857718084
 30
0.0
 10
95.99642839851153
 20
-129.1313803059452
 30
0.0
 10
103.2669685608547
 20
-127.9090573395691
 30
0.0
 10
111.369785374936
 20
-126.4110117080321
 30
0.0
 10
120.7894462149196
 20
-124.5026223775408
 30
0.0
 10
131.083961847118
 20
-121.5286961417427
 30
0.0
 10
141.5502547959679
 20
-117.5680294468073
 30
0.0
 10
151.3725795591386
 20
-112.9115172265675
 30
0.0
 10
160.3603243760791
 20
-107.764524894079
 30
0.0
 10
168.4278687392079
 20
-102.3284030291372
 30
0.0
 10
175.9728159271284
 20
-96.45548811252672
 30
0.0
 10
183.1600612942507
 20
-90.02526662550613
 30
0.0
 10
190.190867344564
 20
-82.75609432566813
 30
0.0
 10
196.8679886984365
 20
-74.7363150099791
 30
0.0
 10
203.14567732389
 20
-65.89707931795775
 30
0.0
 10
208.5377228398852
 20
-56.83472794050483
 30
0.0
 10
213.0654171821182
 20
-47.74474330006942
 30
0.0
 10
216.7630201702083
 20
-38.79219080430765
 30
0.0
 10
219.8592795997519
 20
-29.49230688819791
 30
0.0
 10
222.298983829545
 20
-19.88972221444223
 30
0.0
 10
224.1048847647263
 20
-10.03789753963301
 30
0.0
 10
224.7007747471555
 20
-3.355537154281343
 30
0.0
 10
225.0000000000001
 20
0.0
 30
0.0
  0
SPLINE
  5
C5
330
BD
100
AcDbEntity
  8
0
  6
Continuous
 62
     7
370
    25
100
AcDbSpline
210
0.0
220
0.0
230
1.0
 70
     8
 71
     3
 72
     9
 73
     5
 74
     0
 42
0.000000001
 43
0.00000001
 40
0.0
 40
0.0
 40
0.0
 40
0.0
 40
0.4998100204930633
 40
0.9999999999999999
 40
0.9999999999999999
 40
0.9999999999999999
 40
0.9999999999999999
 10
-54.15549611007653
 20
-134.1350049669874
 30
0.0
 10
-54.04083089436624
 20
-135.1111532263459
 30
0.0
 10
-53.81141329366033
 20
-137.0641918196806
 30
0.0
 10
-53.6038307221765
 20
-139.021149418667
 30
0.0
 10
-53.50000000000001
 20
-140.0
 30
0.0
  0
SPLINE
  5
C6
330
BD
100
AcDbEntity
  8
0
  6
Continuous
 62
     7
370
    25
100
AcDbSpline
210
0.0
220
0.0
230
1.0
 70
     8
 71
     3
 72
     9
 73
     5
 74
     0
 42
0.000000001
 43
0.00000001
 40
0.0
 40
0.0
 40
0.0
 40
0.0
 40
0.5001899795069318
 40
1.0
 40
1.0
 40
1.0
 40
1.0
 10
53.50000000000001
 20
-140.0
 30
0.0
 10
53.6038307221765
 20
-139.0211494186671
 30
0.0
 10
53.81141329366037
 20
-137.0641918196807
 30
0.0
 10
54.04083089436617
 20
-135.1111532263458
 30
0.0
 10
54.15549611007641
 20
-134.1350049669874
 30
0.0
  0
SPLINE
  5
C7
330
BD
100
AcDbEntity
  8
0
  6
Continuous
 62
     7
370
    25
100
AcDbSpline
210
0.0
220
0.0
230
1.0
 70
    24
 71
     3
 72
    39
 73
    35
 74
     0
 42
0.000000001
 43
0.00000001
 40
0.3895200000000002
 40
0.3895200000000002
 40
0.3895200000000002
 40
0.3895200000000002
 40
0.3949858270096647
 40
0.3949858270096647
 40
0.4166666666666666
 40
0.5
 40
0.6050141729903356
 40
0.6050141729903356
 40
0.6151025188108948
 40
0.6151025188108948
 40
0.6449858270096647
 40
0.6449858270096647
 40
0.6572287052670507
 40
0.6712707674191027
 40
0.6853128295711547
 40
0.6993548917232066
 40
0.6993548917232066
 40
0.7500000000000001
 40
0.8006451082767936
 40
0.8006451082767936
 40
0.8146871704288455
 40
0.8287292325808975
 40
0.8427712947329494
 40
0.8550141729903354
 40
0.8550141729903354
 40
0.8848974811891053
 40
0.8848974811891053
 40
0.8949858270096644
 40
0.8949858270096644
 40
0.9789971654019329
 40
0.9842478740514496
 40
0.9894985827009665
 40
0.9947492913504832
 40
1.0
 40
1.0
 40
1.0
 40
1.0
 10
225.0000000000001
 20
0.0
 30
0.0
 10
225.0000000000001
 20
0.0
 30
0.0
 10
225.0000000000001
 20
0.0
 30
0.0
 10
225.0
 20
0.0
 30
0.0
 10
225.0000000000001
 20
0.0
 30
0.0
 10
225.0
 20
0.0
 30
0.0
 10
225.0000000000003
 20
0.0
 30
0.0
 10
225.0
 20
0.0
 30
0.0
 10
225.0
 20
0.0
 30
0.0
 10
224.9999999999999
 20
0.0
 30
0.0
 10
218.9380109032747
 20
0.0
 30
0.0
 10
203.030310444075
 20
0.0
 30
0.0
 10
191.2334463587386
 20
0.0
 30
0.0
 10
168.0168098394721
 20
0.0
 30
0.0
 10
140.2294888181035
 20
0.0
 30
0.0
 10
120.1663443866667
 20
0.0
 30
0.0
 10
73.33333333333341
 20
0.0
 30
0.0
 10
-0.000000000000026
 20
0.0
 30
0.0
 10
-73.33333333333326
 20
0.0
 30
0.0
 10
-120.1663443866667
 20
0.0
 30
0.0
 10
-140.2294888181035
 20
0.0
 30
0.0
 10
-168.016809839472
 20
0.0
 30
0.0
 10
-191.2334463587385
 20
0.0
 30
0.0
 10
-203.0303104440749
 20
0.0
 30
0.0
 10
-218.9380109032747
 20
0.0
 30
0.0
 10
-225.0
 20
0.0
 30
0.0
 10
-225.0
 20
0.0
 30
0.0
 10
-224.9999999999999
 20
0.0
 30
0.0
 10
-225.0000000000001
 20
0.0
 30
0.0
 10
-225.0000000000001
 20
0.0
 30
0.0
 10
-225.0
 20
0.0
 30
0.0
 10
-225.0
 20
0.0
 30
0.0
 10
-225.0
 20
0.0
 30
0.0
 10
-225.0
 20
0.0
 30
0.0
 10
-225.0
 20
0.0
 30
0.0
  0
LWPOLYLINE
  5
C8
330
BD
100
AcDbEntity
  8
0
  6
Continuous
 62
     7
370
    25
100
AcDbPolyline
 90
        2
 70
   128
 43
0.0
 10
-225.0
 20
0.0
 10
-225.0
 20
0.0
  0
SPLINE
  5
C9
330
BD
100
AcDbEntity
  8
0
  6
Continuous
 62
     7
370
    25
100
AcDbSpline
210
0.0
220
0.0
230
1.0
 70
     8
 71
     3
 72
    28
 73
    24
 74
     0
 42
0.000000001
 43
0.00000001
 40
0.0
 40
0.0
 40
0.0
 40
0.0
 40
0.0117255203865321
 40
0.0380292365162908
 40
0.0629674128014152
 40
0.0871976010191284
 40
0.1106835895492311
 40
0.1346397760917652
 40
0.1597725098663248
 40
0.1854331403945739
 40
0.2113339131523191
 40
0.3145397215020926
 40
0.4999981841267996
 40
0.6179593853865986
 40
0.7359421461667248
 40
0.8380129642147219
 40
0.8639491234196499
 40
0.8886310020593434
 40
0.9127944202865719
 40
0.9363433637760228
 40
0.9605389164706336
 40
0.9860380420764722
 40
1.0
 40
1.0
 40
1.0
 40
1.0
 10
54.16032726075677
 20
-134.1357888644448
 30
0.0
 10
54.1716903507985
 20
-134.1397140279745
 30
0.0
 10
54.20854412142084
 20
-134.1524444627285
 30
0.0
 10
54.37756467422049
 20
-134.1761680232134
 30
0.0
 10
53.49814530740346
 20
-134.2062284927817
 30
0.0
 10
51.76444406138348
 20
-134.2364335451533
 30
0.0
 10
49.34895429639888
 20
-134.2662075614085
 30
0.0
 10
46.41562762182264
 20
-134.2956937404327
 30
0.0
 10
43.22141550752776
 20
-134.3236823168025
 30
0.0
 10
39.97975378979321
 20
-134.3513898022069
 30
0.0
 10
33.41825218484482
 20
-134.404956055349
 30
0.0
 10
20.09035340189706
 20
-134.5004230434583
 30
0.0
 10
2.859675010485249
 20
-134.566330503332
 30
0.0
 10
-14.99528243604309
 20
-134.5227337920614
 30
0.0
 10
-29.32779595521609
 20
-134.4380974480892
 30
0.0
 10
-39.71870351140957
 20
-134.3542920016993
 30
0.0
 10
-46.23129576654544
 20
-134.2974100922725
 30
0.0
 10
-49.27511912830835
 20
-134.2670860198697
 30
0.0
 10
-51.725592755368
 20
-134.2369824907385
 30
0.0
 10
-53.4499324987432
 20
-134.2071519904081
 30
0.0
 10
-54.34944251256343
 20
-134.1777243766232
 30
0.0
 10
-54.21835054206275
 20
-134.1542377005564
 30
0.0
 10
-54.17245121715197
 20
-134.1400998602602
 30
0.0
 10
-54.15621130720003
 20
-134.13509766788
 30
0.0
  0
LWPOLYLINE
  5
CA
330
BD
100
AcDbEntity
  8
0
  6
Continuous
 62
     7
370
    25
100
AcDbPolyline
 90
        2
 70
   128
 43
0.0
 10
-53.5
 20
-140.0
 10
-53.5
 20
-140.0
  0
LWPOLYLINE
  5
CB
330
BD
100
AcDbEntity
  8
0
  6
Continuous
 62
     7
370
    25
100
AcDbPolyline
 90
        2
 70
   128
 43
0.0
 10
53.5
 20
-140.0
 10
53.5
 20
-140.0
  0
SPLINE
  5
CC
330
BD
100
AcDbEntity
  8
0
  6
Continuous
 62
     7
370
    25
100
AcDbSpline
210
0.0
220
0.0
230
1.0
 70
    24
 71
     3
 72
    31
 73
    27
 74
     0
 42
0.000000001
 43
0.00000001
 40
0.5941725190932592
 40
0.5941725190932592
 40
0.5941725190932592
 40
0.5941725190932592
 40
0.6050141729903356
 40
0.6050141729903356
 40
0.6151025188108948
 40
0.6151025188108948
 40
0.6449858270096647
 40
0.6449858270096647
 40
0.6572287052670507
 40
0.6712707674191027
 40
0.6853128295711547
 40
0.6993548917232066
 40
0.6993548917232066
 40
0.7500000000000001
 40
0.8006451082767936
 40
0.8006451082767936
 40
0.8146871704288455
 40
0.8287292325808975
 40
0.8427712947329494
 40
0.8550141729903354
 40
0.8550141729903354
 40
0.8848974811891053
 40
0.8848974811891053
 40
0.8949858270096644
 40
0.8949858270096644
 40
0.9058274809067407
 40
0.9058274809067407
 40
0.9058274809067407
 40
0.9058274809067407
 10
53.50000000000001
 20
-140.0
 30
0.0
 10
53.50000000000001
 20
-140.0
 30
0.0
 10
53.50000000000001
 20
-140.0
 30
0.0
 10
53.50000000000001
 20
-140.0
 30
0.0
 10
53.21457232555483
 20
-140.0
 30
0.0
 10
51.17203984155658
 20
-140.0
 30
0.0
 10
47.62618560469958
 20
-140.0
 30
0.0
 10
41.80954499114665
 20
-140.0
 30
0.0
 10
38.18020977777574
 20
-140.0
 30
0.0
 10
32.61199435988715
 20
-140.0
 30
0.0
 10
26.7953537463342
 20
-140.0
 30
0.0
 10
22.9175933372989
 20
-140.0
 30
0.0
 10
13.98580875518753
 20
-140.0
 30
0.0
 10
0.0000000000000141
 20
-140.0
 30
0.0
 10
-13.9858087551875
 20
-140.0
 30
0.0
 10
-22.91759333729892
 20
-140.0
 30
0.0
 10
-26.79535374633421
 20
-140.0
 30
0.0
 10
-32.61199435988715
 20
-140.0
 30
0.0
 10
-38.18020977777573
 20
-140.0
 30
0.0
 10
-41.80954499114664
 20
-140.0
 30
0.0
 10
-47.62618560469961
 20
-140.0
 30
0.0
 10
-51.17203984155658
 20
-140.0
 30
0.0
 10
-53.21457232555482
 20
-140.0
 30
0.0
 10
-53.49999999999998
 20
-140.0
 30
0.0
 10
-53.5
 20
-140.0
 30
0.0
 10
-53.50000000000001
 20
-140.0
 30
0.0
 10
-53.50000000000002
 20
-140.0
 30
0.0
  0
VIEWPORT
  5
FD
330
BD
100
AcDbEntity
  8
0
100
AcDbViewport
 10
0.0
 20
0.0
 30
0.0
 40
205.6
 41
156.0
 68
     1
 69
     1
 12
0.0
 22
-13.9752192724
 13
0.0
 23
0.0
 14
10.0
 24
10.0
 15
10.0
 25
10.0
 16
0.0
 26
0.0
 36
1.0
 17
0.0
 27
0.0
 37
0.0
 42
50.0
 43
0.0
 44
0.0
 45
592.7867926039
 50
0.0
 51
0.0
 72
   100
 90
   557152
  1

281
     0
 71
     1
 74
     0
110
0.0
120
0.0
130
0.0
111
1.0
121
0.0
131
0.0
112
0.0
122
1.0
132
0.0
 79
     0
146
0.0
170
     0
 61
     5
348
2F
292
     1
282
     1
141
0.0
142
0.0
 63
   256
361
FE
  0
ENDBLK
  5
C0
330
BD
100
AcDbEntity
  8
0
100
AcDbBlockEnd
  0
BLOCK
  5
CF
330
CD
100
AcDbEntity
  8
0
100
AcDbBlockBegin
  2
*Paper_Space5
 70
     0
 10
0.0
 20
0.0
 30
0.0
  3
*Paper_Space5
  1

  0
SPLINE
  5
D1
330
CD
100
AcDbEntity
  8
0
  6
Continuous
 62
     7
370
    25
100
AcDbSpline
210
0.0
220
0.0
230
1.0
 70
    11
 71
     3
 72
    64
 73
    60
 74
     0
 42
0.000000001
 43
0.00000001
 40
0.0
 40
0.0
 40
0.0
 40
0.0
 40
0.0052507086495168
 40
0.0105014172990336
 40
0.0157521259485502
 40
0.0210028345980671
 40
0.1050141729903355
 40
0.1050141729903355
 40
0.1151025188108948
 40
0.1151025188108948
 40
0.1449858270096646
 40
0.1449858270096646
 40
0.1572287052670508
 40
0.1712707674191028
 40
0.1853128295711548
 40
0.1993548917232068
 40
0.1993548917232068
 40
0.2500000000000004
 40
0.3006451082767941
 40
0.3006451082767941
 40
0.3146871704288462
 40
0.3287292325808981
 40
0.3427712947329502
 40
0.3550141729903354
 40
0.3550141729903354
 40
0.3848974811891062
 40
0.3848974811891062
 40
0.3949858270096647
 40
0.3949858270096647
 40
0.4166666666666666
 40
0.5
 40
0.6050141729903356
 40
0.6050141729903356
 40
0.6151025188108948
 40
0.6151025188108948
 40
0.6449858270096647
 40
0.6449858270096647
 40
0.6572287052670507
 40
0.6712707674191027
 40
0.6853128295711547
 40
0.6993548917232066
 40
0.6993548917232066
 40
0.7500000000000001
 40
0.8006451082767936
 40
0.8006451082767936
 40
0.8146871704288455
 40
0.8287292325808975
 40
0.8427712947329494
 40
0.8550141729903354
 40
0.8550141729903354
 40
0.8848974811891053
 40
0.8848974811891053
 40
0.8949858270096644
 40
0.8949858270096644
 40
0.9789971654019329
 40
0.9842478740514496
 40
0.9894985827009665
 40
0.9947492913504832
 40
1.0
 40
1.0
 40
1.0
 40
1.0
 10
0.0000000000000005
 20
53.4999999999998
 30
0.0
 10
-0.7250000000000052
 20
53.4999999999998
 30
0.0
 10
-2.175000000000016
 20
53.4999999999998
 30
0.0
 10
-4.350000000000004
 20
53.4999999999998
 30
0.0
 10
-6.524999999999991
 20
53.4999999999998
 30
0.0
 10
-19.57499999999997
 20
53.49999999999979
 30
0.0
 10
-31.89999999999998
 20
53.49999999999978
 30
0.0
 10
-44.89296449453126
 20
53.49999999999981
 30
0.0
 10
-46.21978983743155
 20
53.21457232555463
 30
0.0
 10
-50.99554343159813
 20
51.17203984155638
 30
0.0
 10
-53.49999999999998
 20
47.62618560469939
 30
0.0
 10
-53.5
 20
41.80954499114642
 30
0.0
 10
-53.49999999999994
 20
38.18020977777547
 30
0.0
 10
-53.49999999999999
 20
32.61199435988686
 30
0.0
 10
-53.49999999999998
 20
26.79535374633391
 30
0.0
 10
-53.49999999999999
 20
22.91759333729861
 30
0.0
 10
-53.49999999999998
 20
13.98580875518726
 30
0.0
 10
-53.49999999999996
 20
-0.0000000000003266
 30
0.0
 10
-53.49999999999998
 20
-13.98580875518787
 30
0.0
 10
-53.49999999999998
 20
-22.91759333729939
 30
0.0
 10
-53.49999999999998
 20
-26.79535374633469
 30
0.0
 10
-53.49999999999998
 20
-32.61199435988766
 30
0.0
 10
-53.49999999999999
 20
-38.18020977777615
 30
0.0
 10
-53.49999999999997
 20
-41.80954499114696
 30
0.0
 10
-53.50000000000004
 20
-47.62618560469991
 30
0.0
 10
-50.99554343159796
 20
-51.17203984155699
 30
0.0
 10
-46.21978983743133
 20
-53.2145723255551
 30
0.0
 10
-44.89296449453114
 20
-53.5000000000002
 30
0.0
 10
-40.50638336641025
 20
-53.50000000000023
 30
0.0
 10
-26.00638336641033
 20
-53.50000000000021
 30
0.0
 10
2.993616633589639
 20
-53.50000000000021
 30
0.0
 10
28.99999999999993
 20
-53.50000000000018
 30
0.0
 10
44.89296449453137
 20
-53.5000000000002
 30
0.0
 10
46.21978983743162
 20
-53.21457232555503
 30
0.0
 10
50.99554343159819
 20
-51.17203984155678
 30
0.0
 10
53.50000000000002
 20
-47.62618560469977
 30
0.0
 10
53.50000000000002
 20
-41.80954499114685
 30
0.0
 10
53.50000000000004
 20
-38.18020977777594
 30
0.0
 10
53.50000000000001
 20
-32.61199435988734
 30
0.0
 10
53.50000000000001
 20
-26.79535374633439
 30
0.0
 10
53.50000000000002
 20
-22.9175933372991
 30
0.0
 10
53.50000000000002
 20
-13.98580875518772
 30
0.0
 10
53.50000000000001
 20
-0.0000000000002084
 30
0.0
 10
53.50000000000002
 20
13.9858087551873
 30
0.0
 10
53.50000000000002
 20
22.91759333729872
 30
0.0
 10
53.50000000000002
 20
26.79535374633402
 30
0.0
 10
53.50000000000001
 20
32.61199435988695
 30
0.0
 10
53.5
 20
38.18020977777554
 30
0.0
 10
53.50000000000002
 20
41.80954499114645
 30
0.0
 10
53.50000000000004
 20
47.62618560469942
 30
0.0
 10
50.99554343159816
 20
51.17203984155639
 30
0.0
 10
46.21978983743158
 20
53.21457232555463
 30
0.0
 10
44.89296449453129
 20
53.49999999999979
 30
0.0
 10
31.89999999999982
 20
53.49999999999986
 30
0.0
 10
19.57499999999992
 20
53.4999999999998
 30
0.0
 10
6.524999999999978
 20
53.49999999999979
 30
0.0
 10
4.349999999999998
 20
53.49999999999979
 30
0.0
 10
2.175000000000001
 20
53.4999999999998
 30
0.0
 10
0.725000000000006
 20
53.4999999999998
 30
0.0
 10
0.0000000000000005
 20
53.4999999999998
 30
0.0
  0
SPLINE
  5
D2
330
CD
100
AcDbEntity
  8
0
  6
Continuous
 62
     7
370
    25
100
AcDbSpline
210
0.0
220
0.0
230
1.0
 70
    11
 71
     3
 72
    64
 73
    60
 74
     0
 42
0.000000001
 43
0.00000001
 40
0.0
 40
0.0
 40
0.0
 40
0.0
 40
0.0052507086495168
 40
0.0105014172990336
 40
0.0157521259485502
 40
0.0210028345980671
 40
0.1050141729903355
 40
0.1050141729903355
 40
0.1151025188108948
 40
0.1151025188108948
 40
0.1449858270096646
 40
0.1449858270096646
 40
0.1572287052670508
 40
0.1712707674191028
 40
0.1853128295711548
 40
0.1993548917232068
 40
0.1993548917232068
 40
0.2500000000000004
 40
0.3006451082767941
 40
0.3006451082767941
 40
0.3146871704288462
 40
0.3287292325808981
 40
0.3427712947329502
 40
0.3550141729903354
 40
0.3550141729903354
 40
0.3848974811891062
 40
0.3848974811891062
 40
0.3949858270096647
 40
0.3949858270096647
 40
0.4166666666666666
 40
0.5
 40
0.6050141729903356
 40
0.6050141729903356
 40
0.6151025188108948
 40
0.6151025188108948
 40
0.6449858270096647
 40
0.6449858270096647
 40
0.6572287052670507
 40
0.6712707674191027
 40
0.6853128295711547
 40
0.6993548917232066
 40
0.6993548917232066
 40
0.7500000000000001
 40
0.8006451082767936
 40
0.8006451082767936
 40
0.8146871704288455
 40
0.8287292325808975
 40
0.8427712947329494
 40
0.8550141729903354
 40
0.8550141729903354
 40
0.8848974811891053
 40
0.8848974811891053
 40
0.8949858270096644
 40
0.8949858270096644
 40
0.9789971654019329
 40
0.9842478740514496
 40
0.9894985827009665
 40
0.9947492913504832
 40
1.0
 40
1.0
 40
1.0
 40
1.0
 10
0.0000000000000044
 20
22.4999999999998
 30
0.0
 10
-0.2513792143038633
 20
22.4999999999998
 30
0.0
 10
-0.7539957294545483
 20
22.49106662769017
 30
0.0
 10
-1.506639103135608
 20
22.45132215094406
 30
0.0
 10
-2.257145419097905
 20
22.38568895456356
 30
0.0
 10
-6.742227016516294
 20
21.83929165035756
 30
0.0
 10
-10.79277401504775
 20
20.12017539256891
 30
0.0
 10
-14.22465561236984
 20
17.46266546827459
 30
0.0
 10
-14.58280061903789
 20
17.16658704041911
 30
0.0
 10
-15.96167789589914
 20
15.9506078461876
 30
0.0
 10
-16.90362736510594
 20
14.94659179816825
 30
0.0
 10
-18.09333123623378
 20
13.41022018041385
 30
0.0
 10
-18.80033988602142
 20
12.42065356111022
 30
0.0
 10
-19.7644723758692
 20
10.80436551497137
 30
0.0
 10
-20.63027355257567
 20
9.016053610829667
 30
0.0
 10
-21.10704438190264
 20
7.769507647629105
 30
0.0
 10
-22.08256263893732
 20
4.849298781080004
 30
0.0
 10
-22.91743736106265
 20
-0.0000000000002428
 30
0.0
 10
-22.0825626389373
 20
-4.849298781080485
 30
0.0
 10
-21.1070443819026
 20
-7.769507647629627
 30
0.0
 10
-20.63027355257563
 20
-9.01605361083019
 30
0.0
 10
-19.76447237586915
 20
-10.80436551497189
 30
0.0
 10
-18.80033988602137
 20
-12.42065356111071
 30
0.0
 10
-18.09333123623376
 20
-13.41022018041429
 30
0.0
 10
-16.9036273651059
 20
-14.94659179816868
 30
0.0
 10
-15.96167789589908
 20
-15.95060784618808
 30
0.0
 10
-14.58280061903781
 20
-17.16658704041956
 30
0.0
 10
-14.22465561236979
 20
-17.46266546827502
 30
0.0
 10
-13.06601109709427
 20
-18.35987279048468
 30
0.0
 10
-9.01719202418391
 20
-21.07576065590127
 30
0.0
 10
1.0379765479707
 20
-23.92423934409912
 30
0.0
 10
10.02678588074456
 20
-20.71332553807291
 30
0.0
 10
14.22465561236985
 20
-17.46266546827499
 30
0.0
 10
14.5828006190379
 20
-17.1665870404195
 30
0.0
 10
15.96167789589916
 20
-15.95060784618801
 30
0.0
 10
16.90362736510595
 20
-14.94659179816864
 30
0.0
 10
18.0933312362338
 20
-13.41022018041425
 30
0.0
 10
18.80033988602142
 20
-12.42065356111063
 30
0.0
 10
19.76447237586921
 20
-10.80436551497178
 30
0.0
 10
20.63027355257569
 20
-9.016053610830076
 30
0.0
 10
21.10704438190265
 20
-7.769507647629516
 30
0.0
 10
22.08256263893733
 20
-4.849298781080407
 30
0.0
 10
22.91743736106267
 20
-0.000000000000185
 30
0.0
 10
22.08256263893731
 20
4.849298781080041
 30
0.0
 10
21.10704438190265
 20
7.769507647629161
 30
0.0
 10
20.63027355257568
 20
9.01605361082972
 30
0.0
 10
19.76447237586921
 20
10.80436551497142
 30
0.0
 10
18.80033988602142
 20
12.42065356111026
 30
0.0
 10
18.0933312362338
 20
13.41022018041388
 30
0.0
 10
16.90362736510594
 20
14.94659179816827
 30
0.0
 10
15.96167789589915
 20
15.95060784618763
 30
0.0
 10
14.5828006190379
 20
17.16658704041913
 30
0.0
 10
14.22465561236985
 20
17.46266546827461
 30
0.0
 10
10.79277401504777
 20
20.12017539256897
 30
0.0
 10
6.742227016516313
 20
21.83929165035753
 30
0.0
 10
2.257145419097914
 20
22.38568895456353
 30
0.0
 10
1.506639103135617
 20
22.45132215094404
 30
0.0
 10
0.7539957294545518
 20
22.49106662769016
 30
0.0
 10
0.251379214303872
 20
22.4999999999998
 30
0.0
 10
0.0000000000000044
 20
22.4999999999998
 30
0.0
  0
SPLINE
  5
D3
330
CD
100
AcDbEntity
  8
0
  6
Continuous
 62
     7
370
    25
100
AcDbSpline
210
0.0
220
0.0
230
1.0
 70
    11
 71
     3
 72
    64
 73
    60
 74
     0
 42
0.000000001
 43
0.00000001
 40
0.0
 40
0.0
 40
0.0
 40
0.0
 40
0.0052507086495168
 40
0.0105014172990336
 40
0.0157521259485502
 40
0.0210028345980671
 40
0.1050141729903355
 40
0.1050141729903355
 40
0.1151025188108948
 40
0.1151025188108948
 40
0.1449858270096646
 40
0.1449858270096646
 40
0.1572287052670508
 40
0.1712707674191028
 40
0.1853128295711548
 40
0.1993548917232068
 40
0.1993548917232068
 40
0.2500000000000004
 40
0.3006451082767941
 40
0.3006451082767941
 40
0.3146871704288462
 40
0.3287292325808981
 40
0.3427712947329502
 40
0.3550141729903354
 40
0.3550141729903354
 40
0.3848974811891062
 40
0.3848974811891062
 40
0.3949858270096647
 40
0.3949858270096647
 40
0.4166666666666666
 40
0.5
 40
0.6050141729903356
 40
0.6050141729903356
 40
0.6151025188108948
 40
0.6151025188108948
 40
0.6449858270096647
 40
0.6449858270096647
 40
0.6572287052670507
 40
0.6712707674191027
 40
0.6853128295711547
 40
0.6993548917232066
 40
0.6993548917232066
 40
0.7500000000000001
 40
0.8006451082767936
 40
0.8006451082767936
 40
0.8146871704288455
 40
0.8287292325808975
 40
0.8427712947329494
 40
0.8550141729903354
 40
0.8550141729903354
 40
0.8848974811891053
 40
0.8848974811891053
 40
0.8949858270096644
 40
0.8949858270096644
 40
0.9789971654019329
 40
0.9842478740514496
 40
0.9894985827009665
 40
0.9947492913504832
 40
1.0
 40
1.0
 40
1.0
 40
1.0
 10
0.0000000000000037
 20
53.50000000000006
 30
0.0
 10
-0.721231438073784
 20
53.50000000000006
 30
0.0
 10
-2.16369431422136
 20
53.50146415544562
 30
0.0
 10
-4.32755619227354
 20
53.50796060070677
 30
0.0
 10
-6.491753197987408
 20
53.51866500381674
 30
0.0
 10
-19.47995138122587
 20
53.60758564410583
 30
0.0
 10
-31.77886696347154
 20
53.88536239304162
 30
0.0
 10
-44.904491599169
 20
54.29993340909363
 30
0.0
 10
-46.24888124665591
 20
54.06604293850572
 30
0.0
 10
-51.1124975888154
 20
52.25113029229364
 30
0.0
 10
-53.71027538535699
 20
48.80999191409708
 30
0.0
 10
-53.86765007956257
 20
43.02835622352838
 30
0.0
 10
-53.95476895816431
 20
39.38823824276748
 30
0.0
 10
-54.02153585834469
 20
33.71487920443868
 30
0.0
 10
-53.99391625021907
 20
27.72988359124567
 30
0.0
 10
-53.90770721022002
 20
23.71553422540266
 30
0.0
 10
-53.62370586323669
 20
14.46200970787798
 30
0.0
 10
-53.37629413676461
 20
-0.0000000000003364
 30
0.0
 10
-53.6237058632367
 20
-14.46200970787858
 30
0.0
 10
-53.90770721022004
 20
-23.71553422540342
 30
0.0
 10
-53.99391625021909
 20
-27.72988359124643
 30
0.0
 10
-54.02153585834471
 20
-33.71487920443943
 30
0.0
 10
-53.95476895816438
 20
-39.3882382427681
 30
0.0
 10
-53.86765007956258
 20
-43.02835622352887
 30
0.0
 10
-53.71027538535705
 20
-48.80999191409753
 30
0.0
 10
-51.11249758881525
 20
-52.25113029229417
 30
0.0
 10
-46.24888124665571
 20
-54.06604293850611
 30
0.0
 10
-44.90449159916893
 20
-54.29993340909393
 30
0.0
 10
-40.4731228113928
 20
-54.15996924648541
 30
0.0
 10
-25.87120175786794
 20
-53.7323742602045
 30
0.0
 10
2.97805576508341
 20
-53.26762573979609
 30
0.0
 10
28.84925752295115
 20
-53.7928310891153
 30
0.0
 10
44.90449159916888
 20
-54.29993340909392
 30
0.0
 10
46.24888124665573
 20
-54.06604293850603
 30
0.0
 10
51.11249758881516
 20
-52.25113029229396
 30
0.0
 10
53.7102753853567
 20
-48.8099919140974
 30
0.0
 10
53.86765007956222
 20
-43.02835622352875
 30
0.0
 10
53.95476895816401
 20
-39.3882382427679
 30
0.0
 10
54.02153585834427
 20
-33.71487920443912
 30
0.0
 10
53.99391625021863
 20
-27.72988359124613
 30
0.0
 10
53.90770721021957
 20
-23.71553422540314
 30
0.0
 10
53.62370586323619
 20
-14.46200970787843
 30
0.0
 10
53.37629413676405
 20
-0.0000000000002059
 30
0.0
 10
53.62370586323618
 20
14.46200970787803
 30
0.0
 10
53.90770721021957
 20
23.7155342254028
 30
0.0
 10
53.99391625021864
 20
27.7298835912458
 30
0.0
 10
54.02153585834429
 20
33.71487920443877
 30
0.0
 10
53.95476895816398
 20
39.38823824276756
 30
0.0
 10
53.86765007956222
 20
43.02835622352842
 30
0.0
 10
53.71027538535672
 20
48.80999191409711
 30
0.0
 10
51.11249758881515
 20
52.25113029229366
 30
0.0
 10
46.24888124665569
 20
54.06604293850574
 30
0.0
 10
44.9044915991688
 20
54.29993340909361
 30
0.0
 10
31.77886696347124
 20
53.8853623930417
 30
0.0
 10
19.47995138122579
 20
53.60758564410584
 30
0.0
 10
6.491753197987393
 20
53.51866500381674
 30
0.0
 10
4.327556192273537
 20
53.50796060070676
 30
0.0
 10
2.16369431422135
 20
53.50146415544563
 30
0.0
 10
0.7212314380737913
 20
53.50000000000006
 30
0.0
 10
0.0000000000000037
 20
53.50000000000006
 30
0.0
  0
LWPOLYLINE
  5
D4
330
CD
100
AcDbEntity
  8
0
  6
Continuous
 62
     7
370
    25
100
AcDbPolyline
 90
      111
 70
   128
 43
0.0
 10
0.0
 20
225.0
 10
152.0383757088
 20
225.0
 10
218.9352610207
 20
225.0
 10
229.4476287125
 20
225.0
 10
239.9599964044
 20
225.0
 10
250.4722579515
 20
224.9990371103
 10
260.9171896341
 20
224.4831772509
 10
271.1995868317
 20
223.0355647897
 10
282.0191106783
 20
220.4614830959
 10
292.5164549646
 20
216.8598813762
 10
302.6221816719
 20
212.2574251035
 10
312.2667502522
 20
206.6808822803
 10
321.3664114587
 20
200.1712296078
 10
329.8122318119
 20
192.7946280196
 10
337.4969443006
 20
184.623207773
 10
344.3404285195
 20
175.7562457312
 10
350.274337414
 20
166.3047668917
 10
355.2415447809
 20
156.3686700033
 10
359.2166099465
 20
146.0161682856
 10
362.1794993742
 20
135.3100678206
 10
364.0476137837
 20
124.763254052
 10
364.9295812795
 20
114.0211510206
 10
365.0
 20
103.1688978024
 10
365.0
 20
92.3090138232
 10
365.0
 20
81.449129844
 10
365.0
 20
70.5892458648
 10
365.0
 20
59.7293618856
 10
365.0
 20
0.0
 10
365.0
 20
-76.0191878544
 10
365.0
 20
-87.9650602315
 10
365.0
 20
-99.9109326086
 10
364.9850129518
 20
-111.8552500322
 10
364.1806791813
 20
-123.6967153289
 10
362.1794993742
 20
-135.3100678206
 10
359.2166099465
 20
-146.0161682856
 10
355.2415447809
 20
-156.3686700033
 10
350.274337414
 20
-166.3047668917
 10
344.3404285195
 20
-175.7562457312
 10
337.4969443006
 20
-184.623207773
 10
329.8122318119
 20
-192.7946280196
 10
321.3664114587
 20
-200.1712296078
 10
312.2667502522
 20
-206.6808822803
 10
302.6221816719
 20
-212.2574251035
 10
292.5164549646
 20
-216.8598813762
 10
282.0191106783
 20
-220.4614830959
 10
271.1995868317
 20
-223.0355647897
 10
260.788586853
 20
-224.4953201445
 10
250.2117056488
 20
-224.9998065114
 10
239.5690405812
 20
-225.0
 10
228.9263542815
 20
-225.0
 10
218.2836679819
 20
-225.0
 10
207.6409816823
 20
-225.0
 10
196.9982953827
 20
-225.0
 10
186.3556090831
 20
-225.0
 10
119.4587237712
 20
-225.0
 10
0.0
 20
-225.0
 10
-152.0383757088
 20
-225.0
 10
-218.9352610207
 20
-225.0
 10
-229.4476287125
 20
-225.0
 10
-239.9599964044
 20
-225.0
 10
-250.4722579515
 20
-224.9990371103
 10
-260.9171896341
 20
-224.4831772509
 10
-271.1995868317
 20
-223.0355647897
 10
-282.0191106783
 20
-220.4614830959
 10
-292.5164549646
 20
-216.8598813762
 10
-302.6221816719
 20
-212.2574251035
 10
-312.2667502522
 20
-206.6808822803
 10
-321.3664114587
 20
-200.1712296078
 10
-329.8122318119
 20
-192.7946280196
 10
-337.4969443006
 20
-184.623207773
 10
-344.3404285195
 20
-175.7562457312
 10
-350.274337414
 20
-166.3047668917
 10
-355.2415447809
 20
-156.3686700033
 10
-359.2166099465
 20
-146.0161682856
 10
-362.1794993742
 20
-135.3100678206
 10
-364.0476137837
 20
-124.763254052
 10
-364.9295812795
 20
-114.0211510206
 10
-365.0
 20
-103.1688978024
 10
-365.0
 20
-92.3090138232
 10
-365.0
 20
-81.449129844
 10
-365.0
 20
-70.5892458648
 10
-365.0
 20
-59.7293618856
 10
-365.0
 20
0.0
 10
-365.0
 20
76.0191878544
 10
-365.0
 20
87.9650602315
 10
-365.0
 20
99.9109326086
 10
-364.9850129518
 20
111.8552500322
 10
-364.1806791813
 20
123.6967153289
 10
-362.1794993742
 20
135.3100678206
 10
-359.2166099465
 20
146.0161682856
 10
-355.2415447809
 20
156.3686700033
 10
-350.274337414
 20
166.3047668917
 10
-344.3404285195
 20
175.7562457312
 10
-337.4969443006
 20
184.623207773
 10
-329.8122318119
 20
192.7946280196
 10
-321.3664114587
 20
200.1712296078
 10
-312.2667502522
 20
206.6808822803
 10
-302.6221816719
 20
212.2574251035
 10
-292.5164549646
 20
216.8598813762
 10
-282.0191106783
 20
220.4614830959
 10
-271.1995868317
 20
223.0355647897
 10
-260.788586853
 20
224.4953201445
 10
-250.2117056488
 20
224.9998065114
 10
-239.5690405812
 20
225.0
 10
-228.9263542815
 20
225.0
 10
-218.2836679819
 20
225.0
 10
-207.6409816823
 20
225.0
 10
-196.9982953827
 20
225.0
 10
-186.3556090831
 20
225.0
 10
-119.4587237712
 20
225.0
 10
0.0
 20
225.0
  0
VIEWPORT
  5
FF
330
CD
100
AcDbEntity
  8
0
100
AcDbViewport
 10
0.0
 20
0.0
 30
0.0
 40
205.6
 41
156.0
 68
     1
 69
     1
 12
0.0
 22
-13.9752192724
 13
0.0
 23
0.0
 14
10.0
 24
10.0
 15
10.0
 25
10.0
 16
0.0
 26
0.0
 36
1.0
 17
0.0
 27
0.0
 37
0.0
 42
50.0
 43
0.0
 44
0.0
 45
592.7867926039
 50
0.0
 51
0.0
 72
   100
 90
   557152
  1

281
     0
 71
     1
 74
     0
110
0.0
120
0.0
130
0.0
111
1.0
121
0.0
131
0.0
112
0.0
122
1.0
132
0.0
 79
     0
146
0.0
170
     0
 61
     5
348
2F
292
     1
282
     1
141
0.0
142
0.0
 63
   256
361
100
  0
ENDBLK
  5
D0
330
CD
100
AcDbEntity
  8
0
100
AcDbBlockEnd
  0
BLOCK
  5
D7
330
D5
100
AcDbEntity
  8
0
100
AcDbBlockBegin
  2
*Paper_Space6
 70
     0
 10
0.0
 20
0.0
 30
0.0
  3
*Paper_Space6
  1

  0
SPLINE
  5
D9
330
D5
100
AcDbEntity
  8
0
  6
Continuous
 62
     7
370
    25
100
AcDbSpline
210
0.0
220
0.0
230
1.0
 70
     8
 71
     3
 72
    83
 73
    79
 74
     0
 42
0.000000001
 43
0.00000001
 40
0.0
 40
0.0
 40
0.0
 40
0.0
 40
0.0060788522077995
 40
0.0130522029478552
 40
0.0209486112314866
 40
0.0297684370954468
 40
0.0390674750701453
 40
0.0483496281856844
 40
0.0576134019440532
 40
0.066857749450305
 40
0.095773302557132
 40
0.1246812797380839
 40
0.1498814825390715
 40
0.1757843060748219
 40
0.2024077458726631
 40
0.2152138310096364
 40
0.2280647707600583
 40
0.2408545866172098
 40
0.2534943032833706
 40
0.2659855332324851
 40
0.2777075281223274
 40
0.2893606844684074
 40
0.3009860425400884
 40
0.3126141490647018
 40
0.3242308731882124
 40
0.3357895140291037
 40
0.3469654985078685
 40
0.3576519623306584
 40
0.3678401007712586
 40
0.377543188880454
 40
0.3867865941562605
 40
0.395590157749132
 40
0.4018343443221402
 40
0.4072463867118929
 40
0.4117569503045774
 40
0.4154756611205249
 40
0.419413259058072
 40
0.4252663182914267
 40
0.4318846093275558
 40
0.4391015266874012
 40
0.4496700652466172
 40
0.4612738476081846
 40
0.473914407576104
 40
0.4875933643296421
 40
0.5015563636417953
 40
0.5164602300358224
 40
0.5320088207350959
 40
0.5475690897533909
 40
0.5631197401679782
 40
0.5786602922878136
 40
0.6517728806917199
 40
0.6778185863264236
 40
0.7038262424298394
 40
0.7297320702999897
 40
0.7548044802876076
 40
0.778830465527827
 40
0.8048610300967578
 40
0.8295374826466525
 40
0.8528589164093596
 40
0.8751328148950817
 40
0.8971991466993731
 40
0.9109093552432873
 40
0.9245835773837465
 40
0.9383969251316064
 40
0.9523498766498678
 40
0.9591910894963176
 40
0.9658997997681797
 40
0.9690444776837509
 40
0.9728992673476502
 40
0.9772107428173016
 40
0.9812336782521254
 40
0.9840328531726593
 40
0.9866330998374017
 40
0.9899098390635673
 40
0.9935008841134337
 40
0.996703540238381
 40
0.9985067803266372
 40
1.0
 40
1.0
 40
1.0
 40
1.0
 10
326.3765582371518
 20
-105.3727930440012
 30
0.0
 10
325.364792266914
 20
-106.018845037435
 30
0.0
 10
323.1923797245702
 20
-107.4060150894301
 30
0.0
 10
319.0224235852613
 20
-109.7681508018265
 30
0.0
 10
314.2284089833009
 20
-112.5884964412072
 30
0.0
 10
308.7312804059633
 20
-115.796092462182
 30
0.0
 10
302.8739549494281
 20
-119.2180441244739
 30
0.0
 10
296.9314719704288
 20
-122.6836276370136
 30
0.0
 10
290.9891949368934
 20
-126.1457203917542
 30
0.0
 10
280.8389329276001
 20
-132.0523728881749
 30
0.0
 10
266.4490055325954
 20
-140.4060450070188
 30
0.0
 10
248.5715689503876
 20
-150.7442792020301
 30
0.0
 10
231.3738307338071
 20
-160.6497254506779
 30
0.0
 10
214.683387172397
 20
-170.2342446438172
 30
0.0
 10
200.6618100556347
 20
-178.2554263326092
 30
0.0
 10
189.4691047745131
 20
-184.6660555290518
 30
0.0
 10
181.1940975793034
 20
-189.3532653609274
 30
0.0
 10
173.0995728941163
 20
-194.1135732364726
 30
0.0
 10
164.3414583115774
 20
-198.3985219190373
 30
0.0
 10
155.083673009374
 20
-202.0110794979936
 30
0.0
 10
145.5027660507205
 20
-204.9966117145995
 30
0.0
 10
135.6916261784278
 20
-207.3737850929993
 30
0.0
 10
125.5421897925853
 20
-209.1881938500948
 30
0.0
 10
115.1363038865868
 20
-210.429056612952
 30
0.0
 10
104.584020063674
 20
-211.0928261271113
 30
0.0
 10
94.09922674026939
 20
-211.1705939897889
 30
0.0
 10
83.92927416248259
 20
-210.6879773043099
 30
0.0
 10
74.29787354985154
 20
-209.7260644377664
 30
0.0
 10
65.29982409570626
 20
-208.3625950578681
 30
0.0
 10
56.9712206840973
 20
-206.6708755889437
 30
0.0
 10
49.3213155495055
 20
-204.721618406135
 30
0.0
 10
42.90593188950234
 20
-202.7512997701059
 30
0.0
 10
37.73471954944888
 20
-200.9243421566561
 30
0.0
 10
33.7721430131522
 20
-199.3742583731023
 30
0.0
 10
30.52171818425314
 20
-197.9911720286612
 30
0.0
 10
27.69256657407576
 20
-196.7029572314946
 30
0.0
 10
24.59712442654613
 20
-195.2013257649065
 30
0.0
 10
20.92496544468228
 20
-193.278869081358
 30
0.0
 10
16.71992957309396
 20
-190.8112924848639
 30
0.0
 10
11.49193020361039
 20
-187.7607990420218
 30
0.0
 10
5.188583503507011
 20
-184.0778307949841
 30
0.0
 10
-2.289883283586536
 20
-179.71134364437
 30
0.0
 10
-10.44619348110148
 20
-174.9495590199241
 30
0.0
 10
-19.1190401129355
 20
-169.8878186945657
 30
0.0
 10
-28.28708237772372
 20
-164.5387743028163
 30
0.0
 10
-37.865577061735
 20
-158.9524624900133
 30
0.0
 10
-47.79369285549548
 20
-153.1649959503934
 30
0.0
 10
-57.85929209965715
 20
-147.3006624812498
 30
0.0
 10
-67.92282607070231
 20
-141.4412085760313
 30
0.0
 10
-90.39965360078435
 20
-128.363271065473
 30
0.0
 10
-115.1356222103314
 20
-114.0023484434144
 30
0.0
 10
-142.1234496904224
 20
-98.3885271981954
 30
0.0
 10
-158.9310261762081
 20
-88.68449538265452
 30
0.0
 10
-175.5269836392697
 20
-79.12260643261264
 30
0.0
 10
-191.6943205321749
 20
-69.82462999942476
 30
0.0
 10
-207.886788949261
 20
-60.52701897283782
 30
0.0
 10
-223.9917341711447
 20
-51.29306401313487
 30
0.0
 10
-239.9420673291931
 20
-42.15947341573538
 30
0.0
 10
-255.0800518709629
 20
-33.50008086379771
 30
0.0
 10
-269.6519048178169
 20
-25.17154700040288
 30
0.0
 10
-282.1605950111482
 20
-18.02686323691819
 30
0.0
 10
-292.8096852229939
 20
-11.94727912846325
 30
0.0
 10
-301.7074808371339
 20
-6.867867674903383
 30
0.0
 10
-310.4980041954561
 20
-1.854767416268097
 30
0.0
 10
-317.9342407728119
 20
2.395657301302215
 30
0.0
 10
-323.3310230315115
 20
5.44630492043302
 30
0.0
 10
-325.9178738689009
 20
7.137367243808465
 30
0.0
 10
-327.7783683358465
 20
8.454256044225685
 30
0.0
 10
-329.2151122478651
 20
9.537638592949428
 30
0.0
 10
-330.6560266992682
 20
10.70794506982314
 30
0.0
 10
-331.859140236109
 20
11.76354100969444
 30
0.0
 10
-332.8090012356457
 20
12.65145125474289
 30
0.0
 10
-333.6242719056631
 20
13.45466180056792
 30
0.0
 10
-334.4335281672332
 20
14.29908143562554
 30
0.0
 10
-335.2251075539573
 20
15.18564506920492
 30
0.0
 10
-335.836856973692
 20
15.91810035590931
 30
0.0
 10
-336.2600209475768
 20
16.46136706127706
 30
0.0
 10
-336.2874290538218
 20
16.48875734909489
 30
0.0
 10
-336.2998442890786
 20
16.50116451301807
 30
0.0
  0
SPLINE
  5
DA
330
D5
100
AcDbEntity
  8
0
  6
Continuous
 62
     7
370
    25
100
AcDbSpline
210
0.0
220
0.0
230
1.0
 70
     8
 71
     3
 72
    18
 73
    14
 74
     0
 42
0.000000001
 43
0.00000001
 40
0.0
 40
0.0
 40
0.0
 40
0.0
 40
0.0469919578354944
 40
0.1428694676762994
 40
0.2444811317178921
 40
0.3585641481842541
 40
0.4450869463450715
 40
0.5222464697641311
 40
0.5856736992184131
 40
0.6498513341028911
 40
0.7402649188727873
 40
0.8569404325225908
 40
1.0
 40
1.0
 40
1.0
 40
1.0
 10
336.5237694959783
 20
-96.50062358703113
 30
0.0
 10
336.5390793606324
 20
-96.46991406956757
 30
0.0
 10
336.5856258829327
 20
-96.37654804238532
 30
0.0
 10
335.9384823710721
 20
-97.20956865925288
 30
0.0
 10
335.2157678216845
 20
-98.0232795586414
 30
0.0
 10
334.4174257195068
 20
-98.8728749727708
 30
0.0
 10
333.7381516663696
 20
-99.54987023702287
 30
0.0
 10
333.0771599469745
 20
-100.1817572810896
 30
0.0
 10
332.2829662200276
 20
-100.8979661560809
 30
0.0
 10
331.3478406076757
 20
-101.7011028869272
 30
0.0
 10
330.1356711757027
 20
-102.6847018921345
 30
0.0
 10
328.4723647504774
 20
-103.9495104534596
 30
0.0
 10
327.1209205923901
 20
-104.8672893276376
 30
0.0
 10
326.3765582371518
 20
-105.3727930440012
 30
0.0
  0
SPLINE
  5
DB
330
D5
100
AcDbEntity
  8
0
  6
Continuous
 62
     7
370
    25
100
AcDbSpline
210
0.0
220
0.0
230
1.0
 70
     8
 71
     3
 72
   141
 73
   137
 74
     0
 42
0.000000001
 43
0.00000001
 40
0.0
 40
0.0
 40
0.0
 40
0.0
 40
0.0044857677180743
 40
0.008047375403674
 40
0.0106742583338942
 40
0.0125436845859515
 40
0.0143874148596582
 40
0.0218710424453469
 40
0.0265384088775665
 40
0.0320060918158527
 40
0.0377041743912451
 40
0.0453087231476121
 40
0.0524136879383606
 40
0.0588887959746105
 40
0.065214198596694
 40
0.0801490451876072
 40
0.0953983502337422
 40
0.1109076542685319
 40
0.1148283593513189
 40
0.118174689088716
 40
0.1199502372619123
 40
0.1216682049363641
 40
0.1235972093020966
 40
0.1281545708030286
 40
0.1335391505587332
 40
0.1389459184769729
 40
0.1441185665619293
 40
0.1490537206199696
 40
0.1537528638845
 40
0.1582379337590266
 40
0.1669846066910441
 40
0.1767446797086313
 40
0.1875233892595816
 40
0.198012266899107
 40
0.2093115237940673
 40
0.2203156730894103
 40
0.2302607959583993
 40
0.2391426550461071
 40
0.2469580951662461
 40
0.2537048355832464
 40
0.2601888665693804
 40
0.2672736624525657
 40
0.2749591655306152
 40
0.2832252194567447
 40
0.2918876287311265
 40
0.3062074839566915
 40
0.3213877567326051
 40
0.3369490539761145
 40
0.3626489409040811
 40
0.3872810365950266
 40
0.4108370258382975
 40
0.4333098218809213
 40
0.446880489673506
 40
0.4600231956552303
 40
0.472769045229842
 40
0.4862816379348286
 40
0.5011389031815482
 40
0.510929556877095
 40
0.5212088720805137
 40
0.5319674370298754
 40
0.5429993930150362
 40
0.5529685938946389
 40
0.5616137636708787
 40
0.5689471294145116
 40
0.5726320750779663
 40
0.5758920648581638
 40
0.5794056311527003
 40
0.5839202303722052
 40
0.589143705209954
 40
0.5945682498674922
 40
0.6059816038705994
 40
0.6181250214341313
 40
0.6310582649096209
 40
0.6408174376613565
 40
0.6500024619284201
 40
0.6586003247215949
 40
0.6666035067241077
 40
0.6740217349370239
 40
0.6808793317311275
 40
0.6872006241096283
 40
0.6930874895131562
 40
0.6966501241619347
 40
0.7000564415762653
 40
0.7032053694188882
 40
0.7057463160485861
 40
0.7077580286583462
 40
0.7103183888663852
 40
0.7137225984259858
 40
0.7184472569447345
 40
0.7241995161373694
 40
0.7309780243871621
 40
0.7387197021267633
 40
0.7464325211160882
 40
0.7594889023549344
 40
0.7713049351247679
 40
0.7818876610166187
 40
0.7912836465033963
 40
0.8006591520289194
 40
0.810559715577678
 40
0.8207656557873335
 40
0.8241441903759367
 40
0.8270506579088465
 40
0.8294832160588962
 40
0.831808138797872
 40
0.8348527338661391
 40
0.838652587719405
 40
0.8432135244947533
 40
0.848150781554714
 40
0.8552121923165593
 40
0.8613822272508607
 40
0.8668041990650378
 40
0.8725769331079617
 40
0.876609980712089
 40
0.88056444094349
 40
0.8837153363955642
 40
0.8862216393022632
 40
0.8896617509354905
 40
0.8938081324800319
 40
0.8980303409449064
 40
0.9023172554206873
 40
0.906670453729452
 40
0.9110911836258636
 40
0.9217748904111169
 40
0.932836476525338
 40
0.940556146302791
 40
0.948162794258874
 40
0.9552303569446091
 40
0.9614911329048265
 40
0.9676737509594171
 40
0.9743832860515733
 40
0.9817691504897241
 40
0.984205332068225
 40
0.9869509411611576
 40
0.9904929529161695
 40
0.9948424574733188
 40
1.0
 40
1.0
 40
1.0
 40
1.0
 10
-366.953679910642
 20
43.1067000504037
 30
0.0
 10
-366.4203303675736
 20
41.71451359528815
 30
0.0
 10
-365.4635122119755
 20
39.21695961114334
 30
0.0
 10
-364.0885943753492
 20
35.94631489251673
 30
0.0
 10
-363.0090441197049
 20
33.4955152411117
 30
0.0
 10
-362.1326905485975
 20
31.57867998348503
 30
0.0
 10
-360.5473683956972
 20
28.20969265957932
 30
0.0
 10
-358.4479887789492
 20
24.05164399255813
 30
0.0
 10
-355.6204234488699
 20
18.911806552852
 30
0.0
 10
-352.9446212389012
 20
14.36716937598773
 30
0.0
 10
-349.6028423612791
 20
9.081070709019452
 30
0.0
 10
-345.757415480767
 20
3.469140474774326
 30
0.0
 10
-341.5341414289885
 20
-2.19419862979009
 30
0.0
 10
-337.3742819805422
 20
-7.369742265360301
 30
0.0
 10
-331.3384560341953
 20
-14.38296573016636
 30
0.0
 10
-322.8929456890855
 20
-23.17943380254528
 30
0.0
 10
-311.5490520907609
 20
-33.38134539201617
 30
0.0
 10
-302.3935059929437
 20
-40.50322075775797
 30
0.0
 10
-296.2227011339879
 20
-44.90277641363788
 30
0.0
 10
-293.7114654009955
 20
-46.63136206227642
 30
0.0
 10
-291.876625582425
 20
-47.86955118999617
 30
0.0
 10
-290.5234210380143
 20
-48.7804486859205
 30
0.0
 10
-288.4752443754298
 20
-50.15305471549893
 30
0.0
 10
-285.5750836103079
 20
-52.08229139219994
 30
0.0
 10
-281.8793139596324
 20
-54.51262801713923
 30
0.0
 10
-278.0235027385424
 20
-57.00941086519259
 30
0.0
 10
-274.279612002512
 20
-59.41375831455247
 30
0.0
 10
-270.7264535552123
 20
-61.69465236884638
 30
0.0
 10
-267.3550969818077
 20
-63.85386692612491
 30
0.0
 10
-263.1057283282339
 20
-66.57092128572442
 30
0.0
 10
-257.6766302941388
 20
-70.03387351674068
 30
0.0
 10
-250.7773699814368
 20
-74.41961693133713
 30
0.0
 10
-243.4812070813381
 20
-79.03944964989591
 30
0.0
 10
-235.8302663525598
 20
-83.863316783493
 30
0.0
 10
-228.1329356714902
 20
-88.69427025455975
 30
0.0
 10
-220.5550524675643
 20
-93.42686442194758
 30
0.0
 10
-213.5325644699466
 20
-97.79129052428276
 30
0.0
 10
-207.2513667705597
 20
-101.677200622043
 30
0.0
 10
-201.7162340391296
 20
-105.08715783152
 30
0.0
 10
-196.7406896290971
 20
-108.1407621460642
 30
0.0
 10
-191.9311122275102
 20
-111.0820564400944
 30
0.0
 10
-186.8920862223461
 20
-114.1521763969741
 30
0.0
 10
-181.4227038478569
 20
-117.4705799687438
 30
0.0
 10
-175.5695776249859
 20
-121.0052945223462
 30
0.0
 10
-168.1299351138367
 20
-125.4752090382814
 30
0.0
 10
-159.0288963642696
 20
-130.9042694004076
 30
0.0
 10
-148.258301648763
 20
-137.2670647495075
 30
0.0
 10
-134.7368060294926
 20
-145.1702642683359
 30
0.0
 10
-118.9070712714964
 20
-154.2802404328918
 30
0.0
 10
-101.1005509235101
 20
-164.3400199310906
 30
0.0
 10
-84.02827709116268
 20
-173.8289281995456
 30
0.0
 10
-69.59600829708543
 20
-181.7348022494088
 30
0.0
 10
-57.66855307717791
 20
-188.2002319300341
 30
0.0
 10
-48.08875178381816
 20
-193.3546897479714
 30
0.0
 10
-38.52236614079504
 20
-198.4669292509889
 30
0.0
 10
-28.50038330693713
 20
-203.7876577057547
 30
0.0
 10
-19.15793012017114
 20
-208.7144643518984
 30
0.0
 10
-10.58180698385378
 20
-213.2127376180161
 30
0.0
 10
-2.995248719192184
 20
-217.1748178723711
 30
0.0
 10
4.914037297381046
 20
-221.2899085264754
 30
0.0
 10
12.76092346780194
 20
-225.3496771656385
 30
0.0
 10
20.1351211170859
 20
-229.1718603115677
 30
0.0
 10
26.7637996000892
 20
-232.4702786514076
 30
0.0
 10
31.86205985864382
 20
-234.9921989700069
 30
0.0
 10
35.75709731706117
 20
-236.7366803993454
 30
0.0
 10
38.7111668572756
 20
-237.9634257703383
 30
0.0
 10
42.01656271358974
 20
-239.2392013288042
 30
0.0
 10
46.02093019162133
 20
-240.6488400195342
 30
0.0
 10
50.70452047305881
 20
-242.1133913451655
 30
0.0
 10
57.57736890847394
 20
-243.9851423976802
 30
0.0
 10
66.76504151834689
 20
-245.9441770699568
 30
0.0
 10
78.57407921619613
 20
-247.5299374204647
 30
0.0
 10
90.00793638480596
 20
-248.21416002322
 30
0.0
 10
100.5785747596379
 20
-248.2217858780103
 30
0.0
 10
109.7660930430786
 20
-247.7454225391444
 30
0.0
 10
118.3446726429598
 20
-246.878602185244
 30
0.0
 10
126.2696571490649
 20
-245.6977043718471
 30
0.0
 10
133.5206927378583
 20
-244.2746166059614
 30
0.0
 10
140.1095378479376
 20
-242.6754039707778
 30
0.0
 10
146.0729005553646
 20
-240.955752408543
 30
0.0
 10
150.9265417713312
 20
-239.3353290289494
 30
0.0
 10
154.8365393010235
 20
-237.8801277039167
 30
0.0
 10
157.8850510781817
 20
-236.6539659181562
 30
0.0
 10
160.6023595220233
 20
-235.4793445024896
 30
0.0
 10
162.8474857026172
 20
-234.4463422870906
 30
0.0
 10
164.86700102099
 20
-233.4728222381957
 30
0.0
 10
167.004704098855
 20
-232.3810834755132
 30
0.0
 10
169.8003568474992
 20
-230.927571009697
 30
0.0
 10
173.3779324895041
 20
-229.0647772689793
 30
0.0
 10
177.7659635355132
 20
-226.7618159355723
 30
0.0
 10
182.8650948647789
 20
-224.0659542444339
 30
0.0
 10
188.3937677290278
 20
-221.1167356398051
 30
0.0
 10
195.4496560552695
 20
-217.3167264355939
 30
0.0
 10
203.4657996228061
 20
-212.9425205641725
 30
0.0
 10
212.1267400191678
 20
-208.1397945537519
 30
0.0
 10
219.8515632487861
 20
-203.7923034716046
 30
0.0
 10
226.953027566589
 20
-199.7418492095827
 30
0.0
 10
233.896983622515
 20
-195.7304065752463
 30
0.0
 10
241.0362187968384
 20
-191.55226651206
 30
0.0
 10
246.719344322473
 20
-188.182156482032
 30
0.0
 10
250.6959401604157
 20
-185.8035662375382
 30
0.0
 10
252.7963869171738
 20
-184.5422291941136
 30
0.0
 10
254.6429220970487
 20
-183.4296852744511
 30
0.0
 10
256.5274658234636
 20
-182.2909041194931
 30
0.0
 10
258.744584780619
 20
-180.9467358137459
 30
0.0
 10
261.4993726168218
 20
-179.2696451028239
 30
0.0
 10
264.7047914250407
 20
-177.308445912447
 30
0.0
 10
268.6855268279954
 20
-174.8593033216492
 30
0.0
 10
273.0415336531125
 20
-172.1608155039401
 30
0.0
 10
277.5047259675441
 20
-169.3755805236201
 30
0.0
 10
281.6595179304327
 20
-166.7665763959322
 30
0.0
 10
285.3063993995074
 20
-164.4629402152421
 30
0.0
 10
288.5951506128601
 20
-162.3752140292038
 30
0.0
 10
291.2688383171163
 20
-160.6707667691143
 30
0.0
 10
293.744039166843
 20
-159.0878855868443
 30
0.0
 10
296.2740807532012
 20
-157.453698145576
 30
0.0
 10
299.0819141125452
 20
-155.5686374708857
 30
0.0
 10
302.3093863603934
 20
-153.3159044945054
 30
0.0
 10
305.7220782305817
 20
-150.8253255798897
 30
0.0
 10
309.1346310689872
 20
-148.2216727993233
 30
0.0
 10
312.5419587827385
 20
-145.5025255194396
 30
0.0
 10
317.526537996682
 20
-141.3398622225124
 30
0.0
 10
324.0122861902001
 20
-135.4849165826887
 30
0.0
 10
330.9305937801549
 20
-128.4884183512113
 30
0.0
 10
336.801588786309
 20
-121.9227180387172
 30
0.0
 10
341.5462164897385
 20
-116.1483296349255
 30
0.0
 10
345.7564370293913
 20
-110.5742005401951
 30
0.0
 10
349.47951108773
 20
-105.235124820779
 30
0.0
 10
352.9418305934494
 20
-99.86682513532224
 30
0.0
 10
356.3879007393061
 20
-94.04876572928644
 30
0.0
 10
358.992966149602
 20
-89.19081352098775
 30
0.0
 10
360.8592955874679
 20
-85.44094887620136
 30
0.0
 10
362.1127877441668
 20
-82.81786371175134
 30
0.0
 10
363.5758366490521
 20
-79.58964279036914
 30
0.0
 10
365.2802874796066
 20
-75.58843170191709
 30
0.0
 10
366.4064681362311
 20
-72.6260338531112
 30
0.0
 10
367.0174175275669
 20
-71.01894252901842
 30
0.0
  0
LWPOLYLINE
  5
DC
330
D5
100
AcDbEntity
  8
0
  6
Continuous
 62
     7
370
    25
100
AcDbPolyline
 90
      111
 70
   128
 43
0.0
 10
-159.099025767
 20
-91.8459125801
 10
-51.5916593027
 20
-153.9085941986
 10
-4.2884180584
 20
-181.2161741107
 10
3.1449484228
 20
-185.5073652398
 10
10.5783149041
 20
-189.7985563688
 10
18.0122871955
 20
-194.0893111137
 10
25.762737222
 20
-198.1423985033
 10
34.0571065951
 20
-201.7487934658
 10
43.5278158973
 20
-205.1146163954
 10
53.4972762257
 20
-207.9294864796
 10
63.8975321498
 20
-210.1759437918
 10
74.6604832404
 20
-211.8365284054
 10
85.6979349339
 20
-212.8937803938
 10
96.8860767834
 20
-213.3302398303
 10
108.098055764
 20
-213.1315637495
 10
119.2070188504
 20
-212.3055718951
 10
130.0861308483
 20
-210.8696855766
 10
140.6243583493
 20
-208.8413647206
 10
150.7554780504
 20
-206.2380692537
 10
160.4209134955
 20
-203.0772591025
 10
169.1995933981
 20
-199.5345788241
 10
177.4190524929
 20
-195.5096315066
 10
185.1425478895
 20
-191.1084429345
 10
192.8216454941
 20
-186.6753942475
 10
200.5007430987
 20
-182.2423455604
 10
208.1798407032
 20
-177.8092968734
 10
215.8589383078
 20
-173.3762481863
 10
258.0939751331
 20
-148.9944804076
 10
311.8476583652
 20
-117.9631395984
 10
320.2946657303
 20
-113.0867860427
 10
328.7416730953
 20
-108.2104324869
 10
337.1769834988
 20
-103.3285958956
 10
344.9814140458
 20
-98.1665294262
 10
351.778246533
 20
-92.6090221225
 10
357.2535235656
 20
-87.0292850081
 10
361.7630521982
 20
-81.180714095
 10
365.2765876738
 20
-75.0971248515
 10
367.7638852352
 20
-68.8167471767
 10
369.1947001254
 20
-62.4036792929
 10
369.5388544815
 20
-55.9311415992
 10
368.7828026422
 20
-49.4723647884
 10
366.9513900445
 20
-43.100579553
 10
364.0748614456
 20
-36.8872601427
 10
360.1834616025
 20
-30.8833201952
 10
355.3074352723
 20
-25.1280732514
 10
349.4770272122
 20
-19.6607491465
 10
343.1475414386
 20
-14.8150586727
 10
336.0252827464
 20
-10.2915994851
 10
328.4999189243
 20
-5.947141456
 10
320.9744032718
 20
-1.6027537427
 10
313.4488876193
 20
2.7416339706
 10
305.9233719668
 20
7.0860216839
 10
298.3978563143
 20
11.4304093972
 10
290.8723406618
 20
15.7747971105
 10
243.5690994175
 20
43.0823770227
 10
159.099025767
 20
91.8459125801
 10
51.5916593027
 20
153.9085941986
 10
4.2884180584
 20
181.2161741107
 10
-3.1449484228
 20
185.5073652398
 10
-10.5783149041
 20
189.7985563688
 10
-18.0122871955
 20
194.0893111137
 10
-25.762737222
 20
198.1423985033
 10
-34.0571065951
 20
201.7487934658
 10
-43.5278158973
 20
205.1146163954
 10
-53.4972762257
 20
207.9294864796
 10
-63.8975321498
 20
210.1759437918
 10
-74.6604832404
 20
211.8365284054
 10
-85.6979349339
 20
212.8937803938
 10
-96.8860767834
 20
213.3302398303
 10
-108.098055764
 20
213.1315637495
 10
-119.2070188504
 20
212.3055718951
 10
-130.0861308483
 20
210.8696855766
 10
-140.6243583493
 20
208.8413647206
 10
-150.7554780504
 20
206.2380692537
 10
-160.4209134955
 20
203.0772591025
 10
-169.1995933981
 20
199.5345788241
 10
-177.4190524929
 20
195.5096315066
 10
-185.1425478895
 20
191.1084429345
 10
-192.8216454941
 20
186.6753942475
 10
-200.5007430987
 20
182.2423455604
 10
-208.1798407032
 20
177.8092968734
 10
-215.8589383078
 20
173.3762481863
 10
-258.0939751331
 20
148.9944804076
 10
-311.8476583652
 20
117.9631395984
 10
-320.2946657303
 20
113.0867860427
 10
-328.7416730953
 20
108.2104324869
 10
-337.1769834988
 20
103.3285958956
 10
-344.9814140458
 20
98.1665294262
 10
-351.778246533
 20
92.6090221225
 10
-357.2535235656
 20
87.0292850081
 10
-361.7630521982
 20
81.180714095
 10
-365.2765876738
 20
75.0971248515
 10
-367.7638852352
 20
68.8167471767
 10
-369.1947001254
 20
62.4036792929
 10
-369.5388544815
 20
55.9311415992
 10
-368.7828026422
 20
49.4723647884
 10
-366.9513900445
 20
43.100579553
 10
-364.0748614456
 20
36.8872601427
 10
-360.1834616025
 20
30.8833201952
 10
-355.3074352723
 20
25.1280732514
 10
-349.4770272122
 20
19.6607491465
 10
-343.1475414386
 20
14.8150586727
 10
-336.0252827464
 20
10.2915994851
 10
-328.4999189243
 20
5.947141456
 10
-320.9744032718
 20
1.6027537427
 10
-313.4488876193
 20
-2.7416339706
 10
-305.9233719668
 20
-7.0860216839
 10
-298.3978563143
 20
-11.4304093972
 10
-290.8723406618
 20
-15.7747971105
 10
-243.5690994175
 20
-43.0823770227
 10
-159.099025767
 20
-91.8459125801
  0
SPLINE
  5
DD
330
D5
100
AcDbEntity
  8
0
  6
Continuous
 62
     7
370
    25
100
AcDbSpline
210
0.0
220
0.0
230
1.0
 70
    11
 71
     3
 72
    91
 73
    87
 74
     0
 42
0.000000001
 43
0.00000001
 40
0.0
 40
0.0
 40
0.0
 40
0.0
 40
0.015715329323667
 40
0.0313365903140736
 40
0.0469008961822912
 40
0.0625511112566102
 40
0.0704050313533396
 40
0.0782130612328417
 40
0.0937458879341647
 40
0.1093051352885359
 40
0.1250097435715774
 40
0.1289375778928097
 40
0.1328513729997343
 40
0.1406956310688404
 40
0.1563779362116597
 40
0.1875025360492945
 40
0.2032190162937042
 40
0.2051814785650466
 40
0.2071424867189097
 40
0.2110579587415679
 40
0.2188658954711683
 40
0.2501028458468528
 40
0.281379295515446
 40
0.2891831352259114
 40
0.2970111566421417
 40
0.2992516913508036
 40
0.3009344795197053
 40
0.3048714480964479
 40
0.3127360845847592
 40
0.3438587753574818
 40
0.3595110330487662
 40
0.3673428697988675
 40
0.3712374696869971
 40
0.3751306422415008
 40
0.3906586882204033
 40
0.4062315868956144
 40
0.4140863393677859
 40
0.4219293127896793
 40
0.4297319629332585
 40
0.4375170645888376
 40
0.4530930197687589
 40
0.4687966373117038
 40
0.4845019409460231
 40
0.5002261535964635
 40
0.5158955684836009
 40
0.5314546303567628
 40
0.5470509703307367
 40
0.5627506632362311
 40
0.5705502715855225
 40
0.5783254191523385
 40
0.5938623696166277
 40
0.6095183369405306
 40
0.6252230247959848
 40
0.6291509655327159
 40
0.6330719526358175
 40
0.6409171599386423
 40
0.6565023000531516
 40
0.6876978395975583
 40
0.7033697138954241
 40
0.7053210556163391
 40
0.70727193605837
 40
0.7111725755582469
 40
0.7189714389333609
 40
0.7503159078837749
 40
0.7814701920694559
 40
0.797178560590067
 40
0.7991464547020146
 40
0.8011101642873282
 40
0.8050281964214029
 40
0.8128376349348999
 40
0.8439772014421036
 40
0.8596556565987131
 40
0.8674247161309862
 40
0.8696376043504664
 40
0.8718515255685277
 40
0.8751760081717632
 40
0.8907056603344008
 40
0.9063712965881694
 40
0.9141975900051096
 40
0.9219892477348901
 40
0.9297655916034409
 40
0.9375449461900948
 40
0.953180318633612
 40
0.968864578461208
 40
0.9844245090306404
 40
1.0
 40
1.0
 40
1.0
 40
1.0
 10
-24.15331418229026
 20
-111.8048173466437
 30
0.0
 10
-24.95091042296575
 20
-111.34437452685
 30
0.0
 10
-26.46122067275293
 20
-110.381366799496
 30
0.0
 10
-28.46670071222216
 20
-108.82362743497
 30
0.0
 10
-30.20273637216243
 20
-107.1684264490472
 30
0.0
 10
-31.41770508217284
 20
-105.7166624682171
 30
0.0
 10
-32.24338977619601
 20
-104.5181975165058
 30
0.0
 10
-32.96529118109001
 20
-103.3031022471376
 30
0.0
 10
-33.6744018129143
 20
-101.7523782737068
 30
0.0
 10
-34.20106911212618
 20
-99.84691742040144
 30
0.0
 10
-34.3429076011162
 20
-98.39654241587003
 30
0.0
 10
-34.32991516429176
 20
-97.42598212901729
 30
0.0
 10
-34.2934854110304
 20
-96.77939662901913
 30
0.0
 10
-34.15205519282213
 20
-95.64915616872267
 30
0.0
 10
-33.57048866494153
 20
-93.41228108061021
 30
0.0
 10
-32.23789710409643
 20
-90.92097701107205
 30
0.0
 10
-30.73281147339764
 20
-89.09260538477987
 30
0.0
 10
-30.05947498059232
 20
-88.37753570931795
 30
0.0
 10
-29.7848199171641
 20
-88.09402378337562
 30
0.0
 10
-29.28998292911822
 20
-87.6041115230442
 30
0.0
 10
-27.6419851483535
 20
-86.0993206551379
 30
0.0
 10
-24.42945171730142
 20
-83.82537469177642
 30
0.0
 10
-20.48675188794387
 20
-81.9748684783568
 30
0.0
 10
-17.63929046799311
 20
-80.93950005666031
 30
0.0
 10
-16.52258178369452
 20
-80.57531887242419
 30
0.0
 10
-15.77616642116269
 20
-80.34919949276096
 30
0.0
 10
-15.2737607578737
 20
-80.20142155830841
 30
0.0
 10
-14.40427203869283
 20
-79.95647524608896
 30
0.0
 10
-11.58949076489452
 20
-79.23471273978264
 30
0.0
 10
-7.811734951957067
 20
-78.563757762948
 30
0.0
 10
-3.930834862166714
 20
-78.22648710193478
 30
0.0
 10
-1.970422284216639
 20
-78.14273174577323
 30
0.0
 10
-0.8502007136559041
 20
-78.1195933823105
 30
0.0
 10
0.8226918234916676
 20
-78.10871393315433
 30
0.0
 10
3.334100721261066
 20
-78.18284224991386
 30
0.0
 10
6.099545901955747
 20
-78.42543087621709
 30
0.0
 10
8.284091300567702
 20
-78.71418264021061
 30
0.0
 10
9.90480566149526
 20
-78.97769703141317
 30
0.0
 10
11.49615043935634
 20
-79.2854612401733
 30
0.0
 10
13.57559481293026
 20
-79.75279554743526
 30
0.0
 10
16.10581625709837
 20
-80.44542802701638
 30
0.0
 10
18.99717888541123
 20
-81.44247862421275
 30
0.0
 10
21.71751906621718
 20
-82.60139420479301
 30
0.0
 10
24.2258373941088
 20
-83.91144081045626
 30
0.0
 10
26.48534758971076
 20
-85.36032660582195
 30
0.0
 10
28.48448290223542
 20
-86.9286354391002
 30
0.0
 10
30.21830811774144
 20
-88.60364120887081
 30
0.0
 10
31.43126533934376
 20
-90.07605012897945
 30
0.0
 10
32.25373308149933
 20
-91.28980789660243
 30
0.0
 10
32.97224091843587
 20
-92.51854482752745
 30
0.0
 10
33.6810098310677
 20
-94.09317586290108
 30
0.0
 10
34.20549600187377
 20
-96.02691906612843
 30
0.0
 10
34.34420005589389
 20
-97.49702933671009
 30
0.0
 10
34.32901342387547
 20
-98.47729692402507
 30
0.0
 10
34.29094063278608
 20
-99.12982880535193
 30
0.0
 10
34.14718519542891
 20
-100.2640421260106
 30
0.0
 10
33.56164569526166
 20
-102.5094955412156
 30
0.0
 10
32.22633410930329
 20
-105.0011997557006
 30
0.0
 10
30.71742348738189
 20
-106.8284196350696
 30
0.0
 10
30.04533376991142
 20
-107.5398392449692
 30
0.0
 10
29.77157903097966
 20
-107.8215834084701
 30
0.0
 10
29.27736108414597
 20
-108.3094999214191
 30
0.0
 10
27.62438129786482
 20
-109.8149805361444
 30
0.0
 10
24.4084486277713
 20
-112.0855736271716
 30
0.0
 10
20.02188491320297
 20
-114.1416343830542
 30
0.0
 10
17.008506488175
 20
-115.1799399240803
 30
0.0
 10
15.76089900859344
 20
-115.5585106326795
 30
0.0
 10
15.25911626759175
 20
-115.7062754221524
 30
0.0
 10
14.37585506349238
 20
-115.9547562195896
 30
0.0
 10
11.56384243875256
 20
-116.6742997075357
 30
0.0
 10
7.786066101478507
 20
-117.3401631581107
 30
0.0
 10
3.906074198261323
 20
-117.6652346280656
 30
0.0
 10
2.068580626454677
 20
-117.7355486496467
 30
0.0
 10
1.19412842666685
 20
-117.7518094781872
 30
0.0
 10
0.6381076895497738
 20
-117.757389025422
 30
0.0
 10
-0.8734871799719636
 20
-117.7569553023105
 30
0.0
 10
-3.350853967098116
 20
-117.6681383802155
 30
0.0
 10
-6.120698936502529
 20
-117.4039090514464
 30
0.0
 10
-8.305437973465565
 20
-117.096719264916
 30
0.0
 10
-9.918504330133876
 20
-116.8212112449996
 30
0.0
 10
-11.50413581854601
 20
-116.50201626048
 30
0.0
 10
-13.58542165836749
 20
-116.0181224418787
 30
0.0
 10
-16.11785047043993
 20
-115.3060141901216
 30
0.0
 10
-19.00197397130691
 20
-114.2924129480709
 30
0.0
 10
-21.70372123800437
 20
-113.1292052276182
 30
0.0
 10
-23.36281512318831
 20
-112.2611630479585
 30
0.0
 10
-24.15331418229027
 20
-111.8048173466437
 30
0.0
  0
SPLINE
  5
DE
330
D5
100
AcDbEntity
  8
0
  6
Continuous
 62
     7
370
    25
100
AcDbSpline
210
0.0
220
0.0
230
1.0
 70
     8
 71
     3
 72
    32
 73
    28
 74
     0
 42
0.000000001
 43
0.00000001
 40
0.0
 40
0.0
 40
0.0
 40
0.0
 40
0.0073885673420457
 40
0.0485295867929115
 40
0.0903180901058993
 40
0.1317911837347496
 40
0.1728414442174886
 40
0.2139093545450811
 40
0.2553663115670901
 40
0.2972502012248432
 40
0.3382334465497286
 40
0.3795029644853267
 40
0.4213824800936382
 40
0.4629606686068397
 40
0.5037611829703741
 40
0.5447992685707128
 40
0.586166638780077
 40
0.6280636502905965
 40
0.6691300465252953
 40
0.7101358734472126
 40
0.7520452478108972
 40
0.7934205772939427
 40
0.8345860506698318
 40
0.8755384132475815
 40
0.9170948406712295
 40
0.9588461630839251
 40
0.9999999999999999
 40
0.9999999999999999
 40
0.9999999999999999
 40
0.9999999999999999
 10
15.26762727919064
 20
-115.6046883406254
 30
0.0
 10
15.47385738023034
 20
-115.5104338666758
 30
0.0
 10
16.82841789573968
 20
-114.8913516464827
 30
0.0
 10
18.75972096838361
 20
-113.3703975185513
 30
0.0
 10
20.90167178773425
 20
-111.1359756707789
 30
0.0
 10
22.21431866377655
 20
-108.674250029071
 30
0.0
 10
22.6713821698062
 20
-106.123228517082
 30
0.0
 10
22.22940925041116
 20
-103.5566318032345
 30
0.0
 10
20.91572688285681
 20
-101.07507515814
 30
0.0
 10
18.83105462080936
 20
-98.78544225082413
 30
0.0
 10
16.03425201607585
 20
-96.78246372972154
 30
0.0
 10
12.5857256595204
 20
-95.17293782061803
 30
0.0
 10
8.649609188873177
 20
-93.98227356604951
 30
0.0
 10
4.402170281272311
 20
-93.24925886865562
 30
0.0
 10
0.0067220397737405
 20
-93.01610111782045
 30
0.0
 10
-4.382108905626068
 20
-93.28365754166259
 30
0.0
 10
-8.631788427268678
 20
-94.04442466158272
 30
0.0
 10
-12.55757786489798
 20
-95.24849420769105
 30
0.0
 10
-16.00506346119485
 20
-96.86123109842836
 30
0.0
 10
-18.80547718908324
 20
-98.84990680424656
 30
0.0
 10
-20.90061013056269
 20
-101.1161584732567
 30
0.0
 10
-22.22180188451982
 20
-103.5686208031064
 30
0.0
 10
-22.67024624032557
 20
-106.0953836550827
 30
0.0
 10
-22.22662117082476
 20
-108.6151420156724
 30
0.0
 10
-20.90107374319024
 20
-111.035180001226
 30
0.0
 10
-18.84667727223932
 20
-113.3024120615454
 30
0.0
 10
-16.88411283583131
 20
-114.5762999527413
 30
0.0
 10
-15.90990257669735
 20
-115.2086535354144
 30
0.0
  0
SPLINE
  5
DF
330
D5
100
AcDbEntity
  8
0
  6
Continuous
 62
     7
370
    25
100
AcDbSpline
210
0.0
220
0.0
230
1.0
 70
     8
 71
     3
 72
    21
 73
    17
 74
     0
 42
0.000000001
 43
0.00000001
 40
0.0
 40
0.0
 40
0.0
 40
0.0
 40
0.024886694013397
 40
0.1045055153445375
 40
0.1844967244732228
 40
0.2644879336019083
 40
0.3441067549330494
 40
0.4224756224097325
 40
0.4995182955188552
 40
0.5765598664596876
 40
0.6549287488189168
 40
0.7345278130196635
 40
0.8144466310163149
 40
0.8943097886952756
 40
0.9738889057401101
 40
1.0
 40
1.0
 40
1.0
 40
1.0
 10
-21.22463586484129
 20
-110.1830139453657
 30
0.0
 10
-21.09827460528569
 20
-109.9245798330423
 30
0.0
 10
-20.56765175347843
 20
-108.8393497065968
 30
0.0
 10
-18.81624995991844
 20
-107.0955938490738
 30
0.0
 10
-16.0320579295449
 20
-105.0644866910886
 30
0.0
 10
-12.51607113613494
 20
-103.432573396215
 30
0.0
 10
-8.568161446202428
 20
-102.227362952206
 30
0.0
 10
-4.345983151942105
 20
-101.4817086285712
 30
0.0
 10
-0.0000248672030901
 20
-101.230875501149
 30
0.0
 10
4.345959408136753
 20
-101.4816791666502
 30
0.0
 10
8.56769933998629
 20
-102.2273198614293
 30
0.0
 10
12.51444074130041
 20
-103.4316631913875
 30
0.0
 10
16.02803335694562
 20
-105.061225030447
 30
0.0
 10
18.81226771527557
 20
-107.0894677998927
 30
0.0
 10
20.56884098913653
 20
-108.8442783862943
 30
0.0
 10
21.105395215454
 20
-109.9418685918483
 30
0.0
 10
21.23795259996452
 20
-110.2130316538023
 30
0.0
  0
VIEWPORT
  5
101
330
D5
100
AcDbEntity
  8
0
100
AcDbViewport
 10
0.0
 20
0.0
 30
0.0
 40
205.6
 41
156.0
 68
     1
 69
     1
 12
0.0
 22
-13.9752192724
 13
0.0
 23
0.0
 14
10.0
 24
10.0
 15
10.0
 25
10.0
 16
0.0
 26
0.0
 36
1.0
 17
0.0
 27
0.0
 37
0.0
 42
50.0
 43
0.0
 44
0.0
 45
592.7867926039
 50
0.0
 51
0.0
 72
   100
 90
   557152
  1

281
     0
 71
     1
 74
     0
110
0.0
120
0.0
130
0.0
111
1.0
121
0.0
131
0.0
112
0.0
122
1.0
132
0.0
 79
     0
146
0.0
170
     0
 61
     5
348
2F
292
     1
282
     1
141
0.0
142
0.0
 63
   256
361
102
  0
ENDBLK
  5
D8
330
D5
100
AcDbEntity
  8
0
100
AcDbBlockEnd
  0
BLOCK
  5
E2
330
E0
100
AcDbEntity
  8
0
100
AcDbBlockBegin
  2
*Paper_Space7
 70
     0
 10
0.0
 20
0.0
 30
0.0
  3
*Paper_Space7
  1

  0
SPLINE
  5
E4
330
E0
100
AcDbEntity
  8
0
  6
Continuous
 62
     7
370
    25
100
AcDbSpline
210
0.0
220
0.0
230
1.0
 70
     8
 71
     3
 72
   120
 73
   116
 74
     0
 42
0.000000001
 43
0.00000001
 40
0.0
 40
0.0
 40
0.0
 40
0.0
 40
0.0079682025360752
 40
0.0148526033684333
 40
0.0206450977818419
 40
0.0257221788187709
 40
0.0304704448130472
 40
0.0348895356160859
 40
0.039106721936384
 40
0.0477959247242033
 40
0.0578759118946931
 40
0.0693467472186417
 40
0.0807636836309349
 40
0.0932328832877054
 40
0.1059288344392782
 40
0.1185777315445597
 40
0.1311797773844547
 40
0.1437351732034695
 40
0.1544599630092812
 40
0.1651507511918795
 40
0.1758076620863427
 40
0.1864308193492192
 40
0.1965463947473532
 40
0.2053926734108875
 40
0.2129639292957977
 40
0.2180167963980786
 40
0.2222683032584392
 40
0.2257259843556133
 40
0.2291111436473116
 40
0.2330721759197807
 40
0.2377648321452506
 40
0.2432781655084445
 40
0.250491915098066
 40
0.2585906079015212
 40
0.2673272890812975
 40
0.276717314322138
 40
0.2833536432526283
 40
0.2902916849585478
 40
0.2975262717632409
 40
0.3043183180374231
 40
0.310048376210838
 40
0.3147166938418633
 40
0.3182014053669672
 40
0.3207296256150818
 40
0.3229554414122642
 40
0.3252089569715372
 40
0.3274899773236116
 40
0.3297982872061515
 40
0.3321477552507751
 40
0.3393902253498861
 40
0.3478569102734211
 40
0.3550903000446422
 40
0.3630368599254298
 40
0.3717087340063969
 40
0.3812029603926769
 40
0.3914811087054274
 40
0.4025818733534479
 40
0.414472010294812
 40
0.4271104568169972
 40
0.4402501437185189
 40
0.4540860276120775
 40
0.4680089296936123
 40
0.4817469705138315
 40
0.5181186781130394
 40
0.5531381531004318
 40
0.5868121572721801
 40
0.6191467964979657
 40
0.6501476712760965
 40
0.679301710427249
 40
0.7072266477885774
 40
0.7341281744356307
 40
0.7600309723379138
 40
0.7789906165193962
 40
0.7973790701677744
 40
0.8151971917844131
 40
0.8328397183864538
 40
0.8516760207879946
 40
0.8718451232855011
 40
0.8768872433499747
 40
0.8820030406601103
 40
0.8868949338323427
 40
0.8913899477343298
 40
0.8954871090212656
 40
0.8995799515403838
 40
0.9045696497040856
 40
0.9091333022758745
 40
0.9136873610375338
 40
0.9179214232236459
 40
0.9216387376819869
 40
0.924224554675176
 40
0.9269206393782073
 40
0.9304031468981392
 40
0.934427716392557
 40
0.9388917577782517
 40
0.9429826960481392
 40
0.9463671202635573
 40
0.950925368393328
 40
0.9547692574351151
 40
0.9575351681151286
 40
0.9604320415079719
 40
0.9632905301542622
 40
0.9668804508725277
 40
0.9712789937544418
 40
0.9753336171344024
 40
0.9782994267208385
 40
0.9814022588315824
 40
0.9852328788182454
 40
0.9896174662731086
 40
0.9943887471315999
 40
0.9966412594182515
 40
0.9983412054500044
 40
0.9994961280192428
 40
0.999717087588317
 40
0.9999360017556477
 40
1.0
 40
1.0
 40
1.0
 40
1.0
 10
354.5555705344646
 20
-49.10839480269147
 30
0.0
 10
353.6329744796665
 20
-49.99913572244561
 30
0.0
 10
351.9132700407849
 20
-51.65946269396087
 30
0.0
 10
349.3428075740948
 20
-54.20607582603922
 30
0.0
 10
346.9088598219533
 20
-56.62227304421749
 30
0.0
 10
344.6308974594691
 20
-58.88161519269662
 30
0.0
 10
342.5826477273594
 20
-60.91118299438509
 30
0.0
 10
340.6492950954158
 20
-62.82529463082931
 30
0.0
 10
338.1474033750104
 20
-65.30027980348616
 30
0.0
 10
334.8138391908491
 20
-68.59401462103376
 30
0.0
 10
330.4133452007524
 20
-72.93420087706022
 30
0.0
 10
325.6003910987574
 20
-77.67139645391626
 30
0.0
 10
320.4250383207396
 20
-82.75392088026571
 30
0.0
 10
315.0563190196917
 20
-88.0138292574296
 30
0.0
 10
309.4998115247489
 20
-93.44370704771433
 30
0.0
 10
303.9169700914464
 20
-98.88484612701343
 30
0.0
 10
298.3482874045366
 20
-104.2984009059839
 30
0.0
 10
293.0571498466956
 20
-109.4296383442068
 30
0.0
 10
288.0430186995393
 20
-114.2817549458045
 30
0.0
 10
283.3049288637584
 20
-118.8580103686127
 30
0.0
 10
278.5786102842161
 20
-123.4145108473441
 30
0.0
 10
273.9317628919321
 20
-127.8867384308169
 30
0.0
 10
269.5568638976881
 20
-132.0898080443
 30
0.0
 10
265.673437314726
 20
-135.8196503192245
 30
0.0
 10
262.5633233922881
 20
-138.8004933552443
 30
0.0
 10
260.1726055366136
 20
-141.1098441271526
 30
0.0
 10
258.2422963494816
 20
-142.7836155993556
 30
0.0
 10
256.5258804739251
 20
-144.1681681078661
 30
0.0
 10
254.832245603661
 20
-145.448747191568
 30
0.0
 10
252.8890549976381
 20
-146.8253675752791
 30
0.0
 10
250.4498204550616
 20
-148.4292525616312
 30
0.0
 10
247.226169307585
 20
-150.3717574819486
 30
0.0
 10
243.0771735639889
 20
-152.6171949099223
 30
0.0
 10
237.8987114536621
 20
-155.0806365760244
 30
0.0
 10
231.8083450484232
 20
-157.5885110510441
 30
0.0
 10
225.6458002707646
 20
-159.7478745517903
 30
0.0
 10
219.6297616752042
 20
-161.5601206537582
 30
0.0
 10
213.9677791397153
 20
-163.0490855752084
 30
0.0
 10
208.0634480055329
 20
-164.3799883310868
 30
0.0
 10
202.3386075321057
 20
-165.467473059037
 30
0.0
 10
197.2480125601915
 20
-166.2781966793969
 30
0.0
 10
193.0703402472788
 20
-166.8395734400615
 30
0.0
 10
189.8205489507456
 20
-167.2149084334803
 30
0.0
 10
187.2928551290053
 20
-167.4722106628183
 30
0.0
 10
185.1307443580208
 20
-167.6691173683238
 30
0.0
 10
183.0362115101214
 20
-167.8388857068157
 30
0.0
 10
180.9077195516554
 20
-167.989968715136
 30
0.0
 10
178.7417614531678
 20
-168.1217432762879
 30
0.0
 10
175.0156225991805
 20
-168.3102547352259
 30
0.0
 10
169.324963136183
 20
-168.4785474141026
 30
0.0
 10
162.0656003742739
 20
-168.4428583938193
 30
0.0
 10
154.5963256784229
 20
-168.1487037719134
 30
0.0
 10
147.1067909952909
 20
-167.6015903894491
 30
0.0
 10
139.0016537660356
 20
-166.7068670885804
 30
0.0
 10
130.3433408594854
 20
-165.3803260884585
 30
0.0
 10
121.1858663340519
 20
-163.5606589815631
 30
0.0
 10
111.7834965630217
 20
-161.0711884802491
 30
0.0
 10
101.8499826541377
 20
-158.2944364628611
 30
0.0
 10
91.31567246863175
 20
-155.394294180885
 30
0.0
 10
80.25332834815403
 20
-152.3369329369343
 30
0.0
 10
68.8350683895953
 20
-149.1857759008163
 30
0.0
 10
57.2504952489271
 20
-145.9886722860177
 30
0.0
 10
39.37235865523948
 20
-141.056992746966
 30
0.0
 10
15.6001865587696
 20
-134.5051585783029
 30
0.0
 10
-13.74740622915949
 20
-126.4327604050236
 30
0.0
 10
-41.97604869750986
 20
-118.6879890949261
 30
0.0
 10
-69.0910840758486
 20
-111.2715327956966
 30
0.0
 10
-94.95242869335344
 20
-104.2224114602828
 30
0.0
 10
-119.59068438482
 20
-97.53234748309646
 30
0.0
 10
-143.0927416227294
 20
-91.17265777857952
 30
0.0
 10
-165.6899958182814
 20
-85.07515793427346
 30
0.0
 10
-185.7833047461959
 20
-79.66616265891041
 30
0.0
 10
-203.497448471559
 20
-74.90567738108508
 30
0.0
 10
-218.9511566289127
 20
-70.75766052722946
 30
0.0
 10
-234.0389135268732
 20
-66.71179138830031
 30
0.0
 10
-249.2587153737937
 20
-62.63363031872887
 30
0.0
 10
-265.1911799082428
 20
-58.36603247333564
 30
0.0
 10
-277.6075936162506
 20
-55.04086659678071
 30
0.0
 10
-286.1666024705049
 20
-52.74873663226298
 30
0.0
 10
-290.4167334277467
 20
-51.61052184138137
 30
0.0
 10
-294.5109929428895
 20
-50.51402508146044
 30
0.0
 10
-298.3146612855734
 20
-49.49530309440956
 30
0.0
 10
-301.8897103179518
 20
-48.53772817221179
 30
0.0
 10
-305.6008007557921
 20
-47.54368617561643
 30
0.0
 10
-309.4345844258328
 20
-46.5164474477609
 30
0.0
 10
-313.4142871592308
 20
-45.45087534991891
 30
0.0
 10
-317.107645228866
 20
-44.45886337490457
 30
0.0
 10
-320.4394125470384
 20
-43.57841627973924
 30
0.0
 10
-323.0455890110118
 20
-42.81969733380976
 30
0.0
 10
-325.1129098762995
 20
-42.17676231810456
 30
0.0
 10
-327.0931746041819
 20
-41.52666819364167
 30
0.0
 10
-329.440362092461
 20
-40.70609682446557
 30
0.0
 10
-332.0095224308409
 20
-39.73528240868416
 30
0.0
 10
-334.4121580615052
 20
-38.74952745766194
 30
0.0
 10
-336.5430714600261
 20
-37.8124843924661
 30
0.0
 10
-338.7548678707519
 20
-36.77456297460878
 30
0.0
 10
-340.7396631008162
 20
-35.77484644047578
 30
0.0
 10
-342.5589737383625
 20
-34.79223491826157
 30
0.0
 10
-344.1199625920938
 20
-33.8962606397324
 30
0.0
 10
-345.4197618077
 20
-33.11040208137453
 30
0.0
 10
-346.7634699309227
 20
-32.25531609183761
 30
0.0
 10
-348.2159239508346
 20
-31.27629036158457
 30
0.0
 10
-349.7121415389751
 20
-30.19315192040127
 30
0.0
 10
-351.0239993386633
 20
-29.1663742166875
 30
0.0
 10
-352.1012424754609
 20
-28.26456025942996
 30
0.0
 10
-353.0513915281577
 20
-27.42091757148188
 30
0.0
 10
-354.0378501908111
 20
-26.48529831703793
 30
0.0
 10
-355.0783697290292
 20
-25.40994577191379
 30
0.0
 10
-355.8727623764091
 20
-24.50317324166274
 30
0.0
 10
-356.4949930497843
 20
-23.72689341001595
 30
0.0
 10
-356.8506974378674
 20
-23.25922787416745
 30
0.0
 10
-357.1545481702551
 20
-22.8481288629277
 30
0.0
 10
-357.276002885142
 20
-22.67813722790756
 30
0.0
 10
-357.2994589489111
 20
-22.64299753730364
 30
0.0
 10
-357.2886800519709
 20
-22.65565851884047
 30
0.0
 10
-357.2862417337785
 20
-22.65852258756516
 30
0.0
  0
SPLINE
  5
E5
330
E0
100
AcDbEntity
  8
0
  6
Continuous
 62
     7
370
    25
100
AcDbSpline
210
0.0
220
0.0
230
1.0
 70
     8
 71
     3
 72
    15
 73
    11
 74
     0
 42
0.000000001
 43
0.00000001
 40
0.0
 40
0.0
 40
0.0
 40
0.0
 40
0.1363219417372847
 40
0.2800377629573736
 40
0.3279392630784664
 40
0.3766276880023163
 40
0.4573227033584644
 40
0.5876426809698295
 40
0.7682948668539015
 40
0.9999999999999999
 40
0.9999999999999999
 40
0.9999999999999999
 40
0.9999999999999999
 10
359.0992417021237
 20
-44.10017393980862
 30
0.0
 10
359.0751829192123
 20
-44.14052209671713
 30
0.0
 10
359.0257604442962
 20
-44.22340682866939
 30
0.0
 10
358.8926279620228
 20
-44.4291331138789
 30
0.0
 10
358.7697392178387
 20
-44.6017858812319
 30
0.0
 10
358.6980498021289
 20
-44.70130985375043
 30
0.0
 10
358.3024796274056
 20
-45.22156054116297
 30
0.0
 10
357.5602123157154
 20
-46.11252424657251
 30
0.0
 10
356.3115632872929
 20
-47.45735618329905
 30
0.0
 10
355.1872989223295
 20
-48.51442426172446
 30
0.0
 10
354.5555705344646
 20
-49.10839480269147
 30
0.0
  0
SPLINE
  5
E6
330
E0
100
AcDbEntity
  8
0
  6
Continuous
 62
     7
370
    25
100
AcDbSpline
210
0.0
220
0.0
230
1.0
 70
     8
 71
     3
 72
   157
 73
   153
 74
     0
 42
0.000000001
 43
0.00000001
 40
0.0
 40
0.0
 40
0.0
 40
0.0
 40
0.0048189979262154
 40
0.0084210385686115
 40
0.0108034240722467
 40
0.0127203202735538
 40
0.015872541525993
 40
0.0194586378863318
 40
0.0246919507788319
 40
0.0300929976465889
 40
0.0351126258861226
 40
0.0407727243120914
 40
0.0464743767972932
 40
0.052296271411216
 40
0.0582052739886059
 40
0.064177334901195
 40
0.0757797391123451
 40
0.0879131669404926
 40
0.100395058203931
 40
0.113487690740731
 40
0.1270596598132133
 40
0.135563870892579
 40
0.1428830118722113
 40
0.1494726660007443
 40
0.1560618941051882
 40
0.1598617323100094
 40
0.1641971598628638
 40
0.1683397156741413
 40
0.1722816989791833
 40
0.1799070057280642
 40
0.1874889089422427
 40
0.1953910053191069
 40
0.2036606336403216
 40
0.2104226382521879
 40
0.2168680970935056
 40
0.222471587663272
 40
0.2272256538373979
 40
0.2312097962672534
 40
0.2352585122753222
 40
0.2399363428874697
 40
0.2452455924772662
 40
0.2511886185049167
 40
0.2577677722379453
 40
0.2649853304385989
 40
0.274215510848676
 40
0.2843204733584527
 40
0.2953025424728771
 40
0.3064637454101217
 40
0.3170139548226258
 40
0.3269471184350805
 40
0.3378559773660567
 40
0.347896035978528
 40
0.3570630909229319
 40
0.365354152403906
 40
0.3728938879251232
 40
0.3797239090764362
 40
0.3864878525568221
 40
0.3932328698895223
 40
0.3999578537026353
 40
0.4067621299804515
 40
0.4144368170099187
 40
0.4230215987079011
 40
0.4325069176197098
 40
0.4431018404638836
 40
0.4546068733811829
 40
0.4664689818151435
 40
0.4780043247620058
 40
0.4892170662010593
 40
0.5001139726780307
 40
0.5107019528627362
 40
0.5264463345124182
 40
0.5414981197957
 40
0.5558359359722024
 40
0.5693817509236069
 40
0.5820885300695322
 40
0.5888325086098721
 40
0.5952805512339242
 40
0.6014498710734141
 40
0.6074662669937546
 40
0.6133654856747216
 40
0.6191514334723845
 40
0.6255424974619875
 40
0.6311966240628456
 40
0.6374573283700474
 40
0.6436858326193976
 40
0.6498316787855973
 40
0.655837397690926
 40
0.6611227053814204
 40
0.6652999951131872
 40
0.6691658382683217
 40
0.6734943376270159
 40
0.6783851785996476
 40
0.6840740451881744
 40
0.6913759119016474
 40
0.6983117713486592
 40
0.7045601384863113
 40
0.7116770114099217
 40
0.7165727549013162
 40
0.7194650596935925
 40
0.7229022355178386
 40
0.7259201801503409
 40
0.7285012884217906
 40
0.7305053505680429
 40
0.7315653448392598
 40
0.7327411468871027
 40
0.7355762943026599
 40
0.7391651514673578
 40
0.7431256289969461
 40
0.7484660408964189
 40
0.7542198842608407
 40
0.7603852516264114
 40
0.7667033802891834
 40
0.772285401510381
 40
0.7770556389345488
 40
0.7810137556614977
 40
0.7843790725091625
 40
0.7893770882345861
 40
0.7954543068391511
 40
0.8023941141176318
 40
0.8092492812347954
 40
0.8159135146384476
 40
0.8273594097586496
 40
0.8383747255810989
 40
0.8489243779910425
 40
0.8589477590971653
 40
0.8694574113097224
 40
0.8801794140802094
 40
0.8913408636263564
 40
0.9016703314010628
 40
0.9067539997138659
 40
0.9118908441522634
 40
0.9167554284228875
 40
0.9201585836853563
 40
0.9236744094831678
 40
0.9279212875497007
 40
0.9326923764265435
 40
0.9388225664592517
 40
0.9437323105092336
 40
0.9478143710360727
 40
0.9518672233527954
 40
0.9561707699688886
 40
0.9614721239820092
 40
0.9675872313589061
 40
0.9729560054396733
 40
0.9774578172240703
 40
0.9813577421994876
 40
0.9828026051520196
 40
0.9845132610314281
 40
0.9870800471702448
 40
0.9905164761076606
 40
0.9948227805376735
 40
1.0
 40
1.0
 40
1.0
 40
1.0
 10
-385.5270075821902
 20
-0.763481020194634
 30
0.0
 10
-384.9705511435141
 20
-2.271106285982052
 30
0.0
 10
-383.9981620278533
 20
-4.905631285701137
 30
0.0
 10
-382.6184743021628
 20
-8.233311529947773
 30
0.0
 10
-381.5633638085557
 20
-10.6479716975818
 30
0.0
 10
-380.5324720027343
 20
-12.91129129938268
 30
0.0
 10
-379.2891909251064
 20
-15.51930623921433
 30
0.0
 10
-377.4853902196462
 20
-19.08848227919798
 30
0.0
 10
-375.21640905386
 20
-23.264420832925
 30
0.0
 10
-372.5565514114929
 20
-27.77316698612352
 30
0.0
 10
-369.6676654600566
 20
-32.31201292335208
 30
0.0
 10
-366.5666697199209
 20
-36.83751121467701
 30
0.0
 10
-363.1448329922031
 20
-41.47167086726008
 30
0.0
 10
-359.5086797921534
 20
-46.0516555100324
 30
0.0
 10
-355.6543630052459
 20
-50.573636223132
 30
0.0
 10
-350.3360249234354
 20
-56.39433027977785
 30
0.0
 10
-343.2506694530224
 20
-63.4221581659537
 30
0.0
 10
-334.0809637775632
 20
-71.39766160824703
 30
0.0
 10
-324.0112252500437
 20
-79.0614661245802
 30
0.0
 10
-313.0615263896672
 20
-86.33626705953398
 30
0.0
 10
-302.832315486508
 20
-92.23442678851661
 30
0.0
 10
-294.0556933990117
 20
-96.73230074859765
 30
0.0
 10
-287.253550475611
 20
-99.9304157743045
 30
0.0
 10
-280.9516770989793
 20
-102.6725047582139
 30
0.0
 10
-275.6789047880572
 20
-104.8009759248584
 30
0.0
 10
-271.0701485162228
 20
-106.5510623981494
 30
0.0
 10
-267.2070924484698
 20
-107.9508791081155
 30
0.0
 10
-263.2314511932364
 20
-109.3085267330412
 30
0.0
 10
-258.40666862016
 20
-110.925335343947
 30
0.0
 10
-252.4880351990311
 20
-112.8666289134918
 30
0.0
 10
-245.4978904648351
 20
-115.0688041365799
 30
0.0
 10
-238.5461865278452
 20
-117.232199149147
 30
0.0
 10
-231.8209745168671
 20
-119.3243799889342
 30
0.0
 10
-225.5569074103548
 20
-121.2659572198669
 30
0.0
 10
-220.0734882026189
 20
-122.9611953975036
 30
0.0
 10
-215.1694600694284
 20
-124.4731738936848
 30
0.0
 10
-210.9797304645033
 20
-125.7618032213245
 30
0.0
 10
-207.2390477391508
 20
-126.909858890703
 30
0.0
 10
-203.5123350502087
 20
-128.0513005282869
 30
0.0
 10
-199.390661778243
 20
-129.3108238247796
 30
0.0
 10
-194.7066549316853
 20
-130.7382967228154
 30
0.0
 10
-189.4577906707612
 20
-132.332813364763
 30
0.0
 10
-183.6414571784706
 20
-134.0931803458387
 30
0.0
 10
-176.8503891488953
 20
-136.139803383586
 30
0.0
 10
-169.0121400487122
 20
-138.4894535640402
 30
0.0
 10
-160.0539773579058
 20
-141.1570692480322
 30
0.0
 10
-150.5160781064283
 20
-143.975618810025
 30
0.0
 10
-140.8376681987717
 20
-146.8113054964182
 30
0.0
 10
-131.4611109651856
 20
-149.5341680245878
 30
0.0
 10
-122.15053120894
 20
-152.2139420005053
 30
0.0
 10
-112.9817179952342
 20
-154.8279083787521
 30
0.0
 10
-104.0298878064434
 20
-157.3543581719223
 30
0.0
 10
-95.84615066493127
 20
-159.6416607663965
 30
0.0
 10
-88.39674341163527
 20
-161.7045496205675
 30
0.0
 10
-81.63400098124856
 20
-163.5610222343934
 30
0.0
 10
-75.31615333461188
 20
-165.2811401402351
 30
0.0
 10
-69.2297420634807
 20
-166.9251293060468
 30
0.0
 10
-63.16793590212662
 20
-168.5499113380552
 30
0.0
 10
-57.08804505442497
 20
-170.1673033833746
 30
0.0
 10
-50.72066755986415
 20
-171.8486724132335
 30
0.0
 10
-43.77055895036035
 20
-173.6696885199485
 30
0.0
 10
-35.9948042079856
 20
-175.6896600015948
 30
0.0
 10
-27.31859231008302
 20
-177.9227413835054
 30
0.0
 10
-17.74187267366594
 20
-180.3631134701682
 30
0.0
 10
-7.424601247031385
 20
-182.9645078810951
 30
0.0
 10
3.181809326659124
 20
-185.6106361499826
 30
0.0
 10
13.67831300684802
 20
-188.2039520822548
 30
0.0
 10
23.86546173973644
 20
-190.698722011431
 30
0.0
 10
33.74641164436688
 20
-193.0992312837367
 30
0.0
 10
44.9728417832876
 20
-195.8071161500883
 30
0.0
 10
57.41708005059695
 20
-198.7829275738634
 30
0.0
 10
70.92981461973355
 20
-201.9889979850514
 30
0.0
 10
83.74214140295726
 20
-204.9915922017479
 30
0.0
 10
95.79878524728913
 20
-207.83859653065
 30
0.0
 10
105.6780861101818
 20
-210.0235672972946
 30
0.0
 10
113.475206190818
 20
-211.6641315758613
 30
0.0
 10
119.4718586137079
 20
-212.6815121296906
 30
0.0
 10
125.3742626803326
 20
-213.4735714348463
 30
0.0
 10
131.1560720796876
 20
-214.0542677174656
 30
0.0
 10
136.8530638706065
 20
-214.4459077847122
 30
0.0
 10
142.6939727409875
 20
-214.6693472086397
 30
0.0
 10
148.4793318205354
 20
-214.7085418634609
 30
0.0
 10
154.4673559752741
 20
-214.5620059876878
 30
0.0
 10
160.443520871051
 20
-214.2235070214006
 30
0.0
 10
166.6153457261376
 20
-213.6743289621975
 30
0.0
 10
172.7158733191984
 20
-212.9590275769893
 30
0.0
 10
178.5024828844981
 20
-212.1077051576054
 30
0.0
 10
183.6217631494758
 20
-211.2068707842569
 30
0.0
 10
188.0123320010174
 20
-210.3232342469855
 30
0.0
 10
192.0775893060325
 20
-209.4155834025842
 30
0.0
 10
196.3175745218897
 20
-208.3704883615363
 30
0.0
 10
201.1170203401138
 20
-207.0571361525922
 30
0.0
 10
206.8784581728481
 20
-205.2985601970238
 30
0.0
 10
213.2014654727122
 20
-203.0906355875324
 30
0.0
 10
219.5768087199275
 20
-200.5303610637979
 30
0.0
 10
225.7803607600079
 20
-197.704812014538
 30
0.0
 10
231.2157102850493
 20
-194.8993812249235
 30
0.0
 10
235.5482755874324
 20
-192.3958716608891
 30
0.0
 10
238.7498341588281
 20
-190.4041460575775
 30
0.0
 10
241.3714080405138
 20
-188.6723382975757
 30
0.0
 10
243.8547394085674
 20
-186.9272148519605
 30
0.0
 10
245.9095971296408
 20
-185.4025400098415
 30
0.0
 10
247.4046973404421
 20
-184.2424761630218
 30
0.0
 10
248.5228222574686
 20
-183.3480429537101
 30
0.0
 10
249.7942865562322
 20
-182.3091698762026
 30
0.0
 10
251.4680112715393
 20
-180.8681935273242
 30
0.0
 10
253.4155995418674
 20
-179.172062509339
 30
0.0
 10
255.8161537869221
 20
-177.0735380262219
 30
0.0
 10
258.5531746979643
 20
-174.664770832933
 30
0.0
 10
261.6288555272517
 20
-171.9392568395649
 30
0.0
 10
264.8132385185853
 20
-169.0964496905265
 30
0.0
 10
267.9102510449963
 20
-166.3105985862864
 30
0.0
 10
270.7616307113999
 20
-163.726762718539
 30
0.0
 10
273.2012899575276
 20
-161.5015557930241
 30
0.0
 10
275.2612088302424
 20
-159.6122376072454
 30
0.0
 10
277.3672905685447
 20
-157.6714365039246
 30
0.0
 10
279.8559049571448
 20
-155.3655289009804
 30
0.0
 10
282.9619990458492
 20
-152.4660974570238
 30
0.0
 10
286.3788246435838
 20
-149.2484217759154
 30
0.0
 10
289.8766330233284
 20
-145.9233677991654
 30
0.0
 10
294.1247669774298
 20
-141.8474342128191
 30
0.0
 10
299.0479515932184
 20
-137.0644139409303
 30
0.0
 10
304.6081859250597
 20
-131.5779255958737
 30
0.0
 10
309.9153139783191
 20
-126.2649743687574
 30
0.0
 10
315.1312754611113
 20
-120.9730068346549
 30
0.0
 10
320.3441690785853
 20
-115.6157444055856
 30
0.0
 10
325.7150399884004
 20
-110.0259046356872
 30
0.0
 10
331.0304475281974
 20
-104.424760788
 30
0.0
 10
335.3840163319656
 20
-99.78490631423114
 30
0.0
 10
338.8014737127961
 20
-96.11398323084516
 30
0.0
 10
341.2670479998326
 20
-93.45283512386202
 30
0.0
 10
343.6758313505172
 20
-90.83910864600571
 30
0.0
 10
346.0459807762009
 20
-88.24988849942433
 30
0.0
 10
348.4614541154398
 20
-85.56109105712548
 30
0.0
 10
351.2052956802536
 20
-82.35603146806439
 30
0.0
 10
354.4277896914714
 20
-78.41838836798912
 30
0.0
 10
357.6766906037909
 20
-74.21161707108168
 30
0.0
 10
360.6671697636131
 20
-70.10206312659398
 30
0.0
 10
363.1631813184533
 20
-66.49696382379646
 30
0.0
 10
365.4690221366515
 20
-63.00916276254627
 30
0.0
 10
367.9152373496714
 20
-59.1239554838255
 30
0.0
 10
370.6147487399577
 20
-54.5804075175147
 30
0.0
 10
373.3452696769987
 20
-49.64139759393726
 30
0.0
 10
375.7952613491849
 20
-44.85763468435815
 30
0.0
 10
377.7911388394701
 20
-40.68022613789556
 30
0.0
 10
379.1465239355518
 20
-37.6599560845309
 30
0.0
 10
380.0842033868313
 20
-35.48130804579775
 30
0.0
 10
380.8284992957563
 20
-33.70741394793432
 30
0.0
 10
381.8022677401235
 20
-31.30387809511737
 30
0.0
 10
383.0452838159725
 20
-28.06854040081229
 30
0.0
 10
384.5180848805443
 20
-23.98171637741178
 30
0.0
 10
385.4874061093329
 20
-20.94428229365315
 30
0.0
 10
386.0165753071861
 20
-19.28609457435278
 30
0.0
  0
LWPOLYLINE
  5
E7
330
E0
100
AcDbEntity
  8
0
  6
Continuous
 62
     7
370
    25
100
AcDbPolyline
 90
      111
 70
   128
 43
0.0
 10
-105.0064625093
 20
-102.489526531
 10
29.459032158
 20
-139.0343667345
 10
88.6238498116
 20
-155.1140964241
 10
97.9211783
 20
-157.6409110896
 10
107.2185067884
 20
-160.1677257551
 10
116.5161907767
 20
-162.6940763021
 10
125.9946270542
 20
-164.9697028386
 10
135.7641595306
 20
-166.7818399261
 10
146.5344545457
 20
-168.2099670598
 10
157.4993469773
 20
-169.0926085887
 10
168.5849799303
 20
-169.4252203445
 10
179.7173579802
 20
-169.2032802174
 10
190.803288138
 20
-168.4253230011
 10
201.7155506581
 20
-167.0953017036
 10
212.3256137931
 20
-165.2202889756
 10
222.5162855504
 20
-162.8262481096
 10
232.175303702
 20
-159.947323691
 10
241.2055225133
 20
-156.6152893087
 10
249.5526069961
 20
-152.8551016282
 10
257.1695278189
 20
-148.6905540068
 10
263.7438714097
 20
-144.3354163336
 10
269.5371893979
 20
-139.654286557
 10
274.6641655269
 20
-134.7279137307
 10
279.7324233043
 20
-129.7811387653
 10
284.8006810817
 20
-124.8343637999
 10
289.8689388591
 20
-119.8875888346
 10
294.9371966365
 20
-114.9408138692
 10
322.8126144123
 20
-87.7335515596
 10
358.2904188541
 20
-53.106126802
 10
363.8655024093
 20
-47.6646743401
 10
369.4405859644
 20
-42.2232218782
 10
375.0016890129
 20
-36.7788753363
 10
379.8166789026
 20
-31.1916468336
 10
383.4666972743
 20
-25.4206447997
 10
385.8427518923
 20
-19.831742042
 10
387.1585970406
 20
-14.1606141717
 10
387.4026394329
 20
-8.4406853037
 10
386.5655444672
 20
-2.7091422443
 10
384.6512133074
 20
2.9747790358
 10
381.6682784726
 20
8.5440773493
 10
377.6412678469
 20
13.9342729778
 10
372.6313874606
 20
19.0867266085
 10
366.7041030542
 20
23.945117447
 10
359.9143603417
 20
28.470649774
 10
352.3111697407
 20
32.6344153475
 10
343.9434988401
 20
36.4075772727
 10
335.4170828872
 20
39.5749583089
 10
326.2981389407
 20
42.3470779065
 10
316.8856633921
 20
44.9052997531
 10
307.4730787654
 20
47.4634385674
 10
298.0604941387
 20
50.0215773816
 10
288.647909512
 20
52.5797161958
 10
279.2353248853
 20
55.1378550101
 10
269.8227402586
 20
57.6959938243
 10
210.657922605
 20
73.7757235139
 10
105.0064625093
 20
102.489526531
 10
-29.459032158
 20
139.0343667345
 10
-88.6238498116
 20
155.1140964241
 10
-97.9211783
 20
157.6409110896
 10
-107.2185067884
 20
160.1677257551
 10
-116.5161907767
 20
162.6940763021
 10
-125.9946270542
 20
164.9697028386
 10
-135.7641595306
 20
166.7818399261
 10
-146.5344545457
 20
168.2099670598
 10
-157.4993469773
 20
169.0926085887
 10
-168.5849799303
 20
169.4252203445
 10
-179.7173579802
 20
169.2032802174
 10
-190.803288138
 20
168.4253230011
 10
-201.7155506581
 20
167.0953017036
 10
-212.3256137931
 20
165.2202889756
 10
-222.5162855504
 20
162.8262481096
 10
-232.175303702
 20
159.947323691
 10
-241.2055225133
 20
156.6152893087
 10
-249.5526069961
 20
152.8551016282
 10
-257.1695278189
 20
148.6905540068
 10
-263.7438714097
 20
144.3354163336
 10
-269.5371893979
 20
139.654286557
 10
-274.6641655269
 20
134.7279137307
 10
-279.7324233043
 20
129.7811387653
 10
-284.8006810817
 20
124.8343637999
 10
-289.8689388591
 20
119.8875888346
 10
-294.9371966365
 20
114.9408138692
 10
-322.8126144123
 20
87.7335515596
 10
-358.2904188541
 20
53.106126802
 10
-363.8655024093
 20
47.6646743401
 10
-369.4405859644
 20
42.2232218782
 10
-375.0016890129
 20
36.7788753363
 10
-379.8166789026
 20
31.1916468336
 10
-383.4666972743
 20
25.4206447997
 10
-385.8427518923
 20
19.831742042
 10
-387.1585970406
 20
14.1606141717
 10
-387.4026394329
 20
8.4406853037
 10
-386.5655444672
 20
2.7091422443
 10
-384.6512133074
 20
-2.9747790358
 10
-381.6682784726
 20
-8.5440773493
 10
-377.6412678469
 20
-13.9342729778
 10
-372.6313874606
 20
-19.0867266085
 10
-366.7041030542
 20
-23.945117447
 10
-359.9143603417
 20
-28.470649774
 10
-352.3111697407
 20
-32.6344153475
 10
-343.9434988401
 20
-36.4075772727
 10
-335.4170828872
 20
-39.5749583089
 10
-326.2981389407
 20
-42.3470779065
 10
-316.8856633921
 20
-44.9052997531
 10
-307.4730787654
 20
-47.4634385674
 10
-298.0604941387
 20
-50.0215773816
 10
-288.647909512
 20
-52.5797161958
 10
-279.2353248853
 20
-55.1378550101
 10
-269.8227402586
 20
-57.6959938243
 10
-210.657922605
 20
-73.7757235139
 10
-105.0064625093
 20
-102.489526531
  0
SPLINE
  5
E8
330
E0
100
AcDbEntity
  8
0
  6
Continuous
 62
     7
370
    25
100
AcDbSpline
210
0.0
220
0.0
230
1.0
 70
    11
 71
     3
 72
    91
 73
    87
 74
     0
 42
0.000000001
 43
0.00000001
 40
0.0
 40
0.0
 40
0.0
 40
0.0
 40
0.015715329323667
 40
0.0313365903140736
 40
0.0469008961822912
 40
0.0625511112566102
 40
0.0704050313533396
 40
0.0782130612328417
 40
0.0937458879341647
 40
0.1093051352885359
 40
0.1250097435715774
 40
0.1289375778928097
 40
0.1328513729997343
 40
0.1406956310688404
 40
0.1563779362116597
 40
0.1875025360492945
 40
0.2032190162937042
 40
0.2051814785650466
 40
0.2071424867189097
 40
0.2110579587415679
 40
0.2188658954711683
 40
0.2501028458468528
 40
0.281379295515446
 40
0.2891831352259114
 40
0.2970111566421417
 40
0.2992516913508036
 40
0.3009344795197053
 40
0.3048714480964479
 40
0.3127360845847592
 40
0.3438587753574818
 40
0.3595110330487662
 40
0.3673428697988675
 40
0.3712374696869971
 40
0.3751306422415008
 40
0.3906586882204033
 40
0.4062315868956144
 40
0.4140863393677859
 40
0.4219293127896793
 40
0.4297319629332585
 40
0.4375170645888376
 40
0.4530930197687589
 40
0.4687966373117038
 40
0.4845019409460231
 40
0.5002261535964635
 40
0.5158955684836009
 40
0.5314546303567628
 40
0.5470509703307367
 40
0.5627506632362311
 40
0.5705502715855225
 40
0.5783254191523385
 40
0.5938623696166277
 40
0.6095183369405306
 40
0.6252230247959848
 40
0.6291509655327159
 40
0.6330719526358175
 40
0.6409171599386423
 40
0.6565023000531516
 40
0.6876978395975583
 40
0.7033697138954241
 40
0.7053210556163391
 40
0.70727193605837
 40
0.7111725755582469
 40
0.7189714389333609
 40
0.7503159078837749
 40
0.7814701920694559
 40
0.797178560590067
 40
0.7991464547020146
 40
0.8011101642873282
 40
0.8050281964214029
 40
0.8128376349348999
 40
0.8439772014421036
 40
0.8596556565987131
 40
0.8674247161309862
 40
0.8696376043504664
 40
0.8718515255685277
 40
0.8751760081717632
 40
0.8907056603344008
 40
0.9063712965881694
 40
0.9141975900051096
 40
0.9219892477348901
 40
0.9297655916034409
 40
0.9375449461900948
 40
0.953180318633612
 40
0.968864578461208
 40
0.9844245090306404
 40
1.0
 40
1.0
 40
1.0
 40
1.0
 10
-15.94135519014362
 20
-118.2896916442287
 30
0.0
 10
-16.93895373358529
 20
-118.0185655268719
 30
0.0
 10
-18.87531340243667
 20
-117.4277690954
 30
0.0
 10
-21.5913581408613
 20
-116.4062668503155
 30
0.0
 10
-24.10145398151393
 20
-115.2613213542757
 30
0.0
 10
-26.00983163454947
 20
-114.2105815573491
 30
0.0
 10
-27.41604041992686
 20
-113.3162713954415
 30
0.0
 10
-28.73170425548099
 20
-112.3920357771169
 30
0.0
 10
-30.20797256880987
 20
-111.18020052125
 30
0.0
 10
-31.69216881811633
 20
-109.6385265197189
 30
0.0
 10
-32.57377081335778
 20
-108.4254013639598
 30
0.0
 10
-33.06036341475453
 20
-107.5970859967152
 30
0.0
 10
-33.3578389054011
 20
-107.04097810419
 30
0.0
 10
-33.80301434001817
 20
-106.0568594497036
 30
0.0
 10
-34.39449246441855
 20
-104.0627545381098
 30
0.0
 10
-34.39704859326641
 20
-101.7369189016243
 30
0.0
 10
-33.89442976569272
 20
-99.94944409532216
 30
0.0
 10
-33.61676888686646
 20
-99.23741962869013
 30
0.0
 10
-33.49934121749002
 20
-98.95394766318663
 30
0.0
 10
-33.27710421255904
 20
-98.46102943167179
 30
0.0
 10
-32.47217880593462
 20
-96.92754112892766
 30
0.0
 10
-30.5661670382907
 20
-94.5004804417652
 30
0.0
 10
-27.74652446262782
 20
-92.32350062251724
 30
0.0
 10
-25.55629776571736
 20
-91.00797618587082
 30
0.0
 10
-24.67596854765056
 20
-90.52776189707872
 30
0.0
 10
-24.07867470829713
 20
-90.22152178046349
 30
0.0
 10
-23.67436172745448
 20
-90.01915575442031
 30
0.0
 10
-22.96907393812657
 20
-89.67812791172659
 30
0.0
 10
-20.64919424947211
 20
-88.63472035810305
 30
0.0
 10
-17.38242059159494
 20
-87.48777943451435
 30
0.0
 10
-13.84464939004896
 20
-86.60890232735359
 30
0.0
 10
-12.01255620678458
 20
-86.23850290268749
 30
0.0
 10
-10.95270049962706
 20
-86.04780070878358
 30
0.0
 10
-9.357630260664669
 20
-85.78311119331305
 30
0.0
 10
-6.916375072357785
 20
-85.46270403600721
 30
0.0
 10
-4.145130349556259
 20
-85.2468177126871
 30
0.0
 10
-1.906060183835498
 20
-85.15896467966192
 30
0.0
 10
-0.2195976993450265
 20
-85.13576930572673
 30
0.0
 10
1.461411218994286
 20
-85.15477233931341
 30
0.0
 10
3.691324678386169
 20
-85.2351708621236
 30
0.0
 10
6.46784237551282
 20
-85.43877228789381
 30
0.0
 10
9.744969899923008
 20
-85.84697586265621
 30
0.0
 10
12.93991166972337
 20
-86.41978700805963
 30
0.0
 10
16.00764435111534
 20
-87.15443303583112
 30
0.0
 10
18.90658614269717
 20
-88.04609008092922
 30
0.0
 10
21.6159307013728
 20
-89.07989923413587
 30
0.0
 10
24.12479031589341
 20
-90.24563336780216
 30
0.0
 10
26.03217855887139
 20
-91.31799160358521
 30
0.0
 10
27.43482438115427
 20
-92.22903372031645
 30
0.0
 10
28.74572427457652
 20
-93.1686930841427
 30
0.0
 10
30.22318402877481
 20
-94.40509127353644
 30
0.0
 10
31.7075959340373
 20
-95.97589949920732
 30
0.0
 10
32.58831193343844
 20
-97.2094052056693
 30
0.0
 10
33.0729594718964
 20
-98.04818631203091
 30
0.0
 10
33.36902429367359
 20
-98.61072503504859
 30
0.0
 10
33.81003647881263
 20
-99.60011706858731
 30
0.0
 10
34.39696817933435
 20
-101.6041211414198
 30
0.0
 10
34.39515763931431
 20
-103.9314727057448
 30
0.0
 10
33.88868734193359
 20
-105.7183964093917
 30
0.0
 10
33.61082900998404
 20
-106.4269352399878
 30
0.0
 10
33.49353391476178
 20
-106.7086952160285
 30
0.0
 10
33.27116048749691
 20
-107.1997050229837
 30
0.0
 10
32.46262590723589
 20
-108.7342314314405
 30
0.0
 10
30.55224139549015
 20
-111.1587236299396
 30
0.0
 10
27.41309228463999
 20
-113.5786744758273
 30
0.0
 10
25.06486673747815
 20
-114.922324224507
 30
0.0
 10
24.06642109309032
 20
-115.4348794032995
 30
0.0
 10
23.66256875802824
 20
-115.6371887477192
 30
0.0
 10
22.94577897703068
 20
-115.9833832660417
 30
0.0
 10
20.62738583547213
 20
-117.0244871670917
 30
0.0
 10
17.35974893567787
 20
-118.1664118259874
 30
0.0
 10
13.82180183845013
 20
-119.0327472119025
 30
0.0
 10
12.1041712552346
 20
-119.3714835187851
 30
0.0
 10
11.27814742162904
 20
-119.5179521536082
 30
0.0
 10
10.75055251004701
 20
-119.6070008598188
 30
0.0
 10
9.308330073996817
 20
-119.8357596432277
 30
0.0
 10
6.899993466691233
 20
-120.1354160426447
 30
0.0
 10
4.123609825396161
 20
-120.329615163394
 30
0.0
 10
1.883418352616602
 20
-120.3985034775107
 30
0.0
 10
0.2045709750326929
 20
-120.4078260463798
 30
0.0
 10
-1.470445613472209
 20
-120.3757483521816
 30
0.0
 10
-3.702316474844857
 20
-120.2783229749685
 30
0.0
 10
-6.481298713292541
 20
-120.0547497879175
 30
0.0
 10
-9.750742291251022
 20
-119.6277746026027
 30
0.0
 10
-12.92411860702279
 20
-119.0461624189467
 30
0.0
 10
-14.95263349145023
 20
-118.5584052235293
 30
0.0
 10
-15.94135519014362
 20
-118.2896916442288
 30
0.0
  0
SPLINE
  5
E9
330
E0
100
AcDbEntity
  8
0
  6
Continuous
 62
     7
370
    25
100
AcDbSpline
210
0.0
220
0.0
230
1.0
 70
     8
 71
     3
 72
    30
 73
    26
 74
     0
 42
0.000000001
 43
0.00000001
 40
0.0
 40
0.0
 40
0.0
 40
0.0
 40
0.0179848839169213
 40
0.0642524551556876
 40
0.1112481927383254
 40
0.1578892176710334
 40
0.2040547205342608
 40
0.2502400725763616
 40
0.2968629501316699
 40
0.343965960080441
 40
0.3900560970769141
 40
0.436468178900877
 40
0.4835662697531638
 40
0.530325485365477
 40
0.5762101214316212
 40
0.6223619323094215
 40
0.6688840597060944
 40
0.7160018266119308
 40
0.7621854758911502
 40
0.8083010083606403
 40
0.8554326786455655
 40
0.9019637571150843
 40
0.9482588294642554
 40
0.9943142354374768
 40
1.0
 40
1.0
 40
1.0
 40
1.0
 10
18.93286949835309
 20
-117.5542328127914
 30
0.0
 10
19.26044145436537
 20
-117.3140353930045
 30
0.0
 10
20.43071881123714
 20
-116.4559106469867
 30
0.0
 10
21.64793073158258
 20
-114.7290415996025
 30
0.0
 10
22.53309772033195
 20
-112.4941341223323
 30
0.0
 10
22.53341818673629
 20
-110.1969752136193
 30
0.0
 10
21.6698370246903
 20
-107.9503119088448
 30
0.0
 10
19.94729551336903
 20
-105.8251068874943
 30
0.0
 10
17.43594082606309
 20
-103.9045350940038
 30
0.0
 10
14.28400877453357
 20
-102.2657601060877
 30
0.0
 10
10.59180743384835
 20
-100.9821735209177
 30
0.0
 10
6.46905411234415
 20
-100.1366595908612
 30
0.0
 10
2.088194369381159
 20
-99.7248834024284
 30
0.0
 10
-2.358390727374465
 20
-99.751498512024
 30
0.0
 10
-6.689570166178203
 20
-100.2262821585436
 30
0.0
 10
-10.75195968883359
 20
-101.1244282313144
 30
0.0
 10
-14.42413535415203
 20
-102.4199045060336
 30
0.0
 10
-17.55751363014557
 20
-104.0429758798789
 30
0.0
 10
-20.02531942148726
 20
-105.9418270065301
 30
0.0
 10
-21.68473951668084
 20
-108.0634263984924
 30
0.0
 10
-22.52394510443906
 20
-110.3129603849861
 30
0.0
 10
-22.54538107224025
 20
-112.6088022483637
 30
0.0
 10
-21.61786599416904
 20
-114.8098777986671
 30
0.0
 10
-20.55094841643824
 20
-116.3212521360253
 30
0.0
 10
-19.61611774987097
 20
-117.0034799352024
 30
0.0
 10
-19.51339052084054
 20
-117.0784489899022
 30
0.0
  0
SPLINE
  5
EA
330
E0
100
AcDbEntity
  8
0
  6
Continuous
 62
     7
370
    25
100
AcDbSpline
210
0.0
220
0.0
230
1.0
 70
     8
 71
     3
 72
    20
 73
    16
 74
     0
 42
0.000000001
 43
0.00000001
 40
0.0
 40
0.0
 40
0.0
 40
0.0
 40
0.0436097117607808
 40
0.127557455921702
 40
0.2111143931939985
 40
0.293359551240428
 40
0.3742129185302441
 40
0.4550651291361865
 40
0.5373103028012844
 40
0.6208465057135708
 40
0.7047182781233745
 40
0.7885316371380025
 40
0.8720469062656957
 40
0.9545116496143574
 40
1.0
 40
1.0
 40
1.0
 40
1.0
 10
-20.76829505612157
 20
-115.7070206479495
 30
0.0
 10
-20.50023164498864
 20
-115.3311202917391
 30
0.0
 10
-19.71615201297051
 20
-114.2316199469239
 30
0.0
 10
-17.50236032048618
 20
-112.6366027524499
 30
0.0
 10
-14.37721904938102
 20
-111.0018009454132
 30
0.0
 10
-10.71706712772033
 20
-109.7257327369087
 30
0.0
 10
-6.695483583930406
 20
-108.8503286979482
 30
0.0
 10
-2.414300603892755
 20
-108.4030032825281
 30
0.0
 10
1.999546958671574
 20
-108.3965698615417
 30
0.0
 10
6.389826630243507
 20
-108.8215751378215
 30
0.0
 10
10.56771317836841
 20
-109.6802585118963
 30
0.0
 10
14.31284811257712
 20
-110.9697243612596
 30
0.0
 10
17.44195789389706
 20
-112.6039906417408
 30
0.0
 10
19.66777779939191
 20
-114.194840758308
 30
0.0
 10
20.49017826175519
 20
-115.2906409547584
 30
0.0
 10
20.78254821778749
 20
-115.6802067075982
 30
0.0
  0
VIEWPORT
  5
103
330
E0
100
AcDbEntity
  8
0
100
AcDbViewport
 10
0.0
 20
0.0
 30
0.0
 40
205.6
 41
156.0
 68
     1
 69
     1
 12
0.0
 22
-13.9752192724
 13
0.0
 23
0.0
 14
10.0
 24
10.0
 15
10.0
 25
10.0
 16
0.0
 26
0.0
 36
1.0
 17
0.0
 27
0.0
 37
0.0
 42
50.0
 43
0.0
 44
0.0
 45
592.7867926039
 50
0.0
 51
0.0
 72
   100
 90
   557152
  1

281
     0
 71
     1
 74
     0
110
0.0
120
0.0
130
0.0
111
1.0
121
0.0
131
0.0
112
0.0
122
1.0
132
0.0
 79
     0
146
0.0
170
     0
 61
     5
348
2F
292
     1
282
     1
141
0.0
142
0.0
 63
   256
361
104
  0
ENDBLK
  5
E3
330
E0
100
AcDbEntity
  8
0
100
AcDbBlockEnd
  0
BLOCK
  5
ED
330
EB
100
AcDbEntity
  8
0
100
AcDbBlockBegin
  2
*Paper_Space8
 70
     0
 10
0.0
 20
0.0
 30
0.0
  3
*Paper_Space8
  1

  0
SPLINE
  5
EF
330
EB
100
AcDbEntity
  8
0
  6
Continuous
 62
     7
370
    25
100
AcDbSpline
210
0.0
220
0.0
230
1.0
 70
     8
 71
     3
 72
    30
 73
    26
 74
     0
 42
0.000000001
 43
0.00000001
 40
0.0
 40
0.0
 40
0.0
 40
0.0
 40
0.0624964792091322
 40
0.1164913557487518
 40
0.1615467767033743
 40
0.1981207782717433
 40
0.2368793150306703
 40
0.2852891668001346
 40
0.3358940211160793
 40
0.3667350126920996
 40
0.3910228668428377
 40
0.4252095063341675
 40
0.4700455140216018
 40
0.5066954618672285
 40
0.5329931051414314
 40
0.5587177855500199
 40
0.5969169276729005
 40
0.6439790688774449
 40
0.6965195121707964
 40
0.7366030029161472
 40
0.7746518293098648
 40
0.8185614245210988
 40
0.877896599479067
 40
0.9430033448596369
 40
1.0
 40
1.0
 40
1.0
 40
1.0
 10
-332.5605664747625
 20
-37.57799721080829
 30
0.0
 10
-333.6750397718911
 20
-37.34736100229629
 30
0.0
 10
-335.7523808792814
 20
-36.91746279116013
 30
0.0
 10
-338.8847387484907
 20
-36.18283874992306
 30
0.0
 10
-341.5240646187044
 20
-35.51040333412569
 30
0.0
 10
-343.5997006815766
 20
-34.94574283274914
 30
0.0
 10
-345.5709755578798
 20
-34.37852755735332
 30
0.0
 10
-347.6822500003572
 20
-33.73044462955161
 30
0.0
 10
-349.5534612093456
 20
-33.11212441694491
 30
0.0
 10
-350.9934687978701
 20
-32.60690043412853
 30
0.0
 10
-352.1448670169942
 20
-32.18621899445355
 30
0.0
 10
-353.3974981725956
 20
-31.70868101775893
 30
0.0
 10
-354.7196982111065
 20
-31.1747104988427
 30
0.0
 10
-355.8706974179916
 20
-30.68088122028616
 30
0.0
 10
-356.7480024465783
 20
-30.28659452953993
 30
0.0
 10
-357.5850057847734
 20
-29.89586652627418
 30
0.0
 10
-358.5505756721324
 20
-29.42287375680464
 30
0.0
 10
-359.6098870924985
 20
-28.86923045037231
 30
0.0
 10
-360.5656544188476
 20
-28.32873906597816
 30
0.0
 10
-361.296107891758
 20
-27.88302445064305
 30
0.0
 10
-361.8442218788982
 20
-27.52787703526365
 30
0.0
 10
-362.3918466458822
 20
-27.14787402587532
 30
0.0
 10
-362.8437619647167
 20
-26.80426241511742
 30
0.0
 10
-363.1645889372976
 20
-26.52758089490151
 30
0.0
 10
-363.1853669187209
 20
-26.50981165424608
 30
0.0
 10
-363.1950658741691
 20
-26.50151714911828
 30
0.0
  0
SPLINE
  5
F0
330
EB
100
AcDbEntity
  8
0
  6
Continuous
 62
     7
370
    25
100
AcDbSpline
210
0.0
220
0.0
230
1.0
 70
     8
 71
     3
 72
    45
 73
    41
 74
     0
 42
0.000000001
 43
0.00000001
 40
0.0
 40
0.0
 40
0.0
 40
0.0
 40
0.0026602352800311
 40
0.0082256208160171
 40
0.0231799088180691
 40
0.0405842132479858
 40
0.0602072894994149
 40
0.0805697083555589
 40
0.101476820841425
 40
0.1229277534079062
 40
0.1449215521213984
 40
0.1674571834651257
 40
0.240333822579458
 40
0.3128581848106716
 40
0.398344423674469
 40
0.4849361430719176
 40
0.5751991659312676
 40
0.6012899678044412
 40
0.6276572123765883
 40
0.6523950877258433
 40
0.6743527294277697
 40
0.693550071929219
 40
0.709942565808753
 40
0.7235214395904082
 40
0.7339535142158801
 40
0.7464262728421341
 40
0.7603592924854293
 40
0.7738881776004564
 40
0.7868782730736494
 40
0.8010233618480962
 40
0.8181204327496153
 40
0.8379004933787711
 40
0.8571469000794886
 40
0.8744750091295312
 40
0.8899679984228442
 40
0.911678658457376
 40
0.9367334852482827
 40
0.965124299946734
 40
0.9837531730426716
 40
1.0
 40
1.0
 40
1.0
 40
1.0
 10
365.8316741851822
 20
-16.8362642378946
 30
0.0
 10
365.8418941932767
 20
-16.82452694538091
 30
0.0
 10
365.8734951241994
 20
-16.78823447217406
 30
0.0
 10
365.4394153363874
 20
-17.18527978842548
 30
0.0
 10
364.592422836425
 20
-17.9041215245269
 30
0.0
 10
362.9962027968775
 20
-19.35161432911815
 30
0.0
 10
360.9609098327033
 20
-21.17957055929013
 30
0.0
 10
358.8308544822588
 20
-23.09457296240896
 30
0.0
 10
356.6191809440392
 20
-25.07915084940448
 30
0.0
 10
354.3456762144892
 20
-27.11680231310683
 30
0.0
 10
352.0067871942198
 20
-29.21004274222989
 30
0.0
 10
347.8331160563893
 20
-32.9400243397474
 30
0.0
 10
341.8294991091576
 20
-38.28867462026695
 30
0.0
 10
333.5323383044012
 20
-45.64439362560687
 30
0.0
 10
324.6697026498568
 20
-53.4568470633003
 30
0.0
 10
315.1494941979074
 20
-61.79809507737848
 30
0.0
 10
307.8361403157222
 20
-68.1709818164092
 30
0.0
 10
302.7142542914033
 20
-72.62344971219551
 30
0.0
 10
299.9371378068519
 20
-75.0334667250284
 30
0.0
 10
297.3562740255153
 20
-77.27710501108324
 30
0.0
 10
295.0905547225238
 20
-79.23738705192473
 30
0.0
 10
293.2383512034054
 20
-80.88963963396488
 30
0.0
 10
291.6235608561794
 20
-82.21898944184237
 30
0.0
 10
290.2585911616353
 20
-83.20219238249999
 30
0.0
 10
289.0501905599738
 20
-84.00588937122915
 30
0.0
 10
287.7466829183062
 20
-84.80932649078285
 30
0.0
 10
286.2477053559858
 20
-85.66200761154275
 30
0.0
 10
284.5573631052708
 20
-86.5507954462317
 30
0.0
 10
282.6947762571448
 20
-87.45893096599806
 30
0.0
 10
280.4821317833478
 20
-88.45913568701785
 30
0.0
 10
277.7239258015462
 20
-89.60284868284896
 30
0.0
 10
274.4515187750243
 20
-90.83149220541455
 30
0.0
 10
270.8751935636171
 20
-92.04156928424855
 30
0.0
 10
267.3008136166735
 20
-93.13726418923368
 30
0.0
 10
263.2624702362789
 20
-94.26797863195524
 30
0.0
 10
258.3663402661626
 20
-95.50158214800058
 30
0.0
 10
252.1379686916296
 20
-96.87254512987111
 30
0.0
 10
245.8319986658726
 20
-98.04523872824936
 30
0.0
 10
240.098017913538
 20
-98.9682477740912
 30
0.0
 10
236.8258580689963
 20
-99.40576703916243
 30
0.0
 10
235.3015240860285
 20
-99.60958516408189
 30
0.0
  0
SPLINE
  5
F1
330
EB
100
AcDbEntity
  8
0
  6
Continuous
 62
     7
370
    25
100
AcDbSpline
210
0.0
220
0.0
230
1.0
 70
     8
 71
     3
 72
   184
 73
   180
 74
     0
 42
0.000000001
 43
0.00000001
 40
0.0
 40
0.0
 40
0.0
 40
0.0
 40
0.0068792865045379
 40
0.0128088829497904
 40
0.0177906910244396
 40
0.0218232695391356
 40
0.0252163797736053
 40
0.0290793319662466
 40
0.0325387272069986
 40
0.0365231275860258
 40
0.0417477537889819
 40
0.0476602612252029
 40
0.0534665678054132
 40
0.0583191840109789
 40
0.0625739905254855
 40
0.0668870231852466
 40
0.072603301894451
 40
0.0792409186789115
 40
0.0863087668917392
 40
0.0920296041035783
 40
0.0998061072139317
 40
0.1027287605170719
 40
0.1051178840395538
 40
0.1073970184035107
 40
0.1102713283027646
 40
0.113550878227901
 40
0.1156353673780625
 40
0.1171648364260055
 40
0.1185280332958822
 40
0.1204781073896001
 40
0.1230372503035815
 40
0.1283114323106568
 40
0.1325618763928642
 40
0.1377219407544864
 40
0.1427730775308915
 40
0.146891260048784
 40
0.1513533840754462
 40
0.1573543247869037
 40
0.1624983428451224
 40
0.1668151735279036
 40
0.1709187671623018
 40
0.1750432160030232
 40
0.1789466544178602
 40
0.1828377627880722
 40
0.1868827188851016
 40
0.1904552374463857
 40
0.1942097751041372
 40
0.1978999524698849
 40
0.2014588996059627
 40
0.2060501330887039
 40
0.2104947708465127
 40
0.2143474022879735
 40
0.2198110542490478
 40
0.224983871090645
 40
0.2309255892788279
 40
0.2378104609442353
 40
0.2455134118505123
 40
0.2524670470712815
 40
0.258479988198404
 40
0.2635649247246781
 40
0.2681414631636943
 40
0.2723645358103988
 40
0.2762459284550908
 40
0.2837766939904273
 40
0.2926510207514246
 40
0.3028803558252727
 40
0.314475005263659
 40
0.3273836922058712
 40
0.3407323442852174
 40
0.3542194556737935
 40
0.3810021930984099
 40
0.4081545897576114
 40
0.4188981431637049
 40
0.4296741373190076
 40
0.4401262768309699
 40
0.4496076430094313
 40
0.4572432265284782
 40
0.464098724709655
 40
0.4701772742861758
 40
0.4754822139329189
 40
0.4800169361651853
 40
0.4840473224520095
 40
0.4886830780458254
 40
0.4940418291227059
 40
0.5022225036293687
 40
0.5115984927879795
 40
0.5220965820365993
 40
0.5337166764083507
 40
0.5464602438412017
 40
0.5603272476105673
 40
0.5753147741982582
 40
0.5843792881150006
 40
0.592251276929045
 40
0.5989352665033358
 40
0.6044720423430212
 40
0.6089051504590987
 40
0.6112276002512157
 40
0.6131017628020534
 40
0.6146117720292888
 40
0.6167700530537988
 40
0.6198577449807904
 40
0.6235312878404071
 40
0.6296997854261348
 40
0.6346078196783925
 40
0.6402115962831585
 40
0.6465844635125736
 40
0.6533713765817901
 40
0.6619377526448327
 40
0.6698971388472473
 40
0.6775948626249333
 40
0.6857561809047428
 40
0.6905204622034234
 40
0.6959513918971858
 40
0.7020144422094887
 40
0.7068354323896197
 40
0.7122560641694199
 40
0.7179169549084786
 40
0.7222842015808155
 40
0.7258952420717301
 40
0.7275539005970666
 40
0.7290720745000647
 40
0.7304947130472176
 40
0.7317954259285014
 40
0.733275924083541
 40
0.7359638777625155
 40
0.7392375553881712
 40
0.7427369153868285
 40
0.7464178571739766
 40
0.7539606565220877
 40
0.7619409136482261
 40
0.7692536085790812
 40
0.7757478171550043
 40
0.7814181988016556
 40
0.786293307562303
 40
0.790989429729335
 40
0.8041956356150803
 40
0.8176872554291444
 40
0.8224649376190929
 40
0.827725979165179
 40
0.8334748172942628
 40
0.838979939854351
 40
0.8436853268453219
 40
0.8477029131716779
 40
0.8521248367900248
 40
0.8575344114514768
 40
0.8637042447790994
 40
0.868941583355233
 40
0.8729027155205045
 40
0.8763169628503219
 40
0.8806841495646501
 40
0.8856082811915003
 40
0.8905347591789317
 40
0.8954079499028418
 40
0.8999708786918095
 40
0.9042683597807947
 40
0.908314797496345
 40
0.9104569122059176
 40
0.912507671856094
 40
0.9173022512827428
 40
0.9220143602817528
 40
0.926525471050895
 40
0.9305163810770453
 40
0.9341630636916226
 40
0.9383577821143807
 40
0.9431048903027925
 40
0.9487206399377777
 40
0.954468462678742
 40
0.9594792224924866
 40
0.9643337909436029
 40
0.9685421585561479
 40
0.9728822746233844
 40
0.9773703523487405
 40
0.9818471818368047
 40
0.9838076592403819
 40
0.9854496925020094
 40
0.9875784771863388
 40
0.9907120747073338
 40
0.9948517055141592
 40
1.0
 40
1.0
 40
1.0
 40
1.0
 10
-387.1760825657506
 20
-8.651918077744444
 30
0.0
 10
-386.4899079875559
 20
-10.81879707026725
 30
0.0
 10
-385.2122856862577
 20
-14.85341597489864
 30
0.0
 10
-383.1076400434871
 20
-20.33971171489184
 30
0.0
 10
-381.1797238378164
 20
-24.87997470115888
 30
0.0
 10
-379.458189665897
 20
-28.59649314352989
 30
0.0
 10
-377.8056744431508
 20
-31.93889397734855
 30
0.0
 10
-376.1575961290255
 20
-35.07412474955402
 30
0.0
 10
-374.3332275780352
 20
-38.34519397595599
 30
0.0
 10
-372.196304554933
 20
-41.96082251523851
 30
0.0
 10
-369.5113765941464
 20
-46.20126910701826
 30
0.0
 10
-366.3257530045951
 20
-50.84661088905865
 30
0.0
 10
-363.0396084364285
 20
-55.26833191690009
 30
0.0
 10
-359.9473708540568
 20
-59.14674091205987
 30
0.0
 10
-357.0610961417141
 20
-62.56149825338965
 30
0.0
 10
-353.8896392138271
 20
-66.11723504731926
 30
0.0
 10
-350.0576064116012
 20
-70.15629269864193
 30
0.0
 10
-345.4188114241311
 20
-74.69429882435244
 30
0.0
 10
-340.6056814730247
 20
-79.0379963744443
 30
0.0
 10
-335.3337191295
 20
-83.45727464540747
 30
0.0
 10
-330.9921271799255
 20
-86.82614069368383
 30
0.0
 10
-327.4556322428535
 20
-89.41045561141594
 30
0.0
 10
-325.3838670776557
 20
-90.8800822748543
 30
0.0
 10
-323.3073596800604
 20
-92.3152121493139
 30
0.0
 10
-320.9647612156011
 20
-93.88849251370345
 30
0.0
 10
-318.6525729135897
 20
-95.3893329952728
 30
0.0
 10
-316.7012092098197
 20
-96.61911010315553
 30
0.0
 10
-315.2844775981441
 20
-97.49438594263185
 30
0.0
 10
-313.9009147081284
 20
-98.33569771194836
 30
0.0
 10
-312.2153922373139
 20
-99.34215422216938
 30
0.0
 10
-309.3890331930842
 20
-100.9886455818448
 30
0.0
 10
-305.8599181417835
 20
-102.9578801698836
 30
0.0
 10
-301.5247536812042
 20
-105.254573594546
 30
0.0
 10
-297.2005301856947
 20
-107.4296414093143
 30
0.0
 10
-292.8662032937631
 20
-109.4811116811145
 30
0.0
 10
-288.7036817479782
 20
-111.3471817639392
 30
0.0
 10
-284.2150846395884
 20
-113.2582188083234
 30
0.0
 10
-279.3662572680354
 20
-115.1952224260351
 30
0.0
 10
-274.5206343603684
 20
-117.0024303567366
 30
0.0
 10
-270.241138765701
 20
-118.5066459019294
 30
0.0
 10
-266.2618622424632
 20
-119.8322815772333
 30
0.0
 10
-262.3932766585719
 20
-121.0541741644238
 30
0.0
 10
-258.5722890575408
 20
-122.1986383041691
 30
0.0
 10
-254.7763685313691
 20
-123.2775906868875
 30
0.0
 10
-251.053076131113
 20
-124.279770103473
 30
0.0
 10
-247.3732315934098
 20
-125.2184524453081
 30
0.0
 10
-243.7904108546292
 20
-126.0854517571032
 30
0.0
 10
-240.201457980511
 20
-126.9072446821106
 30
0.0
 10
-236.3338135911506
 20
-127.7452379674455
 30
0.0
 10
-232.2031997934096
 20
-128.5840715903261
 30
0.0
 10
-227.9670886452859
 20
-129.3836494866656
 30
0.0
 10
-223.4558262146228
 20
-130.1700103303086
 30
0.0
 10
-218.7410795253534
 20
-130.9617696765624
 30
0.0
 10
-213.4656207912867
 20
-131.8135974361384
 30
0.0
 10
-207.7772403033795
 20
-132.6818676673532
 30
0.0
 10
-201.3396381414756
 20
-133.6443440393736
 30
0.0
 10
-194.6493125927969
 20
-134.6467239677901
 30
0.0
 10
-188.2313299603184
 20
-135.6045296977828
 30
0.0
 10
-182.6377776027723
 20
-136.4373659268364
 30
0.0
 10
-177.7976441086372
 20
-137.156162925301
 30
0.0
 10
-173.5113647984945
 20
-137.791194226415
 30
0.0
 10
-169.5935504403298
 20
-138.3702471882581
 30
0.0
 10
-164.7608187736978
 20
-139.0828391297533
 30
0.0
 10
-158.474931924609
 20
-140.0064181784137
 30
0.0
 10
-150.2041702734978
 20
-141.2146974495187
 30
0.0
 10
-140.6566958819479
 20
-142.5990768799674
 30
0.0
 10
-129.8413908231745
 20
-144.1522710075272
 30
0.0
 10
-118.0447799065025
 20
-145.8259744122655
 30
0.0
 10
-105.6437895276897
 20
-147.5599149695016
 30
0.0
 10
-88.8932739459515
 20
-149.8632295707727
 30
0.0
 10
-67.79294993116899
 20
-152.6851815333224
 30
0.0
 10
-47.50540818754003
 20
-155.2782328830019
 30
0.0
 10
-32.21618416962713
 20
-157.1627734805918
 30
0.0
 10
-22.16439616805802
 20
-158.3780504397913
 30
0.0
 10
-12.50307964445462
 20
-159.5247617872001
 30
0.0
 10
-3.828055254444545
 20
-160.5375631656444
 30
0.0
 10
3.718126729813573
 20
-161.4066974576719
 30
0.0
 10
10.19587111926067
 20
-162.1445716386565
 30
0.0
 10
15.94276852427738
 20
-162.7930043013617
 30
0.0
 10
20.96206823422017
 20
-163.3547915721782
 30
0.0
 10
25.33951916776997
 20
-163.8414509613967
 30
0.0
 10
29.51228366550657
 20
-164.3027260163432
 30
0.0
 10
33.95346315162869
 20
-164.7909353323716
 30
0.0
 10
39.7143707425958
 20
-165.4202848608598
 30
0.0
 10
46.98753109908957
 20
-166.2084225041137
 30
0.0
 10
55.88444817313513
 20
-167.16316021147
 30
0.0
 10
65.79997591305172
 20
-168.2170465814069
 30
0.0
 10
76.72691328708335
 20
-169.3659087083331
 30
0.0
 10
88.65590799791497
 20
-170.6085778422421
 30
0.0
 10
101.6002923372784
 20
-171.9307939616019
 30
0.0
 10
113.3273871733821
 20
-173.1489511182347
 30
0.0
 10
123.2767765052609
 20
-174.0789695600478
 30
0.0
 10
130.6750492565197
 20
-174.7119345991357
 30
0.0
 10
137.0961885741606
 20
-175.1013897974301
 30
0.0
 10
142.4970092799391
 20
-175.2982308762093
 30
0.0
 10
146.5128667388116
 20
-175.3703016599663
 30
0.0
 10
149.3343962149538
 20
-175.3856009281687
 30
0.0
 10
151.1983471596559
 20
-175.3814361322091
 30
0.0
 10
152.9849391994101
 20
-175.3666562434644
 30
0.0
 10
155.1611138938491
 20
-175.3346561453482
 30
0.0
 10
158.0523596019117
 20
-175.265258085363
 30
0.0
 10
162.2593175823132
 20
-175.113309851723
 30
0.0
 10
167.0940323269398
 20
-174.8514112549131
 30
0.0
 10
172.5728858572373
 20
-174.4405975622921
 30
0.0
 10
178.1655659482671
 20
-173.8996294603101
 30
0.0
 10
184.3939318208593
 20
-173.1669837254054
 30
0.0
 10
191.5967361176411
 20
-172.1586604143534
 30
0.0
 10
199.2896245627461
 20
-170.8629224450073
 30
0.0
 10
207.2229495726272
 20
-169.2614037287508
 30
0.0
 10
214.954065926029
 20
-167.43497014749
 30
0.0
 10
221.5767474323904
 20
-165.6139004513055
 30
0.0
 10
227.4191868232834
 20
-163.7977056005373
 30
0.0
 10
232.5553793141857
 20
-162.0423706512002
 30
0.0
 10
237.6273598776064
 20
-160.1156832712708
 30
0.0
 10
242.6528000754121
 20
-158.0039947531879
 30
0.0
 10
247.4818857011466
 20
-155.7727361305504
 30
0.0
 10
252.0851307133019
 20
-153.4138512063664
 30
0.0
 10
256.0620453634327
 20
-151.1733207037527
 30
0.0
 10
258.8148621493373
 20
-149.5006994555065
 30
0.0
 10
260.7219461114346
 20
-148.2821825032155
 30
0.0
 10
261.9896244092265
 20
-147.4475243228396
 30
0.0
 10
263.1616782381869
 20
-146.6540955028103
 30
0.0
 10
264.3109298358684
 20
-145.8558928469103
 30
0.0
 10
265.6597364104992
 20
-144.8896022177212
 30
0.0
 10
267.2243274143467
 20
-143.7192321390174
 30
0.0
 10
268.9399827595938
 20
-142.4320503400519
 30
0.0
 10
270.7930062273222
 20
-141.0264733686247
 30
0.0
 10
273.2841760448416
 20
-139.1218826854257
 30
0.0
 10
276.3530792500072
 20
-136.7466678715594
 30
0.0
 10
279.7419631090049
 20
-134.0863736861694
 30
0.0
 10
282.9692488941147
 20
-131.5172496557231
 30
0.0
 10
285.827280694542
 20
-129.2121490132939
 30
0.0
 10
288.3181969996917
 20
-127.1797737482881
 30
0.0
 10
290.5505133268239
 20
-125.3396928290501
 30
0.0
 10
293.8900811841214
 20
-122.5609309012708
 30
0.0
 10
298.4859181644911
 20
-118.6685285530739
 30
0.0
 10
303.0655424271709
 20
-114.6834040760463
 30
0.0
 10
306.4706751054927
 20
-111.6641377736515
 30
0.0
 10
308.7443429156211
 20
-109.6274586195393
 30
0.0
 10
311.1067634207842
 20
-107.4877894110449
 30
0.0
 10
313.3711133982455
 20
-105.4140880436371
 30
0.0
 10
315.3778360078362
 20
-103.5581098491739
 30
0.0
 10
317.2313191016427
 20
-101.8295348891916
 30
0.0
 10
319.1804909373886
 20
-99.9971527483192
 30
0.0
 10
321.4174575535271
 20
-97.87488447961493
 30
0.0
 10
323.7478305177349
 20
-95.64059457545889
 30
0.0
 10
325.857460306029
 20
-93.59746079336458
 30
0.0
 10
327.5773163813088
 20
-91.91858175443018
 30
0.0
 10
329.1774829749834
 20
-90.34675846960513
 30
0.0
 10
330.9049112630232
 20
-88.63884104496674
 30
0.0
 10
332.8271461183771
 20
-86.72383698188294
 30
0.0
 10
334.8095830860594
 20
-84.73317458275032
 30
0.0
 10
336.7286457326667
 20
-82.7917429027269
 30
0.0
 10
338.6077710155704
 20
-80.87620125991783
 30
0.0
 10
340.3777753042664
 20
-79.06200464188385
 30
0.0
 10
342.2665549288834
 20
-77.10566316212076
 30
0.0
 10
343.8638270833098
 20
-75.43262045012878
 30
0.0
 10
345.7565186205737
 20
-73.39942366000251
 30
0.0
 10
348.366465881484
 20
-70.4950158472552
 30
0.0
 10
351.3721642420159
 20
-66.97457728717652
 30
0.0
 10
354.1362939659596
 20
-63.57663460475449
 30
0.0
 10
356.6046708838068
 20
-60.39976805209297
 30
0.0
 10
358.9481522110767
 20
-57.25543065674946
 30
0.0
 10
361.371951643743
 20
-53.85869961739289
 30
0.0
 10
364.0838414268436
 20
-49.86105012395721
 30
0.0
 10
366.9646853466502
 20
-45.35077151681967
 30
0.0
 10
369.7532524189513
 20
-40.67661203316813
 30
0.0
 10
372.2840202805526
 20
-36.13813983755948
 30
0.0
 10
374.4539855679739
 20
-31.98620170800621
 30
0.0
 10
376.4198370792737
 20
-27.98341957792972
 30
0.0
 10
378.2389668410585
 20
-24.04488152969563
 30
0.0
 10
379.9966084523586
 20
-19.97753190981567
 30
0.0
 10
381.3550434064019
 20
-16.59985484607545
 30
0.0
 10
382.3126941876243
 20
-14.08462767285166
 30
0.0
 10
382.972788995589
 20
-12.29473126241397
 30
0.0
 10
383.7453426018474
 20
-10.12742112659013
 30
0.0
 10
384.7509666238842
 20
-7.157600987804067
 30
0.0
 10
386.0031655869686
 20
-3.206842489500358
 30
0.0
 10
386.8321182909314
 20
-0.2198885079551377
 30
0.0
 10
387.2916065512647
 20
1.435779278777791
 30
0.0
  0
LWPOLYLINE
  5
F2
330
EB
100
AcDbEntity
  8
0
  6
Continuous
 62
     7
370
    25
100
AcDbPolyline
 90
      111
 70
   128
 43
0.0
 10
-79.5495128652
 20
-70.1560759876
 10
62.6693650254
 20
-88.07397039
 10
125.2456712973
 20
-95.957843927
 10
135.0790908543
 20
-97.1967383399
 10
144.9125104113
 20
-98.4356327529
 10
154.7461711119
 20
-99.674214423
 10
164.6988940607
 20
-100.7443138549
 10
174.8290042118
 20
-101.5047334971
 10
185.8598173529
 20
-101.9772156282
 10
196.9525423002
 20
-102.0913428762
 10
208.0327980662
 20
-101.847246314
 10
219.0260715066
 20
-101.2450769008
 10
229.8395349228
 20
-100.2877414243
 10
240.3478989531
 20
-98.9830312466
 10
250.425322599
 20
-97.3407953882
 10
259.9617604123
 20
-95.3825465696
 10
268.8540263134
 20
-93.1348481382
 10
277.013364091
 20
-90.6221166142
 10
284.3918591586
 20
-87.8626229934
 10
290.9485665556
 20
-84.8735895376
 10
296.4248893425
 20
-81.8052019623
 10
301.0478013394
 20
-78.5597037327
 10
304.9505229409
 20
-75.1842182078
 10
308.7900717423
 20
-71.7980544493
 10
312.6296205437
 20
-68.4118906908
 10
316.4691693451
 20
-65.0257269323
 10
320.3087181465
 20
-61.6395631738
 10
341.4262365543
 20
-43.0156625021
 10
368.3030781642
 20
-19.3125161926
 10
372.5265818458
 20
-15.5877360583
 10
376.7500855273
 20
-11.8629559239
 10
380.9590203499
 20
-8.1368943909
 10
384.3932252057
 20
-4.3498772397
 10
386.6272330524
 20
-0.4929370939
 10
387.6408818925
 20
3.194456097
 10
387.5827109901
 20
6.8908815621
 10
386.4492546992
 20
10.5743950898
 10
384.2401935762
 20
14.2207292599
 10
380.9736447497
 20
17.7920027771
 10
376.6742877708
 20
21.2455427388
 10
371.3819687445
 20
24.5409518637
 10
365.1715248751
 20
27.6430980543
 10
358.1214626796
 20
30.5185140815
 10
350.2956349534
 20
33.1445532704
 10
341.7496270047
 20
35.5046737977
 10
332.5389644842
 20
37.5823778924
 10
323.3164671954
 20
39.2644847063
 10
313.6010636389
 20
40.6682833713
 10
303.6458304558
 20
41.9225938079
 10
293.6905090034
 20
43.1768464161
 10
283.7351875511
 20
44.4310990243
 10
273.7798660987
 20
45.6853516324
 10
263.8245446464
 20
46.9396042406
 10
253.8692231941
 20
48.1938568488
 10
191.2929169222
 20
56.0777303858
 10
79.5495128652
 20
70.1560759876
 10
-62.6693650254
 20
88.07397039
 10
-125.2456712973
 20
95.957843927
 10
-135.0790908543
 20
97.1967383399
 10
-144.9125104113
 20
98.4356327529
 10
-154.7461711119
 20
99.674214423
 10
-164.6988940607
 20
100.7443138549
 10
-174.8290042118
 20
101.5047334971
 10
-185.8598173529
 20
101.9772156282
 10
-196.9525423002
 20
102.0913428762
 10
-208.0327980662
 20
101.847246314
 10
-219.0260715066
 20
101.2450769008
 10
-229.8395349228
 20
100.2877414243
 10
-240.3478989531
 20
98.9830312466
 10
-250.425322599
 20
97.3407953882
 10
-259.9617604123
 20
95.3825465696
 10
-268.8540263134
 20
93.1348481382
 10
-277.013364091
 20
90.6221166142
 10
-284.3918591586
 20
87.8626229934
 10
-290.9485665556
 20
84.8735895376
 10
-296.4248893425
 20
81.8052019623
 10
-301.0478013394
 20
78.5597037327
 10
-304.9505229409
 20
75.1842182078
 10
-308.7900717423
 20
71.7980544493
 10
-312.6296205437
 20
68.4118906908
 10
-316.4691693451
 20
65.0257269323
 10
-320.3087181465
 20
61.6395631738
 10
-341.4262365543
 20
43.0156625021
 10
-368.3030781642
 20
19.3125161926
 10
-372.5265818458
 20
15.5877360583
 10
-376.7500855273
 20
11.8629559239
 10
-380.9590203499
 20
8.1368943909
 10
-384.3932252057
 20
4.3498772397
 10
-386.6272330524
 20
0.4929370939
 10
-387.6408818925
 20
-3.194456097
 10
-387.5827109901
 20
-6.8908815621
 10
-386.4492546992
 20
-10.5743950898
 10
-384.2401935762
 20
-14.2207292599
 10
-380.9736447497
 20
-17.7920027771
 10
-376.6742877708
 20
-21.2455427388
 10
-371.3819687445
 20
-24.5409518637
 10
-365.1715248751
 20
-27.6430980543
 10
-358.1214626796
 20
-30.5185140815
 10
-350.2956349534
 20
-33.1445532704
 10
-341.7496270047
 20
-35.5046737977
 10
-332.5389644842
 20
-37.5823778924
 10
-323.3164671954
 20
-39.2644847063
 10
-313.6010636389
 20
-40.6682833713
 10
-303.6458304558
 20
-41.9225938079
 10
-293.6905090034
 20
-43.1768464161
 10
-283.7351875511
 20
-44.4310990243
 10
-273.7798660987
 20
-45.6853516324
 10
-263.8245446464
 20
-46.9396042406
 10
-253.8692231941
 20
-48.1938568488
 10
-191.2929169222
 20
-56.0777303858
 10
-79.5495128652
 20
-70.1560759876
  0
VIEWPORT
  5
105
330
EB
100
AcDbEntity
  8
0
100
AcDbViewport
 10
0.0
 20
0.0
 30
0.0
 40
205.6
 41
156.0
 68
     1
 69
     1
 12
0.0
 22
-13.9752192724
 13
0.0
 23
0.0
 14
10.0
 24
10.0
 15
10.0
 25
10.0
 16
0.0
 26
0.0
 36
1.0
 17
0.0
 27
0.0
 37
0.0
 42
50.0
 43
0.0
 44
0.0
 45
592.7867926039
 50
0.0
 51
0.0
 72
   100
 90
   557152
  1

281
     0
 71
     1
 74
     0
110
0.0
120
0.0
130
0.0
111
1.0
121
0.0
131
0.0
112
0.0
122
1.0
132
0.0
 79
     0
146
0.0
170
     0
 61
     5
348
2F
292
     1
282
     1
141
0.0
142
0.0
 63
   256
361
106
  0
ENDBLK
  5
EE
330
EB
100
AcDbEntity
  8
0
100
AcDbBlockEnd
  0
ENDSEC
  0
SECTION
  2
ENTITIES
  0
SPLINE
  5
73
330
1F
100
AcDbEntity
  8
0
  6
Continuous
 62
     7
370
    25
100
AcDbSpline
210
0.0
220
0.0
230
1.0
 70
     8
 71
     3
 72
    87
 73
    83
 74
     0
 42
0.000000001
 43
0.00000001
 40
0.0
 40
0.0
 40
0.0
 40
0.0
 40
0.0038996358664117
 40
0.0087738243043425
 40
0.0139562940442273
 40
0.0200251379686612
 40
0.026960623990069
 40
0.0341713154118167
 40
0.041449936088689
 40
0.0487959428571857
 40
0.0663747870019853
 40
0.0843166807682979
 40
0.1061169644154682
 40
0.1276862989037697
 40
0.1486896727582031
 40
0.179172301722449
 40
0.2085523184977141
 40
0.2176034492919577
 40
0.2265664335719375
 40
0.2353915584098516
 40
0.2440249887406323
 40
0.2519013136584602
 40
0.2579643154446023
 40
0.2633695253209611
 40
0.2685472080453373
 40
0.2744752246356058
 40
0.281200407358663
 40
0.2887364856647556
 40
0.2968480600503434
 40
0.304897275033543
 40
0.3154650939923471
 40
0.3258326398340269
 40
0.3359872359528731
 40
0.3459154925879279
 40
0.3556157786673219
 40
0.3651097192234264
 40
0.377580180453863
 40
0.3899396485266489
 40
0.4023891030523911
 40
0.4149575020347184
 40
0.427565427065302
 40
0.4773252099809548
 40
0.4985348064315299
 40
0.5197965942329642
 40
0.5411411073269297
 40
0.5633417353049237
 40
0.5867134960106578
 40
0.611252650361142
 40
0.6354549949332892
 40
0.6606873639562812
 40
0.6869452671254701
 40
0.7142236341347773
 40
0.742516932506497
 40
0.7631647321006672
 40
0.7833076437873158
 40
0.8026163056533059
 40
0.8210916924574415
 40
0.8387348118327047
 40
0.8555467007739627
 40
0.8715284203666025
 40
0.8866810490224756
 40
0.896322732430574
 40
0.9055072466439918
 40
0.9138102376248073
 40
0.921175840742351
 40
0.9276043873652997
 40
0.9330963596272032
 40
0.9360212267086367
 40
0.9398662184138614
 40
0.9445441473418772
 40
0.9493808476527006
 40
0.9542654290819043
 40
0.9592962075498376
 40
0.9654283226612445
 40
0.9709920352797579
 40
0.9764231826582618
 40
0.9825167761965108
 40
0.9883024848800167
 40
0.991581169040279
 40
0.9950847789665049
 40
0.9991176826755082
 40
1.0
 40
1.0
 40
1.0
 40
1.0
 10
343.7126394238067
 20
-102.8511501111191
 30
0.0
 10
343.4201021319574
 20
-103.0969894253266
 30
0.0
 10
342.7619199608322
 20
-103.6501054145745
 30
0.0
 10
341.0179766377523
 20
-105.2598972544172
 30
0.0
 10
338.8257070860773
 20
-107.34063314451
 30
0.0
 10
336.1178024837429
 20
-109.9184151758575
 30
0.0
 10
332.9324143014335
 20
-112.9496292733007
 30
0.0
 10
329.5398534400501
 20
-116.1717840363074
 30
0.0
 10
326.0734213951812
 20
-119.4584204306853
 30
0.0
 10
320.9452111424117
 20
-124.3119321802395
 30
0.0
 10
314.0849813732361
 20
-130.7851650667329
 30
0.0
 10
304.8548798829312
 20
-139.4571058488924
 30
0.0
 10
294.8985814972705
 20
-148.7665444131588
 30
0.0
 10
284.4389690958089
 20
-158.4911774853003
 30
0.0
 10
272.595689749274
 20
-169.4458099736181
 30
0.0
 10
259.5182447919201
 20
-181.4677615803
 30
0.0
 10
248.47020686383
 20
-191.6097183450999
 30
0.0
 10
240.9279023835361
 20
-198.4957753045091
 30
0.0
 10
236.7422793504863
 20
-202.4103924433919
 30
0.0
 10
232.1053694883003
 20
-205.9833286392886
 30
0.0
 10
227.2352915281224
 20
-209.1418891504597
 30
0.0
 10
222.5620902817755
 20
-211.7136810117837
 30
0.0
 10
218.3406909333485
 20
-213.7344277379913
 30
0.0
 10
214.5745431727078
 20
-215.3364791514731
 30
0.0
 10
210.7176540339037
 20
-216.8032921151215
 30
0.0
 10
206.3511870149451
 20
-218.2705989283197
 30
0.0
 10
201.1985351020405
 20
-219.7569302611068
 30
0.0
 10
195.2491126191535
 20
-221.1753866738892
 30
0.0
 10
188.709226800222
 20
-222.4004184007734
 30
0.0
 10
181.1002592541037
 20
-223.4493367052787
 30
0.0
 10
172.5957322523655
 20
-224.1600092679359
 30
0.0
 10
163.2422118331787
 20
-224.3852411637363
 30
0.0
 10
153.9350235198623
 20
-224.0931118733948
 30
0.0
 10
144.7618207611259
 20
-223.3164751081857
 30
0.0
 10
135.7917196672246
 20
-222.0860843995902
 30
0.0
 10
126.1107431173343
 20
-220.2542824379167
 30
0.0
 10
115.7888477376803
 20
-217.6690836612971
 30
0.0
 10
104.933467730736
 20
-214.1564094965553
 30
0.0
 10
94.5016197753565
 20
-209.9736221913737
 30
0.0
 10
84.63952982167704
 20
-205.1109720074371
 30
0.0
 10
64.87122516496457
 20
-195.5826971160259
 30
0.0
 10
42.88497945583257
 20
-184.9241160429653
 30
0.0
 10
18.62496434106371
 20
-173.2088809147123
 30
0.0
 10
1.850703782941401
 20
-165.1110140968164
 30
0.0
 10
-15.17489047868881
 20
-156.8994436808138
 30
0.0
 10
-32.74562975467261
 20
-148.4325143802654
 30
0.0
 10
-51.14739141773037
 20
-139.5749962665382
 30
0.0
 10
-70.06745893515495
 20
-130.4799948083661
 30
0.0
 10
-89.46975126909263
 20
-121.1674912577599
 30
0.0
 10
-109.3178702472162
 20
-111.6576228674018
 30
0.0
 10
-129.9684700595618
 20
-101.7838937793278
 30
0.0
 10
-151.4176915963527
 20
-91.54969672549419
 30
0.0
 10
-171.393396168583
 20
-82.0373025771987
 30
0.0
 10
-189.4959933703298
 20
-73.43037607135072
 30
0.0
 10
-205.2460522757204
 20
-65.95117398937438
 30
0.0
 10
-220.4287927755709
 20
-58.74908748280846
 30
0.0
 10
-234.9580707174225
 20
-51.86325856015956
 30
0.0
 10
-248.8344738513284
 20
-45.29189214589899
 30
0.0
 10
-262.0586550237277
 20
-39.03334802019874
 30
0.0
 10
-274.6311570862756
 20
-33.08634760265885
 30
0.0
 10
-285.3249824488003
 20
-28.02984886669685
 30
0.0
 10
-294.2362871185848
 20
-23.81781824070341
 30
0.0
 10
-301.3539447091273
 20
-20.45266778509012
 30
0.0
 10
-307.8366267368405
 20
-17.39385943076945
 30
0.0
 10
-313.5481861802282
 20
-14.68819054348582
 30
0.0
 10
-318.5115841839066
 20
-12.38521797622791
 30
0.0
 10
-322.1567559386417
 20
-10.53615097460886
 30
0.0
 10
-324.9794174476339
 20
-9.002617697288926
 30
0.0
 10
-327.4791733198065
 20
-7.5694523787984
 30
0.0
 10
-330.2463893885973
 20
-5.873115091249062
 30
0.0
 10
-333.0706486298457
 20
-4.009737173679154
 30
0.0
 10
-335.791640529522
 20
-2.076274411617756
 30
0.0
 10
-338.5955241986801
 20
0.0720165425239644
 30
0.0
 10
-341.3368590961124
 20
2.364799635937678
 30
0.0
 10
-343.8958967724694
 20
4.716811062023527
 30
0.0
 10
-346.2138667870249
 20
7.044940816795298
 30
0.0
 10
-348.3688227587839
 20
9.437469828551905
 30
0.0
 10
-350.0106206687524
 20
11.46121337832235
 30
0.0
 10
-351.3226462365668
 20
13.23625091361037
 30
0.0
 10
-351.9918774631027
 20
14.20565193920296
 30
0.0
 10
-352.4156881395467
 20
14.77540300440728
 30
0.0
 10
-352.421984482797
 20
14.72021064749921
 30
0.0
 10
-352.423114721436
 20
14.71030322475107
 30
0.0
  0
SPLINE
  5
74
330
1F
100
AcDbEntity
  8
0
  6
Continuous
 62
     7
370
    25
100
AcDbSpline
210
0.0
220
0.0
230
1.0
 70
     8
 71
     3
 72
   153
 73
   149
 74
     0
 42
0.000000001
 43
0.00000001
 40
0.0
 40
0.0
 40
0.0
 40
0.0
 40
0.0042590088990535
 40
0.0076884745040427
 40
0.0102820940002724
 40
0.012087911173344
 40
0.0137620097138712
 40
0.0209406851859888
 40
0.0279651994452992
 40
0.0351379768768606
 40
0.0456885306470649
 40
0.0558955517435861
 40
0.0659202006278295
 40
0.0742949818455973
 40
0.0833170542949587
 40
0.0928881309805921
 40
0.1026303090930536
 40
0.1083402566491563
 40
0.113176422743013
 40
0.1178159202017035
 40
0.1224873472196293
 40
0.127575561238452
 40
0.13168550022475
 40
0.1361844231156698
 40
0.1406636153258382
 40
0.144337453743047
 40
0.1495558936823392
 40
0.1544494976716787
 40
0.1598500067465677
 40
0.1658016668945068
 40
0.172307569659287
 40
0.1792626587925483
 40
0.1862744076267666
 40
0.2207728830814517
 40
0.2559705334597375
 40
0.2923148523838116
 40
0.306474401245583
 40
0.3195096731208717
 40
0.3313886763867086
 40
0.3421218557827838
 40
0.3524518320503717
 40
0.3627977354310862
 40
0.3705664287330178
 40
0.3787839590640674
 40
0.3879316551472125
 40
0.3980034712495307
 40
0.4089913845296519
 40
0.4208854238266486
 40
0.4336734005952038
 40
0.4473024188686401
 40
0.4641470582026724
 40
0.4800785477784154
 40
0.4951180433558084
 40
0.5092869371845825
 40
0.5226065049412165
 40
0.5369850151181762
 40
0.5503052534552108
 40
0.5629313638336885
 40
0.5749722135545896
 40
0.5863776162170398
 40
0.5943069868270421
 40
0.6017223335980979
 40
0.6081025945571907
 40
0.6103192277170468
 40
0.6125794010308622
 40
0.6155528041348964
 40
0.6192828453186652
 40
0.6237334855704187
 40
0.628339180147091
 40
0.634170712862664
 40
0.6398747073815291
 40
0.6453684725030109
 40
0.6501447048463327
 40
0.654126789925407
 40
0.6581502423202363
 40
0.6638627787707686
 40
0.6702910944105073
 40
0.6768584907773375
 40
0.6835325773128559
 40
0.6903174825717024
 40
0.695870137062788
 40
0.7007957079766987
 40
0.7051460446768045
 40
0.7097963240171086
 40
0.7149465083489283
 40
0.7196939264555826
 40
0.7217923808576948
 40
0.7236680171579902
 40
0.7253841344068488
 40
0.7275996191775975
 40
0.7304868351509617
 40
0.7334647468317533
 40
0.7358355449300932
 40
0.737666754109465
 40
0.7392952388688905
 40
0.7404353945305603
 40
0.7417390415293308
 40
0.7433125318094991
 40
0.7451886874706567
 40
0.7517381783914174
 40
0.757102256444034
 40
0.7611817442118153
 40
0.7658869443403017
 40
0.7714952376563624
 40
0.7778953104172982
 40
0.7844606006464182
 40
0.7905394790748899
 40
0.7966781943997022
 40
0.8028785044590848
 40
0.8088500640221368
 40
0.8137907770703257
 40
0.8176539428784508
 40
0.8221158862136251
 40
0.8284584980991717
 40
0.8373148290270435
 40
0.8474519146292109
 40
0.8568780580708399
 40
0.865564164652038
 40
0.8735133837438273
 40
0.878982486224252
 40
0.8840948073203484
 40
0.8889123085209224
 40
0.8942593873568185
 40
0.9003958604916397
 40
0.9069632246620583
 40
0.9126625400032469
 40
0.917832153354755
 40
0.9227999571656087
 40
0.9278620883894638
 40
0.933358229729751
 40
0.9362537270548329
 40
0.9393292571414439
 40
0.9421654043325217
 40
0.9457103623846036
 40
0.9486241240923232
 40
0.9516788939154915
 40
0.9548834438611029
 40
0.9587642641195718
 40
0.9630255598153743
 40
0.9696787369096769
 40
0.9764281630184949
 40
0.9825918775173137
 40
0.9847752665043215
 40
0.9868014265107571
 40
0.9887340790317394
 40
0.9914406202213284
 40
0.9951958165146536
 40
1.0
 40
1.0
 40
1.0
 40
1.0
 10
-381.6672761844111
 20
45.58488177756193
 30
0.0
 10
-381.316491369889
 20
44.20861233096066
 30
0.0
 10
-380.6832454277501
 20
41.7241346504283
 30
0.0
 10
-379.7163480080955
 20
38.43570755758017
 30
0.0
 10
-378.9316276803433
 20
35.94758118344408
 30
0.0
 10
-378.2918269109487
 20
34.02691596744998
 30
0.0
 10
-377.1275662812574
 20
30.66838472030703
 30
0.0
 10
-375.2369789360627
 20
25.71548691187612
 30
0.0
 10
-372.3732978081102
 20
19.17179407209075
 30
0.0
 10
-368.7077779729944
 20
11.75067784826692
 30
0.0
 10
-364.1036388366948
 20
3.609638942696072
 30
0.0
 10
-358.4797949641893
 20
-5.032161023477907
 30
0.0
 10
-352.7955881537248
 20
-12.72492149098812
 30
0.0
 10
-346.9679875120611
 20
-19.79800807629426
 30
0.0
 10
-340.9085563761429
 20
-26.47017433958916
 30
0.0
 10
-334.2012870303897
 20
-33.15414523826905
 30
0.0
 10
-327.9927469565367
 20
-38.75052135634712
 30
0.0
 10
-322.7938095463318
 20
-43.08628704009183
 30
0.0
 10
-318.8242833241233
 20
-46.22787666947899
 30
0.0
 10
-315.0614146957776
 20
-49.06998440392366
 30
0.0
 10
-311.1792061595467
 20
-51.87144426129266
 30
0.0
 10
-307.3801312335556
 20
-54.48544587511755
 30
0.0
 10
-303.5676388023596
 20
-56.99333381775787
 30
0.0
 10
-299.889709458323
 20
-59.31234917650059
 30
0.0
 10
-296.2901597431812
 20
-61.48462373669366
 30
0.0
 10
-292.4207053998209
 20
-63.72538274083171
 30
0.0
 10
-288.3276044503305
 20
-65.99581196225465
 30
0.0
 10
-283.9273877165431
 20
-68.41977971410523
 30
0.0
 10
-279.3100339294045
 20
-70.92785250212984
 30
0.0
 10
-274.25630513167
 20
-73.62542123256523
 30
0.0
 10
-268.7820618179974
 20
-76.51794031294024
 30
0.0
 10
-263.0484815700961
 20
-79.54734720235037
 30
0.0
 10
-249.4619255559961
 20
-86.70589796814502
 30
0.0
 10
-227.981468372663
 20
-97.9472526993233
 30
0.0
 10
-198.2843473198687
 20
-113.2732421264492
 30
0.0
 10
-174.1359694179855
 20
-125.5253263779574
 30
0.0
 10
-156.1716145479679
 20
-134.5118030093257
 30
0.0
 10
-145.1057545090394
 20
-140.0027912432507
 30
0.0
 10
-134.9935823808491
 20
-144.9814848775002
 30
0.0
 10
-125.6337496263431
 20
-149.5556104049331
 30
0.0
 10
-116.6965738997934
 20
-153.8917055995666
 30
0.0
 10
-108.5907666648832
 20
-157.7955013541241
 30
0.0
 10
-101.0794632976549
 20
-161.3886006344894
 30
0.0
 10
-93.8943296516096
 20
-164.805092731547
 30
0.0
 10
-86.02582889558416
 20
-168.5228080220234
 30
0.0
 10
-77.34108248779899
 20
-172.597988689308
 30
0.0
 10
-67.84369422780887
 20
-177.0218104601621
 30
0.0
 10
-57.53971498379906
 20
-181.784181466816
 30
0.0
 10
-46.4501013310158
 20
-186.8683878215067
 30
0.0
 10
-33.89471362989329
 20
-192.5765595116021
 30
0.0
 10
-20.43339211181184
 20
-198.6419374113613
 30
0.0
 10
-6.587353502515548
 20
-204.826480388896
 30
0.0
 10
6.454721939978508
 20
-210.6081870761768
 30
0.0
 10
18.70656567911636
 20
-216.0043691830045
 30
0.0
 10
30.72255392576398
 20
-221.2661288390254
 30
0.0
 10
42.44371244399827
 20
-226.3716178946802
 30
0.0
 10
53.87319740426677
 20
-231.3179696791383
 30
0.0
 10
64.63919690709908
 20
-235.9654945821978
 30
0.0
 10
74.92235916715775
 20
-240.3349125441762
 30
0.0
 10
83.92817470948964
 20
-244.0867009565634
 30
0.0
 10
91.86748654107737
 20
-247.0300762681173
 30
0.0
 10
98.56922273386951
 20
-249.1173641217773
 30
0.0
 10
103.5639407447132
 20
-250.449921075625
 30
0.0
 10
106.9574007978936
 20
-251.2625562119101
 30
0.0
 10
109.2811190166651
 20
-251.7870405057436
 30
0.0
 10
112.0947123481252
 20
-252.3773071287148
 30
0.0
 10
115.6266645144644
 20
-253.0468311035314
 30
0.0
 10
119.721102910181
 20
-253.7225737698309
 30
0.0
 10
124.5375751271768
 20
-254.3869897028383
 30
0.0
 10
129.8128875411073
 20
-254.9505152357682
 30
0.0
 10
135.4298454768687
 20
-255.3546349265693
 30
0.0
 10
140.7340022017144
 20
-255.5584923210076
 30
0.0
 10
145.4888124908823
 20
-255.6129673134827
 30
0.0
 10
149.764192444659
 20
-255.5586666154204
 30
0.0
 10
154.3554523320705
 20
-255.3982711488602
 30
0.0
 10
159.7679400599513
 20
-255.0593524378182
 30
0.0
 10
166.0252677207683
 20
-254.4425359166974
 30
0.0
 10
172.5783665943273
 20
-253.5375881477964
 30
0.0
 10
179.2075718652519
 20
-252.3444842124729
 30
0.0
 10
185.444610419742
 20
-250.9413239083802
 30
0.0
 10
191.0463902765155
 20
-249.4328375845001
 30
0.0
 10
195.8036040943156
 20
-247.9612927633542
 30
0.0
 10
200.221639723455
 20
-246.428595932498
 30
0.0
 10
204.6584117063555
 20
-244.7179385954029
 30
0.0
 10
209.1495533879886
 20
-242.7845338691095
 30
0.0
 10
212.7796735775018
 20
-241.044881101516
 30
0.0
 10
215.3748482571795
 20
-239.7076514407049
 30
0.0
 10
217.0556883283115
 20
-238.8048553348346
 30
0.0
 10
218.759560762272
 20
-237.8548861202223
 30
0.0
 10
220.742420908716
 20
-236.7035218494646
 30
0.0
 10
223.0599732896144
 20
-235.2853274019017
 30
0.0
 10
225.3819137341589
 20
-233.7765252419006
 30
0.0
 10
227.370989837388
 20
-232.4114677583682
 30
0.0
 10
228.9637676289018
 20
-231.2704647100769
 30
0.0
 10
230.2041616296983
 20
-230.3499878959391
 30
0.0
 10
231.2966762131924
 20
-229.5159700655043
 30
0.0
 10
232.3416957795379
 20
-228.697589176498
 30
0.0
 10
233.4899786115463
 20
-227.7715822033871
 30
0.0
 10
235.7198476225957
 20
-225.8944581464804
 30
0.0
 10
238.4811386337749
 20
-223.5485730421478
 30
0.0
 10
241.6603244120659
 20
-220.8316620237904
 30
0.0
 10
244.2176308229986
 20
-218.6362935330861
 30
0.0
 10
246.848725289372
 20
-216.3695896683719
 30
0.0
 10
249.9062960757353
 20
-213.7233697153999
 30
0.0
 10
253.3050043714224
 20
-210.7660722469068
 30
0.0
 10
256.7944149017814
 20
-207.7116227110779
 30
0.0
 10
260.2390494772349
 20
-204.6782678915943
 30
0.0
 10
263.618530045572
 20
-201.6846615827563
 30
0.0
 10
266.9795573290745
 20
-198.6892517823662
 30
0.0
 10
270.1193679638636
 20
-195.8738822064638
 30
0.0
 10
272.8248742707833
 20
-193.434478136676
 30
0.0
 10
275.2522781409653
 20
-191.2359507992771
 30
0.0
 10
277.9583447357188
 20
-188.7744997842313
 30
0.0
 10
281.6269480136235
 20
-185.4184645413241
 30
0.0
 10
286.3406029110701
 20
-181.0712972071932
 30
0.0
 10
291.6045949292594
 20
-176.1670742271243
 30
0.0
 10
296.8167713303123
 20
-171.2611774693936
 30
0.0
 10
301.6140627146978
 20
-166.7045396025048
 30
0.0
 10
305.6820101816878
 20
-162.8093995773731
 30
0.0
 10
309.0903129472409
 20
-159.5254048711189
 30
0.0
 10
311.9231793158519
 20
-156.7827547304445
 30
0.0
 10
314.7370777576984
 20
-154.0465372931073
 30
0.0
 10
317.7466639016005
 20
-151.1072623558981
 30
0.0
 10
321.0802443674601
 20
-147.83601926736
 30
0.0
 10
324.4756859494764
 20
-144.4872143735477
 30
0.0
 10
327.6902136113762
 20
-141.3020985488741
 30
0.0
 10
330.6097202039908
 20
-138.397941040859
 30
0.0
 10
333.4189023637165
 20
-135.5936808065805
 30
0.0
 10
336.269795395785
 20
-132.7383769111568
 30
0.0
 10
338.805360866408
 20
-130.1904697332656
 30
0.0
 10
341.0474116254582
 20
-127.9310899560567
 30
0.0
 10
342.772126394099
 20
-126.1883858283172
 30
0.0
 10
344.7364327565859
 20
-124.2015378191421
 30
0.0
 10
346.8711245513899
 20
-122.0087506926943
 30
0.0
 10
349.064111627232
 20
-119.6589361297331
 30
0.0
 10
351.1293082093538
 20
-117.3800481910016
 30
0.0
 10
353.3756613591852
 20
-114.8167219833968
 30
0.0
 10
355.8335708928798
 20
-111.9038738325932
 30
0.0
 10
358.9556431512062
 20
-108.0363942252149
 30
0.0
 10
362.5457320716768
 20
-103.3112441251172
 30
0.0
 10
366.3278880643721
 20
-97.93496977511288
 30
0.0
 10
369.0943057357593
 20
-93.6839317342141
 30
0.0
 10
370.9245744253128
 20
-90.71897486722406
 30
0.0
 10
371.9868970445943
 20
-88.95034370877323
 30
0.0
 10
373.1177545468165
 20
-87.01809120074589
 30
0.0
 10
374.5078250400185
 20
-84.5651409951974
 30
0.0
 10
376.3167671998777
 20
-81.24112263787971
 30
0.0
 10
377.6063621351822
 20
-78.67151631223194
 30
0.0
 10
378.3301821842018
 20
-77.22925523809668
 30
0.0
  0
LWPOLYLINE
  5
75
330
1F
100
AcDbEntity
  8
0
  6
Continuous
 62
     7
370
    25
100
AcDbPolyline
 90
      111
 70
   128
 43
0.0
 10
-118.0359166232
 20
-109.8877253691
 10
10.3262114256
 20
-171.281305182
 10
66.8055477671
 20
-198.2944802997
 10
75.6808720493
 20
-202.5394078182
 10
84.5561963315
 20
-206.7843353367
 10
93.4319361343
 20
-211.028749728
 10
102.5209480954
 20
-214.9945056311
 10
111.9615375414
 20
-218.4395710409
 10
122.4465596846
 20
-221.5513737153
 10
133.1986150228
 20
-224.0312488652
 10
144.1450899899
 20
-225.8641803452
 10
155.2132306691
 20
-227.0351606827
 10
166.3108331602
 20
-227.5303842718
 10
177.3112194059
 20
-227.3381757582
 10
188.0859867739
 20
-226.4504480699
 10
198.5154106
 20
-224.8833341487
 10
208.4835430407
 20
-222.663458723
 10
217.8897466073
 20
-219.816543589
 10
226.6767574538
 20
-216.3656303687
 10
234.7947134493
 20
-212.3333033118
 10
241.904816332
 20
-207.9366966318
 10
248.2847900365
 20
-203.046503389
 10
254.0373790177
 20
-197.7748079311
 10
259.7345183951
 20
-192.4709503833
 10
265.4316577724
 20
-187.1670928356
 10
271.1287971498
 20
-181.8632352878
 10
276.8259365272
 20
-176.55937774
 10
308.1602031027
 20
-147.3881612273
 10
348.0401787442
 20
-110.261158393
 10
354.3070320593
 20
-104.4269150905
 10
360.5738853744
 20
-98.5926717879
 10
366.8272697715
 20
-92.7531360912
 10
372.3602721916
 20
-86.6450916158
 10
376.763139081
 20
-80.165164891
 10
379.878110924
 20
-73.7399894797
 10
381.9530292294
 20
-67.0787883388
 10
382.9718594751
 20
-60.2203249295
 10
382.9202956412
 20
-53.2081869237
 10
381.7941606354
 20
-46.114231603
 10
379.5929139689
 20
-39.0202812119
 10
376.3321182123
 20
-32.0071744412
 10
372.0644963443
 20
-25.1534537399
 10
366.8473098315
 20
-18.5354191245
 10
360.7297694854
 20
-12.2069014141
 10
353.7565440165
 20
-6.209054525
 10
345.9722693594
 20
-0.5829408974
 10
337.9483208615
 20
4.333983774
 10
329.2831850674
 20
8.8513480955
 10
320.2979555345
 20
13.1489846068
 10
311.312606571
 20
17.4465351937
 10
302.3272576076
 20
21.7440857806
 10
293.3419086442
 20
26.0416363675
 10
284.3565596808
 20
30.3391869544
 10
275.3712107174
 20
34.6367375413
 10
218.8918743759
 20
61.649912659
 10
118.0359166232
 20
109.8877253691
 10
-10.3262114256
 20
171.281305182
 10
-66.8055477671
 20
198.2944802997
 10
-75.6808720493
 20
202.5394078182
 10
-84.5561963315
 20
206.7843353367
 10
-93.4319361343
 20
211.028749728
 10
-102.5209480954
 20
214.9945056311
 10
-111.9615375414
 20
218.4395710409
 10
-122.4465596846
 20
221.5513737153
 10
-133.1986150228
 20
224.0312488652
 10
-144.1450899899
 20
225.8641803452
 10
-155.2132306691
 20
227.0351606827
 10
-166.3108331602
 20
227.5303842718
 10
-177.3112194059
 20
227.3381757582
 10
-188.0859867739
 20
226.4504480699
 10
-198.5154106
 20
224.8833341487
 10
-208.4835430407
 20
222.663458723
 10
-217.8897466073
 20
219.816543589
 10
-226.6767574538
 20
216.3656303687
 10
-234.7947134493
 20
212.3333033118
 10
-241.904816332
 20
207.9366966318
 10
-248.2847900365
 20
203.046503389
 10
-254.0373790177
 20
197.7748079311
 10
-259.7345183951
 20
192.4709503833
 10
-265.4316577724
 20
187.1670928356
 10
-271.1287971498
 20
181.8632352878
 10
-276.8259365272
 20
176.55937774
 10
-308.1602031027
 20
147.3881612273
 10
-348.0401787442
 20
110.261158393
 10
-354.3070320593
 20
104.4269150905
 10
-360.5738853744
 20
98.5926717879
 10
-366.8272697715
 20
92.7531360912
 10
-372.3602721916
 20
86.6450916158
 10
-376.763139081
 20
80.165164891
 10
-379.878110924
 20
73.7399894797
 10
-381.9530292294
 20
67.0787883388
 10
-382.9718594751
 20
60.2203249295
 10
-382.9202956412
 20
53.2081869237
 10
-381.7941606354
 20
46.114231603
 10
-379.5929139689
 20
39.0202812119
 10
-376.3321182123
 20
32.0071744412
 10
-372.0644963443
 20
25.1534537399
 10
-366.8473098315
 20
18.5354191245
 10
-360.7297694854
 20
12.2069014141
 10
-353.7565440165
 20
6.209054525
 10
-345.9722693594
 20
0.5829408974
 10
-337.9483208615
 20
-4.333983774
 10
-329.2831850674
 20
-8.8513480955
 10
-320.2979555345
 20
-13.1489846068
 10
-311.312606571
 20
-17.4465351937
 10
-302.3272576076
 20
-21.7440857806
 10
-293.3419086442
 20
-26.0416363675
 10
-284.3565596808
 20
-30.3391869544
 10
-275.3712107174
 20
-34.6367375413
 10
-218.8918743759
 20
-61.649912659
 10
-118.0359166232
 20
-109.8877253691
  0
SPLINE
  5
76
330
1F
100
AcDbEntity
  8
0
  6
Continuous
 62
     7
370
    25
100
AcDbSpline
210
0.0
220
0.0
230
1.0
 70
    11
 71
     3
 72
    91
 73
    87
 74
     0
 42
0.000000001
 43
0.00000001
 40
0.0
 40
0.0
 40
0.0
 40
0.0
 40
0.015715329323667
 40
0.0313365903140736
 40
0.0469008961822912
 40
0.0625511112566102
 40
0.0704050313533396
 40
0.0782130612328417
 40
0.0937458879341647
 40
0.1093051352885359
 40
0.1250097435715774
 40
0.1289375778928097
 40
0.1328513729997343
 40
0.1406956310688404
 40
0.1563779362116597
 40
0.1875025360492945
 40
0.2032190162937042
 40
0.2051814785650466
 40
0.2071424867189097
 40
0.2110579587415679
 40
0.2188658954711683
 40
0.2501028458468528
 40
0.281379295515446
 40
0.2891831352259114
 40
0.2970111566421417
 40
0.2992516913508036
 40
0.3009344795197053
 40
0.3048714480964479
 40
0.3127360845847592
 40
0.3438587753574818
 40
0.3595110330487662
 40
0.3673428697988675
 40
0.3712374696869971
 40
0.3751306422415008
 40
0.3906586882204033
 40
0.4062315868956144
 40
0.4140863393677859
 40
0.4219293127896793
 40
0.4297319629332585
 40
0.4375170645888376
 40
0.4530930197687589
 40
0.4687966373117038
 40
0.4845019409460231
 40
0.5002261535964635
 40
0.5158955684836009
 40
0.5314546303567628
 40
0.5470509703307367
 40
0.5627506632362311
 40
0.5705502715855225
 40
0.5783254191523385
 40
0.5938623696166277
 40
0.6095183369405306
 40
0.6252230247959848
 40
0.6291509655327159
 40
0.6330719526358175
 40
0.6409171599386423
 40
0.6565023000531516
 40
0.6876978395975583
 40
0.7033697138954241
 40
0.7053210556163391
 40
0.70727193605837
 40
0.7111725755582469
 40
0.7189714389333609
 40
0.7503159078837749
 40
0.7814701920694559
 40
0.797178560590067
 40
0.7991464547020146
 40
0.8011101642873282
 40
0.8050281964214029
 40
0.8128376349348999
 40
0.8439772014421036
 40
0.8596556565987131
 40
0.8674247161309862
 40
0.8696376043504664
 40
0.8718515255685277
 40
0.8751760081717632
 40
0.8907056603344008
 40
0.9063712965881694
 40
0.9141975900051096
 40
0.9219892477348901
 40
0.9297655916034409
 40
0.9375449461900948
 40
0.953180318633612
 40
0.968864578461208
 40
0.9844245090306404
 40
1.0
 40
1.0
 40
1.0
 40
1.0
 10
-31.04329342988563
 20
-109.3944031745248
 30
0.0
 10
-31.99561111129925
 20
-108.9389243810858
 30
0.0
 10
-33.83530313883593
 20
-107.9766571605372
 30
0.0
 10
-36.38953519019913
 20
-106.3934115959555
 30
0.0
 10
-38.72277225628113
 20
-104.6870847769787
 30
0.0
 10
-40.47218398546934
 20
-103.1718594989403
 30
0.0
 10
-41.7449406338973
 20
-101.9103476728586
 30
0.0
 10
-42.92385399047325
 20
-100.6244262750336
 30
0.0
 10
-44.22293148569314
 20
-98.97064378140567
 30
0.0
 10
-45.4850603614268
 20
-96.9180763433741
 30
0.0
 10
-46.19436044561967
 20
-95.34041510143685
 30
0.0
 10
-46.56428951479571
 20
-94.2782983663721
 30
0.0
 10
-46.78369078998601
 20
-93.56910142846631
 30
0.0
 10
-47.09140009150023
 20
-92.32491683416498
 30
0.0
 10
-47.40698999994157
 20
-89.84488119419625
 30
0.0
 10
-47.09362278252499
 20
-87.04232969796469
 30
0.0
 10
-46.35250095859976
 20
-84.95426763478451
 30
0.0
 10
-45.98049386608106
 20
-84.13261459674908
 30
0.0
 10
-45.82556323986893
 20
-83.80638263934958
 30
0.0
 10
-45.5382666986016
 20
-83.2414378282796
 30
0.0
 10
-44.53190007779799
 20
-81.49850490476123
 30
0.0
 10
-42.31241924068784
 20
-78.82141302856895
 30
0.0
 10
-39.22100814865946
 20
-76.563220673576
 30
0.0
 10
-36.87067406221028
 20
-75.26130779863185
 30
0.0
 10
-35.93258399033268
 20
-74.79646658554189
 30
0.0
 10
-35.29875974627221
 20
-74.50467813085662
 30
0.0
 10
-34.87038896262872
 20
-74.31311432468675
 30
0.0
 10
-34.1247623613007
 20
-73.99340280773336
 30
0.0
 10
-31.68283913768261
 20
-73.03627985059383
 30
0.0
 10
-28.28800296874054
 20
-72.0773363966692
 30
0.0
 10
-24.66090258826022
 20
-71.4773727413569
 30
0.0
 10
-22.79406897988316
 20
-71.26915679776147
 30
0.0
 10
-21.71732244543548
 20
-71.17728184980527
 30
0.0
 10
-20.09986567842229
 20
-71.0660120252895
 30
0.0
 10
-17.63585684258913
 20
-70.99793890558497
 30
0.0
 10
-14.85886980515694
 20
-71.09908033290111
 30
0.0
 10
-12.62692103353045
 20
-71.28518354971133
 30
0.0
 10
-10.95165957183007
 20
-71.47714021461702
 30
0.0
 10
-9.287536069323552
 20
-71.71920092048157
 30
0.0
 10
-7.087515635607746
 20
-72.10671660642105
 30
0.0
 10
-4.362268972452854
 20
-72.71367130898462
 30
0.0
 10
-1.168441949371477
 20
-73.63165185824516
 30
0.0
 10
1.921566480392384
 20
-74.73629330675769
 30
0.0
 10
4.863497241539053
 20
-76.01821488490802
 30
0.0
 10
7.616778663508314
 20
-77.46614202582884
 30
0.0
 10
10.16279591640096
 20
-79.05959887533616
 30
0.0
 10
12.49213699594989
 20
-80.78506947496555
 30
0.0
 10
14.23779093621685
 20
-82.32023870914716
 30
0.0
 10
15.50487993791062
 20
-83.59629190507215
 30
0.0
 10
16.67711562725068
 20
-84.89490753448858
 30
0.0
 10
17.97421571480608
 20
-86.57179104525177
 30
0.0
 10
19.2328029273754
 20
-88.65193675003619
 30
0.0
 10
19.93858872016276
 20
-90.24908167482307
 30
0.0
 10
20.3052474860959
 20
-91.3205691474627
 30
0.0
 10
20.5224243553979
 20
-92.03554306032802
 30
0.0
 10
20.82535526061567
 20
-93.2830785628278
 30
0.0
 10
21.135177875578
 20
-95.7712653722218
 30
0.0
 10
20.8173077654216
 20
-98.57385606596615
 30
0.0
 10
20.0724354839952
 20
-100.6609997250577
 30
0.0
 10
19.70069809116322
 20
-101.4787254598906
 30
0.0
 10
19.54612850307204
 20
-101.8030219981887
 30
0.0
 10
19.25895103716184
 20
-102.3658321507489
 30
0.0
 10
18.24885165201142
 20
-104.1100435684348
 30
0.0
 10
16.0253742159158
 20
-106.7838424656913
 30
0.0
 10
12.58417633307263
 20
-109.293042205968
 30
0.0
 10
10.07337939071026
 20
-110.6078079023404
 30
0.0
 10
9.013788840208065
 20
-111.096084096601
 30
0.0
 10
8.585884609208488
 20
-111.2875599626884
 30
0.0
 10
7.828154336659208
 20
-111.6119144785135
 30
0.0
 10
5.388018313337329
 20
-112.5664402423376
 30
0.0
 10
1.992978362217081
 20
-113.5203214950146
 30
0.0
 10
-1.632679072843908
 20
-114.1083769044687
 30
0.0
 10
-3.381784765396223
 20
-114.2956619561509
 30
0.0
 10
-4.220716386423676
 20
-114.3660451393458
 30
0.0
 10
-4.755945181201207
 20
-114.4056159087363
 30
0.0
 10
-6.217045075087239
 20
-114.4961641564507
 30
0.0
 10
-8.645727032682442
 20
-114.5483978454313
 30
0.0
 10
-11.42503169345575
 20
-114.4267516805176
 30
0.0
 10
-13.65565716552548
 20
-114.2229260592965
 30
0.0
 10
-15.32159057838996
 20
-114.0192370722417
 30
0.0
 10
-16.97810241976189
 20
-113.7661571330907
 30
0.0
 10
-19.17788806402608
 20
-113.3630071144088
 30
0.0
 10
-21.90302489532533
 20
-112.737632365318
 30
0.0
 10
-25.08683646212656
 20
-111.8037573322499
 30
0.0
 10
-28.1543662008835
 20
-110.6950183269948
 30
0.0
 10
-30.09944967444607
 20
-109.8458290204509
 30
0.0
 10
-31.04329342988564
 20
-109.3944031745247
 30
0.0
  0
SPLINE
  5
77
330
1F
100
AcDbEntity
  8
0
  6
Continuous
 62
     7
370
    25
100
AcDbSpline
210
0.0
220
0.0
230
1.0
 70
     8
 71
     3
 72
    35
 73
    31
 74
     0
 42
0.000000001
 43
0.00000001
 40
0.0
 40
0.0
 40
0.0
 40
0.0
 40
0.0152289383007613
 40
0.0518109990060034
 40
0.0888622758679608
 40
0.1250239888249249
 40
0.1613883512214128
 40
0.1983250216968534
 40
0.234982902968467
 40
0.2712670439204757
 40
0.3075667854911142
 40
0.3442104036883836
 40
0.3812313857257403
 40
0.4174562922805762
 40
0.4539342339108453
 40
0.4909513497455371
 40
0.5277021239136218
 40
0.5637655153920615
 40
0.6000388950201738
 40
0.6366033278359323
 40
0.6736359082200408
 40
0.7099343114907678
 40
0.7461791778178437
 40
0.7832226856723635
 40
0.819794153654397
 40
0.856180130765431
 40
0.892377740198717
 40
0.9291092798374383
 40
0.9660130862820284
 40
1.0
 40
1.0
 40
1.0
 40
1.0
 10
-6.77989158628961
 20
-114.4260434192373
 30
0.0
 10
-6.197874403081674
 20
-114.3627525589509
 30
0.0
 10
-4.217769742787957
 20
-114.1474281131733
 30
0.0
 10
-1.17129823917814
 20
-113.1951616353473
 30
0.0
 10
2.169015115883656
 20
-111.6690718282261
 30
0.0
 10
4.873800469796461
 20
-109.6937849287519
 30
0.0
 10
6.808785658761868
 20
-107.3604693850587
 30
0.0
 10
7.954511401609184
 20
-104.761787106909
 30
0.0
 10
8.276267127460011
 20
-102.0009890477565
 30
0.0
 10
7.72253155954107
 20
-99.18557904663855
 30
0.0
 10
6.303692170481024
 20
-96.41129052742659
 30
0.0
 10
4.074067430327454
 20
-93.78164650419798
 30
0.0
 10
1.171292625328327
 20
-91.40738824611354
 30
0.0
 10
-2.315364926116063
 20
-89.38707505363924
 30
0.0
 10
-6.288252264265151
 20
-87.83310821166747
 30
0.0
 10
-10.57586186666627
 20
-86.76417325355574
 30
0.0
 10
-14.98813773060017
 20
-86.213294278239
 30
0.0
 10
-19.34687443998866
 20
-86.21782436617819
 30
0.0
 10
-23.49669581109163
 20
-86.77093802088274
 30
0.0
 10
-27.31368401829604
 20
-87.8561124538807
 30
0.0
 10
-30.64087432625776
 20
-89.40711808637768
 30
0.0
 10
-33.34596200572441
 20
-91.37587282533703
 30
0.0
 10
-35.27831980795885
 20
-93.7165419868178
 30
0.0
 10
-36.4202159717051
 20
-96.31811272968908
 30
0.0
 10
-36.73739387146236
 20
-99.07766104423791
 30
0.0
 10
-36.17560193053828
 20
-101.8675003998678
 30
0.0
 10
-34.74694677860077
 20
-104.5984686196566
 30
0.0
 10
-32.50109382609428
 20
-107.1667560287623
 30
0.0
 10
-29.68086192498768
 20
-109.4770518854125
 30
0.0
 10
-27.36126176076334
 20
-110.7122443256125
 30
0.0
 10
-26.24918319165156
 20
-111.3044287299169
 30
0.0
  0
SPLINE
  5
78
330
1F
100
AcDbEntity
  8
0
  6
Continuous
 62
     7
370
    25
100
AcDbSpline
210
0.0
220
0.0
230
1.0
 70
     8
 71
     3
 72
    21
 73
    17
 74
     0
 42
0.000000001
 43
0.00000001
 40
0.0
 40
0.0
 40
0.0
 40
0.0
 40
0.071451217583989
 40
0.1489030350246679
 40
0.2259942864478217
 40
0.3018752649072426
 40
0.3764721502123533
 40
0.4510679683384809
 40
0.5269489612079884
 40
0.6040210827083278
 40
0.6814028071374908
 40
0.7587306382349811
 40
0.8357834458195166
 40
0.9118670179389714
 40
0.986516283194468
 40
0.9999999999999999
 40
0.9999999999999999
 40
0.9999999999999999
 40
0.9999999999999999
 10
-36.12479352873378
 20
-101.3938954325297
 30
0.0
 10
-35.57591196339877
 20
-100.6452015590992
 30
0.0
 10
-34.43205278631198
 20
-99.08493717414136
 30
0.0
 10
-31.69778818356633
 20
-97.15927861573397
 30
0.0
 10
-28.35966880070189
 20
-95.60156498161115
 30
0.0
 10
-24.56182058521063
 20
-94.53533351670171
 30
0.0
 10
-20.45422121653645
 20
-94.00098255051952
 30
0.0
 10
-16.14896482815179
 20
-94.01515124451474
 30
0.0
 10
-11.77133325422125
 20
-94.5776956875587
 30
0.0
 10
-7.47694674349938
 20
-95.65693957172954
 30
0.0
 10
-3.447617815745064
 20
-97.23076816850529
 30
0.0
 10
0.0776663339051627
 20
-99.26899659128364
 30
0.0
 10
3.006307977891815
 20
-101.6377291505109
 30
0.0
 10
5.154882745057476
 20
-104.2258344760793
 30
0.0
 10
6.343050409914583
 20
-106.2052765010461
 30
0.0
 10
6.540174311937117
 20
-107.282755214896
 30
0.0
 10
6.570332861078602
 20
-107.4476017627126
 30
0.0
  0
LWPOLYLINE
  5
79
330
1B
100
AcDbEntity
 67
     1
  8
0
  6
Continuous
 62
     7
370
    25
100
AcDbPolyline
 90
      111
 70
   128
 43
0.0
 10
0.0
 20
-225.0
 10
152.0383757088
 20
-225.0
 10
218.9352610207
 20
-225.0
 10
229.4476287125
 20
-225.0
 10
239.9599964044
 20
-225.0
 10
250.4722579515
 20
-224.9990371103
 10
260.9171896341
 20
-224.4831772509
 10
271.1995868317
 20
-223.0355647897
 10
282.0191106783
 20
-220.4614830959
 10
292.5164549646
 20
-216.8598813762
 10
302.6221816719
 20
-212.2574251035
 10
312.2667502522
 20
-206.6808822803
 10
321.3664114587
 20
-200.1712296078
 10
329.8122318119
 20
-192.7946280196
 10
337.4969443006
 20
-184.623207773
 10
344.3404285195
 20
-175.7562457312
 10
350.274337414
 20
-166.3047668917
 10
355.2415447809
 20
-156.3686700033
 10
359.2166099465
 20
-146.0161682856
 10
362.1794993742
 20
-135.3100678206
 10
364.0476137837
 20
-124.763254052
 10
364.9295812795
 20
-114.0211510206
 10
365.0
 20
-103.1688978024
 10
365.0
 20
-92.3090138232
 10
365.0
 20
-81.449129844
 10
365.0
 20
-70.5892458648
 10
365.0
 20
-59.7293618856
 10
365.0
 20
0.0
 10
365.0
 20
76.0191878544
 10
365.0
 20
87.9650602315
 10
365.0
 20
99.9109326086
 10
364.9850129518
 20
111.8552500322
 10
364.1806791813
 20
123.6967153289
 10
362.1794993742
 20
135.3100678206
 10
359.2166099465
 20
146.0161682856
 10
355.2415447809
 20
156.3686700033
 10
350.274337414
 20
166.3047668917
 10
344.3404285195
 20
175.7562457312
 10
337.4969443006
 20
184.623207773
 10
329.8122318119
 20
192.7946280196
 10
321.3664114587
 20
200.1712296078
 10
312.2667502522
 20
206.6808822803
 10
302.6221816719
 20
212.2574251035
 10
292.5164549646
 20
216.8598813762
 10
282.0191106783
 20
220.4614830959
 10
271.1995868317
 20
223.0355647897
 10
260.788586853
 20
224.4953201445
 10
250.2117056488
 20
224.9998065114
 10
239.5690405812
 20
225.0
 10
228.9263542815
 20
225.0
 10
218.2836679819
 20
225.0
 10
207.6409816823
 20
225.0
 10
196.9982953827
 20
225.0
 10
186.3556090831
 20
225.0
 10
119.4587237712
 20
225.0
 10
0.0
 20
225.0
 10
-152.0383757088
 20
225.0
 10
-218.9352610207
 20
225.0
 10
-229.4476287125
 20
225.0
 10
-239.9599964044
 20
225.0
 10
-250.4722579515
 20
224.9990371103
 10
-260.9171896341
 20
224.4831772509
 10
-271.1995868317
 20
223.0355647897
 10
-282.0191106783
 20
220.4614830959
 10
-292.5164549646
 20
216.8598813762
 10
-302.6221816719
 20
212.2574251035
 10
-312.2667502522
 20
206.6808822803
 10
-321.3664114587
 20
200.1712296078
 10
-329.8122318119
 20
192.7946280196
 10
-337.4969443006
 20
184.623207773
 10
-344.3404285195
 20
175.7562457312
 10
-350.274337414
 20
166.3047668917
 10
-355.2415447809
 20
156.3686700033
 10
-359.2166099465
 20
146.0161682856
 10
-362.1794993742
 20
135.3100678206
 10
-364.0476137837
 20
124.763254052
 10
-364.9295812795
 20
114.0211510206
 10
-365.0
 20
103.1688978024
 10
-365.0
 20
92.3090138232
 10
-365.0
 20
81.449129844
 10
-365.0
 20
70.5892458648
 10
-365.0
 20
59.7293618856
 10
-365.0
 20
0.0
 10
-365.0
 20
-76.0191878544
 10
-365.0
 20
-87.9650602315
 10
-365.0
 20
-99.9109326086
 10
-364.9850129518
 20
-111.8552500322
 10
-364.1806791813
 20
-123.6967153289
 10
-362.1794993742
 20
-135.3100678206
 10
-359.2166099465
 20
-146.0161682856
 10
-355.2415447809
 20
-156.3686700033
 10
-350.274337414
 20
-166.3047668917
 10
-344.3404285195
 20
-175.7562457312
 10
-337.4969443006
 20
-184.623207773
 10
-329.8122318119
 20
-192.7946280196
 10
-321.3664114587
 20
-200.1712296078
 10
-312.2667502522
 20
-206.6808822803
 10
-302.6221816719
 20
-212.2574251035
 10
-292.5164549646
 20
-216.8598813762
 10
-282.0191106783
 20
-220.4614830959
 10
-271.1995868317
 20
-223.0355647897
 10
-260.788586853
 20
-224.4953201445
 10
-250.2117056488
 20
-224.9998065114
 10
-239.5690405812
 20
-225.0
 10
-228.9263542815
 20
-225.0
 10
-218.2836679819
 20
-225.0
 10
-207.6409816823
 20
-225.0
 10
-196.9982953827
 20
-225.0
 10
-186.3556090831
 20
-225.0
 10
-119.4587237712
 20
-225.0
 10
0.0
 20
-225.0
  0
SPLINE
  5
7A
330
1B
100
AcDbEntity
 67
     1
  8
0
  6
Continuous
 62
     7
370
    25
100
AcDbSpline
210
0.0
220
0.0
230
1.0
 70
    11
 71
     3
 72
    91
 73
    87
 74
     0
 42
0.000000001
 43
0.00000001
 40
0.0
 40
0.0
 40
0.0
 40
0.0
 40
0.015715329323667
 40
0.0313365903140736
 40
0.0469008961822912
 40
0.0625511112566102
 40
0.0704050313533396
 40
0.0782130612328417
 40
0.0937458879341647
 40
0.1093051352885359
 40
0.1250097435715774
 40
0.1289375778928097
 40
0.1328513729997343
 40
0.1406956310688404
 40
0.1563779362116597
 40
0.1875025360492945
 40
0.2032190162937042
 40
0.2051814785650466
 40
0.2071424867189097
 40
0.2110579587415679
 40
0.2188658954711683
 40
0.2501028458468528
 40
0.281379295515446
 40
0.2891831352259114
 40
0.2970111566421417
 40
0.2992516913508036
 40
0.3009344795197053
 40
0.3048714480964479
 40
0.3127360845847592
 40
0.3438587753574818
 40
0.3595110330487662
 40
0.3673428697988675
 40
0.3712374696869971
 40
0.3751306422415008
 40
0.3906586882204033
 40
0.4062315868956144
 40
0.4140863393677859
 40
0.4219293127896793
 40
0.4297319629332585
 40
0.4375170645888376
 40
0.4530930197687589
 40
0.4687966373117038
 40
0.4845019409460231
 40
0.5002261535964635
 40
0.5158955684836009
 40
0.5314546303567628
 40
0.5470509703307367
 40
0.5627506632362311
 40
0.5705502715855225
 40
0.5783254191523385
 40
0.5938623696166277
 40
0.6095183369405306
 40
0.6252230247959848
 40
0.6291509655327159
 40
0.6330719526358175
 40
0.6409171599386423
 40
0.6565023000531516
 40
0.6876978395975583
 40
0.7033697138954241
 40
0.7053210556163391
 40
0.70727193605837
 40
0.7111725755582469
 40
0.7189714389333609
 40
0.7503159078837749
 40
0.7814701920694559
 40
0.797178560590067
 40
0.7991464547020146
 40
0.8011101642873282
 40
0.8050281964214029
 40
0.8128376349348999
 40
0.8439772014421036
 40
0.8596556565987131
 40
0.8674247161309862
 40
0.8696376043504664
 40
0.8718515255685277
 40
0.8751760081717632
 40
0.8907056603344008
 40
0.9063712965881694
 40
0.9141975900051096
 40
0.9219892477348901
 40
0.9297655916034409
 40
0.9375449461900948
 40
0.953180318633612
 40
0.968864578461208
 40
0.9844245090306404
 40
1.0
 40
1.0
 40
1.0
 40
1.0
 10
0.0000000000000054
 20
-34.15794449285306
 30
0.0
 10
-1.127971847215449
 20
-34.15794406649867
 30
0.0
 10
-3.377177686190598
 20
-34.04463946616366
 30
0.0
 10
-6.710522673414782
 20
-33.5474715498254
 30
0.0
 10
-9.976565278367794
 20
-32.73655411992326
 30
0.0
 10
-12.62542725175056
 20
-31.80591737409616
 30
0.0
 10
-14.68720431705292
 20
-30.91183480132524
 30
0.0
 10
-16.69620173660185
 20
-29.92376013927362
 30
0.0
 10
-19.10988500067237
 20
-28.51291074795195
 30
0.0
 10
-21.83080987060226
 20
-26.53680591542593
 30
0.0
 10
-23.71719896357215
 20
-24.85100673725224
 30
0.0
 10
-24.90259698278548
 20
-23.64723463767352
 30
0.0
 10
-25.67229265823358
 20
-22.82601951108929
 30
0.0
 10
-26.96147401981198
 20
-21.33682561679139
 30
0.0
 10
-29.29631480622232
 20
-18.17952555923007
 30
0.0
 10
-31.4079447209886
 20
-14.18332658601274
 30
0.0
 10
-32.58276262850417
 20
-10.87999616703007
 30
0.0
 10
-32.98194101178706
 20
-9.528576183581176
 30
0.0
 10
-33.13478541293561
 20
-8.987310866757985
 30
0.0
 10
-33.38461343852227
 20
-8.037677661513008
 30
0.0
 10
-34.06153273848278
 20
-5.030137549234265
 30
0.0
 10
-34.57451085150035
 20
0.0260489115541203
 30
0.0
 10
-34.05399023984771
 20
5.081347870945006
 30
0.0
 10
-33.30975884010962
 20
8.364035029635422
 30
0.0
 10
-32.9667233389949
 20
9.600264095075584
 30
0.0
 10
-32.71618750411078
 20
10.40531898904761
 30
0.0
 10
-32.54209654282437
 20
10.94173693059755
 30
0.0
 10
-32.22748787371315
 20
11.85677100048232
 30
0.0
 10
-31.12124094686036
 20
14.7312259261489
 30
0.0
 10
-29.26970520104953
 20
18.22224368632801
 30
0.0
 10
-26.9323888444708
 20
21.37334887094576
 30
0.0
 10
-25.64395702677238
 20
22.85735910883115
 30
0.0
 10
-24.8766976425502
 20
23.67433226255884
 30
0.0
 10
-23.70139761258625
 20
24.86485954702172
 30
0.0
 10
-21.82525393219576
 20
26.54038439052119
 30
0.0
 10
-19.56051798745881
 20
28.18657852632197
 30
0.0
 10
-17.65194332590801
 20
29.36741759510793
 30
0.0
 10
-16.1754142879681
 20
30.18292478712463
 30
0.0
 10
-14.66553642398686
 20
30.92354829040613
 30
0.0
 10
-12.61282141341317
 20
31.81161171514111
 30
0.0
 10
-9.963805987800992
 20
32.7408697716787
 30
0.0
 10
-6.6869718781882
 20
33.55303990476468
 30
0.0
 10
-3.336667385730555
 20
34.04987739027129
 30
0.0
 10
0.0441042246400822
 20
34.216403577954
 30
0.0
 10
3.413921694162031
 20
34.04201607137263
 30
0.0
 10
6.741251648729102
 20
33.54189038879691
 30
0.0
 10
10.00782734067125
 20
32.72731383140785
 30
0.0
 10
12.6574989091326
 20
31.79302281631489
 30
0.0
 10
14.71582930420143
 20
30.89783745681685
 30
0.0
 10
16.71878404639098
 20
29.91100624229432
 30
0.0
 10
19.13585945984623
 20
28.49628143767143
 30
0.0
 10
21.86074680471396
 20
26.51312954883478
 30
0.0
 10
23.74996732850337
 20
24.82006617939676
 30
0.0
 10
24.93417585328562
 20
23.6143805136473
 30
0.0
 10
25.70309050232403
 20
22.79162280709289
 30
0.0
 10
26.98597920018834
 20
21.3054332200532
 30
0.0
 10
29.31621349905959
 20
18.14712101874027
 30
0.0
 10
31.4216875760143
 20
14.15323118692932
 30
0.0
 10
32.59332885722245
 20
10.8476680397911
 30
0.0
 10
32.99006463102408
 20
9.500453872411253
 30
0.0
 10
33.14180388219342
 20
8.961566956680697
 30
0.0
 10
33.39032722935912
 20
8.01411388633461
 30
0.0
 10
34.06647804019272
 20
5.000296643413634
 30
0.0
 10
34.57435893788572
 20
-0.0555998520043243
 30
0.0
 10
33.99027155174704
 20
-5.675050363221867
 30
0.0
 10
33.12995244544928
 20
-9.076291894161152
 30
0.0
 10
32.71097587291503
 20
-10.42169873976925
 30
0.0
 10
32.53700344178912
 20
-10.95735426633269
 30
0.0
 10
32.21662047375681
 20
-11.88609127225568
 30
0.0
 10
31.10955774136125
 20
-14.75581493133153
 30
0.0
 10
29.25598788142231
 20
-18.24482760317771
 30
0.0
 10
26.91681549674212
 20
-21.39279238992506
 30
0.0
 10
25.7081859001714
 20
-22.78277112337668
 30
0.0
 10
25.11238565736805
 20
-23.42363304116027
 30
0.0
 10
24.72787854542296
 20
-23.82545799660683
 30
0.0
 10
23.66363357150939
 20
-24.89893098798449
 30
0.0
 10
21.81250780519236
 20
-26.55133093099392
 30
0.0
 10
19.54242135592722
 20
-28.19839680313139
 30
0.0
 10
17.6314683119622
 20
-29.37713133548544
 30
0.0
 10
16.1610853866273
 20
-30.18796872875862
 30
0.0
 10
14.65652568927917
 20
-30.92583058724877
 30
0.0
 10
12.60203432945816
 20
-31.81472188927838
 30
0.0
 10
9.950606626305794
 20
-32.74468935790325
 30
0.0
 10
6.680729456807505
 20
-33.55357875889001
 30
0.0
 10
3.352674176076
 20
-34.0463711048265
 30
0.0
 10
1.117934912985757
 20
-34.15794491541365
 30
0.0
 10
-0.0000000000000002
 20
-34.15794449285306
 30
0.0
  0
SPLINE
  5
7B
330
1B
100
AcDbEntity
 67
     1
  8
0
  6
Continuous
 62
     7
370
    25
100
AcDbSpline
210
0.0
220
0.0
230
1.0
 70
    11
 71
     3
 72
    49
 73
    45
 74
     0
 42
0.000000001
 43
0.00000001
 40
0.0
 40
0.0
 40
0.0
 40
0.0
 40
0.0308958481670154
 40
0.0625492611013506
 40
0.0939270188526744
 40
0.1087590180815865
 40
0.1248441892495688
 40
0.1524959550282716
 40
0.1870523495811061
 40
0.1968598217907075
 40
0.218758465957426
 40
0.2496729601173274
 40
0.2807606984186809
 40
0.3029008069536709
 40
0.3123680045351666
 40
0.3469949661302128
 40
0.374722909292687
 40
0.3891473476864639
 40
0.4057946563758798
 40
0.4214053063450141
 40
0.4371575791284659
 40
0.4705236663368932
 40
0.4997745414702201
 40
0.5309593781740634
 40
0.5626051526054316
 40
0.5940232326820921
 40
0.6086203459998437
 40
0.6248918627098015
 40
0.6525521939510247
 40
0.6871576262889022
 40
0.6969053285717527
 40
0.718847617191236
 40
0.7498789673173236
 40
0.7808645489386447
 40
0.8029721009928292
 40
0.8125636290824481
 40
0.8471564480631392
 40
0.8749318045581319
 40
0.8893012226783481
 40
0.9059158596977803
 40
0.9215662118428372
 40
0.9373542729305612
 40
0.9706740918882532
 40
1.0
 40
1.0
 40
1.0
 40
1.0
 10
0.0000000000000044
 20
-22.49999999999981
 30
0.0
 10
1.455756143973722
 20
-22.49993532056296
 30
0.0
 10
4.403896370022604
 20
-22.19634978802203
 30
0.0
 10
8.657104481364108
 20
-20.90236143176493
 30
0.0
 10
11.9214599824629
 20
-19.18354081228008
 30
0.0
 10
14.29034001394345
 20
-17.45020645369342
 30
0.0
 10
16.34364053479722
 20
-15.60435364715846
 30
0.0
 10
18.72026078713438
 20
-12.76340507306538
 30
0.0
 10
20.34887810383551
 20
-9.756531969811242
 30
0.0
 10
21.45446648318068
 20
-6.840170490126178
 30
0.0
 10
22.23462838214158
 20
-3.989378270494344
 30
0.0
 10
22.65149228977292
 20
-0.0358602867453865
 30
0.0
 10
22.24704112976874
 20
3.930829266106278
 30
0.0
 10
21.47137891662234
 20
6.786730717670435
 30
0.0
 10
20.37283423782957
 20
9.704225608192605
 30
0.0
 10
18.75811108844603
 20
12.70817573620509
 30
0.0
 10
16.43501397979013
 20
15.50107756743535
 30
0.0
 10
14.38942690476913
 20
17.36960751253498
 30
0.0
 10
12.62269433628635
 20
18.68272477890689
 30
0.0
 10
10.67666844267389
 20
19.83772993271552
 30
0.0
 10
7.917246922713159
 20
21.13610744791412
 30
0.0
 10
4.359043574966758
 20
22.20682616682145
 30
0.0
 10
-0.0587170846742387
 20
22.64569958570711
 30
0.0
 10
-4.399361417334019
 20
22.19793670193705
 30
0.0
 10
-8.667018261929716
 20
20.90028339065796
 30
0.0
 10
-11.92245164878954
 20
19.18415725778895
 30
0.0
 10
-14.28997222795206
 20
17.44996443754328
 30
0.0
 10
-16.34284820325921
 20
15.6062964267674
 30
0.0
 10
-18.72578787623545
 20
12.75555977443691
 30
0.0
 10
-20.35297267260362
 20
9.747941117179336
 30
0.0
 10
-21.45780591248568
 20
6.829655805777948
 30
0.0
 10
-22.23813343401241
 20
3.973949224255703
 30
0.0
 10
-22.6515893146494
 20
0.017031225469917
 30
0.0
 10
-22.24331346770411
 20
-3.948179419795961
 30
0.0
 10
-21.46633615019596
 20
-6.803188627693381
 30
0.0
 10
-20.36450953558353
 20
-9.722385770118247
 30
0.0
 10
-18.74342263098093
 20
-12.73023687899026
 30
0.0
 10
-16.4182068082465
 20
-15.51893492853994
 30
0.0
 10
-14.37186099376253
 20
-17.38376581881116
 30
0.0
 10
-12.60585673434551
 20
-18.6940170941947
 30
0.0
 10
-10.65728881237729
 20
-19.84872502545632
 30
0.0
 10
-7.895248192026499
 20
-21.14485608982396
 30
0.0
 10
-4.332649259652992
 20
-22.21171345894855
 30
0.0
 10
-1.381783425413829
 20
-22.50006139281903
 30
0.0
 10
0.0000000000000037
 20
-22.4999999999998
 30
0.0
  0
VIEWPORT
  5
F3
330
1B
100
AcDbEntity
 67
     1
  8
0
100
AcDbViewport
 10
0.0
 20
0.0
 30
0.0
 40
205.6
 41
156.0
 68
     1
 69
     1
 12
0.0
 22
-13.9752192724
 13
0.0
 23
0.0
 14
10.0
 24
10.0
 15
10.0
 25
10.0
 16
0.0
 26
0.0
 36
1.0
 17
0.0
 27
0.0
 37
0.0
 42
50.0
 43
0.0
 44
0.0
 45
592.7867926039
 50
0.0
 51
0.0
 72
   100
 90
   557152
  1

281
     0
 71
     1
 74
     0
110
0.0
120
0.0
130
0.0
111
1.0
121
0.0
131
0.0
112
0.0
122
1.0
132
0.0
 79
     0
146
0.0
170
     0
 61
     5
348
2F
292
     1
282
     1
141
0.0
142
0.0
 63
   256
361
F4
  0
ENDSEC
  0
SECTION
  2
OBJECTS
  0
DICTIONARY
  5
C
330
0
100
AcDbDictionary
281
     1
  3
ACAD_DETAILVIEWSTYLE
350
10F
  3
ACAD_GROUP
350
D
  3
ACAD_LAYOUT
350
1A
  3
ACAD_MATERIAL
350
43
  3
ACAD_MLEADERSTYLE
350
6B
  3
ACAD_MLINESTYLE
350
17
  3
ACAD_PLOTSETTINGS
350
19
  3
ACAD_PLOTSTYLENAME
350
E
  3
ACAD_SCALELIST
350
47
  3
ACAD_SECTIONVIEWSTYLE
350
110
  3
ACAD_TABLESTYLE
350
69
  3
ACAD_VISUALSTYLE
350
2A
  3
ACDB_RECOMPOSE_DATA
350
10C
  3
AcDbVariableDictionary
350
107
  0
SUN
  5
6D
330
29
100
AcDbSun
 90
        1
290
     0
 63
     7
421
 16777215
 40
1.0
291
     1
 91
  2455826
 92
 54000000
292
     0
 70
     2
 71
   256
280
     1
  0
SUN
  5
F6
330
F5
100
AcDbSun
 90
        1
290
     0
 63
     7
421
 16777215
 40
1.0
291
     1
 91
  2455826
 92
 54000000
292
     0
 70
     2
 71
   256
280
     1
  0
SUN
  5
F8
330
F7
100
AcDbSun
 90
        1
290
     0
 63
     7
421
 16777215
 40
1.0
291
     1
 91
  2455826
 92
 54000000
292
     0
 70
     2
 71
   256
280
     1
  0
SUN
  5
FA
330
F9
100
AcDbSun
 90
        1
290
     0
 63
     7
421
 16777215
 40
1.0
291
     1
 91
  2455826
 92
 54000000
292
     0
 70
     2
 71
   256
280
     1
  0
SUN
  5
FC
330
FB
100
AcDbSun
 90
        1
290
     0
 63
     7
421
 16777215
 40
1.0
291
     1
 91
  2455826
 92
 54000000
292
     0
 70
     2
 71
   256
280
     1
  0
SUN
  5
FE
330
FD
100
AcDbSun
 90
        1
290
     0
 63
     7
421
 16777215
 40
1.0
291
     1
 91
  2455826
 92
 54000000
292
     0
 70
     2
 71
   256
280
     1
  0
SUN
  5
100
330
FF
100
AcDbSun
 90
        1
290
     0
 63
     7
421
 16777215
 40
1.0
291
     1
 91
  2455826
 92
 54000000
292
     0
 70
     2
 71
   256
280
     1
  0
SUN
  5
102
330
101
100
AcDbSun
 90
        1
290
     0
 63
     7
421
 16777215
 40
1.0
291
     1
 91
  2455826
 92
 54000000
292
     0
 70
     2
 71
   256
280
     1
  0
SUN
  5
104
330
103
100
AcDbSun
 90
        1
290
     0
 63
     7
421
 16777215
 40
1.0
291
     1
 91
  2455826
 92
 54000000
292
     0
 70
     2
 71
   256
280
     1
  0
SUN
  5
106
330
105
100
AcDbSun
 90
        1
290
     0
 63
     7
421
 16777215
 40
1.0
291
     1
 91
  2455826
 92
 54000000
292
     0
 70
     2
 71
   256
280
     1
  0
SUN
  5
F4
330
F3
100
AcDbSun
 90
        1
290
     0
 63
     7
421
 16777215
 40
1.0
291
     1
 91
  2455826
 92
 54000000
292
     0
 70
     2
 71
   256
280
     1
  0
DICTIONARY
  5
10F
102
{ACAD_REACTORS
330
C
102
}
330
C
100
AcDbDictionary
281
     1
  0
DICTIONARY
  5
D
102
{ACAD_REACTORS
330
C
102
}
330
C
100
AcDbDictionary
281
     1
  0
DICTIONARY
  5
1A
102
{ACAD_REACTORS
330
C
102
}
330
C
100
AcDbDictionary
281
     1
  3
_Dimetrisch
350
EC
  3
_Isometrisch
350
D6
  3
_Links
350
8C
  3
_Normal auf
350
9D
  3
_Oben
350
1E
  3
_Rechts
350
BE
  3
_Rückseite
350
B0
  3
_Trimetrisch
350
E1
  3
_Unten
350
CE
  3
_Vorderseite
350
26
  3
Model
350
22
  0
DICTIONARY
  5
43
102
{ACAD_REACTORS
330
C
102
}
330
C
100
AcDbDictionary
281
     1
  3
ByBlock
350
45
  3
ByLayer
350
44
  3
Global
350
46
  0
DICTIONARY
  5
6B
102
{ACAD_REACTORS
330
C
102
}
330
C
100
AcDbDictionary
281
     1
  3
Standard
350
6C
  0
DICTIONARY
  5
17
102
{ACAD_REACTORS
330
C
102
}
330
C
100
AcDbDictionary
281
     1
  3
Standard
350
18
  0
DICTIONARY
  5
19
102
{ACAD_REACTORS
330
C
102
}
330
C
100
AcDbDictionary
281
     1
  0
ACDBDICTIONARYWDFLT
  5
E
102
{ACAD_REACTORS
330
C
102
}
330
C
100
AcDbDictionary
281
     1
  3
Normal
350
F
100
AcDbDictionaryWithDefault
340
F
  0
DICTIONARY
  5
47
102
{ACAD_REACTORS
330
C
102
}
330
C
100
AcDbDictionary
281
     1
  3
A0
350
48
  3
A1
350
49
  3
A2
350
4A
  3
A3
350
4B
  3
A4
350
4C
  3
A5
350
4D
  3
A6
350
4E
  3
A7
350
4F
  3
A8
350
50
  3
A9
350
51
  3
B0
350
52
  3
B1
350
53
  3
B2
350
54
  3
B3
350
55
  3
B4
350
56
  3
B5
350
57
  3
B6
350
58
  3
B7
350
59
  3
B8
350
5A
  3
B9
350
5B
  3
C0
350
5C
  3
C1
350
5D
  3
C2
350
5E
  3
C3
350
5F
  3
C4
350
60
  3
C5
350
61
  3
C6
350
62
  3
C7
350
63
  3
C8
350
64
  3
C9
350
65
  3
D0
350
66
  3
D1
350
67
  3
D2
350
68
  0
DICTIONARY
  5
110
102
{ACAD_REACTORS
330
C
102
}
330
C
100
AcDbDictionary
281
     1
  0
DICTIONARY
  5
69
102
{ACAD_REACTORS
330
C
102
}
330
C
100
AcDbDictionary
281
     1
  3
Standard
350
6A
  0
DICTIONARY
  5
2A
102
{ACAD_REACTORS
330
C
102
}
330
C
100
AcDbDictionary
281
     1
  3
2dWireframe
350
2F
  3
Basic
350
32
  3
Brighten
350
36
  3
ColorChange
350
3A
  3
Conceptual
350
34
  3
Dim
350
35
  3
EdgeColorOff
350
3D
  3
Facepattern
350
39
  3
Flat
350
2B
  3
FlatWithEdges
350
2C
  3
Gouraud
350
2D
  3
GouraudWithEdges
350
2E
  3
Hidden
350
31
  3
JitterOff
350
3B
  3
Linepattern
350
38
  3
OverhangOff
350
3C
  3
Realistic
350
33
  3
Shaded
350
42
  3
Shaded with edges
350
41
  3
Shades of Gray
350
3E
  3
Sketchy
350
3F
  3
Thicken
350
37
  3
Wireframe
350
30
  3
X-Ray
350
40
  0
XRECORD
  5
10C
102
{ACAD_REACTORS
330
C
102
}
330
C
100
AcDbXrecord
280
     1
 90
        1
330
6A
  0
DICTIONARY
  5
107
102
{ACAD_REACTORS
330
C
102
}
330
C
100
AcDbDictionary
281
     1
  3
CANNOSCALE
350
108
  3
CENTEREXE
350
111
  3
CENTERLTYPEFILE
350
112
  3
CMLEADERSTYLE
350
10E
  3
CTABLESTYLE
350
10D
  0
LAYOUT
  5
EC
102
{ACAD_REACTORS
330
1A
102
}
330
1A
100
AcDbPlotSettings
  1

  2
none_device
  4
ISO_A4_(210.00_x_297.00_MM)
  6

 40
7.5
 41
20.0
 42
7.5
 43
20.0
 44
210.0
 45
297.0
 46
0.0
 47
0.0
 48
0.0
 49
0.0
140
0.0
141
0.0
142
1.0
143
2.8404669261
 70
   688
 72
     1
 73
     1
 74
     1
  7

 75
     0
 76
     0
 77
     2
 78
   300
147
0.3520547945
148
365.0
149
225.0
100
AcDbLayout
  1
_Dimetrisch
 70
     1
 71
    10
 10
0.0
 20
0.0
 11
0.0
 21
0.0
 12
0.0
 22
0.0
 32
0.0
 14
0.0
 24
0.0
 34
0.0
 15
0.0
 25
0.0
 35
0.0
146
0.0
 13
0.0
 23
0.0
 33
0.0
 16
1.0
 26
0.0
 36
0.0
 17
0.0
 27
1.0
 37
0.0
 76
     0
330
EB
331
105
  0
LAYOUT
  5
D6
102
{ACAD_REACTORS
330
1A
102
}
330
1A
100
AcDbPlotSettings
  1

  2
none_device
  4
ISO_A4_(210.00_x_297.00_MM)
  6

 40
7.5
 41
20.0
 42
7.5
 43
20.0
 44
210.0
 45
297.0
 46
0.0
 47
0.0
 48
0.0
 49
0.0
140
0.0
141
0.0
142
1.0
143
2.8404669261
 70
   688
 72
     1
 73
     1
 74
     1
  7

 75
     0
 76
     0
 77
     2
 78
   300
147
0.3520547945
148
365.0
149
225.0
100
AcDbLayout
  1
_Isometrisch
 70
     1
 71
     8
 10
0.0
 20
0.0
 11
0.0
 21
0.0
 12
0.0
 22
0.0
 32
0.0
 14
0.0
 24
0.0
 34
0.0
 15
0.0
 25
0.0
 35
0.0
146
0.0
 13
0.0
 23
0.0
 33
0.0
 16
1.0
 26
0.0
 36
0.0
 17
0.0
 27
1.0
 37
0.0
 76
     0
330
D5
331
101
  0
LAYOUT
  5
8C
102
{ACAD_REACTORS
330
1A
102
}
330
1A
100
AcDbPlotSettings
  1

  2
none_device
  4
ISO_A4_(210.00_x_297.00_MM)
  6

 40
7.5
 41
20.0
 42
7.5
 43
20.0
 44
210.0
 45
297.0
 46
0.0
 47
0.0
 48
0.0
 49
0.0
140
0.0
141
0.0
142
1.0
143
2.8404669261
 70
   688
 72
     1
 73
     1
 74
     1
  7

 75
     0
 76
     0
 77
     2
 78
   300
147
0.3520547945
148
365.0
149
225.0
100
AcDbLayout
  1
_Links
 70
     1
 71
     3
 10
0.0
 20
0.0
 11
0.0
 21
0.0
 12
0.0
 22
0.0
 32
0.0
 14
0.0
 24
0.0
 34
0.0
 15
0.0
 25
0.0
 35
0.0
146
0.0
 13
0.0
 23
0.0
 33
0.0
 16
1.0
 26
0.0
 36
0.0
 17
0.0
 27
1.0
 37
0.0
 76
     0
330
8B
331
F7
  0
LAYOUT
  5
9D
102
{ACAD_REACTORS
330
1A
102
}
330
1A
100
AcDbPlotSettings
  1

  2
none_device
  4
ISO_A4_(210.00_x_297.00_MM)
  6

 40
7.5
 41
20.0
 42
7.5
 43
20.0
 44
210.0
 45
297.0
 46
0.0
 47
0.0
 48
0.0
 49
0.0
140
0.0
141
0.0
142
1.0
143
2.8404669261
 70
   688
 72
     1
 73
     1
 74
     1
  7

 75
     0
 76
     0
 77
     2
 78
   300
147
0.3520547945
148
365.0
149
225.0
100
AcDbLayout
  1
_Normal auf
 70
     1
 71
     4
 10
0.0
 20
0.0
 11
0.0
 21
0.0
 12
0.0
 22
0.0
 32
0.0
 14
0.0
 24
0.0
 34
0.0
 15
0.0
 25
0.0
 35
0.0
146
0.0
 13
0.0
 23
0.0
 33
0.0
 16
1.0
 26
0.0
 36
0.0
 17
0.0
 27
1.0
 37
0.0
 76
     0
330
9C
331
F9
  0
LAYOUT
  5
1E
102
{ACAD_REACTORS
330
1A
102
}
330
1A
100
AcDbPlotSettings
  1

  2
none_device
  4
ISO_A4_(210.00_x_297.00_MM)
  6

 40
7.5
 41
20.0
 42
7.5
 43
20.0
 44
210.0
 45
297.0
 46
0.0
 47
0.0
 48
0.0
 49
0.0
140
0.0
141
0.0
142
1.0
143
2.8404669261
 70
   688
 72
     1
 73
     1
 74
     1
  7

 75
     0
 76
     0
 77
     2
 78
   300
147
0.3520547945
148
365.0
149
225.0
100
AcDbLayout
  1
_Oben
 70
     1
 71
     1
 10
-421.8093385214
 20
-246.3035019455
 11
421.8093385214
 21
350.1945525292
 12
0.0
 22
0.0
 32
0.0
 14
-365.0
 24
-225.0
 34
0.0
 15
365.0
 25
225.0
 35
0.0
146
0.0
 13
0.0
 23
0.0
 33
0.0
 16
1.0
 26
0.0
 36
0.0
 17
0.0
 27
1.0
 37
0.0
 76
     0
330
1B
331
F3
  0
LAYOUT
  5
BE
102
{ACAD_REACTORS
330
1A
102
}
330
1A
100
AcDbPlotSettings
  1

  2
none_device
  4
ISO_A4_(210.00_x_297.00_MM)
  6

 40
7.5
 41
20.0
 42
7.5
 43
20.0
 44
210.0
 45
297.0
 46
0.0
 47
0.0
 48
0.0
 49
0.0
140
0.0
141
0.0
142
1.0
143
2.8404669261
 70
   688
 72
     1
 73
     1
 74
     1
  7

 75
     0
 76
     0
 77
     2
 78
   300
147
0.3520547945
148
365.0
149
225.0
100
AcDbLayout
  1
_Rechts
 70
     1
 71
     6
 10
0.0
 20
0.0
 11
0.0
 21
0.0
 12
0.0
 22
0.0
 32
0.0
 14
0.0
 24
0.0
 34
0.0
 15
0.0
 25
0.0
 35
0.0
146
0.0
 13
0.0
 23
0.0
 33
0.0
 16
1.0
 26
0.0
 36
0.0
 17
0.0
 27
1.0
 37
0.0
 76
     0
330
BD
331
FD
  0
LAYOUT
  5
B0
102
{ACAD_REACTORS
330
1A
102
}
330
1A
100
AcDbPlotSettings
  1

  2
none_device
  4
ISO_A4_(210.00_x_297.00_MM)
  6

 40
7.5
 41
20.0
 42
7.5
 43
20.0
 44
210.0
 45
297.0
 46
0.0
 47
0.0
 48
0.0
 49
0.0
140
0.0
141
0.0
142
1.0
143
2.8404669261
 70
   688
 72
     1
 73
     1
 74
     1
  7

 75
     0
 76
     0
 77
     2
 78
   300
147
0.3520547945
148
365.0
149
225.0
100
AcDbLayout
  1
_Rückseite
 70
     1
 71
     5
 10
0.0
 20
0.0
 11
0.0
 21
0.0
 12
0.0
 22
0.0
 32
0.0
 14
0.0
 24
0.0
 34
0.0
 15
0.0
 25
0.0
 35
0.0
146
0.0
 13
0.0
 23
0.0
 33
0.0
 16
1.0
 26
0.0
 36
0.0
 17
0.0
 27
1.0
 37
0.0
 76
     0
330
AF
331
FB
  0
LAYOUT
  5
E1
102
{ACAD_REACTORS
330
1A
102
}
330
1A
100
AcDbPlotSettings
  1

  2
none_device
  4
ISO_A4_(210.00_x_297.00_MM)
  6

 40
7.5
 41
20.0
 42
7.5
 43
20.0
 44
210.0
 45
297.0
 46
0.0
 47
0.0
 48
0.0
 49
0.0
140
0.0
141
0.0
142
1.0
143
2.8404669261
 70
   688
 72
     1
 73
     1
 74
     1
  7

 75
     0
 76
     0
 77
     2
 78
   300
147
0.3520547945
148
365.0
149
225.0
100
AcDbLayout
  1
_Trimetrisch
 70
     1
 71
     9
 10
0.0
 20
0.0
 11
0.0
 21
0.0
 12
0.0
 22
0.0
 32
0.0
 14
0.0
 24
0.0
 34
0.0
 15
0.0
 25
0.0
 35
0.0
146
0.0
 13
0.0
 23
0.0
 33
0.0
 16
1.0
 26
0.0
 36
0.0
 17
0.0
 27
1.0
 37
0.0
 76
     0
330
E0
331
103
  0
LAYOUT
  5
CE
102
{ACAD_REACTORS
330
1A
102
}
330
1A
100
AcDbPlotSettings
  1

  2
none_device
  4
ISO_A4_(210.00_x_297.00_MM)
  6

 40
7.5
 41
20.0
 42
7.5
 43
20.0
 44
210.0
 45
297.0
 46
0.0
 47
0.0
 48
0.0
 49
0.0
140
0.0
141
0.0
142
1.0
143
2.8404669261
 70
   688
 72
     1
 73
     1
 74
     1
  7

 75
     0
 76
     0
 77
     2
 78
   300
147
0.3520547945
148
365.0
149
225.0
100
AcDbLayout
  1
_Unten
 70
     1
 71
     7
 10
0.0
 20
0.0
 11
0.0
 21
0.0
 12
0.0
 22
0.0
 32
0.0
 14
0.0
 24
0.0
 34
0.0
 15
0.0
 25
0.0
 35
0.0
146
0.0
 13
0.0
 23
0.0
 33
0.0
 16
1.0
 26
0.0
 36
0.0
 17
0.0
 27
1.0
 37
0.0
 76
     0
330
CD
331
FF
  0
LAYOUT
  5
26
102
{ACAD_REACTORS
330
1A
102
}
330
1A
100
AcDbPlotSettings
  1

  2
none_device
  4
ISO_A4_(210.00_x_297.00_MM)
  6

 40
7.5
 41
20.0
 42
7.5
 43
20.0
 44
210.0
 45
297.0
 46
0.0
 47
0.0
 48
0.0
 49
0.0
140
0.0
141
0.0
142
1.0
143
2.8404669261
 70
   688
 72
     1
 73
     1
 74
     1
  7

 75
     0
 76
     0
 77
     2
 78
   300
147
0.3520547945
148
365.0
149
225.0
100
AcDbLayout
  1
_Vorderseite
 70
     1
 71
     2
 10
0.0
 20
0.0
 11
0.0
 21
0.0
 12
0.0
 22
0.0
 32
0.0
 14
0.0
 24
0.0
 34
0.0
 15
0.0
 25
0.0
 35
0.0
146
0.0
 13
0.0
 23
0.0
 33
0.0
 16
1.0
 26
0.0
 36
0.0
 17
0.0
 27
1.0
 37
0.0
 76
     0
330
23
331
F5
  0
LAYOUT
  5
22
102
{ACAD_REACTORS
330
1A
102
}
330
1A
100
AcDbPlotSettings
  1

  2
none_device
  4
ANSI_A_(11.00_x_8.50_Inches)
  6

 40
6.35
 41
19.05
 42
6.35000508
 43
19.05000254
 44
279.4
 45
215.9
 46
133.34999746
 47
93.9468832548
 48
0.0
 49
0.0
140
0.0
141
0.0
142
0.0142177548
143
1.0
 70
  1696
 72
     0
 73
     0
 74
     0
  7

 75
     0
 76
     0
 77
     2
 78
   300
147
0.0179189148
148
-1300.4909072572
149
0.0
100
AcDbLayout
  1
Model
 70
     1
 71
     0
 10
0.0
 20
0.0
 11
420.0
 21
297.0
 12
0.0
 22
0.0
 32
0.0
 14
-382.9718594751
 24
-255.4808228165
 34
0.0
 15
382.9718594751
 25
227.5303842718
 35
0.0
146
0.0
 13
0.0
 23
0.0
 33
0.0
 16
1.0
 26
0.0
 36
0.0
 17
0.0
 27
1.0
 37
0.0
 76
     0
330
1F
331
29
  0
MATERIAL
  5
45
102
{ACAD_REACTORS
330
43
102
}
330
43
100
AcDbMaterial
  1
ByBlock
 72
     1
 94
      127
  0
MATERIAL
  5
44
102
{ACAD_REACTORS
330
43
102
}
330
43
100
AcDbMaterial
  1
ByLayer
 72
     1
 94
      127
  0
MATERIAL
  5
46
102
{ACAD_REACTORS
330
43
102
}
330
43
100
AcDbMaterial
  1
Global
 72
     1
 94
      127
  0
MLEADERSTYLE
  5
6C
102
{ACAD_REACTORS
330
6B
102
}
330
6B
100
AcDbMLeaderStyle
170
     2
171
     1
172
     0
 90
        2
 40
0.0
 41
0.0
173
     1
 91
-1056964608
340
14
 92
       -2
290
     1
 42
2.0
291
     1
 43
8.0
  3
Standard
341
0
 44
4.0
300

342
11
174
     1
178
     6
175
     1
176
     0
 93
-1056964608
 45
4.0
292
     0
297
     0
 46
4.0
343
0
 94
-1056964608
 47
1.0
 49
1.0
140
1.0
293
     1
141
0.0
294
     1
177
     0
142
1.0
295
     0
296
     0
143
3.75
1001
ACAD_MLEADERVER
1070
     2
  0
MLINESTYLE
  5
18
102
{ACAD_REACTORS
330
17
102
}
330
17
100
AcDbMlineStyle
  2
Standard
 70
     0
  3

 62
   256
 51
90.0
 52
90.0
 71
     2
 49
0.5
 62
   256
  6
BYLAYER
 49
-0.5
 62
   256
  6
BYLAYER
  0
ACDBPLACEHOLDER
  5
F
102
{ACAD_REACTORS
330
E
102
}
330
E
  0
SCALE
  5
48
102
{ACAD_REACTORS
330
47
102
}
330
47
100
AcDbScale
 70
     0
300
1:1
140
1.0
141
1.0
290
     1
  0
SCALE
  5
49
102
{ACAD_REACTORS
330
47
102
}
330
47
100
AcDbScale
 70
     0
300
1:2
140
1.0
141
2.0
290
     0
  0
SCALE
  5
4A
102
{ACAD_REACTORS
330
47
102
}
330
47
100
AcDbScale
 70
     0
300
1:4
140
1.0
141
4.0
290
     0
  0
SCALE
  5
4B
102
{ACAD_REACTORS
330
47
102
}
330
47
100
AcDbScale
 70
     0
300
1:5
140
1.0
141
5.0
290
     0
  0
SCALE
  5
4C
102
{ACAD_REACTORS
330
47
102
}
330
47
100
AcDbScale
 70
     0
300
1:8
140
1.0
141
8.0
290
     0
  0
SCALE
  5
4D
102
{ACAD_REACTORS
330
47
102
}
330
47
100
AcDbScale
 70
     0
300
1:10
140
1.0
141
10.0
290
     0
  0
SCALE
  5
4E
102
{ACAD_REACTORS
330
47
102
}
330
47
100
AcDbScale
 70
     0
300
1:16
140
1.0
141
16.0
290
     0
  0
SCALE
  5
4F
102
{ACAD_REACTORS
330
47
102
}
330
47
100
AcDbScale
 70
     0
300
1:20
140
1.0
141
20.0
290
     0
  0
SCALE
  5
50
102
{ACAD_REACTORS
330
47
102
}
330
47
100
AcDbScale
 70
     0
300
1:30
140
1.0
141
30.0
290
     0
  0
SCALE
  5
51
102
{ACAD_REACTORS
330
47
102
}
330
47
100
AcDbScale
 70
     0
300
1:40
140
1.0
141
40.0
290
     0
  0
SCALE
  5
52
102
{ACAD_REACTORS
330
47
102
}
330
47
100
AcDbScale
 70
     0
300
1:50
140
1.0
141
50.0
290
     0
  0
SCALE
  5
53
102
{ACAD_REACTORS
330
47
102
}
330
47
100
AcDbScale
 70
     0
300
1:100
140
1.0
141
100.0
290
     0
  0
SCALE
  5
54
102
{ACAD_REACTORS
330
47
102
}
330
47
100
AcDbScale
 70
     0
300
2:1
140
2.0
141
1.0
290
     0
  0
SCALE
  5
55
102
{ACAD_REACTORS
330
47
102
}
330
47
100
AcDbScale
 70
     0
300
4:1
140
4.0
141
1.0
290
     0
  0
SCALE
  5
56
102
{ACAD_REACTORS
330
47
102
}
330
47
100
AcDbScale
 70
     0
300
8:1
140
8.0
141
1.0
290
     0
  0
SCALE
  5
57
102
{ACAD_REACTORS
330
47
102
}
330
47
100
AcDbScale
 70
     0
300
10:1
140
10.0
141
1.0
290
     0
  0
SCALE
  5
58
102
{ACAD_REACTORS
330
47
102
}
330
47
100
AcDbScale
 70
     0
300
100:1
140
100.0
141
1.0
290
     0
  0
SCALE
  5
59
102
{ACAD_REACTORS
330
47
102
}
330
47
100
AcDbScale
 70
     0
300
1/128" = 1'-0"
140
0.0078125
141
12.0
290
     0
  0
SCALE
  5
5A
102
{ACAD_REACTORS
330
47
102
}
330
47
100
AcDbScale
 70
     0
300
1/64" = 1'-0"
140
0.015625
141
12.0
290
     0
  0
SCALE
  5
5B
102
{ACAD_REACTORS
330
47
102
}
330
47
100
AcDbScale
 70
     0
300
1/32" = 1'-0"
140
0.03125
141
12.0
290
     0
  0
SCALE
  5
5C
102
{ACAD_REACTORS
330
47
102
}
330
47
100
AcDbScale
 70
     0
300
1/16" = 1'-0"
140
0.0625
141
12.0
290
     0
  0
SCALE
  5
5D
102
{ACAD_REACTORS
330
47
102
}
330
47
100
AcDbScale
 70
     0
300
3/32" = 1'-0"
140
0.09375
141
12.0
290
     0
  0
SCALE
  5
5E
102
{ACAD_REACTORS
330
47
102
}
330
47
100
AcDbScale
 70
     0
300
1/8" = 1'-0"
140
0.125
141
12.0
290
     0
  0
SCALE
  5
5F
102
{ACAD_REACTORS
330
47
102
}
330
47
100
AcDbScale
 70
     0
300
3/16" = 1'-0"
140
0.1875
141
12.0
290
     0
  0
SCALE
  5
60
102
{ACAD_REACTORS
330
47
102
}
330
47
100
AcDbScale
 70
     0
300
1/4" = 1'-0"
140
0.25
141
12.0
290
     0
  0
SCALE
  5
61
102
{ACAD_REACTORS
330
47
102
}
330
47
100
AcDbScale
 70
     0
300
3/8" = 1'-0"
140
0.375
141
12.0
290
     0
  0
SCALE
  5
62
102
{ACAD_REACTORS
330
47
102
}
330
47
100
AcDbScale
 70
     0
300
1/2" = 1'-0"
140
0.5
141
12.0
290
     0
  0
SCALE
  5
63
102
{ACAD_REACTORS
330
47
102
}
330
47
100
AcDbScale
 70
     0
300
3/4" = 1'-0"
140
0.75
141
12.0
290
     0
  0
SCALE
  5
64
102
{ACAD_REACTORS
330
47
102
}
330
47
100
AcDbScale
 70
     0
300
1" = 1'-0"
140
1.0
141
12.0
290
     0
  0
SCALE
  5
65
102
{ACAD_REACTORS
330
47
102
}
330
47
100
AcDbScale
 70
     0
300
1-1/2" = 1'-0"
140
1.5
141
12.0
290
     0
  0
SCALE
  5
66
102
{ACAD_REACTORS
330
47
102
}
330
47
100
AcDbScale
 70
     0
300
3" = 1'-0"
140
3.0
141
12.0
290
     0
  0
SCALE
  5
67
102
{ACAD_REACTORS
330
47
102
}
330
47
100
AcDbScale
 70
     0
300
6" = 1'-0"
140
6.0
141
12.0
290
     0
  0
SCALE
  5
68
102
{ACAD_REACTORS
330
47
102
}
330
47
100
AcDbScale
 70
     0
300
1'-0" = 1'-0"
140
12.0
141
12.0
290
     0
  0
TABLESTYLE
  5
6A
102
{ACAD_REACTORS
330
69
102
}
102
{ACAD_XDICTIONARY
360
109
102
}
330
69
100
AcDbTableStyle
  3
Standard
 70
     0
 71
     0
 40
0.06
 41
0.06
280
     0
281
     0
  7
Standard
140
4.5
170
     2
 62
     0
 63
   257
283
     0
 90
        4
 91
        0
  1

274
    -2
284
     1
 64
     0
275
    -2
285
     1
 65
     0
276
    -2
286
     1
 66
     0
277
    -2
287
     1
 67
     0
278
    -2
288
     1
 68
     0
279
    -2
289
     1
 69
     0
  7
Standard
140
6.0
170
     5
 62
     0
 63
   257
283
     0
 90
        4
 91
        0
  1

274
    -2
284
     1
 64
     0
275
    -2
285
     1
 65
     0
276
    -2
286
     1
 66
     0
277
    -2
287
     1
 67
     0
278
    -2
288
     1
 68
     0
279
    -2
289
     1
 69
     0
  7
Standard
140
4.5
170
     5
 62
     0
 63
   257
283
     0
 90
        4
 91
        0
  1

274
    -2
284
     1
 64
     0
275
    -2
285
     1
 65
     0
276
    -2
286
     1
 66
     0
277
    -2
287
     1
 67
     0
278
    -2
288
     1
 68
     0
279
    -2
289
     1
 69
     0
  0
VISUALSTYLE
  5
2F
102
{ACAD_REACTORS
330
2A
102
}
330
2A
100
AcDbVisualStyle
  2
2dWireframe
 70
     4
 71
     0
 72
     2
 73
     0
 90
        0
 40
0.6
 41
30.0
 62
     5
 63
     7
421
 16777215
 74
     1
 91
        4
 64
     7
 65
   257
 75
     1
175
     1
 42
1.0
 92
        0
 66
   257
 43
1.0
 76
     1
 77
     6
 78
     2
 67
     7
 79
     5
170
     0
171
     0
290
     0
174
     0
 93
        1
 44
0.0
173
     0
291
     0
 45
0.0
  0
VISUALSTYLE
  5
32
102
{ACAD_REACTORS
330
2A
102
}
330
2A
100
AcDbVisualStyle
  2
Basic
 70
     7
 71
     1
 72
     0
 73
     1
 90
        0
 40
0.6
 41
30.0
 62
     5
 63
     7
421
 16777215
 74
     0
 91
        4
 64
     7
 65
   257
 75
     1
175
     1
 42
1.0
 92
        8
 66
     7
 43
1.0
 76
     1
 77
     6
 78
     2
 67
     7
 79
     5
170
     0
171
     0
290
     0
174
     0
 93
        1
 44
0.0
173
     0
291
     1
 45
0.0
  0
VISUALSTYLE
  5
36
102
{ACAD_REACTORS
330
2A
102
}
330
2A
100
AcDbVisualStyle
  2
Brighten
 70
    12
 71
     2
 72
     2
 73
     0
 90
        0
 40
0.6
 41
30.0
 62
     5
 63
     7
421
 16777215
 74
     1
 91
        4
 64
     7
 65
   257
 75
     1
175
     1
 42
1.0
 92
        8
 66
     7
 43
1.0
 76
     1
 77
     6
 78
     2
 67
     7
 79
     5
170
     0
171
     0
290
     0
174
     0
 93
        1
 44
50.0
173
     0
291
     1
 45
0.0
  0
VISUALSTYLE
  5
3A
102
{ACAD_REACTORS
330
2A
102
}
330
2A
100
AcDbVisualStyle
  2
ColorChange
 70
    16
 71
     2
 72
     2
 73
     3
 90
        0
 40
0.6
 41
30.0
 62
     5
 63
     8
421
  8421504
 74
     1
 91
        4
 64
     7
 65
   257
 75
     1
175
     1
 42
1.0
 92
        8
 66
     8
424
  8421504
 43
1.0
 76
     1
 77
     6
 78
     2
 67
     7
 79
     5
170
     0
171
     0
290
     0
174
     0
 93
        1
 44
0.0
173
     0
291
     1
 45
0.0
  0
VISUALSTYLE
  5
34
102
{ACAD_REACTORS
330
2A
102
}
330
2A
100
AcDbVisualStyle
  2
Conceptual
 70
     9
 71
     3
 72
     2
 73
     0
 90
        0
 40
0.6
 41
30.0
 62
     5
 63
     7
421
 16777215
 74
     2
 91
        2
 64
     7
 65
   257
 75
     1
175
     1
 42
179.0
 92
        8
 66
     7
 43
1.0
 76
     1
 77
     6
 78
     2
 67
     7
 79
     3
170
     0
171
     0
290
     0
174
     0
 93
        1
 44
0.0
173
     0
291
     0
 45
0.0
  0
VISUALSTYLE
  5
35
102
{ACAD_REACTORS
330
2A
102
}
330
2A
100
AcDbVisualStyle
  2
Dim
 70
    11
 71
     2
 72
     2
 73
     0
 90
        0
 40
0.6
 41
30.0
 62
     5
 63
     7
421
 16777215
 74
     1
 91
        4
 64
     7
 65
   257
 75
     1
175
     1
 42
1.0
 92
        8
 66
     7
 43
1.0
 76
     1
 77
     6
 78
     2
 67
     7
 79
     5
170
     0
171
     0
290
     0
174
     0
 93
        1
 44
-50.0
173
     0
291
     1
 45
0.0
  0
VISUALSTYLE
  5
3D
102
{ACAD_REACTORS
330
2A
102
}
330
2A
100
AcDbVisualStyle
  2
EdgeColorOff
 70
    22
 71
     2
 72
     2
 73
     0
 90
        0
 40
0.6
 41
30.0
 62
     5
 63
     7
421
 16777215
 74
     1
 91
        4
 64
     7
 65
   257
 75
     1
175
     1
 42
1.0
 92
        8
 66
     7
 43
1.0
 76
     1
 77
     6
 78
     2
 67
     7
 79
     5
170
     0
171
     0
290
     0
174
     0
 93
        1
 44
0.0
173
     0
291
     1
 45
0.0
  0
VISUALSTYLE
  5
39
102
{ACAD_REACTORS
330
2A
102
}
330
2A
100
AcDbVisualStyle
  2
Facepattern
 70
    15
 71
     2
 72
     2
 73
     0
 90
        0
 40
0.6
 41
30.0
 62
     5
 63
     7
421
 16777215
 74
     1
 91
        4
 64
     7
 65
   257
 75
     1
175
     1
 42
1.0
 92
        8
 66
     7
 43
1.0
 76
     1
 77
     6
 78
     2
 67
     7
 79
     5
170
     0
171
     0
290
     0
174
     0
 93
        1
 44
0.0
173
     0
291
     1
 45
0.0
  0
VISUALSTYLE
  5
2B
102
{ACAD_REACTORS
330
2A
102
}
330
2A
100
AcDbVisualStyle
  2
Flat
 70
     0
 71
     2
 72
     1
 73
     1
 90
        2
 40
0.6
 41
30.0
 62
     5
 63
     7
421
 16777215
 74
     0
 91
        0
 64
     7
 65
   257
 75
     1
175
     1
 42
1.0
 92
        8
 66
     7
 43
1.0
 76
     1
 77
     6
 78
     2
 67
     7
 79
     5
170
     0
171
     0
290
     0
174
     0
 93
       13
 44
0.0
173
     0
291
     1
 45
0.0
  0
VISUALSTYLE
  5
2C
102
{ACAD_REACTORS
330
2A
102
}
330
2A
100
AcDbVisualStyle
  2
FlatWithEdges
 70
     1
 71
     2
 72
     1
 73
     1
 90
        2
 40
0.6
 41
30.0
 62
     5
 63
     7
421
 16777215
 74
     1
 91
        0
 64
     7
 65
   257
 75
     1
175
     1
 42
1.0
 92
        0
 66
   257
 43
1.0
 76
     1
 77
     6
 78
     2
 67
     7
 79
     5
170
     0
171
     0
290
     0
174
     0
 93
       13
 44
0.0
173
     0
291
     1
 45
0.0
  0
VISUALSTYLE
  5
2D
102
{ACAD_REACTORS
330
2A
102
}
330
2A
100
AcDbVisualStyle
  2
Gouraud
 70
     2
 71
     2
 72
     2
 73
     1
 90
        2
 40
0.6
 41
30.0
 62
     5
 63
     7
421
 16777215
 74
     0
 91
        0
 64
     7
 65
   257
 75
     1
175
     1
 42
1.0
 92
        0
 66
     7
 43
1.0
 76
     1
 77
     6
 78
     2
 67
     7
 79
     5
170
     0
171
     0
290
     0
174
     0
 93
       13
 44
0.0
173
     0
291
     1
 45
0.0
  0
VISUALSTYLE
  5
2E
102
{ACAD_REACTORS
330
2A
102
}
330
2A
100
AcDbVisualStyle
  2
GouraudWithEdges
 70
     3
 71
     2
 72
     2
 73
     1
 90
        2
 40
0.6
 41
30.0
 62
     5
 63
     7
421
 16777215
 74
     1
 91
        0
 64
     7
 65
   257
 75
     1
175
     1
 42
1.0
 92
        0
 66
   257
 43
1.0
 76
     1
 77
     6
 78
     2
 67
     7
 79
     5
170
     0
171
     0
290
     0
174
     0
 93
       13
 44
0.0
173
     0
291
     1
 45
0.0
  0
VISUALSTYLE
  5
31
102
{ACAD_REACTORS
330
2A
102
}
330
2A
100
AcDbVisualStyle
  2
Hidden
 70
     6
 71
     1
 72
     2
 73
     2
 90
        0
 40
0.6
 41
30.0
 62
     5
 63
     7
421
 16777215
 74
     2
 91
        2
 64
     7
 65
   257
 75
     2
175
     1
 42
40.0
 92
        0
 66
   257
 43
1.0
 76
     1
 77
     6
 78
     2
 67
     7
 79
     3
170
     0
171
     0
290
     0
174
     0
 93
        1
 44
0.0
173
     0
291
     0
 45
0.0
  0
VISUALSTYLE
  5
3B
102
{ACAD_REACTORS
330
2A
102
}
330
2A
100
AcDbVisualStyle
  2
JitterOff
 70
    20
 71
     2
 72
     2
 73
     0
 90
        0
 40
0.6
 41
30.0
 62
     5
 63
     7
421
 16777215
 74
     1
 91
        4
 64
     7
 65
   257
 75
     1
175
     1
 42
1.0
 92
       10
 66
     7
 43
1.0
 76
     1
 77
     6
 78
     2
 67
     7
 79
     5
170
     0
171
     0
290
     0
174
     0
 93
        1
 44
0.0
173
     0
291
     1
 45
0.0
  0
VISUALSTYLE
  5
38
102
{ACAD_REACTORS
330
2A
102
}
330
2A
100
AcDbVisualStyle
  2
Linepattern
 70
    14
 71
     2
 72
     2
 73
     0
 90
        0
 40
0.6
 41
30.0
 62
     5
 63
     7
421
 16777215
 74
     1
 91
        4
 64
     7
 65
   257
 75
     7
175
     7
 42
1.0
 92
        8
 66
     7
 43
1.0
 76
     1
 77
     6
 78
     2
 67
     7
 79
     5
170
     0
171
     0
290
     0
174
     0
 93
        1
 44
0.0
173
     0
291
     1
 45
0.0
  0
VISUALSTYLE
  5
3C
102
{ACAD_REACTORS
330
2A
102
}
330
2A
100
AcDbVisualStyle
  2
OverhangOff
 70
    21
 71
     2
 72
     2
 73
     0
 90
        0
 40
0.6
 41
30.0
 62
     5
 63
     7
421
 16777215
 74
     1
 91
        4
 64
     7
 65
   257
 75
     1
175
     1
 42
1.0
 92
        9
 66
     7
 43
1.0
 76
     1
 77
     6
 78
     2
 67
     7
 79
     5
170
     0
171
     0
290
     0
174
     0
 93
        1
 44
0.0
173
     0
291
     1
 45
0.0
  0
VISUALSTYLE
  5
33
102
{ACAD_REACTORS
330
2A
102
}
330
2A
100
AcDbVisualStyle
  2
Realistic
 70
     8
 71
     2
 72
     3
 73
     0
 90
        2
 40
0.6
 41
30.0
 62
     5
 63
     7
421
 16777215
 74
     0
 91
        0
 64
     7
 65
   257
 75
     1
175
     1
 42
1.0
 92
        8
 66
   257
 43
1.0
 76
     1
 77
     6
 78
     2
 67
     7
 79
     3
170
     0
171
     0
290
     0
174
     0
 93
       13
 44
0.0
173
     0
291
     0
 45
0.0
  0
VISUALSTYLE
  5
42
102
{ACAD_REACTORS
330
2A
102
}
330
2A
100
AcDbVisualStyle
  2
Shaded
 70
    27
 71
     2
 72
     2
 73
     1
 90
        2
 40
0.6
 41
30.0
 62
     5
 63
     7
421
 16777215
 74
     0
 91
        4
 64
     7
 65
   257
 75
     1
175
     1
 42
1.0
 92
        8
 66
   257
 43
1.0
 76
     1
 77
     6
 78
     2
 67
     8
425
  7895160
 79
     3
170
     0
171
     0
290
     0
174
     0
 93
        5
 44
0.0
173
     0
291
     0
 45
0.0
  0
VISUALSTYLE
  5
41
102
{ACAD_REACTORS
330
2A
102
}
330
2A
100
AcDbVisualStyle
  2
Shaded with edges
 70
    26
 71
     2
 72
     2
 73
     1
 90
        2
 40
0.6
 41
30.0
 62
     5
 63
     7
421
 16777215
 74
     1
 91
       10
 64
     7
 65
   257
 75
     2
175
     1
 42
1.0
 92
        8
 66
   257
 43
1.0
 76
     1
 77
     6
 78
     2
 67
     7
 79
     3
170
     0
171
     0
290
     0
174
     0
 93
        5
 44
0.0
173
     0
291
     0
 45
0.0
  0
VISUALSTYLE
  5
3E
102
{ACAD_REACTORS
330
2A
102
}
330
2A
100
AcDbVisualStyle
  2
Shades of Gray
 70
    23
 71
     2
 72
     2
 73
     3
 90
        0
 40
0.6
 41
30.0
 62
     5
 63
     7
421
 16777215
 74
     2
 91
        2
 64
     7
 65
     7
 75
     1
175
     1
 42
40.0
 92
        8
 66
     7
 43
1.0
 76
     1
 77
     6
 78
     2
 67
     7
 79
     3
170
     0
171
     0
290
     0
174
     0
 93
        1
 44
0.0
173
     0
291
     0
 45
0.0
  0
VISUALSTYLE
  5
3F
102
{ACAD_REACTORS
330
2A
102
}
330
2A
100
AcDbVisualStyle
  2
Sketchy
 70
    24
 71
     1
 72
     2
 73
     2
 90
        0
 40
0.6
 41
30.0
 62
     5
 63
     7
421
 16777215
 74
     2
 91
        2
 64
     7
 65
     7
 75
     1
175
     1
 42
40.0
 92
       11
 66
     7
 43
1.0
 76
     1
 77
     6
 78
     2
 67
     7
 79
     6
170
     0
171
     0
290
     0
174
     0
 93
        1
 44
0.0
173
     0
291
     0
 45
0.0
  0
VISUALSTYLE
  5
37
102
{ACAD_REACTORS
330
2A
102
}
330
2A
100
AcDbVisualStyle
  2
Thicken
 70
    13
 71
     2
 72
     2
 73
     0
 90
        0
 40
0.6
 41
30.0
 62
     5
 63
     7
421
 16777215
 74
     1
 91
        4
 64
     7
 65
   257
 75
     1
175
     1
 42
1.0
 92
       12
 66
     7
 43
1.0
 76
     1
 77
     6
 78
     2
 67
     7
 79
     5
170
     0
171
     0
290
     0
174
     0
 93
        1
 44
0.0
173
     0
291
     1
 45
0.0
  0
VISUALSTYLE
  5
30
102
{ACAD_REACTORS
330
2A
102
}
330
2A
100
AcDbVisualStyle
  2
Wireframe
 70
     5
 71
     0
 72
     2
 73
     0
 90
        0
 40
0.6
 41
30.0
 62
     5
 63
     7
421
 16777215
 74
     1
 91
        4
 64
     7
 65
   257
 75
     1
175
     1
 42
1.0
 92
        0
 66
   257
 43
1.0
 76
     1
 77
     6
 78
     2
 67
     7
 79
     3
170
     0
171
     0
290
     0
174
     0
 93
        1
 44
0.0
173
     0
291
     0
 45
0.0
  0
VISUALSTYLE
  5
40
102
{ACAD_REACTORS
330
2A
102
}
330
2A
100
AcDbVisualStyle
  2
X-Ray
 70
    25
 71
     2
 72
     2
 73
     1
 90
        1
 40
0.5
 41
30.0
 62
     5
 63
     7
421
 16777215
 74
     1
 91
        0
 64
     7
 65
   257
 75
     1
175
     1
 42
1.0
 92
        8
 66
     7
 43
1.0
 76
     1
 77
     6
 78
     2
 67
     7
 79
     3
170
     0
171
     0
290
     0
174
     0
 93
       13
 44
0.0
173
     0
291
     0
 45
0.0
  0
DICTIONARYVAR
  5
108
102
{ACAD_REACTORS
330
107
102
}
330
107
100
DictionaryVariables
280
     0
  1
1:1
  0
DICTIONARYVAR
  5
111
102
{ACAD_REACTORS
330
107
102
}
330
107
100
DictionaryVariables
280
     0
  1
3.500000
  0
DICTIONARYVAR
  5
112
102
{ACAD_REACTORS
330
107
102
}
330
107
100
DictionaryVariables
280
     0
  1
acadiso.lin
  0
DICTIONARYVAR
  5
10E
102
{ACAD_REACTORS
330
107
102
}
330
107
100
DictionaryVariables
280
     0
  1
Standard
  0
DICTIONARYVAR
  5
10D
102
{ACAD_REACTORS
330
107
102
}
330
107
100
DictionaryVariables
280
     0
  1
Standard
  0
DICTIONARY
  5
109
330
6A
100
AcDbDictionary
280
     1
281
     1
  3
ACAD_ROUNDTRIP_2008_TABLESTYLE_CELLSTYLEMAP
360
10A
  0
CELLSTYLEMAP
  5
10A
102
{ACAD_REACTORS
330
109
102
}
330
109
100
AcDbCellStyleMap
 90
        3
300
CELLSTYLE
  1
TABLEFORMAT_BEGIN
 90
        5
170
     1
 91
        0
 92
    32768
 62
   257
 93
        1
300
CONTENTFORMAT
  1
CONTENTFORMAT_BEGIN
 90
        0
 91
        0
 92
        4
 93
        0
300

 40
0.0
140
1.0
 94
        5
 62
     0
340
11
144
6.0
309
CONTENTFORMAT_END
171
     1
301
MARGIN
  1
CELLMARGIN_BEGIN
 40
1.5
 40
1.5
 40
1.5
 40
1.5
 40
1.5
 40
1.5
309
CELLMARGIN_END
 94
        6
 95
        1
302
GRIDFORMAT
  1
GRIDFORMAT_BEGIN
 90
        0
 91
        1
 62
     0
 92
       -2
340
14
 93
        0
 40
0.045
309
GRIDFORMAT_END
 95
        2
302
GRIDFORMAT
  1
GRIDFORMAT_BEGIN
 90
        0
 91
        1
 62
     0
 92
       -2
340
14
 93
        0
 40
0.045
309
GRIDFORMAT_END
 95
        4
302
GRIDFORMAT
  1
GRIDFORMAT_BEGIN
 90
        0
 91
        1
 62
     0
 92
       -2
340
14
 93
        0
 40
0.045
309
GRIDFORMAT_END
 95
        8
302
GRIDFORMAT
  1
GRIDFORMAT_BEGIN
 90
        0
 91
        1
 62
     0
 92
       -2
340
14
 93
        0
 40
0.045
309
GRIDFORMAT_END
 95
       16
302
GRIDFORMAT
  1
GRIDFORMAT_BEGIN
 90
        0
 91
        1
 62
     0
 92
       -2
340
14
 93
        0
 40
0.045
309
GRIDFORMAT_END
 95
       32
302
GRIDFORMAT
  1
GRIDFORMAT_BEGIN
 90
        0
 91
        1
 62
     0
 92
       -2
340
14
 93
        0
 40
0.045
309
GRIDFORMAT_END
309
TABLEFORMAT_END
  1
CELLSTYLE_BEGIN
 90
        1
 91
        1
300
_TITLE
309
CELLSTYLE_END
300
CELLSTYLE
  1
TABLEFORMAT_BEGIN
 90
        5
170
     1
 91
        0
 92
        0
 62
   257
 93
        1
300
CONTENTFORMAT
  1
CONTENTFORMAT_BEGIN
 90
        0
 91
        0
 92
        4
 93
        0
300

 40
0.0
140
1.0
 94
        5
 62
     0
340
11
144
4.5
309
CONTENTFORMAT_END
171
     1
301
MARGIN
  1
CELLMARGIN_BEGIN
 40
1.5
 40
1.5
 40
1.5
 40
1.5
 40
1.5
 40
1.5
309
CELLMARGIN_END
 94
        6
 95
        1
302
GRIDFORMAT
  1
GRIDFORMAT_BEGIN
 90
        0
 91
        1
 62
     0
 92
       -2
340
14
 93
        0
 40
0.045
309
GRIDFORMAT_END
 95
        2
302
GRIDFORMAT
  1
GRIDFORMAT_BEGIN
 90
        0
 91
        1
 62
     0
 92
       -2
340
14
 93
        0
 40
0.045
309
GRIDFORMAT_END
 95
        4
302
GRIDFORMAT
  1
GRIDFORMAT_BEGIN
 90
        0
 91
        1
 62
     0
 92
       -2
340
14
 93
        0
 40
0.045
309
GRIDFORMAT_END
 95
        8
302
GRIDFORMAT
  1
GRIDFORMAT_BEGIN
 90
        0
 91
        1
 62
     0
 92
       -2
340
14
 93
        0
 40
0.045
309
GRIDFORMAT_END
 95
       16
302
GRIDFORMAT
  1
GRIDFORMAT_BEGIN
 90
        0
 91
        1
 62
     0
 92
       -2
340
14
 93
        0
 40
0.045
309
GRIDFORMAT_END
 95
       32
302
GRIDFORMAT
  1
GRIDFORMAT_BEGIN
 90
        0
 91
        1
 62
     0
 92
       -2
340
14
 93
        0
 40
0.045
309
GRIDFORMAT_END
309
TABLEFORMAT_END
  1
CELLSTYLE_BEGIN
 90
        2
 91
        1
300
_HEADER
309
CELLSTYLE_END
300
CELLSTYLE
  1
TABLEFORMAT_BEGIN
 90
        5
170
     1
 91
        0
 92
        0
 62
   257
 93
        1
300
CONTENTFORMAT
  1
CONTENTFORMAT_BEGIN
 90
        0
 91
        0
 92
        4
 93
        0
300

 40
0.0
140
1.0
 94
        2
 62
     0
340
11
144
4.5
309
CONTENTFORMAT_END
171
     1
301
MARGIN
  1
CELLMARGIN_BEGIN
 40
1.5
 40
1.5
 40
1.5
 40
1.5
 40
1.5
 40
1.5
309
CELLMARGIN_END
 94
        6
 95
        1
302
GRIDFORMAT
  1
GRIDFORMAT_BEGIN
 90
        0
 91
        1
 62
     0
 92
       -2
340
14
 93
        0
 40
0.045
309
GRIDFORMAT_END
 95
        2
302
GRIDFORMAT
  1
GRIDFORMAT_BEGIN
 90
        0
 91
        1
 62
     0
 92
       -2
340
14
 93
        0
 40
0.045
309
GRIDFORMAT_END
 95
        4
302
GRIDFORMAT
  1
GRIDFORMAT_BEGIN
 90
        0
 91
        1
 62
     0
 92
       -2
340
14
 93
        0
 40
0.045
309
GRIDFORMAT_END
 95
        8
302
GRIDFORMAT
  1
GRIDFORMAT_BEGIN
 90
        0
 91
        1
 62
     0
 92
       -2
340
14
 93
        0
 40
0.045
309
GRIDFORMAT_END
 95
       16
302
GRIDFORMAT
  1
GRIDFORMAT_BEGIN
 90
        0
 91
        1
 62
     0
 92
       -2
340
14
 93
        0
 40
0.045
309
GRIDFORMAT_END
 95
       32
302
GRIDFORMAT
  1
GRIDFORMAT_BEGIN
 90
        0
 91
        1
 62
     0
 92
       -2
340
14
 93
        0
 40
0.045
309
GRIDFORMAT_END
309
TABLEFORMAT_END
  1
CELLSTYLE_BEGIN
 90
        3
 91
        2
300
_DATA
309
CELLSTYLE_END
  0
ENDSEC
  0
EOF
