  0
SECTION
  2
HEADER
  9
$ACADVER
  1
AC1015
  9
$ACADMAINTVER
 70
     6
  9
$DWGCODEPAGE
  3
ANSI_1252
  9
$INSBASE
 10
0.0
 20
0.0
 30
0.0
  9
$EXTMIN
 10
-267.5
 20
-165.0
 30
0.0
  9
$EXTMAX
 10
267.5
 20
165.0
 30
0.0
  9
$LIMMIN
 10
0.0
 20
0.0
  9
$LIMMAX
 10
420.0
 20
297.0
  9
$ORTHOMODE
 70
     0
  9
$REGENMODE
 70
     1
  9
$FILLMODE
 70
     1
  9
$QTEXTMODE
 70
     0
  9
$MIRRTEXT
 70
     1
  9
$LTSCALE
 40
1.0
  9
$ATTMODE
 70
     1
  9
$TEXTSIZE
 40
3.5
  9
$TRACEWID
 40
1.0
  9
$TEXTSTYLE
  7
STANDARD
  9
$CLAYER
  8
0
  9
$CELTYPE
  6
ByLayer
  9
$CECOLOR
 62
   256
  9
$CELTSCALE
 40
1.0
  9
$DISPSILH
 70
     0
  9
$DIMSCALE
 40
1.0
  9
$DIMASZ
 40
8.0
  9
$DIMEXO
 40
1.0
  9
$DIMDLI
 40
3.75
  9
$DIMRND
 40
0.0
  9
$DIMDLE
 40
0.0
  9
$DIMEXE
 40
1.0
  9
$DIMTP
 40
0.0
  9
$DIMTM
 40
0.0
  9
$DIMTXT
 40
16.9333333333
  9
$DIMCEN
 40
2.5
  9
$DIMTSZ
 40
0.0
  9
$DIMTOL
 70
     0
  9
$DIMLIM
 70
     0
  9
$DIMTIH
 70
     1
  9
$DIMTOH
 70
     1
  9
$DIMSE1
 70
     0
  9
$DIMSE2
 70
     0
  9
$DIMTAD
 70
     1
  9
$DIMZIN
 70
     0
  9
$DIMBLK
  1

  9
$DIMASO
 70
     1
  9
$DIMSHO
 70
     1
  9
$DIMPOST
  1

  9
$DIMAPOST
  1

  9
$DIMALT
 70
     0
  9
$DIMALTD
 70
     3
  9
$DIMALTF
 40
0.0393700787
  9
$DIMLFAC
 40
1.0
  9
$DIMTOFL
 70
     1
  9
$DIMTVP
 40
0.0
  9
$DIMTIX
 70
     0
  9
$DIMSOXD
 70
     0
  9
$DIMSAH
 70
     0
  9
$DIMBLK1
  1

  9
$DIMBLK2
  1

  9
$DIMSTYLE
  2
ISO-25
  9
$DIMCLRD
 70
     0
  9
$DIMCLRE
 70
     0
  9
$DIMCLRT
 70
     0
  9
$DIMTFAC
 40
1.0
  9
$DIMGAP
 40
1.524
  9
$DIMJUST
 70
     0
  9
$DIMSD1
 70
     0
  9
$DIMSD2
 70
     0
  9
$DIMTOLJ
 70
     0
  9
$DIMTZIN
 70
     0
  9
$DIMALTZ
 70
     0
  9
$DIMALTTZ
 70
     0
  9
$DIMUPT
 70
     0
  9
$DIMDEC
 70
     2
  9
$DIMTDEC
 70
     2
  9
$DIMALTU
 70
     2
  9
$DIMALTTD
 70
     3
  9
$DIMTXSTY
  7
STANDARD
  9
$DIMAUNIT
 70
     0
  9
$DIMADEC
 70
     2
  9
$DIMALTRND
 40
0.0
  9
$DIMAZIN
 70
     0
  9
$DIMDSEP
 70
    44
  9
$DIMATFIT
 70
     3
  9
$DIMFRAC
 70
     0
  9
$DIMLDRBLK
  1

  9
$DIMLUNIT
 70
     2
  9
$DIMLWD
 70
    -2
  9
$DIMLWE
 70
    -2
  9
$DIMTMOVE
 70
     0
  9
$LUNITS
 70
     2
  9
$LUPREC
 70
     2
  9
$SKETCHINC
 40
1.0
  9
$FILLETRAD
 40
10.0
  9
$AUNITS
 70
     0
  9
$AUPREC
 70
     2
  9
$MENU
  1
.
  9
$ELEVATION
 40
0.0
  9
$PELEVATION
 40
0.0
  9
$THICKNESS
 40
0.0
  9
$LIMCHECK
 70
     0
  9
$CHAMFERA
 40
0.0
  9
$CHAMFERB
 40
0.0
  9
$CHAMFERC
 40
0.0
  9
$CHAMFERD
 40
0.0
  9
$SKPOLY
 70
     0
  9
$TDCREATE
 40
2458369.442676586
  9
$TDUCREATE
 40
2458369.359343252
  9
$TDUPDATE
 40
2458369.442693611
  9
$TDUUPDATE
 40
2458369.359360278
  9
$TDINDWG
 40
0.0000000116
  9
$TDUSRTIMER
 40
0.0000000116
  9
$USRTIMER
 70
     1
  9
$ANGBASE
 50
0.0
  9
$ANGDIR
 70
     0
  9
$PDMODE
 70
     0
  9
$PDSIZE
 40
-1.0
  9
$PLINEWID
 40
0.0
  9
$SPLFRAME
 70
     0
  9
$SPLINETYPE
 70
     6
  9
$SPLINESEGS
 70
     8
  9
$HANDSEED
  5
13B
  9
$SURFTAB1
 70
     6
  9
$SURFTAB2
 70
     6
  9
$SURFTYPE
 70
     6
  9
$SURFU
 70
     6
  9
$SURFV
 70
     6
  9
$UCSBASE
  2

  9
$UCSNAME
  2

  9
$UCSORG
 10
0.0
 20
0.0
 30
0.0
  9
$UCSXDIR
 10
1.0
 20
0.0
 30
0.0
  9
$UCSYDIR
 10
0.0
 20
1.0
 30
0.0
  9
$UCSORTHOREF
  2

  9
$UCSORTHOVIEW
 70
     0
  9
$UCSORGTOP
 10
0.0
 20
0.0
 30
0.0
  9
$UCSORGBOTTOM
 10
0.0
 20
0.0
 30
0.0
  9
$UCSORGLEFT
 10
0.0
 20
0.0
 30
0.0
  9
$UCSORGRIGHT
 10
0.0
 20
0.0
 30
0.0
  9
$UCSORGFRONT
 10
0.0
 20
0.0
 30
0.0
  9
$UCSORGBACK
 10
0.0
 20
0.0
 30
0.0
  9
$PUCSBASE
  2

  9
$PUCSNAME
  2

  9
$PUCSORG
 10
0.0
 20
0.0
 30
0.0
  9
$PUCSXDIR
 10
1.0
 20
0.0
 30
0.0
  9
$PUCSYDIR
 10
0.0
 20
1.0
 30
0.0
  9
$PUCSORTHOREF
  2

  9
$PUCSORTHOVIEW
 70
     0
  9
$PUCSORGTOP
 10
0.0
 20
0.0
 30
0.0
  9
$PUCSORGBOTTOM
 10
0.0
 20
0.0
 30
0.0
  9
$PUCSORGLEFT
 10
0.0
 20
0.0
 30
0.0
  9
$PUCSORGRIGHT
 10
0.0
 20
0.0
 30
0.0
  9
$PUCSORGFRONT
 10
0.0
 20
0.0
 30
0.0
  9
$PUCSORGBACK
 10
0.0
 20
0.0
 30
0.0
  9
$USERI1
 70
     0
  9
$USERI2
 70
     0
  9
$USERI3
 70
     0
  9
$USERI4
 70
     0
  9
$USERI5
 70
     0
  9
$USERR1
 40
0.0
  9
$USERR2
 40
0.0
  9
$USERR3
 40
0.0
  9
$USERR4
 40
0.0
  9
$USERR5
 40
0.0
  9
$WORLDVIEW
 70
     1
  9
$SHADEDGE
 70
     3
  9
$SHADEDIF
 70
    70
  9
$TILEMODE
 70
     1
  9
$MAXACTVP
 70
    64
  9
$PINSBASE
 10
0.0
 20
0.0
 30
0.0
  9
$PLIMCHECK
 70
     0
  9
$PEXTMIN
 10
-267.5
 20
-135.0001
 30
0.0
  9
$PEXTMAX
 10
267.5
 20
0.0
 30
0.0
  9
$PLIMMIN
 10
-309.1342412451
 20
-150.6129404669
  9
$PLIMMAX
 10
309.1342412451
 20
286.546592607
  9
$UNITMODE
 70
     0
  9
$VISRETAIN
 70
     1
  9
$PLINEGEN
 70
     0
  9
$PSLTSCALE
 70
     1
  9
$TREEDEPTH
 70
  3020
  9
$CMLSTYLE
  2
Standard
  9
$CMLJUST
 70
     0
  9
$CMLSCALE
 40
20.0
  9
$PROXYGRAPHICS
 70
     1
  9
$MEASUREMENT
 70
     1
  9
$CELWEIGHT
370
    -1
  9
$ENDCAPS
280
     0
  9
$JOINSTYLE
280
     0
  9
$LWDISPLAY
290
     1
  9
$INSUNITS
 70
     4
  9
$HYPERLINKBASE
  1

  9
$STYLESHEET
  1

  9
$XEDIT
290
     1
  9
$CEPSNTYPE
380
     0
  9
$PSTYLEMODE
290
     1
  9
$FINGERPRINTGUID
  2
{59967C50-5990-4666-9A6F-E795936CCA4F}
  9
$VERSIONGUID
  2
{FAEB1C32-E019-11D5-929B-00C0DF256EC4}
  9
$EXTNAMES
290
     1
  9
$PSVPSCALE
 40
0.0
  9
$OLESTARTUP
290
     0
  0
ENDSEC
  0
SECTION
  2
CLASSES
  0
CLASS
  1
ACDBDICTIONARYWDFLT
  2
AcDbDictionaryWithDefault
  3
ObjectDBX Classes
 90
        0
280
     0
281
     0
  0
CLASS
  1
VISUALSTYLE
  2
AcDbVisualStyle
  3
ObjectDBX Classes
 90
     4095
280
     0
281
     0
  0
CLASS
  1
MATERIAL
  2
AcDbMaterial
  3
ObjectDBX Classes
 90
     1153
280
     0
281
     0
  0
CLASS
  1
SCALE
  2
AcDbScale
  3
ObjectDBX Classes
 90
     1153
280
     0
281
     0
  0
CLASS
  1
TABLESTYLE
  2
AcDbTableStyle
  3
ObjectDBX Classes
 90
     4095
280
     0
281
     0
  0
CLASS
  1
MLEADERSTYLE
  2
AcDbMLeaderStyle
  3
ACDB_MLEADERSTYLE_CLASS
 90
     4095
280
     0
281
     0
  0
CLASS
  1
SUN
  2
AcDbSun
  3
SCENEOE
 90
     1153
280
     0
281
     0
  0
CLASS
  1
ACDBPLACEHOLDER
  2
AcDbPlaceHolder
  3
ObjectDBX Classes
 90
        0
280
     0
281
     0
  0
CLASS
  1
LAYOUT
  2
AcDbLayout
  3
ObjectDBX Classes
 90
        0
280
     0
281
     0
  0
ENDSEC
  0
SECTION
  2
TABLES
  0
TABLE
  2
VPORT
  5
8
330
0
100
AcDbSymbolTable
 70
     1
  0
VPORT
  5
29
330
8
100
AcDbSymbolTableRecord
100
AcDbViewportTableRecord
  2
*Active
 70
     0
 10
0.0
 20
0.0
 11
1.0
 21
1.0
 12
0.0
 22
0.0
 13
0.0
 23
0.0
 14
10.0
 24
10.0
 15
10.0
 25
10.0
 16
0.0
 26
0.0
 36
1.0
 17
0.0
 27
0.0
 37
0.0
 40
336.6
 41
1.6212121212
 42
50.0
 43
0.0
 44
0.0
 50
0.0
 51
0.0
 71
     0
 72
   100
 73
     1
 74
     3
 75
     0
 76
     0
 77
     0
 78
     0
281
     0
 65
     1
110
0.0
120
0.0
130
0.0
111
1.0
121
0.0
131
0.0
112
0.0
122
1.0
132
0.0
 79
     0
146
0.0
  0
ENDTAB
  0
TABLE
  2
LTYPE
  5
5
330
0
100
AcDbSymbolTable
 70
     6
  0
LTYPE
  5
14
330
5
100
AcDbSymbolTableRecord
100
AcDbLinetypeTableRecord
  2
ByBlock
 70
     0
  3

 72
    65
 73
     0
 40
0.0
  0
LTYPE
  5
15
330
5
100
AcDbSymbolTableRecord
100
AcDbLinetypeTableRecord
  2
ByLayer
 70
     0
  3

 72
    65
 73
     0
 40
0.0
  0
LTYPE
  5
16
330
5
100
AcDbSymbolTableRecord
100
AcDbLinetypeTableRecord
  2
Continuous
 70
     0
  3
Solid line
 72
    65
 73
     0
 40
0.0
  0
LTYPE
  5
6E
330
5
100
AcDbSymbolTableRecord
100
AcDbLinetypeTableRecord
  2
HIDDEN
 70
     0
  3
Hidden __ __ __ __ __ __ __ __ __ __ __ __ __ __
 72
    65
 73
     2
 40
1.905
 49
1.27
 74
     0
 49
-0.635
 74
     0
  0
LTYPE
  5
6F
330
5
100
AcDbSymbolTableRecord
100
AcDbLinetypeTableRecord
  2
PHANTOM
 70
     0
  3
Phantom ______  __  __  ______  __  __  ______
 72
    65
 73
     6
 40
12.7
 49
6.35
 74
     0
 49
-1.27
 74
     0
 49
1.27
 74
     0
 49
-1.27
 74
     0
 49
1.27
 74
     0
 49
-1.27
 74
     0
  0
LTYPE
  5
70
330
5
100
AcDbSymbolTableRecord
100
AcDbLinetypeTableRecord
  2
CENTER
 70
     0
  3
Center ____ _ ____ _ ____ _ ____ _ ____ _ ____
 72
    65
 73
     4
 40
10.16
 49
6.35
 74
     0
 49
-1.27
 74
     0
 49
1.27
 74
     0
 49
-1.27
 74
     0
  0
LTYPE
  5
71
330
5
100
AcDbSymbolTableRecord
100
AcDbLinetypeTableRecord
  2
CENTERX2
 70
     0
  3
Center (2x) ________  __  ________  __  _____
 72
    65
 73
     4
 40
20.32
 49
12.7
 74
     0
 49
-2.54
 74
     0
 49
2.54
 74
     0
 49
-2.54
 74
     0
  0
LTYPE
  5
72
330
5
100
AcDbSymbolTableRecord
100
AcDbLinetypeTableRecord
  2
DOT2
 70
     0
  3
Dot (.5x) ........................................
 72
    65
 73
     2
 40
0.635
 49
0.0
 74
     0
 49
-0.635
 74
     0
  0
ENDTAB
  0
TABLE
  2
LAYER
  5
2
330
0
100
AcDbSymbolTable
 70
     1
  0
LAYER
  5
10
330
2
100
AcDbSymbolTableRecord
100
AcDbLayerTableRecord
  2
0
 70
     0
 62
     7
  6
Continuous
370
    -3
390
F
  0
ENDTAB
  0
TABLE
  2
STYLE
  5
3
330
0
100
AcDbSymbolTable
 70
     1
  0
STYLE
  5
11
330
3
100
AcDbSymbolTableRecord
100
AcDbTextStyleTableRecord
  2
STANDARD
 70
     0
 40
0.0
 41
1.0
 50
0.0
 71
     0
 42
3.5
  3
GOTHIC.TTF
  4

1001
ACAD
1000
CENTURY GOTHIC
1071
       34
  0
ENDTAB
  0
TABLE
  2
VIEW
  5
6
330
0
100
AcDbSymbolTable
 70
     0
  0
ENDTAB
  0
TABLE
  2
UCS
  5
7
330
0
100
AcDbSymbolTable
 70
     0
  0
ENDTAB
  0
TABLE
  2
APPID
  5
9
330
0
100
AcDbSymbolTable
 70
     1
  0
APPID
  5
12
330
9
100
AcDbSymbolTableRecord
100
AcDbRegAppTableRecord
  2
ACAD
 70
     0
  0
ENDTAB
  0
TABLE
  2
DIMSTYLE
  5
A
330
0
100
AcDbSymbolTable
 70
     1
100
AcDbDimStyleTable
  0
DIMSTYLE
105
27
330
A
100
AcDbSymbolTableRecord
100
AcDbDimStyleTableRecord
  2
ISO-25
 70
     0
 41
2.5
 42
0.625
 43
3.75
 44
1.25
 73
     0
 74
     0
 77
     1
 78
     8
140
2.5
141
2.5
143
0.0393700787
147
0.625
171
     3
172
     1
178
     0
271
     2
272
     2
274
     3
278
    44
283
     0
284
     8
340
11
  0
ENDTAB
  0
TABLE
  2
BLOCK_RECORD
  5
1
330
0
100
AcDbSymbolTable
 70
     8
  0
BLOCK_RECORD
  5
1F
330
1
100
AcDbSymbolTableRecord
100
AcDbBlockTableRecord
  2
*Model_Space
340
22
  0
BLOCK_RECORD
  5
1B
330
1
100
AcDbSymbolTableRecord
100
AcDbBlockTableRecord
  2
*Paper_Space
340
1E
  0
BLOCK_RECORD
  5
23
330
1
100
AcDbSymbolTableRecord
100
AcDbBlockTableRecord
  2
*Paper_Space0
340
26
  0
BLOCK_RECORD
  5
A2
330
1
100
AcDbSymbolTableRecord
100
AcDbBlockTableRecord
  2
*Paper_Space1
340
A3
  0
BLOCK_RECORD
  5
BA
330
1
100
AcDbSymbolTableRecord
100
AcDbBlockTableRecord
  2
*Paper_Space2
340
BB
  0
BLOCK_RECORD
  5
D0
330
1
100
AcDbSymbolTableRecord
100
AcDbBlockTableRecord
  2
*Paper_Space3
340
D1
  0
BLOCK_RECORD
  5
EA
330
1
100
AcDbSymbolTableRecord
100
AcDbBlockTableRecord
  2
*Paper_Space4
340
EB
  0
BLOCK_RECORD
  5
100
330
1
100
AcDbSymbolTableRecord
100
AcDbBlockTableRecord
  2
*Paper_Space5
340
101
  0
BLOCK_RECORD
  5
10B
330
1
100
AcDbSymbolTableRecord
100
AcDbBlockTableRecord
  2
*Paper_Space6
340
10C
  0
BLOCK_RECORD
  5
113
330
1
100
AcDbSymbolTableRecord
100
AcDbBlockTableRecord
  2
*Paper_Space7
340
114
  0
ENDTAB
  0
ENDSEC
  0
SECTION
  2
BLOCKS
  0
BLOCK
  5
20
330
1F
100
AcDbEntity
  8
0
100
AcDbBlockBegin
  2
*Model_Space
 70
     0
 10
0.0
 20
0.0
 30
0.0
  3
*Model_Space
  1

  0
ENDBLK
  5
21
330
1F
100
AcDbEntity
  8
0
100
AcDbBlockEnd
  0
BLOCK
  5
1C
330
1B
100
AcDbEntity
 67
     1
  8
0
100
AcDbBlockBegin
  2
*Paper_Space
 70
     0
 10
0.0
 20
0.0
 30
0.0
  3
*Paper_Space
  1

  0
ENDBLK
  5
1D
330
1B
100
AcDbEntity
 67
     1
  8
0
100
AcDbBlockEnd
  0
BLOCK
  5
24
330
23
100
AcDbEntity
  8
0
100
AcDbBlockBegin
  2
*Paper_Space0
 70
     0
 10
0.0
 20
0.0
 30
0.0
  3
*Paper_Space0
  1

  0
SPLINE
  5
8B
330
23
100
AcDbEntity
  8
0
  6
Continuous
 62
     7
370
    25
100
AcDbSpline
210
0.0
220
0.0
230
1.0
 70
     8
 71
     3
 72
    40
 73
    36
 74
     0
 42
0.000000001
 43
0.00000001
 40
0.0
 40
0.0
 40
0.0
 40
0.0
 40
0.0404301339669997
 40
0.0867247273681906
 40
0.1296304695590445
 40
0.1681646171472228
 40
0.2025878595176047
 40
0.2339628825947048
 40
0.2634851919570815
 40
0.2886132843326942
 40
0.3136874982958792
 40
0.338872502720817
 40
0.3616696704456779
 40
0.3870199222621145
 40
0.4065150018975696
 40
0.4202504867676315
 40
0.424034113794161
 40
0.4272538611918726
 40
0.4303000655141664
 40
0.4336044840448169
 40
0.4375252218864925
 40
0.4422922904988322
 40
0.4548460496530887
 40
0.4718847879681549
 40
0.4936957026514845
 40
0.5204632487817485
 40
0.5523258096746775
 40
0.5893952716824646
 40
0.6317639569805343
 40
0.6795063972474817
 40
0.7326786327540666
 40
0.7913161338726441
 40
0.855430843656975
 40
0.9250075897418776
 40
1.0
 40
1.0
 40
1.0
 40
1.0
 10
54.98755970035344
 20
-127.6766377205432
 30
0.0
 10
56.4803310174244
 20
-127.3946678831588
 30
0.0
 10
59.68240266036538
 20
-126.7898280057255
 30
0.0
 10
63.70174810107279
 20
-125.7495492470987
 30
0.0
 10
67.58958736841524
 20
-124.6044629750149
 30
0.0
 10
71.16645512161504
 20
-123.4307731859176
 30
0.0
 10
74.53083956798831
 20
-122.261570637969
 30
0.0
 10
77.70389732535544
 20
-121.1178343310474
 30
0.0
 10
80.59859552658749
 20
-120.0484663151806
 30
0.0
 10
83.24612640172039
 20
-119.0537069359753
 30
0.0
 10
85.72433787835018
 20
-118.1123644610141
 30
0.0
 10
88.00933328060103
 20
-117.2360888069419
 30
0.0
 10
90.25094604337292
 20
-116.2950047166869
 30
0.0
 10
92.44365105677369
 20
-115.3012038976333
 30
0.0
 10
94.50225346192255
 20
-114.2912327892802
 30
0.0
 10
96.00439569423453
 20
-113.5062957201533
 30
0.0
 10
96.99323090685783
 20
-112.9670373016722
 30
0.0
 10
97.53728252552546
 20
-112.6644739325958
 30
0.0
 10
98.08721009505884
 20
-112.3522300617828
 30
0.0
 10
98.6121666853455
 20
-112.0483697851114
 30
0.0
 10
99.11219507030205
 20
-111.7539188817853
 30
0.0
 10
99.8261093533785
 20
-111.3268027733214
 30
0.0
 10
100.6532076244457
 20
-110.8192411722585
 30
0.0
 10
101.5605856971232
 20
-110.2495615696693
 30
0.0
 10
102.4514620518227
 20
-109.6786826030443
 30
0.0
 10
103.3259369956311
 20
-109.1090067541892
 30
0.0
 10
104.1810721188163
 20
-108.5443318417518
 30
0.0
 10
105.0146904205079
 20
-107.9879543639903
 30
0.0
 10
105.8236480975146
 20
-107.4435216646383
 30
0.0
 10
106.6040941950315
 20
-106.9149397927831
 30
0.0
 10
107.350950098728
 20
-106.4067086175944
 30
0.0
 10
108.0584903983109
 20
-105.9235618133094
 30
0.0
 10
108.717228284207
 20
-105.4726554097407
 30
0.0
 10
109.3263988917927
 20
-105.055025503139
 30
0.0
 10
109.6570810109961
 20
-104.8282802816284
 30
0.0
 10
109.8286158651491
 20
-104.7106606516483
 30
0.0
  0
SPLINE
  5
8C
330
23
100
AcDbEntity
  8
0
  6
Continuous
 62
     7
370
    25
100
AcDbSpline
210
0.0
220
0.0
230
1.0
 70
     8
 71
     3
 72
    22
 73
    18
 74
     0
 42
0.000000001
 43
0.00000001
 40
0.0
 40
0.0
 40
0.0
 40
0.0
 40
0.0423121023677567
 40
0.0828647402979691
 40
0.1215698699590213
 40
0.1585843968503161
 40
0.201551069169141
 40
0.2542868619839816
 40
0.316842974006207
 40
0.379608604833686
 40
0.4497334615897748
 40
0.5269569121346782
 40
0.6108827881162132
 40
0.7009315722638954
 40
0.7963906748919558
 40
0.8963902189934151
 40
1.0
 40
1.0
 40
1.0
 40
1.0
 10
-165.0
 20
0.0
 30
0.0
 10
-164.9794044304036
 20
-1.736275111423519
 30
0.0
 10
-164.9390697169199
 20
-5.136625794626058
 30
0.0
 10
-164.6249086394
 20
-10.1169681114273
 30
0.0
 10
-164.1560474420575
 20
-14.86560837649065
 30
0.0
 10
-163.4961274906542
 20
-19.69177214191813
 30
0.0
 10
-162.5492210471149
 20
-25.05602867845568
 30
0.0
 10
-161.1248543077405
 20
-31.39441791676409
 30
0.0
 10
-159.1275952093459
 20
-38.42699903520465
 30
0.0
 10
-156.467408401142
 20
-45.99765716356229
 30
0.0
 10
-153.0918969975466
 20
-53.93799057542445
 30
0.0
 10
-148.7592346026336
 20
-62.39095719066268
 30
0.0
 10
-143.3508255225754
 20
-71.17806041263725
 30
0.0
 10
-136.7766796614223
 20
-80.08564862631265
 30
0.0
 10
-128.9786996816877
 20
-88.84504344669419
 30
0.0
 10
-120.0237494169822
 20
-97.2786824260717
 30
0.0
 10
-113.2669292174581
 20
-102.2042226695312
 30
0.0
 10
-109.8286158651493
 20
-104.710660651648
 30
0.0
  0
SPLINE
  5
8D
330
23
100
AcDbEntity
  8
0
  6
Continuous
 62
     7
370
    25
100
AcDbSpline
210
0.0
220
0.0
230
1.0
 70
     8
 71
     3
 72
    21
 73
    17
 74
     0
 42
0.000000001
 43
0.00000001
 40
0.0
 40
0.0
 40
0.0
 40
0.0
 40
0.0848368599013857
 40
0.1674412385397542
 40
0.2472912599846152
 40
0.3239006143832211
 40
0.3968224266965703
 40
0.4656814955274851
 40
0.5301576795438536
 40
0.5900197883003221
 40
0.6623644165877739
 40
0.7294348596122496
 40
0.796882485449648
 40
0.8645909624937935
 40
0.9323580353512999
 40
1.0
 40
1.0
 40
1.0
 40
1.0
 10
109.8286158651495
 20
-104.710660651648
 30
0.0
 10
112.6540006204252
 20
-102.6736842359078
 30
0.0
 10
118.2304201546301
 20
-98.65333442187328
 30
0.0
 10
125.8189251627817
 20
-91.89172704338479
 30
0.0
 10
132.6520635286767
 20
-84.84315859781232
 30
0.0
 10
138.6681509607469
 20
-77.59220860233829
 30
0.0
 10
143.8822527656306
 20
-70.29508299852404
 30
0.0
 10
148.320020412803
 20
-63.08102674421721
 30
0.0
 10
152.0332360398919
 20
-56.07095132178271
 30
0.0
 10
155.3730620653509
 20
-48.71916594116101
 30
0.0
 10
158.2771002914387
 20
-41.06765405422881
 30
0.0
 10
160.7447229268259
 20
-32.94000414285114
 30
0.0
 10
162.6374032365039
 20
-24.85410753912641
 30
0.0
 10
163.9918285687117
 20
-16.63366165369001
 30
0.0
 10
164.841437355327
 20
-8.33332109321186
 30
0.0
 10
164.9471783507998
 20
-2.776062195266951
 30
0.0
 10
165.0
 20
0.0
 30
0.0
  0
SPLINE
  5
8E
330
23
100
AcDbEntity
  8
0
  6
Continuous
 62
     7
370
    25
100
AcDbSpline
210
0.0
220
0.0
230
1.0
 70
     8
 71
     3
 72
    40
 73
    36
 74
     0
 42
0.000000001
 43
0.00000001
 40
0.0
 40
0.0
 40
0.0
 40
0.0
 40
0.0758673457241521
 40
0.14607746931843
 40
0.2105650279789369
 40
0.2692996283501388
 40
0.3222804837683141
 40
0.3695316521343209
 40
0.4110979704869495
 40
0.4428539904207942
 40
0.4703570319804935
 40
0.4936684756958311
 40
0.5128616943776803
 40
0.5280297624059399
 40
0.5393083479422616
 40
0.5476271984492701
 40
0.5513335653950633
 40
0.5549245930989793
 40
0.5585662000323586
 40
0.5624190003676801
 40
0.5712527759333015
 40
0.5822124761384748
 40
0.5958086098040928
 40
0.6124384880246551
 40
0.6321558107320179
 40
0.6550010789480045
 40
0.6798077622659725
 40
0.7104339555614213
 40
0.7456513506686966
 40
0.786669823336816
 40
0.8341282383089074
 40
0.8755812756676686
 40
0.9195107175804172
 40
0.9643714937011938
 40
1.0
 40
1.0
 40
1.0
 40
1.0
 10
-109.8286158651532
 20
-104.7106606516453
 30
0.0
 10
-109.7384353166446
 20
-104.7727748112903
 30
0.0
 10
-109.5647987384548
 20
-104.8923714462215
 30
0.0
 10
-109.1993461508666
 20
-105.1464801749066
 30
0.0
 10
-108.7800745925087
 20
-105.438211674864
 30
0.0
 10
-108.3090024729217
 20
-105.7657939174362
 30
0.0
 10
-107.7957454022552
 20
-106.1221198745499
 30
0.0
 10
-107.2464500442413
 20
-106.5025670033307
 30
0.0
 10
-106.6863227658818
 20
-106.8892831274932
 30
0.0
 10
-106.1253220604208
 20
-107.2749680550195
 30
0.0
 10
-105.5774773128928
 20
-107.6497130113155
 30
0.0
 10
-105.012589684098
 20
-108.0335151103658
 30
0.0
 10
-104.4374682876735
 20
-108.4210691700455
 30
0.0
 10
-103.8415582297616
 20
-108.8181310478979
 30
0.0
 10
-103.2493989509471
 20
-109.2079520703003
 30
0.0
 10
-102.606520399303
 20
-109.6240950011029
 30
0.0
 10
-101.9584177647338
 20
-110.0352319705825
 30
0.0
 10
-101.4240998167947
 20
-110.3697345207601
 30
0.0
 10
-100.8240154713044
 20
-110.7399165113469
 30
0.0
 10
-99.90017209107992
 20
-111.3005035845311
 30
0.0
 10
-98.55437168448441
 20
-112.0933817256155
 30
0.0
 10
-96.78966482373662
 20
-113.0859640164672
 30
0.0
 10
-94.74480709629557
 20
-114.1756777977293
 30
0.0
 10
-92.30220374918491
 20
-115.3921175167754
 30
0.0
 10
-89.48175792918636
 20
-116.6869506422559
 30
0.0
 10
-86.25887921700551
 20
-117.9889780360653
 30
0.0
 10
-82.86101507449648
 20
-119.2814316681347
 30
0.0
 10
-79.5027504610917
 20
-120.5602059943157
 30
0.0
 10
-76.01981467091959
 20
-121.8519743132172
 30
0.0
 10
-72.43672577399815
 20
-123.1379922292505
 30
0.0
 10
-69.00301604641153
 20
-124.2941501796309
 30
0.0
 10
-65.62642069671818
 20
-125.3281452650762
 30
0.0
 10
-62.24455672590454
 20
-126.2306382757268
 30
0.0
 10
-58.85174902590298
 20
-127.0163043973695
 30
0.0
 10
-56.17692299472159
 20
-127.4834592048245
 30
0.0
 10
-54.99291372994314
 20
-127.6902448475784
 30
0.0
  0
SPLINE
  5
90
330
23
100
AcDbEntity
  8
0
  6
Continuous
 62
     7
370
    25
100
AcDbSpline
210
0.0
220
0.0
230
1.0
 70
     8
 71
     3
 72
    29
 73
    25
 74
     0
 42
0.000000001
 43
0.00000001
 40
0.0
 40
0.0
 40
0.0
 40
0.0
 40
0.1249999999999991
 40
0.1249999999999991
 40
0.1874999999999985
 40
0.1874999999999985
 40
0.2499999999999979
 40
0.2499999999999979
 40
0.3749999999999963
 40
0.3749999999999963
 40
0.4374999999999965
 40
0.4374999999999965
 40
0.4999999999999967
 40
0.4999999999999967
 40
0.6249999999999968
 40
0.6249999999999968
 40
0.6874999999999973
 40
0.6874999999999973
 40
0.7499999999999979
 40
0.8124999999999984
 40
0.8124999999999984
 40
0.8749999999999989
 40
0.8749999999999989
 40
1.0
 40
1.0
 40
1.0
 40
1.0
 10
44.99999999999999
 20
-128.486266919933
 30
0.0
 10
45.66028581444045
 20
-128.4622248855262
 30
0.0
 10
46.309555928045
 20
-128.4387358853984
 30
0.0
 10
47.26753930624029
 20
-128.4022542932935
 30
0.0
 10
47.58419703089709
 20
-128.3899702084175
 30
0.0
 10
48.21204860392524
 20
-128.3650682621121
 30
0.0
 10
48.52412544331692
 20
-128.3524105921382
 30
0.0
 10
49.43196644331427
 20
-128.3146336604148
 30
0.0
 10
50.00606797146275
 20
-128.2894604110821
 30
0.0
 10
50.82095474148984
 20
-128.2512904960972
 30
0.0
 10
51.08564376940378
 20
-128.2384572249742
 30
0.0
 10
51.59522189420969
 20
-128.212760675663
 30
0.0
 10
51.83772433691897
 20
-128.2000208939312
 30
0.0
 10
52.52952804838258
 20
-128.1620114093238
 30
0.0
 10
52.94346253730104
 20
-128.1369504768819
 30
0.0
 10
53.49180610680331
 20
-128.0993696975517
 30
0.0
 10
53.6621577017981
 20
-128.0868492887812
 30
0.0
 10
53.97091978781543
 20
-128.0623041174102
 30
0.0
 10
54.24989680688666
 20
-128.0381125908947
 30
0.0
 10
54.47022263956055
 20
-128.014528117884
 30
0.0
 10
54.66083464052674
 20
-127.9912374278735
 30
0.0
 10
54.74153729965023
 20
-127.9796902897451
 30
0.0
 10
54.93520765178204
 20
-127.9459322793198
 30
0.0
 10
54.99999999999991
 20
-127.9246277417243
 30
0.0
 10
54.99999999999998
 20
-127.9054935249873
 30
0.0
  0
SPLINE
  5
91
330
23
100
AcDbEntity
  8
0
  6
Continuous
 62
     7
370
    25
100
AcDbSpline
210
0.0
220
0.0
230
1.0
 70
     8
 71
     3
 72
    10
 73
     6
 74
     0
 42
0.000000001
 43
0.00000001
 40
0.0
 40
0.0
 40
0.0
 40
0.0
 40
0.5
 40
0.5
 40
1.0
 40
1.0
 40
1.0
 40
1.0
 10
-45.00000000045514
 20
-128.4862669199816
 30
0.0
 10
-30.00551896079939
 20
-129.0322393173649
 30
0.0
 10
-15.00337545922015
 20
-129.4170579080817
 30
0.0
 10
15.00365970257398
 20
-129.4170528963474
 30
0.0
 10
30.00553910465248
 20
-129.0322385838782
 30
0.0
 10
44.99999999954503
 20
-128.4862669200037
 30
0.0
  0
SPLINE
  5
92
330
23
100
AcDbEntity
  8
0
  6
Continuous
 62
     7
370
    25
100
AcDbSpline
210
0.0
220
0.0
230
1.0
 70
     8
 71
     3
 72
    29
 73
    25
 74
     0
 42
0.000000001
 43
0.00000001
 40
0.0
 40
0.0
 40
0.0
 40
0.0
 40
0.1250000000000005
 40
0.1250000000000005
 40
0.1874999999999999
 40
0.1874999999999999
 40
0.2499999999999992
 40
0.2499999999999992
 40
0.3749999999999979
 40
0.3749999999999979
 40
0.4374999999999977
 40
0.4374999999999977
 40
0.4999999999999974
 40
0.4999999999999974
 40
0.6249999999999978
 40
0.6249999999999978
 40
0.6874999999999982
 40
0.6874999999999982
 40
0.7499999999999986
 40
0.8124999999999989
 40
0.8124999999999989
 40
0.8749999999999992
 40
0.8749999999999992
 40
1.0
 40
1.0
 40
1.0
 40
1.0
 10
-54.99999999999998
 20
-127.9054935249185
 30
0.0
 10
-54.99999999999976
 20
-127.9246277773256
 30
0.0
 10
-54.93521558068889
 20
-127.9458157528982
 30
0.0
 10
-54.74488150630601
 20
-127.9791634431525
 30
0.0
 10
-54.66579476416416
 20
-127.9905687237032
 30
0.0
 10
-54.47563067719778
 20
-128.0139266320606
 30
0.0
 10
-54.36400997991309
 20
-128.0259190633777
 30
0.0
 10
-53.98791661607322
 20
-128.0619742980741
 30
0.0
 10
-53.68106555605618
 20
-128.0863398441233
 30
0.0
 10
-53.13739952153458
 20
-128.1236873029013
 30
0.0
 10
-52.94148379949898
 20
-128.1363143954121
 30
0.0
 10
-52.5236487380957
 20
-128.1617334466365
 30
0.0
 10
-52.30380120511637
 20
-128.1744047968103
 30
0.0
 10
-51.61250142161251
 20
-128.2124122010069
 30
0.0
 10
-51.10959152567425
 20
-128.2377394023578
 30
0.0
 10
-50.2907059547213
 20
-128.2761427107816
 30
0.0
 10
-50.00688933914665
 20
-128.2890080604406
 30
0.0
 10
-49.43005256576566
 20
-128.3143823653537
 30
0.0
 10
-48.8409872133437
 20
-128.339544767759
 30
0.0
 10
-48.22784641632235
 20
-128.3644314442883
 30
0.0
 10
-47.60251103474381
 20
-128.3892535345817
 30
0.0
 10
-47.2823645756613
 20
-128.4016843000766
 30
0.0
 10
-46.31341092729583
 20
-128.4385996491579
 30
0.0
 10
-45.66028389178044
 20
-128.4622249555876
 30
0.0
 10
-45.00000000000206
 20
-128.4862669199872
 30
0.0
  0
LINE
  5
9C
330
23
100
AcDbEntity
  8
0
  6
Continuous
 62
     7
370
    25
100
AcDbLine
 10
55.0
 20
-135.0001
 30
0.0
 11
55.0
 21
-127.7271402729
 31
0.0
  0
LINE
  5
9D
330
23
100
AcDbEntity
  8
0
  6
Continuous
 62
     7
370
    25
100
AcDbLine
 10
-55.0
 20
-135.0001
 30
0.0
 11
-55.0
 21
-127.7191143503
 31
0.0
  0
LINE
  5
9E
330
23
100
AcDbEntity
  8
0
  6
Continuous
 62
     7
370
    25
100
AcDbLine
 10
-165.0
 20
0.0
 30
0.0
 11
165.0
 21
0.0
 31
0.0
  0
LINE
  5
9F
330
23
100
AcDbEntity
  8
0
  6
Continuous
 62
     7
370
    25
100
AcDbLine
 10
55.0
 20
-135.0001
 30
0.0
 11
-55.0
 21
-135.0001
 31
0.0
  0
LINE
  5
A0
330
23
100
AcDbEntity
  8
0
  6
Continuous
 62
     7
370
    25
100
AcDbLine
 10
-45.0
 20
-135.0001
 30
0.0
 11
-45.0
 21
-128.4862669197
 31
0.0
  0
LINE
  5
A1
330
23
100
AcDbEntity
  8
0
  6
Continuous
 62
     7
370
    25
100
AcDbLine
 10
45.0
 20
-135.0001
 30
0.0
 11
45.0
 21
-128.4862669198
 31
0.0
  0
VIEWPORT
  5
12B
330
23
100
AcDbEntity
  8
0
100
AcDbViewport
 10
0.0
 20
0.0
 30
0.0
 40
205.6
 41
156.0
 68
     1
 69
     1
 12
0.0
 22
0.0
 13
0.0
 23
0.0
 14
10.0
 24
10.0
 15
10.0
 25
10.0
 16
0.0
 26
0.0
 36
1.0
 17
0.0
 27
0.0
 37
0.0
 42
50.0
 43
0.0
 44
0.0
 45
414.0525291829
 50
0.0
 51
0.0
 72
   100
 90
   557152
  1

281
     0
 71
     1
 74
     0
110
0.0
120
0.0
130
0.0
111
1.0
121
0.0
131
0.0
112
0.0
122
1.0
132
0.0
 79
     0
146
0.0
  0
ENDBLK
  5
25
330
23
100
AcDbEntity
  8
0
100
AcDbBlockEnd
  0
BLOCK
  5
A4
330
A2
100
AcDbEntity
  8
0
100
AcDbBlockBegin
  2
*Paper_Space1
 70
     0
 10
0.0
 20
0.0
 30
0.0
  3
*Paper_Space1
  1

  0
SPLINE
  5
A6
330
A2
100
AcDbEntity
  8
0
  6
Continuous
 62
     7
370
    25
100
AcDbSpline
210
0.0
220
0.0
230
1.0
 70
     8
 71
     3
 72
    38
 73
    34
 74
     0
 42
0.000000001
 43
0.00000001
 40
0.0
 40
0.0
 40
0.0
 40
0.0
 40
0.0414714845154493
 40
0.0905609204072606
 40
0.1403654825703126
 40
0.1888675038163656
 40
0.2343103338423983
 40
0.2756911631492683
 40
0.3107612661580578
 40
0.3421975389939362
 40
0.3703582807225188
 40
0.3956337202438593
 40
0.4187274881821739
 40
0.4491051307771707
 40
0.4769335757040092
 40
0.5024500339697215
 40
0.5258331735669579
 40
0.5472207945296252
 40
0.5673331093815742
 40
0.588041415792326
 40
0.6094650662613075
 40
0.6391406461063237
 40
0.6700976512042633
 40
0.7023602826895637
 40
0.7359661501670305
 40
0.7708089045618564
 40
0.8052127456496528
 40
0.8387892375800231
 40
0.8716204585687802
 40
0.9037776325856767
 40
0.9354141567153359
 40
0.9673958331220047
 40
1.0
 40
1.0
 40
1.0
 40
1.0
 10
55.00252459302678
 20
-129.4072740162218
 30
0.0
 10
58.89085414471197
 20
-129.2571022146225
 30
0.0
 10
67.38176560258813
 20
-128.9291733562528
 30
0.0
 10
80.53096515106192
 20
-128.1726440120134
 30
0.0
 10
94.32588913457894
 20
-127.1853420894352
 30
0.0
 10
107.7629832968151
 20
-126.0121497134056
 30
0.0
 10
120.3952187262774
 20
-124.7247220607825
 30
0.0
 10
131.7569059189441
 20
-123.4116174032228
 30
0.0
 10
141.7983195589814
 20
-122.1291962195034
 30
0.0
 10
150.5975876825991
 20
-120.9158891601768
 30
0.0
 10
158.4747425685961
 20
-119.7461914677049
 30
0.0
 10
165.5726209370077
 20
-118.6609284558194
 30
0.0
 10
172.8527608910083
 20
-117.3852463634802
 30
0.0
 10
180.261630920891
 20
-115.5351107640125
 30
0.0
 10
187.7459052331771
 20
-113.1330130866591
 30
0.0
 10
194.4528681247969
 20
-110.5043369796776
 30
0.0
 10
200.4483241734691
 20
-107.749356501708
 30
0.0
 10
205.8405469976367
 20
-104.9179328388166
 30
0.0
 10
210.8719951634021
 20
-101.95518118159
 30
0.0
 10
215.7595396310869
 20
-98.7540252172117
 30
0.0
 10
221.2084577212138
 20
-94.78671880349549
 30
0.0
 10
227.1544504942856
 20
-89.88553233239521
 30
0.0
 10
233.4755045406571
 20
-83.87326526177735
 30
0.0
 10
239.5812042549083
 20
-77.13426071077092
 30
0.0
 10
245.3729998265092
 20
-69.65546089731598
 30
0.0
 10
250.6562967029428
 20
-61.56681747935644
 30
0.0
 10
255.2645288665706
 20
-53.07901921592178
 30
0.0
 10
259.1051029398208
 20
-44.42409583285612
 30
0.0
 10
262.1890971816075
 20
-35.69594087990171
 30
0.0
 10
264.5553629200949
 20
-26.93443472632497
 30
0.0
 10
266.2316889370176
 20
-18.09939657514341
 30
0.0
 10
267.2991491108826
 20
-9.121357967491631
 30
0.0
 10
267.4326208949314
 20
-3.059926393960688
 30
0.0
 10
267.5000000000001
 20
0.0
 30
0.0
  0
SPLINE
  5
A7
330
A2
100
AcDbEntity
  8
0
  6
Continuous
 62
     7
370
    25
100
AcDbSpline
210
0.0
220
0.0
230
1.0
 70
     8
 71
     3
 72
    38
 73
    34
 74
     0
 42
0.000000001
 43
0.00000001
 40
0.0
 40
0.0
 40
0.0
 40
0.0
 40
0.0326041684616924
 40
0.0645858464218223
 40
0.0962223720881769
 40
0.1283795476670584
 40
0.1612107702505419
 40
0.1947872638118391
 40
0.2291911065707492
 40
0.2640338626580072
 40
0.2976397317678268
 40
0.3299023648202357
 40
0.3608593714218649
 40
0.3905349527083261
 40
0.4119586042179277
 40
0.4326669116345529
 40
0.4527792274634271
 40
0.4741668494649662
 40
0.4975499901980038
 40
0.5230664497031391
 40
0.5508948959817003
 40
0.5812725400522438
 40
0.6058227087212306
 40
0.6328933983493515
 40
0.6632626378497234
 40
0.6973963955143256
 40
0.7356901297421187
 40
0.7782828909944507
 40
0.8220033189273632
 40
0.8681368994892443
 40
0.9151191482115353
 40
0.9612755329317062
 40
1.0
 40
1.0
 40
1.0
 40
1.0
 10
-267.4999999999999
 20
0.0
 30
0.0
 10
-267.4326208949312
 20
-3.059926393960688
 30
0.0
 10
-267.2991491108824
 20
-9.121357967491653
 30
0.0
 10
-266.2316889370173
 20
-18.09939657514342
 30
0.0
 10
-264.5553629200948
 20
-26.93443472632484
 30
0.0
 10
-262.1890971816078
 20
-35.6959408799025
 30
0.0
 10
-259.1051029398203
 20
-44.42409583285345
 30
0.0
 10
-255.2645288665715
 20
-53.07901921593229
 30
0.0
 10
-250.656296702937
 20
-61.56681747931568
 30
0.0
 10
-245.3729998265285
 20
-69.65546089746738
 30
0.0
 10
-239.581204254841
 20
-77.13426071023827
 30
0.0
 10
-233.4755045408941
 20
-83.87326526364764
 30
0.0
 10
-227.1544504934534
 20
-89.88553232583621
 30
0.0
 10
-221.2084577238335
 20
-94.7867188241464
 30
0.0
 10
-215.7595396243652
 20
-98.7540251642279
 30
0.0
 10
-210.8719951875213
 20
-101.9551813717071
 30
0.0
 10
-205.8405469080072
 20
-104.9179321323145
 30
0.0
 10
-200.4483245463085
 20
-107.7493594406035
 30
0.0
 10
-194.4528665315885
 20
-110.5043244212645
 30
0.0
 10
-187.7459120169572
 20
-113.1330665595942
 30
0.0
 10
-180.2616020432009
 20
-115.5348831365299
 30
0.0
 10
-172.7201476848931
 20
-117.4192466799388
 30
0.0
 10
-165.1360039277928
 20
-118.7294786473387
 30
0.0
 10
-157.5316926747963
 20
-119.8911032416117
 30
0.0
 10
-149.0306142789274
 20
-121.1402775763403
 30
0.0
 10
-139.4729926937897
 20
-122.438035486117
 30
0.0
 10
-128.7635064570941
 20
-123.7725288994754
 30
0.0
 10
-117.1440143930939
 20
-125.0718048349947
 30
0.0
 10
-104.7760340484342
 20
-126.2867492333327
 30
0.0
 10
-91.98188579399272
 20
-127.3648271867944
 30
0.0
 10
-78.94531510749245
 20
-128.2692448470233
 30
0.0
 10
-66.59173789632942
 20
-128.9632077155417
 30
0.0
 10
-58.63332418544216
 20
-129.2685934629966
 30
0.0
 10
-55.00252497490698
 20
-129.4079169979432
 30
0.0
  0
SPLINE
  5
A8
330
A2
100
AcDbEntity
  8
0
  6
Continuous
 62
     7
370
    25
100
AcDbSpline
210
0.0
220
0.0
230
1.0
 70
     8
 71
     3
 72
    29
 73
    25
 74
     0
 42
0.000000001
 43
0.00000001
 40
0.0
 40
0.0
 40
0.0
 40
0.0
 40
0.1250000000000004
 40
0.1250000000000004
 40
0.1875000000000006
 40
0.1875000000000006
 40
0.2500000000000007
 40
0.2500000000000007
 40
0.3750000000000016
 40
0.3750000000000016
 40
0.4375000000000018
 40
0.4375000000000018
 40
0.5000000000000019
 40
0.5000000000000019
 40
0.6250000000000003
 40
0.6250000000000003
 40
0.6875000000000006
 40
0.6875000000000006
 40
0.7500000000000007
 40
0.8125000000000009
 40
0.8125000000000009
 40
0.8750000000000011
 40
0.8750000000000011
 40
1.0
 40
1.0
 40
1.0
 40
1.0
 10
44.99999999999979
 20
-127.9054935249185
 30
0.0
 10
45.66045165761597
 20
-127.9246277773255
 30
0.0
 10
46.30979532371558
 20
-127.9458157528984
 30
0.0
 10
47.26788503550789
 20
-127.9791634431528
 30
0.0
 10
47.58457327815584
 20
-127.9905687237033
 30
0.0
 10
48.2124804625787
 20
-128.0139266320607
 30
0.0
 10
48.52457289046828
 20
-128.0259190633779
 30
0.0
 10
49.4324420762026
 20
-128.0619742980742
 30
0.0
 10
50.00655623229538
 20
-128.0863398441234
 30
0.0
 10
50.82145644584641
 20
-128.1236873029013
 30
0.0
 10
51.08616369300801
 20
-128.1363143954122
 30
0.0
 10
51.59570034958645
 20
-128.1617334466366
 30
0.0
 10
51.83818368271806
 20
-128.1744047968104
 30
0.0
 10
52.5299334285767
 20
-128.2124122010071
 30
0.0
 10
52.94383645199385
 20
-128.2377394023578
 30
0.0
 10
53.4921341279649
 20
-128.2761427107815
 30
0.0
 10
53.66245167012599
 20
-128.2890080604404
 30
0.0
 10
53.97115622739178
 20
-128.3143823653537
 30
0.0
 10
54.25008220437907
 20
-128.3395444970884
 30
0.0
 10
54.47036684636853
 20
-128.3644314442882
 30
0.0
 10
54.66094079301742
 20
-128.3892535345815
 30
0.0
 10
54.74162696085315
 20
-128.4016843000765
 30
0.0
 10
54.93523463933546
 20
-128.4385996491579
 30
0.0
 10
54.99999999999993
 20
-128.4622249555875
 30
0.0
 10
54.9999999999998
 20
-128.4862669199871
 30
0.0
  0
SPLINE
  5
A9
330
A2
100
AcDbEntity
  8
0
  6
Continuous
 62
     7
370
    25
100
AcDbSpline
210
0.0
220
0.0
230
1.0
 70
     8
 71
     3
 72
    30
 73
    26
 74
     0
 42
0.000000001
 43
0.00000001
 40
0.0
 40
0.0
 40
0.0
 40
0.0
 40
0.015625
 40
0.015625
 40
0.0312499999999999
 40
0.0312499999999999
 40
0.0625000000000001
 40
0.0625000000000001
 40
0.1250000000000001
 40
0.1250000000000001
 40
0.2500000000000001
 40
0.2500000000000001
 40
0.5000000000000001
 40
0.5000000000000001
 40
0.7500000000000001
 40
0.7500000000000001
 40
0.8750000000000001
 40
0.8750000000000001
 40
0.9375000000000001
 40
0.9375000000000001
 40
0.9687500000000001
 40
0.9687500000000001
 40
0.984375
 40
0.984375
 40
1.0
 40
1.0
 40
1.0
 40
1.0
 10
-45.00000001434032
 20
-127.9054935254104
 30
0.0
 10
-44.53128451579148
 20
-127.8919141506401
 30
0.0
 10
-44.06272603635978
 20
-127.8735323458426
 30
0.0
 10
-43.12559032241291
 20
-127.8373431866122
 30
0.0
 10
-42.65705063609715
 20
-127.8183870861845
 30
0.0
 10
-41.25138308837339
 20
-127.7630016785762
 30
0.0
 10
-40.31424319653808
 20
-127.7269402883844
 30
0.0
 10
-37.50277326066227
 20
-127.6202931907158
 30
0.0
 10
-35.6283737323974
 20
-127.5518324639954
 30
0.0
 10
-30.00484234153725
 20
-127.3566282269736
 30
0.0
 10
-26.25537667516533
 20
-127.2400931720179
 30
0.0
 10
-15.00510520581751
 20
-126.947813439029
 30
0.0
 10
-7.503296963285204
 20
-126.8290554613733
 30
0.0
 10
7.501288561798093
 20
-126.8290341779053
 30
0.0
 10
15.00410503984111
 20
-126.9477934137824
 30
0.0
 10
26.25455958311547
 20
-127.2400689652287
 30
0.0
 10
30.00430258222893
 20
-127.3566104278378
 30
0.0
 10
35.62806110457872
 20
-127.5518211436143
 30
0.0
 10
37.50252844482127
 20
-127.6202840758595
 30
0.0
 10
40.31409089242955
 20
-127.726934425212
 30
0.0
 10
41.25126042611077
 20
-127.7629969794378
 30
0.0
 10
42.65696943716794
 20
-127.818383819866
 30
0.0
 10
43.12552179135017
 20
-127.8373404747068
 30
0.0
 10
44.06268684624085
 20
-127.8735308978958
 30
0.0
 10
44.53125931022566
 20
-127.891913420149
 30
0.0
 10
44.99999998565955
 20
-127.905493524572
 30
0.0
  0
SPLINE
  5
AA
330
A2
100
AcDbEntity
  8
0
  6
Continuous
 62
     7
370
    25
100
AcDbSpline
210
0.0
220
0.0
230
1.0
 70
     8
 71
     3
 72
    29
 73
    25
 74
     0
 42
0.000000001
 43
0.00000001
 40
0.0
 40
0.0
 40
0.0
 40
0.0
 40
0.1249999999999991
 40
0.1249999999999991
 40
0.1874999999999985
 40
0.1874999999999985
 40
0.2499999999999979
 40
0.2499999999999979
 40
0.3749999999999963
 40
0.3749999999999963
 40
0.4374999999999965
 40
0.4374999999999965
 40
0.4999999999999967
 40
0.4999999999999967
 40
0.6249999999999968
 40
0.6249999999999968
 40
0.6874999999999973
 40
0.6874999999999973
 40
0.7499999999999979
 40
0.8124999999999984
 40
0.8124999999999984
 40
0.8749999999999989
 40
0.8749999999999989
 40
1.0
 40
1.0
 40
1.0
 40
1.0
 10
-55.00000000000017
 20
-128.486266919933
 30
0.0
 10
-55.00000000000046
 20
-128.4622248855262
 30
0.0
 10
-54.93524213300233
 20
-128.4387358853984
 30
0.0
 10
-54.74496068422944
 20
-128.4022542932935
 30
0.0
 10
-54.66589423424865
 20
-128.3899702084175
 30
0.0
 10
-54.47577592644562
 20
-128.3650682621121
 30
0.0
 10
-54.36417779447155
 20
-128.3524105921382
 30
0.0
 10
-53.98814870104951
 20
-128.3146336604148
 30
0.0
 10
-53.68134435891815
 20
-128.2894604110821
 30
0.0
 10
-53.1377576764604
 20
-128.2512904960972
 30
0.0
 10
-52.94188261836781
 20
-128.2384572249742
 30
0.0
 10
-52.52406856548757
 20
-128.212760675663
 30
0.0
 10
-52.30423146833183
 20
-128.2000208939312
 30
0.0
 10
-51.61296402313558
 20
-128.1620114093238
 30
0.0
 10
-51.11007707062993
 20
-128.1369504768819
 30
0.0
 10
-50.29123225412554
 20
-128.0993696975517
 30
0.0
 10
-50.00739963931169
 20
-128.0868492887812
 30
0.0
 10
-49.43053330415032
 20
-128.0623041174102
 30
0.0
 10
-48.84143946910147
 20
-128.0381125908947
 30
0.0
 10
-48.2282714276369
 20
-128.014528117884
 30
0.0
 10
-47.60290747083832
 20
-127.9912374278735
 30
0.0
 10
-47.28275427161064
 20
-127.9796902897451
 30
0.0
 10
-46.31366396620949
 20
-127.9459322793198
 30
0.0
 10
-45.66045042641117
 20
-127.9246277417243
 30
0.0
 10
-44.99999999999777
 20
-127.9054935249873
 30
0.0
  0
SPLINE
  5
AB
330
A2
100
AcDbEntity
  8
0
  6
Continuous
 62
     7
370
    25
100
AcDbSpline
210
0.0
220
0.0
230
1.0
 70
    24
 71
     3
 72
    34
 73
    30
 74
     0
 42
0.000000001
 43
0.00000001
 40
0.0
 40
0.0
 40
0.0
 40
0.0
 40
0.2502854482592655
 40
0.278378712859795
 40
0.3064719774603248
 40
0.3345652420608545
 40
0.3626423785356624
 40
0.3905119154411035
 40
0.4181913948536913
 40
0.4457674599476434
 40
0.4703185686858911
 40
0.4949128469835796
 40
0.519609840384331
 40
0.5443999022620325
 40
0.5692198512389832
 40
0.5935837764213655
 40
0.6178973830536637
 40
0.6421187546938388
 40
0.6662448043209768
 40
0.6907827386825839
 40
0.7153706695497799
 40
0.7400667987733912
 40
0.7649214486592687
 40
0.7899392284468809
 40
0.8882656545487352
 40
0.9195513355811434
 40
0.9508370166135517
 40
0.98212269764596
 40
0.9999999999999999
 40
0.9999999999999999
 40
0.9999999999999999
 40
0.9999999999999999
 10
0.0000000000000013
 20
0.0
 30
0.0
 10
35.97954997706909
 20
0.0
 30
0.0
 10
75.99762086993161
 20
0.0
 30
0.0
 10
120.0538392061713
 20
0.0
 30
0.0
 10
132.169710068295
 20
0.0
 30
0.0
 10
144.2816401491614
 20
0.0
 30
0.0
 10
156.3674722896967
 20
0.0
 30
0.0
 10
168.3703009895969
 20
0.0
 30
0.0
 10
180.1242947162529
 20
0.0
 30
0.0
 10
191.1251156623845
 20
0.0
 30
0.0
 10
201.3320746404468
 20
0.0
 30
0.0
 10
210.7402868227571
 20
0.0
 30
0.0
 10
219.6800901002499
 20
0.0
 30
0.0
 10
228.0687826410831
 20
0.0
 30
0.0
 10
235.7740593856426
 20
0.0
 30
0.0
 10
242.7175967924406
 20
0.0
 30
0.0
 10
248.8578395093312
 20
0.0
 30
0.0
 10
254.1867511301193
 20
0.0
 30
0.0
 10
258.6877470054033
 20
0.0
 30
0.0
 10
262.3205565390141
 20
0.0
 30
0.0
 10
265.0463171288997
 20
0.0
 30
0.0
 10
266.8304560847076
 20
0.0
 30
0.0
 10
267.6056109741122
 20
0.0
 30
0.0
 10
267.3715566760653
 20
0.0
 30
0.0
 10
267.5132880783681
 20
0.0
 30
0.0
 10
267.4995558324604
 20
0.0
 30
0.0
 10
267.4942103609191
 20
0.0
 30
0.0
 10
267.5194037429499
 20
0.0
 30
0.0
 10
267.4765159379143
 20
0.0
 30
0.0
 10
267.4609204999423
 20
0.0
 30
0.0
  0
LINE
  5
B4
330
A2
100
AcDbEntity
  8
0
  6
Continuous
 62
     7
370
    25
100
AcDbLine
 10
0.0
 20
0.0
 30
0.0
 11
-267.5
 21
0.0
 31
0.0
  0
LINE
  5
B5
330
A2
100
AcDbEntity
  8
0
  6
Continuous
 62
     7
370
    25
100
AcDbLine
 10
45.0
 20
-135.0001
 30
0.0
 11
45.0
 21
-127.9054935243
 31
0.0
  0
LINE
  5
B6
330
A2
100
AcDbEntity
  8
0
  6
Continuous
 62
     7
370
    25
100
AcDbLine
 10
55.0
 20
-135.0001
 30
0.0
 11
55.0
 21
-128.4862669197
 31
0.0
  0
LINE
  5
B7
330
A2
100
AcDbEntity
  8
0
  6
Continuous
 62
     7
370
    25
100
AcDbLine
 10
-55.0
 20
-135.0001
 30
0.0
 11
-55.0
 21
-128.4862669198
 31
0.0
  0
LINE
  5
B8
330
A2
100
AcDbEntity
  8
0
  6
Continuous
 62
     7
370
    25
100
AcDbLine
 10
-45.0
 20
-135.0001
 30
0.0
 11
-45.0
 21
-127.9054935247
 31
0.0
  0
LINE
  5
B9
330
A2
100
AcDbEntity
  8
0
  6
Continuous
 62
     7
370
    25
100
AcDbLine
 10
55.0
 20
-135.0001
 30
0.0
 11
-55.0
 21
-135.0001
 31
0.0
  0
VIEWPORT
  5
12D
330
A2
100
AcDbEntity
  8
0
100
AcDbViewport
 10
0.0
 20
0.0
 30
0.0
 40
205.6
 41
156.0
 68
     1
 69
     1
 12
0.0
 22
0.0
 13
0.0
 23
0.0
 14
10.0
 24
10.0
 15
10.0
 25
10.0
 16
0.0
 26
0.0
 36
1.0
 17
0.0
 27
0.0
 37
0.0
 42
50.0
 43
0.0
 44
0.0
 45
414.0525291829
 50
0.0
 51
0.0
 72
   100
 90
   557152
  1

281
     0
 71
     1
 74
     0
110
0.0
120
0.0
130
0.0
111
1.0
121
0.0
131
0.0
112
0.0
122
1.0
132
0.0
 79
     0
146
0.0
  0
ENDBLK
  5
A5
330
A2
100
AcDbEntity
  8
0
100
AcDbBlockEnd
  0
BLOCK
  5
BC
330
BA
100
AcDbEntity
  8
0
100
AcDbBlockBegin
  2
*Paper_Space2
 70
     0
 10
0.0
 20
0.0
 30
0.0
  3
*Paper_Space2
  1

  0
SPLINE
  5
BE
330
BA
100
AcDbEntity
  8
0
  6
Continuous
 62
     7
370
    25
100
AcDbSpline
210
0.0
220
0.0
230
1.0
 70
     8
 71
     3
 72
    38
 73
    34
 74
     0
 42
0.000000001
 43
0.00000001
 40
0.0
 40
0.0
 40
0.0
 40
0.0
 40
0.0414714845154496
 40
0.0905609204072606
 40
0.1403654825703133
 40
0.1888675038163661
 40
0.2343103338423987
 40
0.2756911631492692
 40
0.3107612661580585
 40
0.3421975389939372
 40
0.3703582807225196
 40
0.3956337202438598
 40
0.4187274881821729
 40
0.4491051307771692
 40
0.4769335757040065
 40
0.5024500339697191
 40
0.5258331735669568
 40
0.5472207945296251
 40
0.5673331093815744
 40
0.5880414157923257
 40
0.6094650662613067
 40
0.6391406461063223
 40
0.6700976512042625
 40
0.7023602826895639
 40
0.7359661501670303
 40
0.7708089045618551
 40
0.8052127456496517
 40
0.8387892375800224
 40
0.8716204585687799
 40
0.9037776325856764
 40
0.9354141567153353
 40
0.9673958331220047
 40
1.0
 40
1.0
 40
1.0
 40
1.0
 10
55.0025245930273
 20
-129.4072740162218
 30
0.0
 10
58.8908541447125
 20
-129.2571022146224
 30
0.0
 10
67.38176560258863
 20
-128.9291733562526
 30
0.0
 10
80.53096515106249
 20
-128.1726440120136
 30
0.0
 10
94.3258891345795
 20
-127.1853420894352
 30
0.0
 10
107.7629832968157
 20
-126.0121497134056
 30
0.0
 10
120.395218726278
 20
-124.7247220607825
 30
0.0
 10
131.7569059189446
 20
-123.4116174032227
 30
0.0
 10
141.798319558982
 20
-122.1291962195034
 30
0.0
 10
150.5975876825997
 20
-120.9158891601766
 30
0.0
 10
158.4747425685967
 20
-119.7461914677048
 30
0.0
 10
165.5726209370081
 20
-118.6609284558194
 30
0.0
 10
172.8527608910084
 20
-117.3852463634801
 30
0.0
 10
180.2616309208906
 20
-115.5351107640123
 30
0.0
 10
187.7459052331768
 20
-113.1330130866592
 30
0.0
 10
194.4528681247967
 20
-110.5043369796779
 30
0.0
 10
200.4483241734689
 20
-107.7493565017081
 30
0.0
 10
205.8405469976368
 20
-104.9179328388167
 30
0.0
 10
210.8719951634021
 20
-101.9551811815899
 30
0.0
 10
215.759539631087
 20
-98.75402521721165
 30
0.0
 10
221.2084577212137
 20
-94.78671880349557
 30
0.0
 10
227.1544504942855
 20
-89.88553233239531
 30
0.0
 10
233.4755045406569
 20
-83.87326526177742
 30
0.0
 10
239.5812042549086
 20
-77.13426071077114
 30
0.0
 10
245.3729998265093
 20
-69.6554608973161
 30
0.0
 10
250.6562967029422
 20
-61.56681747935627
 30
0.0
 10
255.2645288665703
 20
-53.07901921592178
 30
0.0
 10
259.1051029398206
 20
-44.42409583285617
 30
0.0
 10
262.1890971816077
 20
-35.69594087990176
 30
0.0
 10
264.5553629200947
 20
-26.93443472632502
 30
0.0
 10
266.2316889370175
 20
-18.09939657514335
 30
0.0
 10
267.2991491108824
 20
-9.121357967491694
 30
0.0
 10
267.4326208949312
 20
-3.059926393960688
 30
0.0
 10
267.4999999999999
 20
0.0
 30
0.0
  0
SPLINE
  5
BF
330
BA
100
AcDbEntity
  8
0
  6
Continuous
 62
     7
370
    25
100
AcDbSpline
210
0.0
220
0.0
230
1.0
 70
     8
 71
     3
 72
    38
 73
    34
 74
     0
 42
0.000000001
 43
0.00000001
 40
0.0
 40
0.0
 40
0.0
 40
0.0
 40
0.0326041684616924
 40
0.064585846421822
 40
0.0962223720881766
 40
0.1283795476670584
 40
0.1612107702505413
 40
0.194787263811838
 40
0.2291911065707481
 40
0.264033862658007
 40
0.2976397317678268
 40
0.3299023648202349
 40
0.3608593714218633
 40
0.3905349527083251
 40
0.4119586042179275
 40
0.4326669116345533
 40
0.452779227463427
 40
0.4741668494649651
 40
0.4975499901980014
 40
0.5230664497031365
 40
0.5508948959816986
 40
0.5812725400522428
 40
0.6058227087212309
 40
0.6328933983493524
 40
0.6632626378497241
 40
0.6973963955143266
 40
0.7356901297421194
 40
0.778282890994451
 40
0.8220033189273638
 40
0.8681368994892449
 40
0.9151191482115353
 40
0.9612755329317064
 40
1.0
 40
1.0
 40
1.0
 40
1.0
 10
-267.5
 20
0.0
 30
0.0
 10
-267.4326208949313
 20
-3.059926393960688
 30
0.0
 10
-267.2991491108826
 20
-9.121357967491639
 30
0.0
 10
-266.2316889370176
 20
-18.09939657514344
 30
0.0
 10
-264.5553629200948
 20
-26.93443472632479
 30
0.0
 10
-262.1890971816077
 20
-35.69594087990242
 30
0.0
 10
-259.1051029398203
 20
-44.42409583285335
 30
0.0
 10
-255.264528866572
 20
-53.07901921593232
 30
0.0
 10
-250.6562967029377
 20
-61.56681747931582
 30
0.0
 10
-245.3729998265283
 20
-69.65546089746721
 30
0.0
 10
-239.5812042548407
 20
-77.1342607102381
 30
0.0
 10
-233.4755045408941
 20
-83.87326526364743
 30
0.0
 10
-227.1544504934536
 20
-89.8855323258362
 30
0.0
 10
-221.2084577238336
 20
-94.7867188241463
 30
0.0
 10
-215.7595396243651
 20
-98.754025164228
 30
0.0
 10
-210.871995187521
 20
-101.9551813717071
 30
0.0
 10
-205.8405469080071
 20
-104.9179321323145
 30
0.0
 10
-200.4483245463085
 20
-107.7493594406033
 30
0.0
 10
-194.4528665315887
 20
-110.5043244212643
 30
0.0
 10
-187.7459120169575
 20
-113.133066559594
 30
0.0
 10
-180.2616020432011
 20
-115.53488313653
 30
0.0
 10
-172.720147684893
 20
-117.4192466799389
 30
0.0
 10
-165.1360039277924
 20
-118.7294786473387
 30
0.0
 10
-157.5316926747958
 20
-119.8911032416117
 30
0.0
 10
-149.0306142789269
 20
-121.1402775763404
 30
0.0
 10
-139.4729926937892
 20
-122.438035486117
 30
0.0
 10
-128.7635064570935
 20
-123.7725288994755
 30
0.0
 10
-117.1440143930933
 20
-125.0718048349945
 30
0.0
 10
-104.7760340484336
 20
-126.2867492333329
 30
0.0
 10
-91.98188579399218
 20
-127.3648271867942
 30
0.0
 10
-78.94531510749194
 20
-128.2692448470233
 30
0.0
 10
-66.59173789632891
 20
-128.9632077155418
 30
0.0
 10
-58.63332418544164
 20
-129.2685934629967
 30
0.0
 10
-55.00252497490646
 20
-129.4079169979432
 30
0.0
  0
SPLINE
  5
C0
330
BA
100
AcDbEntity
  8
0
  6
Continuous
 62
     7
370
    25
100
AcDbSpline
210
0.0
220
0.0
230
1.0
 70
     8
 71
     3
 72
    29
 73
    25
 74
     0
 42
0.000000001
 43
0.00000001
 40
0.0
 40
0.0
 40
0.0
 40
0.0
 40
0.1250000000000005
 40
0.1250000000000005
 40
0.1874999999999999
 40
0.1874999999999999
 40
0.2499999999999992
 40
0.2499999999999992
 40
0.3749999999999979
 40
0.3749999999999979
 40
0.4374999999999977
 40
0.4374999999999977
 40
0.4999999999999974
 40
0.4999999999999974
 40
0.6249999999999978
 40
0.6249999999999978
 40
0.6874999999999982
 40
0.6874999999999982
 40
0.7499999999999986
 40
0.8124999999999989
 40
0.8124999999999989
 40
0.8749999999999992
 40
0.8749999999999992
 40
1.0
 40
1.0
 40
1.0
 40
1.0
 10
45.00000000000016
 20
-127.9054935249185
 30
0.0
 10
45.66045165761678
 20
-127.9246277773256
 30
0.0
 10
46.30979532370658
 20
-127.9458157528982
 30
0.0
 10
47.26788503549967
 20
-127.9791634431525
 30
0.0
 10
47.58457327814795
 20
-127.9905687237032
 30
0.0
 10
48.21248046257131
 20
-128.0139266320606
 30
0.0
 10
48.52457289046107
 20
-128.0259190633777
 30
0.0
 10
49.43244207619638
 20
-128.0619742980741
 30
0.0
 10
50.00655623228983
 20
-128.0863398441233
 30
0.0
 10
50.82145644584172
 20
-128.1236873029013
 30
0.0
 10
51.08616369300353
 20
-128.1363143954121
 30
0.0
 10
51.59570034958263
 20
-128.1617334466365
 30
0.0
 10
51.83818368271449
 20
-128.1744047968103
 30
0.0
 10
52.52993342857397
 20
-128.2124122010069
 30
0.0
 10
52.94383645199166
 20
-128.2377394023578
 30
0.0
 10
53.49213412796335
 20
-128.2761427107816
 30
0.0
 10
53.6624516701247
 20
-128.2890080604406
 30
0.0
 10
53.97115622739084
 20
-128.3143823653537
 30
0.0
 10
54.25008236904257
 20
-128.339544767759
 30
0.0
 10
54.47036684636826
 20
-128.3644314442883
 30
0.0
 10
54.6609407930174
 20
-128.3892535345817
 30
0.0
 10
54.74162696085323
 20
-128.4016843000766
 30
0.0
 10
54.93523463933576
 20
-128.4385996491579
 30
0.0
 10
55.00000000000027
 20
-128.4622249555876
 30
0.0
 10
55.00000000000016
 20
-128.4862669199872
 30
0.0
  0
SPLINE
  5
C1
330
BA
100
AcDbEntity
  8
0
  6
Continuous
 62
     7
370
    25
100
AcDbSpline
210
0.0
220
0.0
230
1.0
 70
     8
 71
     3
 72
    30
 73
    26
 74
     0
 42
0.000000001
 43
0.00000001
 40
0.0
 40
0.0
 40
0.0
 40
0.0
 40
0.0156250000000001
 40
0.0156250000000001
 40
0.0312500000000001
 40
0.0312500000000001
 40
0.0625000000000002
 40
0.0625000000000002
 40
0.1250000000000002
 40
0.1250000000000002
 40
0.2500000000000003
 40
0.2500000000000003
 40
0.5000000000000003
 40
0.5000000000000003
 40
0.7500000000000004
 40
0.7500000000000004
 40
0.8750000000000004
 40
0.8750000000000004
 40
0.9375000000000003
 40
0.9375000000000003
 40
0.9687500000000002
 40
0.9687500000000002
 40
0.9843750000000001
 40
0.9843750000000001
 40
1.0
 40
1.0
 40
1.0
 40
1.0
 10
-44.99999998565966
 20
-127.9054935245687
 30
0.0
 10
-44.53126798347769
 20
-127.8919136714226
 30
0.0
 10
-44.06269302318439
 20
-127.8735311311431
 30
0.0
 10
-43.12552431628313
 20
-127.8373405774993
 30
0.0
 10
-42.65696813395309
 20
-127.8183837657107
 30
0.0
 10
-41.25125108533601
 20
-127.7629966170123
 30
0.0
 10
-40.31407819713672
 20
-127.7269339366792
 30
0.0
 10
-37.50250925930376
 20
-127.6202833620305
 30
0.0
 10
-35.62804372274744
 20
-127.551820530984
 30
0.0
 10
-30.00431427851805
 20
-127.356610852389
 30
0.0
 10
-26.25471653849292
 20
-127.2400733340547
 30
0.0
 10
-15.00404867958136
 20
-126.9477913670447
 30
0.0
 10
-7.502115124808639
 20
-126.8290474146144
 30
0.0
 10
7.501625227561701
 20
-126.8290422233247
 30
0.0
 10
15.00478778523873
 20
-126.9478075834834
 30
0.0
 10
26.25500683966967
 20
-127.2400823683647
 30
0.0
 10
30.00450406131701
 20
-127.3566171405077
 30
0.0
 10
35.6281350865461
 20
-127.5518238521822
 30
0.0
 10
37.50257652419658
 20
-127.620285866761
 30
0.0
 10
40.31411946370575
 20
-127.7269355254415
 30
0.0
 10
41.25128500142999
 20
-127.7629979127908
 30
0.0
 10
42.65699433899961
 20
-127.8183848185066
 30
0.0
 10
43.12554922013059
 20
-127.8373415652054
 30
0.0
 10
44.06271090582734
 20
-127.8735317957175
 30
0.0
 10
44.53128310946503
 20
-127.8919141098893
 30
0.0
 10
45.00000001434044
 20
-127.9054935254029
 30
0.0
  0
SPLINE
  5
C2
330
BA
100
AcDbEntity
  8
0
  6
Continuous
 62
     7
370
    25
100
AcDbSpline
210
0.0
220
0.0
230
1.0
 70
     8
 71
     3
 72
    29
 73
    25
 74
     0
 42
0.000000001
 43
0.00000001
 40
0.0
 40
0.0
 40
0.0
 40
0.0
 40
0.1250000000000006
 40
0.1250000000000006
 40
0.1875000000000008
 40
0.1875000000000008
 40
0.250000000000001
 40
0.250000000000001
 40
0.3750000000000016
 40
0.3750000000000016
 40
0.4375000000000009
 40
0.4375000000000009
 40
0.5000000000000002
 40
0.5000000000000002
 40
0.6249999999999986
 40
0.6249999999999986
 40
0.6874999999999988
 40
0.6874999999999988
 40
0.749999999999999
 40
0.8124999999999992
 40
0.8124999999999992
 40
0.8749999999999993
 40
0.8749999999999993
 40
1.0
 40
1.0
 40
1.0
 40
1.0
 10
-54.9999999999998
 20
-128.486266919933
 30
0.0
 10
-55.00000000000007
 20
-128.4622248855262
 30
0.0
 10
-54.93524213300187
 20
-128.4387358853983
 30
0.0
 10
-54.74496068422872
 20
-128.4022542932934
 30
0.0
 10
-54.66589423424783
 20
-128.3899702084175
 30
0.0
 10
-54.47577592644453
 20
-128.3650682621121
 30
0.0
 10
-54.36417779447036
 20
-128.3524105921382
 30
0.0
 10
-53.98814870104781
 20
-128.3146336604147
 30
0.0
 10
-53.6813443589159
 20
-128.2894604110819
 30
0.0
 10
-53.13775767645748
 20
-128.2512904960971
 30
0.0
 10
-52.94188261836464
 20
-128.2384572249741
 30
0.0
 10
-52.52406856548394
 20
-128.2127606756628
 30
0.0
 10
-52.30423146832791
 20
-128.200020893931
 30
0.0
 10
-51.61296402313084
 20
-128.1620114093236
 30
0.0
 10
-51.11007707062453
 20
-128.1369504768817
 30
0.0
 10
-50.29123225411912
 20
-128.0993696975514
 30
0.0
 10
-50.00739963930494
 20
-128.0868492887808
 30
0.0
 10
-49.43053330414298
 20
-128.0623041174099
 30
0.0
 10
-48.84143946909352
 20
-128.0381125908945
 30
0.0
 10
-48.22827142762835
 20
-128.0145281178837
 30
0.0
 10
-47.60290747082913
 20
-127.9912374278732
 30
0.0
 10
-47.28275427160106
 20
-127.9796902897447
 30
0.0
 10
-46.31366396619915
 20
-127.9459322793194
 30
0.0
 10
-45.66045042641124
 20
-127.9246277417244
 30
0.0
 10
-44.99999999999737
 20
-127.9054935249874
 30
0.0
  0
SPLINE
  5
C3
330
BA
100
AcDbEntity
  8
0
  6
Continuous
 62
     7
370
    25
100
AcDbSpline
210
0.0
220
0.0
230
1.0
 70
    24
 71
     3
 72
    59
 73
    55
 74
     0
 42
0.000000001
 43
0.00000001
 40
0.0
 40
0.0
 40
0.0
 40
0.0
 40
0.00021487736242
 40
0.0167797795708847
 40
0.0333446817793494
 40
0.0499095839878141
 40
0.0664656142471181
 40
0.0793845898592702
 40
0.0922240887645765
 40
0.1050092075362169
 40
0.1177694057620815
 40
0.1307759525085633
 40
0.143835102637049
 40
0.1569440570809915
 40
0.1700794576016817
 40
0.1832206288943961
 40
0.1961102872599451
 40
0.2089504282382939
 40
0.2217389935044195
 40
0.2345060515516765
 40
0.2490749438812953
 40
0.2636982531226464
 40
0.2784215679480829
 40
0.2932548265349052
 40
0.3080969789136895
 40
0.3664054346874847
 40
0.4705276771406908
 40
0.6030468948084079
 40
0.6179215008731517
 40
0.6327961069378956
 40
0.6476707130026395
 40
0.6625367796711938
 40
0.6772929281135309
 40
0.6919484463736504
 40
0.706549209614264
 40
0.7195483421866755
 40
0.732570331846001
 40
0.7456467063095379
 40
0.7587723579557505
 40
0.7719138339938262
 40
0.7848138580541124
 40
0.7976872398348027
 40
0.8105117857399646
 40
0.8232858612774645
 40
0.8362780183820739
 40
0.8492966472526322
 40
0.8623725641582913
 40
0.8755324133672218
 40
0.8887786353441516
 40
0.9408397565707546
 40
0.9574046587792191
 40
0.9739695609876837
 40
0.9905344631961484
 40
1.0
 40
1.0
 40
1.0
 40
1.0
 10
-267.5000000000001
 20
0.0
 30
0.0
 10
-267.5000000969849
 20
0.0
 30
0.0
 10
-267.5000076705294
 20
0.0
 30
0.0
 10
-267.4964969324323
 20
0.0
 30
0.0
 10
-267.5122831661562
 20
0.0
 30
0.0
 10
-267.4543807420543
 20
0.0
 30
0.0
 10
-267.6543018533472
 20
0.0
 30
0.0
 10
-266.7530566651814
 20
0.0
 30
0.0
 10
-264.9595291855763
 20
0.0
 30
0.0
 10
-262.2577448713984
 20
0.0
 30
0.0
 10
-258.6389127997342
 20
0.0
 30
0.0
 10
-254.1023168584622
 20
0.0
 30
0.0
 10
-248.653035283786
 20
0.0
 30
0.0
 10
-242.3647693219124
 20
0.0
 30
0.0
 10
-235.2896990899072
 20
0.0
 30
0.0
 10
-227.5358729113673
 20
0.0
 30
0.0
 10
-219.2106222565904
 20
0.0
 30
0.0
 10
-210.4085123085754
 20
0.0
 30
0.0
 10
-201.1576223671128
 20
0.0
 30
0.0
 10
-191.0727438006467
 20
0.0
 30
0.0
 10
-180.1494394591351
 20
0.0
 30
0.0
 10
-168.4221985863483
 20
0.0
 30
0.0
 10
-156.4465890791465
 20
0.0
 30
0.0
 10
-144.387291694923
 20
0.0
 30
0.0
 10
-120.501541778043
 20
0.0
 30
0.0
 10
-72.36923823520836
 20
0.0
 30
0.0
 10
7.709429848327535
 20
0.0
 30
0.0
 10
75.99763405201315
 20
0.0
 30
0.0
 10
120.0538383928356
 20
0.0
 30
0.0
 10
132.1697102862369
 20
0.0
 30
0.0
 10
144.2816400907867
 20
0.0
 30
0.0
 10
156.3674723052107
 20
0.0
 30
0.0
 10
168.3703009854836
 20
0.0
 30
0.0
 10
180.1242947173522
 20
0.0
 30
0.0
 10
191.1251156621267
 20
0.0
 30
0.0
 10
201.3320746405128
 20
0.0
 30
0.0
 10
210.7402868227394
 20
0.0
 30
0.0
 10
219.6800901002545
 20
0.0
 30
0.0
 10
228.068782641082
 20
0.0
 30
0.0
 10
235.7740593856429
 20
0.0
 30
0.0
 10
242.7175967924404
 20
0.0
 30
0.0
 10
248.8578395093312
 20
0.0
 30
0.0
 10
254.1867511301193
 20
0.0
 30
0.0
 10
258.687747005403
 20
0.0
 30
0.0
 10
262.320556539014
 20
0.0
 30
0.0
 10
265.0463171288995
 20
0.0
 30
0.0
 10
266.8304560847076
 20
0.0
 30
0.0
 10
267.6056109741119
 20
0.0
 30
0.0
 10
267.3715566760654
 20
0.0
 30
0.0
 10
267.5132880783685
 20
0.0
 30
0.0
 10
267.4995558324602
 20
0.0
 30
0.0
 10
267.4942103609189
 20
0.0
 30
0.0
 10
267.5194037429498
 20
0.0
 30
0.0
 10
267.4765159379141
 20
0.0
 30
0.0
 10
267.4609204999422
 20
0.0
 30
0.0
  0
LINE
  5
CB
330
BA
100
AcDbEntity
  8
0
  6
Continuous
 62
     7
370
    25
100
AcDbLine
 10
-55.0
 20
-135.0001
 30
0.0
 11
-55.0
 21
-128.4862669198
 31
0.0
  0
LINE
  5
CC
330
BA
100
AcDbEntity
  8
0
  6
Continuous
 62
     7
370
    25
100
AcDbLine
 10
-45.0
 20
-135.0001
 30
0.0
 11
-45.0
 21
-127.9054935243
 31
0.0
  0
LINE
  5
CD
330
BA
100
AcDbEntity
  8
0
  6
Continuous
 62
     7
370
    25
100
AcDbLine
 10
55.0
 20
-135.0001
 30
0.0
 11
-55.0
 21
-135.0001
 31
0.0
  0
LINE
  5
CE
330
BA
100
AcDbEntity
  8
0
  6
Continuous
 62
     7
370
    25
100
AcDbLine
 10
45.0
 20
-135.0001
 30
0.0
 11
45.0
 21
-127.9054935252
 31
0.0
  0
LINE
  5
CF
330
BA
100
AcDbEntity
  8
0
  6
Continuous
 62
     7
370
    25
100
AcDbLine
 10
55.0
 20
-135.0001
 30
0.0
 11
55.0
 21
-128.4862669197
 31
0.0
  0
VIEWPORT
  5
12F
330
BA
100
AcDbEntity
  8
0
100
AcDbViewport
 10
0.0
 20
0.0
 30
0.0
 40
205.6
 41
156.0
 68
     1
 69
     1
 12
0.0
 22
0.0
 13
0.0
 23
0.0
 14
10.0
 24
10.0
 15
10.0
 25
10.0
 16
0.0
 26
0.0
 36
1.0
 17
0.0
 27
0.0
 37
0.0
 42
50.0
 43
0.0
 44
0.0
 45
414.0525291829
 50
0.0
 51
0.0
 72
   100
 90
   557152
  1

281
     0
 71
     1
 74
     0
110
0.0
120
0.0
130
0.0
111
1.0
121
0.0
131
0.0
112
0.0
122
1.0
132
0.0
 79
     0
146
0.0
  0
ENDBLK
  5
BD
330
BA
100
AcDbEntity
  8
0
100
AcDbBlockEnd
  0
BLOCK
  5
D2
330
D0
100
AcDbEntity
  8
0
100
AcDbBlockBegin
  2
*Paper_Space3
 70
     0
 10
0.0
 20
0.0
 30
0.0
  3
*Paper_Space3
  1

  0
SPLINE
  5
D4
330
D0
100
AcDbEntity
  8
0
  6
Continuous
 62
     7
370
    25
100
AcDbSpline
210
0.0
220
0.0
230
1.0
 70
     8
 71
     3
 72
    40
 73
    36
 74
     0
 42
0.000000001
 43
0.00000001
 40
0.0
 40
0.0
 40
0.0
 40
0.0
 40
0.040430133965434
 40
0.086724727366702
 40
0.1296304695576279
 40
0.1681646171458716
 40
0.2025878595163109
 40
0.233962882593464
 40
0.2634851919558898
 40
0.2886132843315442
 40
0.3136874982947692
 40
0.3388725027197471
 40
0.3616696704446439
 40
0.3870199222611213
 40
0.4065150018966082
 40
0.4202504867666924
 40
0.4240341137932283
 40
0.4272538611909455
 40
0.4303000655132442
 40
0.4336044840439
 40
0.4375252218855818
 40
0.4422922904979293
 40
0.4548460496522058
 40
0.4718847879672994
 40
0.493695702650664
 40
0.5204632487809713
 40
0.5523258096739526
 40
0.5893952716818002
 40
0.6317639569799385
 40
0.679506397246963
 40
0.7326786327536347
 40
0.791316133872307
 40
0.8554308436567408
 40
0.9250075897417567
 40
1.0
 40
1.0
 40
1.0
 40
1.0
 10
54.98755970052968
 20
-127.6766377205082
 30
0.0
 10
56.48033101753964
 20
-127.3946678831351
 30
0.0
 10
59.68240266041879
 20
-126.789828005713
 30
0.0
 10
63.70174810107191
 20
-125.7495492470984
 30
0.0
 10
67.58958736841538
 20
-124.604462975015
 30
0.0
 10
71.16645512161476
 20
-123.4307731859177
 30
0.0
 10
74.53083956798822
 20
-122.2615706379691
 30
0.0
 10
77.7038973253553
 20
-121.1178343310478
 30
0.0
 10
80.59859552658716
 20
-120.0484663151807
 30
0.0
 10
83.24612640172013
 20
-119.0537069359756
 30
0.0
 10
85.72433787834991
 20
-118.1123644610142
 30
0.0
 10
88.00933328060083
 20
-117.236088806942
 30
0.0
 10
90.2509460433728
 20
-116.295004716687
 30
0.0
 10
92.4436510567737
 20
-115.3012038976335
 30
0.0
 10
94.50225346192249
 20
-114.2912327892804
 30
0.0
 10
96.00439569423452
 20
-113.5062957201533
 30
0.0
 10
96.9932309068578
 20
-112.9670373016722
 30
0.0
 10
97.53728252552546
 20
-112.6644739325958
 30
0.0
 10
98.08721009505874
 20
-112.3522300617828
 30
0.0
 10
98.61216668534546
 20
-112.0483697851114
 30
0.0
 10
99.11219507030198
 20
-111.7539188817853
 30
0.0
 10
99.82610935337838
 20
-111.3268027733215
 30
0.0
 10
100.6532076244455
 20
-110.8192411722585
 30
0.0
 10
101.5605856971227
 20
-110.2495615696694
 30
0.0
 10
102.4514620518222
 20
-109.6786826030445
 30
0.0
 10
103.3259369956304
 20
-109.1090067541895
 30
0.0
 10
104.1810721188154
 20
-108.5443318417522
 30
0.0
 10
105.0146904205068
 20
-107.987954363991
 30
0.0
 10
105.8236480975132
 20
-107.4435216646392
 30
0.0
 10
106.6040941950297
 20
-106.9149397927841
 30
0.0
 10
107.3509500987259
 20
-106.4067086175957
 30
0.0
 10
108.0584903983085
 20
-105.923561813311
 30
0.0
 10
108.7172282842041
 20
-105.4726554097425
 30
0.0
 10
109.3263988917894
 20
-105.0550255031412
 30
0.0
 10
109.6570810109925
 20
-104.8282802816307
 30
0.0
 10
109.8286158651453
 20
-104.7106606516508
 30
0.0
  0
SPLINE
  5
D5
330
D0
100
AcDbEntity
  8
0
  6
Continuous
 62
     7
370
    25
100
AcDbSpline
210
0.0
220
0.0
230
1.0
 70
     8
 71
     3
 72
    22
 73
    18
 74
     0
 42
0.000000001
 43
0.00000001
 40
0.0
 40
0.0
 40
0.0
 40
0.0
 40
0.0423121023677566
 40
0.0828647402979692
 40
0.1215698699590217
 40
0.1585843968503167
 40
0.2015510691691414
 40
0.2542868619839827
 40
0.3168429740062081
 40
0.3796086048336865
 40
0.4497334615897747
 40
0.526956912134678
 40
0.6108827881162145
 40
0.7009315722638965
 40
0.7963906748919564
 40
0.8963902189934148
 40
1.0
 40
1.0
 40
1.0
 40
1.0
 10
-165.0
 20
0.0
 30
0.0
 10
-164.9794044304037
 20
-1.736275111423519
 30
0.0
 10
-164.9390697169202
 20
-5.136625794626065
 30
0.0
 10
-164.6249086394004
 20
-10.1169681114273
 30
0.0
 10
-164.1560474420578
 20
-14.86560837649069
 30
0.0
 10
-163.4961274906546
 20
-19.69177214191818
 30
0.0
 10
-162.5492210471151
 20
-25.05602867845574
 30
0.0
 10
-161.1248543077403
 20
-31.39441791676404
 30
0.0
 10
-159.1275952093454
 20
-38.42699903520457
 30
0.0
 10
-156.4674084011417
 20
-45.99765716356219
 30
0.0
 10
-153.0918969975471
 20
-53.93799057542461
 30
0.0
 10
-148.759234602634
 20
-62.39095719066285
 30
0.0
 10
-143.3508255225753
 20
-71.1780604126372
 30
0.0
 10
-136.7766796614222
 20
-80.0856486263125
 30
0.0
 10
-128.9786996816876
 20
-88.84504344669398
 30
0.0
 10
-120.0237494169824
 20
-97.27868242607174
 30
0.0
 10
-113.2669292174583
 20
-102.2042226695312
 30
0.0
 10
-109.8286158651495
 20
-104.710660651648
 30
0.0
  0
SPLINE
  5
D6
330
D0
100
AcDbEntity
  8
0
  6
Continuous
 62
     7
370
    25
100
AcDbSpline
210
0.0
220
0.0
230
1.0
 70
     8
 71
     3
 72
    40
 73
    36
 74
     0
 42
0.000000001
 43
0.00000001
 40
0.0
 40
0.0
 40
0.0
 40
0.0
 40
0.0758664883774395
 40
0.1460758185550233
 40
0.2105626484672667
 40
0.2692965851021012
 40
0.3222768418046938
 40
0.3695274762040328
 40
0.4110933248322246
 40
0.4428489859039135
 40
0.470351716662676
 40
0.4936628969446574
 40
0.5128558987315742
 40
0.528023795351529
 40
0.539302253433041
 40
0.5476210099320286
 40
0.5513273349936423
 40
0.5549183221167819
 40
0.5585598878978087
 40
0.5624126446941652
 40
0.5712463204328007
 40
0.5822058967867589
 40
0.5958018768078768
 40
0.6124315671007968
 40
0.6321486669905351
 40
0.6549936770412279
 40
0.6798000800287303
 40
0.7104259272297435
 40
0.745642924359238
 40
0.7866609334939051
 40
0.834118812157317
 40
0.875571381071784
 40
0.9195003265553744
 40
0.9643605957223561
 40
1.0
 40
1.0
 40
1.0
 40
1.0
 10
-109.8286158651494
 20
-104.7106606516481
 30
0.0
 10
-109.7384353166409
 20
-104.7727748112929
 30
0.0
 10
-109.5647987384513
 20
-104.892371446224
 30
0.0
 10
-109.1993461508634
 20
-105.1464801749088
 30
0.0
 10
-108.7800745925059
 20
-105.4382116748661
 30
0.0
 10
-108.3090024729191
 20
-105.765793917438
 30
0.0
 10
-107.795745402253
 20
-106.1221198745515
 30
0.0
 10
-107.2464500442393
 20
-106.502567003332
 30
0.0
 10
-106.6863227658801
 20
-106.8892831274943
 30
0.0
 10
-106.1253220604193
 20
-107.2749680550205
 30
0.0
 10
-105.5774773128916
 20
-107.6497130113163
 30
0.0
 10
-105.0125896840969
 20
-108.0335151103664
 30
0.0
 10
-104.4374682876727
 20
-108.421069170046
 30
0.0
 10
-103.8415582297609
 20
-108.8181310478982
 30
0.0
 10
-103.2493989509466
 20
-109.2079520703005
 30
0.0
 10
-102.6065203993027
 20
-109.6240950011029
 30
0.0
 10
-101.9584177647335
 20
-110.0352319705825
 30
0.0
 10
-101.4240998167945
 20
-110.3697345207601
 30
0.0
 10
-100.8240154713043
 20
-110.7399165113468
 30
0.0
 10
-99.90017209107987
 20
-111.3005035845309
 30
0.0
 10
-98.55437168448444
 20
-112.0933817256154
 30
0.0
 10
-96.78966482373619
 20
-113.085964016467
 30
0.0
 10
-94.7448070962977
 20
-114.1756777977294
 30
0.0
 10
-92.3022037491746
 20
-115.3921175167744
 30
0.0
 10
-89.4817579292358
 20
-116.68695064226
 30
0.0
 10
-86.25887921678215
 20
-117.9889780360462
 30
0.0
 10
-82.86101507549697
 20
-119.2814316682203
 30
0.0
 10
-79.50275045608403
 20
-120.5602059938867
 30
0.0
 10
-76.01981469411298
 20
-121.8519743152037
 30
0.0
 10
-72.4367256651321
 20
-123.1379922199256
 30
0.0
 10
-69.00301649568105
 20
-124.2941502181137
 30
0.0
 10
-65.62641922537694
 20
-125.3281451390459
 30
0.0
 10
-62.24456266172621
 20
-126.2306387841707
 30
0.0
 10
-58.85142019601368
 20
-127.0163739877265
 30
0.0
 10
-56.17620691155958
 20
-127.4835933811731
 30
0.0
 10
-54.99181691724279
 20
-127.6904441687214
 30
0.0
  0
SPLINE
  5
D7
330
D0
100
AcDbEntity
  8
0
  6
Continuous
 62
     7
370
    25
100
AcDbSpline
210
0.0
220
0.0
230
1.0
 70
     8
 71
     3
 72
    21
 73
    17
 74
     0
 42
0.000000001
 43
0.00000001
 40
0.0
 40
0.0
 40
0.0
 40
0.0
 40
0.0848368599013852
 40
0.1674412385397541
 40
0.2472912599846153
 40
0.3239006143832227
 40
0.3968224266965714
 40
0.4656814955274853
 40
0.5301576795438533
 40
0.5900197883003222
 40
0.6623644165877746
 40
0.7294348596122503
 40
0.7968824854496482
 40
0.8645909624937943
 40
0.9323580353512999
 40
1.0
 40
1.0
 40
1.0
 40
1.0
 10
109.8286158651493
 20
-104.710660651648
 30
0.0
 10
112.6540006204249
 20
-102.6736842359078
 30
0.0
 10
118.2304201546298
 20
-98.65333442187318
 30
0.0
 10
125.8189251627817
 20
-91.891727043385
 30
0.0
 10
132.6520635286767
 20
-84.8431585978124
 30
0.0
 10
138.6681509607471
 20
-77.59220860233847
 30
0.0
 10
143.8822527656305
 20
-70.29508299852397
 30
0.0
 10
148.3200204128027
 20
-63.08102674421712
 30
0.0
 10
152.0332360398914
 20
-56.07095132178252
 30
0.0
 10
155.3730620653507
 20
-48.71916594116098
 30
0.0
 10
158.2771002914391
 20
-41.06765405422896
 30
0.0
 10
160.7447229268261
 20
-32.9400041428512
 30
0.0
 10
162.6374032365038
 20
-24.85410753912634
 30
0.0
 10
163.9918285687112
 20
-16.63366165368995
 30
0.0
 10
164.8414373553267
 20
-8.333321093211833
 30
0.0
 10
164.9471783507997
 20
-2.776062195266951
 30
0.0
 10
165.0
 20
0.0
 30
0.0
  0
SPLINE
  5
D8
330
D0
100
AcDbEntity
  8
0
  6
Continuous
 62
     7
370
    25
100
AcDbSpline
210
0.0
220
0.0
230
1.0
 70
     8
 71
     3
 72
    29
 73
    25
 74
     0
 42
0.000000001
 43
0.00000001
 40
0.0
 40
0.0
 40
0.0
 40
0.0
 40
0.1250000000000004
 40
0.1250000000000004
 40
0.1875000000000006
 40
0.1875000000000006
 40
0.2500000000000007
 40
0.2500000000000007
 40
0.3750000000000016
 40
0.3750000000000016
 40
0.4375000000000018
 40
0.4375000000000018
 40
0.5000000000000019
 40
0.5000000000000019
 40
0.6250000000000003
 40
0.6250000000000003
 40
0.6875000000000006
 40
0.6875000000000006
 40
0.7500000000000007
 40
0.8125000000000009
 40
0.8125000000000009
 40
0.8750000000000011
 40
0.8750000000000011
 40
1.0
 40
1.0
 40
1.0
 40
1.0
 10
-54.99999999999999
 20
-127.9054935249185
 30
0.0
 10
-54.99999999999979
 20
-127.9246277773255
 30
0.0
 10
-54.9352155806877
 20
-127.9458157528984
 30
0.0
 10
-54.74488150630406
 20
-127.9791634431528
 30
0.0
 10
-54.66579476416187
 20
-127.9905687237033
 30
0.0
 10
-54.47563067719509
 20
-128.0139266320607
 30
0.0
 10
-54.36400997991026
 20
-128.0259190633779
 30
0.0
 10
-53.98791661606997
 20
-128.0619742980742
 30
0.0
 10
-53.68106555605272
 20
-128.0863398441234
 30
0.0
 10
-53.13739952153095
 20
-128.1236873029013
 30
0.0
 10
-52.94148379949523
 20
-128.1363143954122
 30
0.0
 10
-52.52364873809199
 20
-128.1617334466366
 30
0.0
 10
-52.30380120511271
 20
-128.1744047968104
 30
0.0
 10
-51.61250142160893
 20
-128.2124122010071
 30
0.0
 10
-51.10959152567077
 20
-128.2377394023578
 30
0.0
 10
-50.29070595471813
 20
-128.2761427107815
 30
0.0
 10
-50.0068893391436
 20
-128.2890080604404
 30
0.0
 10
-49.43005256576292
 20
-128.3143823653537
 30
0.0
 10
-48.84098713449377
 20
-128.3395444970884
 30
0.0
 10
-48.22784641632029
 20
-128.3644314442882
 30
0.0
 10
-47.60251103474208
 20
-128.3892535345815
 30
0.0
 10
-47.28236457565985
 20
-128.4016843000765
 30
0.0
 10
-46.313410927295
 20
-128.4385996491579
 30
0.0
 10
-45.66028389178008
 20
-128.4622249555875
 30
0.0
 10
-45.0000000000021
 20
-128.4862669199871
 30
0.0
  0
SPLINE
  5
DB
330
D0
100
AcDbEntity
  8
0
  6
Continuous
 62
     7
370
    25
100
AcDbSpline
210
0.0
220
0.0
230
1.0
 70
     8
 71
     3
 72
    29
 73
    25
 74
     0
 42
0.000000001
 43
0.00000001
 40
0.0
 40
0.0
 40
0.0
 40
0.0
 40
0.1250000000000006
 40
0.1250000000000006
 40
0.1875000000000008
 40
0.1875000000000008
 40
0.250000000000001
 40
0.250000000000001
 40
0.3750000000000016
 40
0.3750000000000016
 40
0.4375000000000009
 40
0.4375000000000009
 40
0.5000000000000002
 40
0.5000000000000002
 40
0.6249999999999986
 40
0.6249999999999986
 40
0.6874999999999988
 40
0.6874999999999988
 40
0.749999999999999
 40
0.8124999999999992
 40
0.8124999999999992
 40
0.8749999999999993
 40
0.8749999999999993
 40
1.0
 40
1.0
 40
1.0
 40
1.0
 10
45.00000000000001
 20
-128.486266919933
 30
0.0
 10
45.66028581444092
 20
-128.4622248855262
 30
0.0
 10
46.3095559280459
 20
-128.4387358853983
 30
0.0
 10
47.26753930624184
 20
-128.4022542932934
 30
0.0
 10
47.5841970308989
 20
-128.3899702084175
 30
0.0
 10
48.21204860392747
 20
-128.3650682621121
 30
0.0
 10
48.52412544331932
 20
-128.3524105921382
 30
0.0
 10
49.43196644331717
 20
-128.3146336604147
 30
0.0
 10
50.0060679714659
 20
-128.2894604110819
 30
0.0
 10
50.82095474149337
 20
-128.2512904960971
 30
0.0
 10
51.08564376940749
 20
-128.2384572249741
 30
0.0
 10
51.5952218942135
 20
-128.2127606756628
 30
0.0
 10
51.83772433692287
 20
-128.200020893931
 30
0.0
 10
52.52952804838656
 20
-128.1620114093236
 30
0.0
 10
52.94346253730499
 20
-128.1369504768817
 30
0.0
 10
53.49180610680716
 20
-128.0993696975514
 30
0.0
 10
53.66215770180178
 20
-128.0868492887808
 30
0.0
 10
53.97091978781889
 20
-128.0623041174099
 30
0.0
 10
54.24989680688978
 20
-128.0381125908945
 30
0.0
 10
54.47022263956337
 20
-128.0145281178837
 30
0.0
 10
54.66083464052914
 20
-127.9912374278732
 30
0.0
 10
54.7415372996524
 20
-127.9796902897447
 30
0.0
 10
54.93520765178344
 20
-127.9459322793194
 30
0.0
 10
54.99999999999989
 20
-127.9246277417244
 30
0.0
 10
54.99999999999996
 20
-127.9054935249874
 30
0.0
  0
SPLINE
  5
DC
330
D0
100
AcDbEntity
  8
0
  6
Continuous
 62
     7
370
    25
100
AcDbSpline
210
0.0
220
0.0
230
1.0
 70
     8
 71
     3
 72
    10
 73
     6
 74
     0
 42
0.000000001
 43
0.00000001
 40
0.0
 40
0.0
 40
0.0
 40
0.0
 40
0.5
 40
0.5
 40
1.0
 40
1.0
 40
1.0
 40
1.0
 10
-44.99999999954488
 20
-128.4862669199981
 30
0.0
 10
-30.00551895988933
 20
-129.0322393173747
 30
0.0
 10
-15.00337545875637
 20
-129.4170579080899
 30
0.0
 10
15.00365970303724
 20
-129.4170528963392
 30
0.0
 10
30.00553910556284
 20
-129.0322385838521
 30
0.0
 10
45.00000000045482
 20
-128.4862669199707
 30
0.0
  0
SPLINE
  5
DD
330
D0
100
AcDbEntity
  8
0
  6
Continuous
 62
     7
370
    25
100
AcDbSpline
210
0.0
220
0.0
230
1.0
 70
    24
 71
     3
 72
    59
 73
    55
 74
     0
 42
0.000000001
 43
0.00000001
 40
0.0
 40
0.0
 40
0.0
 40
0.0
 40
0.1185211610609978
 40
0.1318245566902933
 40
0.145127952319589
 40
0.1584313479488846
 40
0.1717271062017384
 40
0.1849245569334468
 40
0.1980320070883019
 40
0.2110904860177011
 40
0.2227165151505562
 40
0.2343629869673269
 40
0.2460580989002457
 40
0.2577972828478302
 40
0.2695506196505982
 40
0.2810880091420879
 40
0.2926015705883582
 40
0.3040714547116642
 40
0.3154961996719129
 40
0.3271159901583484
 40
0.3387594561877791
 40
0.3504541588948371
 40
0.3622239281032623
 40
0.3740709464905424
 40
0.4206328311930772
 40
0.435447976325702
 40
0.4502631214583268
 40
0.4650782665909515
 40
0.479885476921863
 40
0.4914398161054092
 40
0.5029230737376268
 40
0.5143576954308902
 40
0.52577002894534
 40
0.5374026890901689
 40
0.5490823961012604
 40
0.5608066465785576
 40
0.5725545496232093
 40
0.5843076138709873
 40
0.5958357326001144
 40
0.6073195644829487
 40
0.6187572686161417
 40
0.6301757373463769
 40
0.6432057119015295
 40
0.6562843552888212
 40
0.6694524406313779
 40
0.6827188563329586
 40
0.6959932263717904
 40
0.7481425372386292
 40
0.8412663066436988
 40
0.9597874677046968
 40
0.9730908633339925
 40
0.9863942589632884
 40
0.9996976545925842
 40
1.0
 40
1.0
 40
1.0
 40
1.0
 10
-165.0
 20
0.0
 30
0.0
 10
-165.0032601603237
 20
0.0
 30
0.0
 10
-165.0068862570103
 20
0.0
 30
0.0
 10
-164.9975579348846
 20
0.0
 30
0.0
 10
-165.0096450369928
 20
0.0
 30
0.0
 10
-164.9638706783892
 20
0.0
 30
0.0
 10
-165.1343672069582
 20
0.0
 30
0.0
 10
-164.1122933138779
 20
0.0
 30
0.0
 10
-161.8456487708608
 20
0.0
 30
0.0
 10
-158.5168192827412
 20
0.0
 30
0.0
 10
-154.2983611552371
 20
0.0
 30
0.0
 10
-149.3497792274243
 20
0.0
 30
0.0
 10
-143.5346291259971
 20
0.0
 30
0.0
 10
-136.8970000473855
 20
0.0
 30
0.0
 10
-129.5457291548734
 20
0.0
 30
0.0
 10
-121.5625717016327
 20
0.0
 30
0.0
 10
-113.0527953170682
 20
0.0
 30
0.0
 10
-104.0523500763702
 20
0.0
 30
0.0
 10
-94.57487459871186
 20
0.0
 30
0.0
 10
-84.67504832940836
 20
0.0
 30
0.0
 10
-74.40363089730538
 20
0.0
 30
0.0
 10
-63.88064958431423
 20
0.0
 30
0.0
 10
-53.17229784557476
 20
0.0
 30
0.0
 10
-31.86331167118952
 20
0.0
 30
0.0
 10
-9.637577637391614
 20
0.0
 30
0.0
 10
13.49225078813185
 20
0.0
 30
0.0
 10
26.98492775583207
 20
0.0
 30
0.0
 10
40.47319327442266
 20
0.0
 30
0.0
 10
52.97885934245449
 20
0.0
 30
0.0
 10
64.44989196950519
 20
0.0
 30
0.0
 10
74.77443413852515
 20
0.0
 30
0.0
 10
84.85430611284187
 20
0.0
 30
0.0
 10
94.69108821677573
 20
0.0
 30
0.0
 10
104.2231287820284
 20
0.0
 30
0.0
 10
113.3748569647844
 20
0.0
 30
0.0
 10
122.0149329525497
 20
0.0
 30
0.0
 10
130.0538339103788
 20
0.0
 30
0.0
 10
137.353478880071
 20
0.0
 30
0.0
 10
143.8630309450103
 20
0.0
 30
0.0
 10
149.5368719199781
 20
0.0
 30
0.0
 10
154.3735134938261
 20
0.0
 30
0.0
 10
158.5317622353824
 20
0.0
 30
0.0
 10
161.8385952851443
 20
0.0
 30
0.0
 10
164.1038214024633
 20
0.0
 30
0.0
 10
165.1319329544137
 20
0.0
 30
0.0
 10
164.9659534129908
 20
0.0
 30
0.0
 10
165.0406588304913
 20
0.0
 30
0.0
 10
164.9702866669921
 20
0.0
 30
0.0
 10
165.0156256496911
 20
0.0
 30
0.0
 10
164.992468143963
 20
0.0
 30
0.0
 10
165.0025377917643
 20
0.0
 30
0.0
 10
164.9900801943234
 20
0.0
 30
0.0
 10
165.0218108712906
 20
0.0
 30
0.0
 10
164.9990056326179
 20
0.0
 30
0.0
 10
164.9984988569002
 20
0.0
 30
0.0
  0
LINE
  5
E5
330
D0
100
AcDbEntity
  8
0
  6
Continuous
 62
     7
370
    25
100
AcDbLine
 10
-55.0
 20
-135.0001
 30
0.0
 11
-55.0
 21
-127.7240146683
 31
0.0
  0
LINE
  5
E6
330
D0
100
AcDbEntity
  8
0
  6
Continuous
 62
     7
370
    25
100
AcDbLine
 10
55.0
 20
-135.0001
 30
0.0
 11
55.0
 21
-127.7271402721
 31
0.0
  0
LINE
  5
E7
330
D0
100
AcDbEntity
  8
0
  6
Continuous
 62
     7
370
    25
100
AcDbLine
 10
55.0
 20
-135.0001
 30
0.0
 11
-55.0
 21
-135.0001
 31
0.0
  0
LINE
  5
E8
330
D0
100
AcDbEntity
  8
0
  6
Continuous
 62
     7
370
    25
100
AcDbLine
 10
45.0
 20
-135.0001
 30
0.0
 11
45.0
 21
-128.4862669198
 31
0.0
  0
LINE
  5
E9
330
D0
100
AcDbEntity
  8
0
  6
Continuous
 62
     7
370
    25
100
AcDbLine
 10
-45.0
 20
-135.0001
 30
0.0
 11
-45.0
 21
-128.4862669197
 31
0.0
  0
VIEWPORT
  5
131
330
D0
100
AcDbEntity
  8
0
100
AcDbViewport
 10
0.0
 20
0.0
 30
0.0
 40
205.6
 41
156.0
 68
     1
 69
     1
 12
0.0
 22
0.0
 13
0.0
 23
0.0
 14
10.0
 24
10.0
 15
10.0
 25
10.0
 16
0.0
 26
0.0
 36
1.0
 17
0.0
 27
0.0
 37
0.0
 42
50.0
 43
0.0
 44
0.0
 45
414.0525291829
 50
0.0
 51
0.0
 72
   100
 90
   557152
  1

281
     0
 71
     1
 74
     0
110
0.0
120
0.0
130
0.0
111
1.0
121
0.0
131
0.0
112
0.0
122
1.0
132
0.0
 79
     0
146
0.0
  0
ENDBLK
  5
D3
330
D0
100
AcDbEntity
  8
0
100
AcDbBlockEnd
  0
BLOCK
  5
EC
330
EA
100
AcDbEntity
  8
0
100
AcDbBlockBegin
  2
*Paper_Space4
 70
     0
 10
0.0
 20
0.0
 30
0.0
  3
*Paper_Space4
  1

  0
CIRCLE
  5
EE
330
EA
100
AcDbEntity
  8
0
  6
Continuous
 62
     7
370
    25
100
AcDbCircle
 10
0.0
 20
0.0
 30
0.0
 40
22.99999999999641
  0
LWPOLYLINE
  5
F7
330
EA
100
AcDbEntity
  8
0
  6
Continuous
 62
     7
370
    25
100
AcDbPolyline
 90
       95
 70
   128
 43
0.0
 10
0.0
 20
165.0
 10
107.9383757088
 20
165.0
 10
120.0539076761
 20
165.0
 10
132.1694396434
 20
165.0
 10
144.2849716107
 20
165.0
 10
156.3933681983
 20
164.9339866415
 10
168.3678208118
 20
163.8995914539
 10
180.0895852996
 20
161.6425632589
 10
191.4720011237
 20
158.1970176781
 10
201.257283249
 20
154.1531724754
 10
210.6445652241
 20
149.2157690339
 10
219.5729293796
 20
143.4084487309
 10
227.9572614209
 20
136.7751821664
 10
235.7002057453
 20
129.3846596008
 10
242.5974347313
 20
121.4581372314
 10
248.7329665068
 20
112.9551246382
 10
254.0531645746
 20
103.9657489091
 10
258.5168534177
 20
94.5672525058
 10
262.1627880226
 20
84.6329024688
 10
264.8845866363
 20
74.3843529783
 10
266.6583872129
 20
63.8826222447
 10
267.4555906673
 20
53.1934655174
 10
267.5
 20
42.4043618856
 10
267.5
 20
0.0
 10
267.5
 20
-13.4922969636
 10
267.5
 20
-26.9845939272
 10
267.5
 20
-40.4768908908
 10
267.4316466251
 20
-53.9617883167
 10
266.5878641402
 20
-64.4505526805
 10
264.8035347556
 20
-74.7551218477
 10
262.1057317976
 20
-84.8132215029
 10
258.5168534177
 20
-94.5672525058
 10
253.9640078664
 20
-104.1330218802
 10
248.5238182495
 20
-113.2733905244
 10
242.2403753843
 20
-121.9061759206
 10
235.1703372469
 20
-129.9362231127
 10
227.378579715
 20
-137.2749022464
 10
219.107415741
 20
-143.741123563
 10
210.3168418845
 20
-149.4072269057
 10
201.0858558394
 20
-154.2332895239
 10
191.4720011237
 20
-158.1970176781
 10
180.1148202229
 20
-161.6363273769
 10
168.4195836274
 20
-163.892372356
 10
156.4723657125
 20
-164.9312799757
 10
144.3907071625
 20
-165.0
 10
132.3016090831
 20
-165.0
 10
84.8087237712
 20
-165.0
 10
0.0
 20
-165.0
 10
-107.9383757088
 20
-165.0
 10
-120.0539076761
 20
-165.0
 10
-132.1694396434
 20
-165.0
 10
-144.2849716107
 20
-165.0
 10
-156.3933681983
 20
-164.9339866415
 10
-168.3678208118
 20
-163.8995914539
 10
-180.0895852996
 20
-161.6425632589
 10
-191.4720011237
 20
-158.1970176781
 10
-201.257283249
 20
-154.1531724754
 10
-210.6445652241
 20
-149.2157690339
 10
-219.5729293796
 20
-143.4084487309
 10
-227.9572614209
 20
-136.7751821664
 10
-235.7002057453
 20
-129.3846596008
 10
-242.5974347313
 20
-121.4581372314
 10
-248.7329665068
 20
-112.9551246382
 10
-254.0531645746
 20
-103.9657489091
 10
-258.5168534177
 20
-94.5672525058
 10
-262.1627880226
 20
-84.6329024688
 10
-264.8845866363
 20
-74.3843529783
 10
-266.6583872129
 20
-63.8826222447
 10
-267.4555906673
 20
-53.1934655174
 10
-267.5
 20
-42.4043618856
 10
-267.5
 20
0.0
 10
-267.5
 20
13.4922969636
 10
-267.5
 20
26.9845939272
 10
-267.5
 20
40.4768908908
 10
-267.4316466251
 20
53.9617883167
 10
-266.5878641402
 20
64.4505526805
 10
-264.8035347556
 20
74.7551218477
 10
-262.1057317976
 20
84.8132215029
 10
-258.5168534177
 20
94.5672525058
 10
-253.9640078664
 20
104.1330218802
 10
-248.5238182495
 20
113.2733905244
 10
-242.2403753843
 20
121.9061759206
 10
-235.1703372469
 20
129.9362231127
 10
-227.378579715
 20
137.2749022464
 10
-219.107415741
 20
143.741123563
 10
-210.3168418845
 20
149.4072269057
 10
-201.0858558394
 20
154.2332895239
 10
-191.4720011237
 20
158.1970176781
 10
-180.1148202229
 20
161.6363273769
 10
-168.4195836274
 20
163.892372356
 10
-156.4723657125
 20
164.9312799757
 10
-144.3907071625
 20
165.0
 10
-132.3016090831
 20
165.0
 10
-84.8087237712
 20
165.0
 10
0.0
 20
165.0
  0
LINE
  5
F8
330
EA
100
AcDbEntity
  8
0
  6
Continuous
 62
     7
370
    25
100
AcDbLine
 10
-45.0
 20
-55.0
 30
0.0
 11
45.0
 21
-55.0
 31
0.0
  0
LINE
  5
F9
330
EA
100
AcDbEntity
  8
0
  6
Continuous
 62
     7
370
    25
100
AcDbLine
 10
45.0
 20
55.0
 30
0.0
 11
-45.0
 21
55.0
 31
0.0
  0
LINE
  5
FA
330
EA
100
AcDbEntity
  8
0
  6
Continuous
 62
     7
370
    25
100
AcDbLine
 10
55.0
 20
-45.0
 30
0.0
 11
55.0
 21
45.0
 31
0.0
  0
LINE
  5
FB
330
EA
100
AcDbEntity
  8
0
  6
Continuous
 62
     7
370
    25
100
AcDbLine
 10
-55.0
 20
45.0
 30
0.0
 11
-55.0
 21
-45.0
 31
0.0
  0
ARC
  5
FC
330
EA
100
AcDbEntity
  8
0
  6
Continuous
 62
     7
370
    25
100
AcDbCircle
 10
-45.0
 20
45.0
 30
0.0
 40
10.00000000000002
100
AcDbArc
 50
90.0
 51
180.0
  0
ARC
  5
FD
330
EA
100
AcDbEntity
  8
0
  6
Continuous
 62
     7
370
    25
100
AcDbCircle
 10
45.0
 20
45.0
 30
0.0
 40
9.99999999999995
100
AcDbArc
 50
0.0
 51
90.0
  0
ARC
  5
FE
330
EA
100
AcDbEntity
  8
0
  6
Continuous
 62
     7
370
    25
100
AcDbCircle
 10
45.0
 20
-45.0
 30
0.0
 40
10.00000000000007
100
AcDbArc
 50
270.0
 51
0.0
  0
ARC
  5
FF
330
EA
100
AcDbEntity
  8
0
  6
Continuous
 62
     7
370
    25
100
AcDbCircle
 10
-45.0
 20
-45.0
 30
0.0
 40
9.999999999999993
100
AcDbArc
 50
180.0
 51
270.0
  0
VIEWPORT
  5
133
330
EA
100
AcDbEntity
  8
0
100
AcDbViewport
 10
0.0
 20
0.0
 30
0.0
 40
205.6
 41
156.0
 68
     1
 69
     1
 12
0.0
 22
0.0
 13
0.0
 23
0.0
 14
10.0
 24
10.0
 15
10.0
 25
10.0
 16
0.0
 26
0.0
 36
1.0
 17
0.0
 27
0.0
 37
0.0
 42
50.0
 43
0.0
 44
0.0
 45
414.0525291829
 50
0.0
 51
0.0
 72
   100
 90
   557152
  1

281
     0
 71
     1
 74
     0
110
0.0
120
0.0
130
0.0
111
1.0
121
0.0
131
0.0
112
0.0
122
1.0
132
0.0
 79
     0
146
0.0
  0
ENDBLK
  5
ED
330
EA
100
AcDbEntity
  8
0
100
AcDbBlockEnd
  0
BLOCK
  5
102
330
100
100
AcDbEntity
  8
0
100
AcDbBlockBegin
  2
*Paper_Space5
 70
     0
 10
0.0
 20
0.0
 30
0.0
  3
*Paper_Space5
  1

  0
SPLINE
  5
104
330
100
100
AcDbEntity
  8
0
  6
Continuous
 62
     7
370
    25
100
AcDbSpline
210
0.0
220
0.0
230
1.0
 70
     8
 71
     3
 72
   163
 73
   159
 74
     0
 42
0.000000001
 43
0.00000001
 40
0.0
 40
0.0
 40
0.0
 40
0.0
 40
0.0069492572881957
 40
0.0123779786296434
 40
0.0162741355054619
 40
0.0187038171802317
 40
0.0210685191323688
 40
0.0252701914097674
 40
0.0300149902803906
 40
0.0338115852578241
 40
0.0368675386686777
 40
0.0407063284100378
 40
0.0453714118525946
 40
0.0496354602924104
 40
0.0535862234055179
 40
0.0569656809936964
 40
0.0598536523656573
 40
0.0634894100123418
 40
0.0702305936919322
 40
0.075632256356522
 40
0.0793873379026754
 40
0.0838342097815204
 40
0.0893173179584114
 40
0.0962789964170078
 40
0.1014626071903575
 40
0.1057971421118249
 40
0.1092346902550818
 40
0.112387825600665
 40
0.1154420031979824
 40
0.1191171288846803
 40
0.1239075461317187
 40
0.1296173267120683
 40
0.1338575329897261
 40
0.1372459448010347
 40
0.1411741921882197
 40
0.1456581627727474
 40
0.1506046856396882
 40
0.1556681596131924
 40
0.159316990565475
 40
0.1622550373513037
 40
0.1654383433032361
 40
0.1691385087841804
 40
0.1741263829078263
 40
0.1784102870588569
 40
0.1827623789699164
 40
0.1876646614409149
 40
0.1932658722135014
 40
0.1992391516239317
 40
0.2048213596686478
 40
0.2099935272242771
 40
0.2147575660583336
 40
0.2215149812193076
 40
0.2282278274657351
 40
0.2351102354145062
 40
0.2445925685906857
 40
0.2544946057805456
 40
0.2654815816395104
 40
0.2776642796749015
 40
0.2895573807019917
 40
0.3024123508966211
 40
0.3162313244920143
 40
0.3310147295977832
 40
0.3456067345203297
 40
0.3587078284224967
 40
0.3703041072343039
 40
0.3803871246452444
 40
0.3881322015061478
 40
0.3946573679053518
 40
0.3999633325594377
 40
0.4040758154947282
 40
0.4084307864132495
 40
0.4157838880277813
 40
0.4249972582836633
 40
0.4360548409592226
 40
0.4457500728856678
 40
0.4565012241051513
 40
0.467853628682149
 40
0.4785681512058558
 40
0.4885757361807273
 40
0.4978817105113945
 40
0.5064918887957611
 40
0.5159585684555479
 40
0.5258460277109992
 40
0.5371972481321462
 40
0.5489796866507475
 40
0.5605548713718255
 40
0.5718991559009851
 40
0.5829979251060587
 40
0.5936553622286512
 40
0.6037629463704178
 40
0.6133199253108008
 40
0.6223751077933397
 40
0.6310984681299051
 40
0.6385641334580795
 40
0.6466206859466637
 40
0.6552835367176544
 40
0.6645354340701223
 40
0.6741624909955137
 40
0.6840237089529421
 40
0.6932892201768157
 40
0.7002589920847265
 40
0.7064874162742284
 40
0.7127219792062831
 40
0.718999164191176
 40
0.72518917414126
 40
0.7312385385500794
 40
0.7376487055756351
 40
0.7452748365575416
 40
0.7531691523702546
 40
0.7620763247267286
 40
0.7714681814278367
 40
0.7798379837903207
 40
0.7870854790357801
 40
0.793101581608638
 40
0.7983623573818789
 40
0.8039500153094161
 40
0.8100406986493877
 40
0.8153056453766502
 40
0.8211855089622871
 40
0.8270342380791867
 40
0.8317522725031333
 40
0.835609341328006
 40
0.8401780732124718
 40
0.8482707844372083
 40
0.8568886377302992
 40
0.8655436976426035
 40
0.8732806545463764
 40
0.877584348608737
 40
0.8816462721911308
 40
0.885702130461757
 40
0.8902775970441342
 40
0.8955679631760174
 40
0.9016339443888719
 40
0.9076616876536265
 40
0.9112843959767726
 40
0.9142072820597281
 40
0.9170920042045904
 40
0.9200702632251149
 40
0.92396398539649
 40
0.9289146564363442
 40
0.933635138673883
 40
0.9374266685632106
 40
0.9406088494831013
 40
0.9435041953589876
 40
0.9463802510991924
 40
0.9501339697820783
 40
0.9548133283081882
 40
0.9591813623219599
 40
0.9625694151388009
 40
0.9653506871542288
 40
0.9687705494857876
 40
0.972868056830009
 40
0.9767719458998285
 40
0.9795519950636203
 40
0.9826374118314974
 40
0.9870596282826178
 40
0.9928432515817975
 40
1.0
 40
1.0
 40
1.0
 40
1.0
 10
-257.7811226438483
 20
36.29271556440592
 30
0.0
 10
-257.5176859823815
 20
34.61567976544858
 30
0.0
 10
-257.0484540586419
 20
31.62855287983135
 30
0.0
 10
-256.2514127109401
 20
27.7288300669931
 30
0.0
 10
-255.608371054428
 20
24.91835783757337
 30
0.0
 10
-255.0980917647266
 20
22.86293643890064
 30
0.0
 10
-254.5392166087085
 20
20.72796621167532
 30
0.0
 10
-253.7970652365158
 20
18.07582040778408
 30
0.0
 10
-252.9015973575685
 20
15.14540589779626
 30
0.0
 10
-252.0180205792248
 20
12.47350501671235
 30
0.0
 10
-251.1530139050766
 20
10.0092090561818
 30
0.0
 10
-250.1696742951572
 20
7.362839958887299
 30
0.0
 10
-249.0184574747327
 20
4.463951160153572
 30
0.0
 10
-247.7897515299047
 20
1.567512590993275
 30
0.0
 10
-246.6287593810901
 20
-1.015842034039871
 30
0.0
 10
-245.562911072647
 20
-3.273244273399152
 30
0.0
 10
-244.4948731753279
 20
-5.444824136430632
 30
0.0
 10
-243.0163037396736
 20
-8.329640387683988
 30
0.0
 10
-241.1681031319806
 20
-11.71422159859142
 30
0.0
 10
-239.2035789630456
 20
-15.06649936207016
 30
0.0
 10
-237.4573625205997
 20
-17.89783222667217
 30
0.0
 10
-235.6441277609943
 20
-20.70993705293081
 30
0.0
 10
-233.3229964837675
 20
-24.12626474726536
 30
0.0
 10
-230.7944606146311
 20
-27.61865488705145
 30
0.0
 10
-228.3378253276592
 20
-30.81363966156787
 30
0.0
 10
-226.3507764197003
 20
-33.28139343096912
 30
0.0
 10
-224.6376210374664
 20
-35.33179144269327
 30
0.0
 10
-223.0977620960988
 20
-37.11867649756967
 30
0.0
 10
-221.494001509835
 20
-38.9269034021773
 30
0.0
 10
-219.5922291553208
 20
-41.00589523629605
 30
0.0
 10
-217.2033477719653
 20
-43.51884052749516
 30
0.0
 10
-214.6583661616291
 20
-46.0726392894147
 30
0.0
 10
-212.3050908536639
 20
-48.33189384164179
 30
0.0
 10
-210.2333340490851
 20
-50.25491715372524
 30
0.0
 10
-208.086694141195
 20
-52.18418469938715
 30
0.0
 10
-205.6171189279133
 20
-54.32322403002112
 30
0.0
 10
-202.8911381977547
 20
-56.58898323819813
 30
0.0
 10
-200.2774817738527
 20
-58.66856645401231
 30
0.0
 10
-198.0165879707313
 20
-60.40046518913729
 30
0.0
 10
-196.1028107544707
 20
-61.82486894102659
 30
0.0
 10
-194.1552259763679
 20
-63.23646705821184
 30
0.0
 10
-191.7764137992883
 20
-64.90744364126083
 30
0.0
 10
-189.1527468059336
 20
-66.68777286141179
 30
0.0
 10
-186.3704960745556
 20
-68.51015648185782
 30
0.0
 10
-183.6680391284364
 20
-70.2239451152218
 30
0.0
 10
-180.8369736114836
 20
-71.94874520122052
 30
0.0
 10
-177.8874786061628
 20
-73.73954368639157
 30
0.0
 10
-174.9517272724556
 20
-75.51481310219191
 30
0.0
 10
-172.0808477384786
 20
-77.24826138850472
 30
0.0
 10
-169.4475480121105
 20
-78.83534532526649
 30
0.0
 10
-166.6394674032966
 20
-80.5254244011946
 30
0.0
 10
-163.6394711210899
 20
-82.32832435485354
 30
0.0
 10
-160.2810422102937
 20
-84.34325605776144
 30
0.0
 10
-156.4593532425715
 20
-86.63215061857413
 30
0.0
 10
-152.0927786891948
 20
-89.24190327758872
 30
0.0
 10
-147.0210590785151
 20
-92.26545166929633
 30
0.0
 10
-141.4827657540797
 20
-95.55808664387827
 30
0.0
 10
-135.5931033327209
 20
-99.0488430761266
 30
0.0
 10
-129.3712930545144
 20
-102.7245241318094
 30
0.0
 10
-122.8546608034963
 20
-106.5614151321812
 30
0.0
 10
-115.8272416052598
 20
-110.6838284435189
 30
0.0
 10
-108.4825947449816
 20
-114.9750732627685
 30
0.0
 10
-101.2288017163558
 20
-119.1955178718806
 30
0.0
 10
-94.47786551349463
 20
-123.1077893546509
 30
0.0
 10
-88.46469101532293
 20
-126.5800991127829
 30
0.0
 10
-83.34219970913823
 20
-129.5289788593604
 30
0.0
 10
-79.07140574869484
 20
-131.9815915177462
 30
0.0
 10
-75.60696624124802
 20
-133.9674660631245
 30
0.0
 10
-72.76029829197601
 20
-135.5968148882464
 30
0.0
 10
-70.24592802864407
 20
-137.0346024585974
 30
0.0
 10
-67.35361336166957
 20
-138.6862353838295
 30
0.0
 10
-63.56198411789366
 20
-140.84731777608
 30
0.0
 10
-58.56585346030724
 20
-143.688270545161
 30
0.0
 10
-53.15527930492516
 20
-146.7564987543281
 30
0.0
 10
-47.46766931550349
 20
-149.97325024771
 30
0.0
 10
-41.72567276963576
 20
-153.2124929877805
 30
0.0
 10
-35.79461381881637
 20
-156.5494475018916
 30
0.0
 10
-29.97946639922268
 20
-159.8126369516078
 30
0.0
 10
-24.52011572086638
 20
-162.8688500173969
 30
0.0
 10
-19.43028257736075
 20
-165.7119629387919
 30
0.0
 10
-14.41967558790853
 20
-168.5054241090877
 30
0.0
 10
-9.305791675618028
 20
-171.3503733365937
 30
0.0
 10
-3.581161818719245
 20
-174.5309832994977
 30
0.0
 10
2.747759596715929
 20
-178.0284342542978
 30
0.0
 10
9.351220869843468
 20
-181.7050448034002
 30
0.0
 10
16.26284057482642
 20
-185.0456109509803
 30
0.0
 10
23.47520212770021
 20
-187.8427124926405
 30
0.0
 10
30.80463052708697
 20
-190.1179672781458
 30
0.0
 10
38.12075266189305
 20
-191.8799544750177
 30
0.0
 10
45.27187455396066
 20
-193.1514040392763
 30
0.0
 10
52.17363474524747
 20
-193.9727553447554
 30
0.0
 10
58.81904068675505
 20
-194.3816190450869
 30
0.0
 10
64.97304224880172
 20
-194.5578022141686
 30
0.0
 10
70.89398407847817
 20
-194.5317653839465
 30
0.0
 10
76.8040934262613
 20
-194.3199562646241
 30
0.0
 10
83.1468768145368
 20
-193.8740389877503
 30
0.0
 10
89.85398969626368
 20
-193.1502458726071
 30
0.0
 10
96.81253531187446
 20
-192.1111446711049
 30
0.0
 10
103.7181594543338
 20
-190.7670557929464
 30
0.0
 10
109.9115193623703
 20
-189.2677412806096
 30
0.0
 10
115.1671624258998
 20
-187.769185937749
 30
0.0
 10
119.6584248495474
 20
-186.3213179707696
 30
0.0
 10
123.9311678358763
 20
-184.784693534479
 30
0.0
 10
128.1390466780473
 20
-183.1004038003126
 30
0.0
 10
132.1983430170508
 20
-181.3071274506613
 30
0.0
 10
136.0228607192665
 20
-179.4159697203843
 30
0.0
 10
139.9453948300053
 20
-177.4122021470077
 30
0.0
 10
144.1962882121067
 20
-175.2070679538728
 30
0.0
 10
148.8548128241404
 20
-172.7362263244797
 30
0.0
 10
153.7855308627479
 20
-170.0627022387551
 30
0.0
 10
158.7388767147401
 20
-167.3108113535305
 30
0.0
 10
163.3585340394264
 20
-164.6831086750012
 30
0.0
 10
167.3353880027045
 20
-162.3732707318239
 30
0.0
 10
170.7352898217457
 20
-160.3642662980044
 30
0.0
 10
173.8389734555465
 20
-158.5040120558689
 30
0.0
 10
176.9470919366607
 20
-156.6160829485937
 30
0.0
 10
180.0461401767856
 20
-154.7073142388049
 30
0.0
 10
183.191662200452
 20
-152.7444958720804
 30
0.0
 10
186.2761162895848
 20
-150.7954714732937
 30
0.0
 10
189.2682339357176
 20
-148.8818916482248
 30
0.0
 10
191.9764852774514
 20
-147.1274423973904
 30
0.0
 10
194.5742524466895
 20
-145.4347435152675
 30
0.0
 10
197.9197597252686
 20
-143.17170990008
 30
0.0
 10
202.1376732533311
 20
-140.1170571028173
 30
0.0
 10
207.0207570277802
 20
-136.275228662613
 30
0.0
 10
211.6703319223097
 20
-132.2886804515919
 30
0.0
 10
215.3823912615794
 20
-128.8380982289623
 30
0.0
 10
218.1889424412773
 20
-126.0692727209888
 30
0.0
 10
220.309240903321
 20
-123.8889577710505
 30
0.0
 10
222.4304894612197
 20
-121.617695535521
 30
0.0
 10
224.7029751484925
 20
-119.0769289854001
 30
0.0
 10
227.2308806931345
 20
-116.1058085458405
 30
0.0
 10
229.8953701129601
 20
-112.7858914983992
 30
0.0
 10
232.2108175550073
 20
-109.7118910792486
 30
0.0
 10
234.0016691730826
 20
-107.2079858687427
 30
0.0
 10
235.3131228979819
 20
-105.3075936602067
 30
0.0
 10
236.5082935122907
 20
-103.5189943345916
 30
0.0
 10
237.8052733786928
 20
-101.5128317987618
 30
0.0
 10
239.3332967002614
 20
-99.05420430668337
 30
0.0
 10
241.0211076146217
 20
-96.19343149327602
 30
0.0
 10
242.6236909147243
 20
-93.31269677736438
 30
0.0
 10
243.9592400563394
 20
-90.77988341716267
 30
0.0
 10
245.0466909205805
 20
-88.62201252327203
 30
0.0
 10
246.0015670470111
 20
-86.64864937235741
 30
0.0
 10
246.9850258109179
 20
-84.53396896973565
 30
0.0
 10
248.1080475819596
 20
-82.00308078678655
 30
0.0
 10
249.3143406579334
 20
-79.11019558309495
 30
0.0
 10
250.4175898089319
 20
-76.27223323656892
 30
0.0
 10
251.3019551200321
 20
-73.84848559555516
 30
0.0
 10
252.0698011246858
 20
-71.62988280522306
 30
0.0
 10
252.8542960345103
 20
-69.23369553401723
 30
0.0
 10
253.6699045616686
 20
-66.55893276303973
 30
0.0
 10
254.3846066120532
 20
-64.0178398690816
 30
0.0
 10
254.9899390036774
 20
-61.70395471177466
 30
0.0
 10
255.5884060564937
 20
-59.25776960106169
 30
0.0
 10
256.2944385613398
 20
-56.08202944195479
 30
0.0
 10
257.1108452553226
 20
-51.90995721723761
 30
0.0
 10
257.5747351395782
 20
-48.77562690265931
 30
0.0
 10
257.8312921587948
 20
-47.04216715274727
 30
0.0
  0
LWPOLYLINE
  5
105
330
100
100
AcDbEntity
  8
0
  6
Continuous
 62
     7
370
    25
100
AcDbPolyline
 90
       95
 70
   128
 43
0.0
 10
-116.6726188958
 20
-67.3536692254
 10
-40.3486614818
 20
-111.4145519782
 10
-31.7816866701
 20
-116.3601612668
 10
-23.2147118583
 20
-121.3057705554
 10
-14.6477370465
 20
-126.2513798439
 10
-6.0391292168
 20
-131.1671295209
 10
3.1595152789
 20
-135.632905334
 10
13.0440143776
 20
-139.4964490769
 10
23.5289664382
 20
-142.7363117015
 10
33.3076361498
 20
-145.07998954
 10
43.4367183462
 20
-146.8964480057
 10
53.8564207522
 20
-148.170470765
 10
64.4754665636
 20
-148.8852627948
 10
75.1764436243
 20
-149.0291227862
 10
85.6584187304
 20
-148.6089610523
 10
96.0094327202
 20
-147.6425457802
 10
106.1278293879
 20
-146.144772577
 10
115.9298745776
 20
-144.1303641158
 10
125.5325859384
 20
-141.5634074312
 10
134.7040070372
 20
-138.4909571954
 10
143.3841184693
 20
-134.9281807056
 10
151.5062016449
 20
-130.8902452588
 10
159.1666521262
 20
-126.5042174663
 10
189.1510639674
 20
-109.1945849563
 10
198.6915586441
 20
-103.6869746122
 10
208.2320533209
 20
-98.1793642681
 10
217.7725479976
 20
-92.671753924
 10
227.2594772762
 20
-87.1392619763
 10
234.0795093672
 20
-82.5132703889
 10
240.1042286947
 20
-77.5785329685
 10
245.3087444009
 20
-72.371521785
 10
249.6681656277
 20
-66.9248920573
 10
253.2128380566
 20
-61.1616161808
 10
255.8292597384
 20
-55.2097731611
 10
257.4904957734
 20
-49.1209082859
 10
258.169324686
 20
-42.9569922098
 10
257.8489498782
 20
-36.7806865952
 10
256.5726626855
 20
-30.7648261461
 10
254.3633283976
 20
-24.8635518783
 10
251.2485771718
 20
-19.1254075999
 10
247.2533343656
 20
-13.5829832029
 10
241.6545539461
 20
-7.5429957268
 10
234.9800375452
 20
-1.848026003
 10
227.2666973642
 20
3.4529631108
 10
218.7722670707
 20
8.4127969257
 10
210.2239838403
 20
13.3476157941
 10
176.6414425782
 20
32.7344042053
 10
116.6726188958
 20
67.3536692254
 10
40.3486614818
 20
111.4145519782
 10
31.7816866701
 20
116.3601612668
 10
23.2147118583
 20
121.3057705554
 10
14.6477370465
 20
126.2513798439
 10
6.0391292168
 20
131.1671295209
 10
-3.1595152789
 20
135.632905334
 10
-13.0440143776
 20
139.4964490769
 10
-23.5289664382
 20
142.7363117015
 10
-33.3076361498
 20
145.07998954
 10
-43.4367183462
 20
146.8964480057
 10
-53.8564207522
 20
148.170470765
 10
-64.4754665636
 20
148.8852627948
 10
-75.1764436243
 20
149.0291227862
 10
-85.6584187304
 20
148.6089610523
 10
-96.0094327202
 20
147.6425457802
 10
-106.1278293879
 20
146.144772577
 10
-115.9298745776
 20
144.1303641158
 10
-125.5325859384
 20
141.5634074312
 10
-134.7040070372
 20
138.4909571954
 10
-143.3841184693
 20
134.9281807056
 10
-151.5062016449
 20
130.8902452588
 10
-159.1666521262
 20
126.5042174663
 10
-189.1510639674
 20
109.1945849563
 10
-198.6915586441
 20
103.6869746122
 10
-208.2320533209
 20
98.1793642681
 10
-217.7725479976
 20
92.671753924
 10
-227.2594772762
 20
87.1392619763
 10
-234.0795093672
 20
82.5132703889
 10
-240.1042286947
 20
77.5785329685
 10
-245.3087444009
 20
72.371521785
 10
-249.6681656277
 20
66.9248920573
 10
-253.2128380566
 20
61.1616161808
 10
-255.8292597384
 20
55.2097731611
 10
-257.4904957734
 20
49.1209082859
 10
-258.169324686
 20
42.9569922098
 10
-257.8489498782
 20
36.7806865952
 10
-256.5726626855
 20
30.7648261461
 10
-254.3633283976
 20
24.8635518783
 10
-251.2485771718
 20
19.1254075999
 10
-247.2533343656
 20
13.5829832029
 10
-241.6545539461
 20
7.5429957268
 10
-234.9800375452
 20
1.848026003
 10
-227.2666973642
 20
-3.4529631108
 10
-218.7722670707
 20
-8.4127969257
 10
-210.2239838403
 20
-13.3476157941
 10
-176.6414425782
 20
-32.7344042053
 10
-116.6726188958
 20
-67.3536692254
  0
SPLINE
  5
106
330
100
100
AcDbEntity
  8
0
  6
Continuous
 62
     7
370
    25
100
AcDbSpline
210
0.0
220
0.0
230
1.0
 70
    11
 71
     3
 72
    69
 73
    65
 74
     0
 42
0.000000001
 43
0.00000001
 40
0.0
 40
0.0
 40
0.0
 40
0.0
 40
0.0098899023909711
 40
0.0148348535864566
 40
0.0197798047819422
 40
0.0988990239097112
 40
0.0988990239097112
 40
0.105426778683403
 40
0.105426778683403
 40
0.1449858270096646
 40
0.1449858270096646
 40
0.1604303108690124
 40
0.1787648215975489
 40
0.1970993323260854
 40
0.2154338430546219
 40
0.2154338430546219
 40
0.2175740905214062
 40
0.2175740905214062
 40
0.2500000000000001
 40
0.282425909478594
 40
0.282425909478594
 40
0.2845661569453778
 40
0.2845661569453778
 40
0.3029006676739143
 40
0.3212351784024507
 40
0.3395696891309873
 40
0.3550141729903354
 40
0.3550141729903354
 40
0.3945732213165967
 40
0.3945732213165967
 40
0.4011009760902891
 40
0.4011009760902891
 40
0.5000000000000002
 40
0.5988990239097115
 40
0.5988990239097115
 40
0.6054267786834028
 40
0.6054267786834028
 40
0.6449858270096647
 40
0.6449858270096647
 40
0.6604303108690124
 40
0.6787648215975489
 40
0.6970993323260855
 40
0.715433843054622
 40
0.715433843054622
 40
0.7175740905214064
 40
0.7175740905214064
 40
0.7500000000000002
 40
0.7824259094785941
 40
0.7824259094785941
 40
0.784566156945378
 40
0.784566156945378
 40
0.8029006676739144
 40
0.821235178402451
 40
0.8395696891309874
 40
0.8550141729903354
 40
0.8550141729903354
 40
0.8945732213165969
 40
0.8945732213165969
 40
0.9011009760902887
 40
0.9011009760902887
 40
0.9802201952180577
 40
0.9851651464135434
 40
0.9901100976090289
 40
1.0
 40
1.0
 40
1.0
 40
1.0
 10
-106.0660171779823
 20
-61.23060838670308
 30
0.0
 10
-109.4379169704969
 20
-59.28405207010064
 30
0.0
 10
-114.4957666592687
 20
-56.36421759519698
 30
0.0
 10
-121.2395662442977
 20
-52.4711049619921
 30
0.0
 10
-151.5866643769283
 20
-34.95209811257013
 30
0.0
 10
-180.2478126133019
 20
-18.40636942144963
 30
0.0
 10
-209.4486077385893
 20
-1.549109212493703
 30
0.0
 10
-211.6742045237599
 20
-0.2642995363575512
 30
0.0
 10
-227.387209128564
 20
8.806624941939386
 30
0.0
 10
-236.6243314142174
 20
18.56353264783092
 30
0.0
 10
-242.3584116302658
 20
33.31059259482691
 30
0.0
 10
-244.1752804583349
 20
42.63902796602228
 30
0.0
 10
-240.8477421281545
 20
57.03073714036941
 30
0.0
 10
-230.8269323391179
 20
70.97262442546159
 30
0.0
 10
-220.1508370095302
 20
79.05267522428517
 30
0.0
 10
-213.1700974449399
 20
83.0825703961925
 30
0.0
 10
-212.4403935809495
 20
83.5038194703355
 30
0.0
 10
-200.6552805611736
 20
90.30722040219146
 30
0.0
 10
-178.5444622496026
 20
103.0715241176173
 30
0.0
 10
-156.4336439380317
 20
115.8358278330432
 30
0.0
 10
-144.648530918256
 20
122.639228764899
 30
0.0
 10
-143.9188270542657
 20
123.0604778390419
 30
0.0
 10
-136.9380874896756
 20
127.0903730109492
 30
0.0
 10
-122.941512420317
 20
133.253551657774
 30
0.0
 10
-98.79083851332359
 20
139.0384420141312
 30
0.0
 10
-73.86096581197177
 20
140.9593890036381
 30
0.0
 10
-57.70189092452097
 20
139.9105329547224
 30
0.0
 10
-32.15646593405998
 20
136.6003189058846
 30
0.0
 10
-15.25517477259901
 20
131.2678417153454
 30
0.0
 10
0.4578298322048674
 20
122.1969172370485
 30
0.0
 10
2.683426617375778
 20
120.9121075609122
 30
0.0
 10
38.62802132769208
 20
100.1617347187516
 30
0.0
 10
106.0660171779828
 20
61.23060838670283
 30
0.0
 10
173.5040130282743
 20
22.29948205465356
 30
0.0
 10
209.4486077385896
 20
1.549109212493412
 30
0.0
 10
211.6742045237601
 20
0.2642995363573777
 30
0.0
 10
227.3872091285641
 20
-8.806624941939477
 30
0.0
 10
236.6243314142174
 20
-18.5635326478311
 30
0.0
 10
242.3584116302659
 20
-33.31059259482707
 30
0.0
 10
244.1752804583351
 20
-42.63902796602235
 30
0.0
 10
240.8477421281546
 20
-57.03073714036946
 30
0.0
 10
230.8269323391179
 20
-70.97262442546165
 30
0.0
 10
220.1508370095304
 20
-79.05267522428522
 30
0.0
 10
213.1700974449399
 20
-83.08257039619258
 30
0.0
 10
212.4403935809494
 20
-83.50381947033561
 30
0.0
 10
200.6552805611736
 20
-90.30722040219155
 30
0.0
 10
178.5444622496027
 20
-103.0715241176174
 30
0.0
 10
156.4336439380318
 20
-115.8358278330432
 30
0.0
 10
144.6485309182561
 20
-122.639228764899
 30
0.0
 10
143.9188270542658
 20
-123.060477839042
 30
0.0
 10
136.9380874896756
 20
-127.0903730109492
 30
0.0
 10
122.9415124203171
 20
-133.253551657774
 30
0.0
 10
98.79083851332368
 20
-139.0384420141313
 30
0.0
 10
73.8609658119719
 20
-140.959389003638
 30
0.0
 10
57.70189092452119
 20
-139.9105329547226
 30
0.0
 10
32.15646593406027
 20
-136.6003189058848
 30
0.0
 10
15.25517477259931
 20
-131.2678417153454
 30
0.0
 10
-0.4578298322046732
 20
-122.1969172370487
 30
0.0
 10
-2.683426617375265
 20
-120.9121075609126
 30
0.0
 10
-31.88422174266336
 20
-104.0548473519567
 30
0.0
 10
-60.54536997903642
 20
-87.50911866083605
 30
0.0
 10
-90.89246811166703
 20
-69.99011181141408
 30
0.0
 10
-97.63626769669607
 20
-66.09699917820917
 30
0.0
 10
-102.6941173854678
 20
-63.17716470330554
 30
0.0
 10
-106.0660171779823
 20
-61.23060838670308
 30
0.0
  0
SPLINE
  5
107
330
100
100
AcDbEntity
  8
0
  6
Continuous
 62
     7
370
    25
100
AcDbSpline
210
0.0
220
0.0
230
1.0
 70
    11
 71
     3
 72
    90
 73
    86
 74
     0
 42
0.000000001
 43
0.00000001
 40
0.0
 40
0.0
 40
0.0
 40
0.0
 40
0.0157539044434
 40
0.0313659884320304
 40
0.0469272879954859
 40
0.0625778556807359
 40
0.0781871736262692
 40
0.0859406745748982
 40
0.0936841855487753
 40
0.1092166613181916
 40
0.1170309981059557
 40
0.1248087216998785
 40
0.1403088804176313
 40
0.1558432645789634
 40
0.1871830708188608
 40
0.2027986612871937
 40
0.2106255364002113
 40
0.2145508485718819
 40
0.2165174042083716
 40
0.2184910201972307
 40
0.2264071753949892
 40
0.2342797167437636
 40
0.2499232632716568
 40
0.2813150161043858
 40
0.2832885716406472
 40
0.2852545233697017
 40
0.2891786890663549
 40
0.2970035094447409
 40
0.3126159058600627
 40
0.3439527014770942
 40
0.3594812758257911
 40
0.3749704620844622
 40
0.3827407430498098
 40
0.3849661934344707
 40
0.3872046229439369
 40
0.3905587459496188
 40
0.4061055334784653
 40
0.413854768352093
 40
0.4216131080278905
 40
0.4372295569199913
 40
0.45287676532406
 40
0.4684371039384287
 40
0.4840508758013481
 40
0.4998195396606617
 40
0.5155077961314443
 40
0.5310749264520791
 40
0.5466637680199
 40
0.5623464138747758
 40
0.5778903195833048
 40
0.5856376082090989
 40
0.5933924432368533
 40
0.6090013938470307
 40
0.6168230786307063
 40
0.6246106336300091
 40
0.6402637448917844
 40
0.655847281483514
 40
0.6870726065383139
 40
0.7027867244673851
 40
0.7105985242628621
 40
0.7145001678609123
 40
0.7164508023627073
 40
0.7184054196850092
 40
0.7262357379517784
 40
0.734094443104327
 40
0.7498888084957616
 40
0.7811576604021966
 40
0.7831198561824559
 40
0.7850793392619924
 40
0.7890062815560739
 40
0.7968975086223521
 40
0.8125986576744928
 40
0.8437865934443187
 40
0.8751130252579217
 40
0.8829056213732746
 40
0.885117520950853
 40
0.8873393934716175
 40
0.890670851749946
 40
0.9061704252086893
 40
0.9139313464368642
 40
0.9217236735693007
 40
0.9373922978565321
 40
0.9529627420439989
 40
0.9685381967444748
 40
0.984254130617496
 40
1.0
 40
1.0
 40
1.0
 40
1.0
 10
-23.82112083351186
 20
-107.3197643456745
 30
0.0
 10
-24.61566013081668
 20
-106.8610864900405
 30
0.0
 10
-26.12103943860428
 20
-105.9075151700596
 30
0.0
 10
-28.13058623068088
 20
-104.3760408382431
 30
0.0
 10
-29.88137925226525
 20
-102.7567259863358
 30
0.0
 10
-31.36250374355552
 20
-101.0576357351784
 30
0.0
 10
-32.3576094689643
 20
-99.58404233178062
 30
0.0
 10
-32.99855861064758
 20
-98.38118979015881
 30
0.0
 10
-33.53393965516128
 20
-97.16472888508315
 30
0.0
 10
-33.90742892724552
 20
-95.92318329865171
 30
0.0
 10
-34.11500716816783
 20
-94.66830330536874
 30
0.0
 10
-34.20596320456867
 20
-93.40668157541188
 30
0.0
 10
-34.09838473238975
 20
-91.82400738033805
 30
0.0
 10
-33.47022579203836
 20
-89.29895167754162
 30
0.0
 10
-32.1681424396581
 20
-86.8297935032597
 30
0.0
 10
-30.50325779544746
 20
-84.79293849196168
 30
0.0
 10
-29.54664855751655
 20
-83.81237675948125
 30
0.0
 10
-29.0364307194005
 20
-83.3311841752043
 30
0.0
 10
-28.73520917953546
 20
-83.05836424131878
 30
0.0
 10
-28.27221907666181
 20
-82.65039027647043
 30
0.0
 10
-27.54515402592494
 20
-82.05183833430921
 30
0.0
 10
-26.1682885943026
 20
-81.0310015268547
 30
0.0
 10
-23.53889036819463
 20
-79.3535464034281
 30
0.0
 10
-20.81487546781374
 20
-78.06178924259916
 30
0.0
 10
-18.70922512225648
 20
-77.26269557881001
 30
0.0
 10
-18.23666933103097
 20
-77.08821928934847
 30
0.0
 10
-17.40297198351954
 20
-76.79250598612174
 30
0.0
 10
-15.70295419650219
 20
-76.23730388229566
 30
0.0
 10
-12.16731118754584
 20
-75.26778814978819
 30
0.0
 10
-7.872178638081276
 20
-74.50098909130162
 30
0.0
 10
-3.466004292929538
 20
-74.1147573117689
 30
0.0
 10
-0.6970834185754914
 20
-74.03366286780823
 30
0.0
 10
1.119299242415429
 20
-74.06013196950616
 30
0.0
 10
1.989157239066657
 20
-74.08975549214856
 30
0.0
 10
2.54441478956308
 20
-74.11277421761942
 30
0.0
 10
4.043089844608202
 20
-74.19055817191882
 30
0.0
 10
5.920452928848926
 20
-74.35477189647233
 30
0.0
 10
8.07004503102446
 20
-74.63926218595611
 30
0.0
 10
10.19597445136987
 20
-74.984584490114
 30
0.0
 10
12.80001551345037
 20
-75.52858167595546
 30
0.0
 10
15.79896563383609
 20
-76.3503245880024
 30
0.0
 10
18.64932588783941
 20
-77.33367591164725
 30
0.0
 10
21.33426230061923
 20
-78.475406145183
 30
0.0
 10
23.82628648623552
 20
-79.77164066072498
 30
0.0
 10
26.08632701267944
 20
-81.21094375842829
 30
0.0
 10
28.09627231228736
 20
-82.7702844348004
 30
0.0
 10
29.85207495904715
 20
-84.43796295470345
 30
0.0
 10
31.33751881098626
 20
-86.19724624228546
 30
0.0
 10
32.33617597383931
 20
-87.72540882240546
 30
0.0
 10
32.98019129500382
 20
-88.97149096483827
 30
0.0
 10
33.52153899204557
 20
-90.23675982339459
 30
0.0
 10
33.90012620951009
 20
-91.52656916172151
 30
0.0
 10
34.11162960266143
 20
-92.82715215843001
 30
0.0
 10
34.20662046980304
 20
-94.13091987573594
 30
0.0
 10
34.10108043662822
 20
-95.75643921018114
 30
0.0
 10
33.4732719248568
 20
-98.32507812293356
 30
0.0
 10
32.17266565177255
 20
-100.8196163741048
 30
0.0
 10
30.51050948237383
 20
-102.8675385936334
 30
0.0
 10
29.55225616410539
 20
-103.8540001568953
 30
0.0
 10
29.0443911108354
 20
-104.3346274590991
 30
0.0
 10
28.74564895843472
 20
-104.6060377689583
 30
0.0
 10
28.2878229848226
 20
-105.0106960709824
 30
0.0
 10
27.56660869343144
 20
-105.6065999813387
 30
0.0
 10
26.18976378039147
 20
-106.6313977651463
 30
0.0
 10
23.56201667806468
 20
-108.3117128617627
 30
0.0
 10
20.83893592113122
 20
-109.6029991239268
 30
0.0
 10
18.74333782383892
 20
-110.3983581480175
 30
0.0
 10
18.27205231890076
 20
-110.5723164741373
 30
0.0
 10
17.43516799322703
 20
-110.8687562774716
 30
0.0
 10
15.7263639499761
 20
-111.4245872472092
 30
0.0
 10
12.19033847549484
 20
-112.3837671057554
 30
0.0
 10
6.821066801345451
 20
-113.3159253885207
 30
0.0
 10
1.789102415002485
 20
-113.5611905399617
 30
0.0
 10
-1.156110400415695
 20
-113.4697380136421
 30
0.0
 10
-2.025347893321198
 20
-113.4241051447043
 30
0.0
 10
-2.576806903068173
 20
-113.3906046355659
 30
0.0
 10
-4.069201427509373
 20
-113.2838941791406
 30
0.0
 10
-5.942214641619747
 20
-113.0809267814288
 30
0.0
 10
-8.09141100270684
 20
-112.7496517294957
 30
0.0
 10
-10.22360294643133
 20
-112.3558258175885
 30
0.0
 10
-12.82735582158592
 20
-111.7529875846341
 30
0.0
 10
-15.82423645475633
 20
-110.8679113312394
 30
0.0
 10
-18.67556776803055
 20
-109.8325313707185
 30
0.0
 10
-21.36348713238879
 20
-108.6537771677696
 30
0.0
 10
-23.02698677997763
 20
-107.7782082590172
 30
0.0
 10
-23.82112083351186
 20
-107.3197643456745
 30
0.0
  0
SPLINE
  5
108
330
100
100
AcDbEntity
  8
0
  6
Continuous
 62
     7
370
    25
100
AcDbSpline
210
0.0
220
0.0
230
1.0
 70
     8
 71
     3
 72
    17
 73
    13
 74
     0
 42
0.000000001
 43
0.00000001
 40
0.0
 40
0.0
 40
0.0
 40
0.0
 40
0.1050856406670359
 40
0.2133289285637159
 40
0.3166467369595871
 40
0.4229481555724901
 40
0.5264629477315659
 40
0.6329952376771675
 40
0.7362876246900838
 40
0.8425638487286365
 40
0.9460439679139894
 40
1.0
 40
1.0
 40
1.0
 40
1.0
 10
16.26345596729062
 20
-91.96053042752376
 30
0.0
 10
17.13399296041456
 20
-92.5159617618816
 30
0.0
 10
18.90122512305259
 20
-93.64351421050488
 30
0.0
 10
20.85228016640393
 20
-95.65482097465335
 30
0.0
 10
22.24151148837591
 20
-97.85480392203655
 30
0.0
 10
22.97546165634559
 20
-100.1382352324806
 30
0.0
 10
23.06545395671258
 20
-102.4498643484401
 30
0.0
 10
22.5005043913191
 20
-104.6751167102077
 30
0.0
 10
21.29677245594833
 20
-106.8207169197188
 30
0.0
 10
19.48092028805643
 20
-108.7982086056588
 30
0.0
 10
17.56173478368161
 20
-110.3366453814151
 30
0.0
 10
16.11042415893886
 20
-111.0786772992376
 30
0.0
 10
15.61303545880216
 20
-111.3329841890057
 30
0.0
  0
SPLINE
  5
109
330
100
100
AcDbEntity
  8
0
  6
Continuous
 62
     7
370
    25
100
AcDbSpline
210
0.0
220
0.0
230
1.0
 70
     8
 71
     3
 72
    26
 73
    22
 74
     0
 42
0.000000001
 43
0.00000001
 40
0.0
 40
0.0
 40
0.0
 40
0.0
 40
0.0123090822237921
 40
0.0671267436949838
 40
0.1204277915023737
 40
0.1752735699738668
 40
0.228609165820301
 40
0.283494329321307
 40
0.3367785000343348
 40
0.3916034981651386
 40
0.4449586601957163
 40
0.4998605406480565
 40
0.5532236516936788
 40
0.6081343537948006
 40
0.6614975346224652
 40
0.7164082432053035
 40
0.7697599478549836
 40
0.8246640702013901
 40
0.8779572573275093
 40
0.9327931969158813
 40
1.0
 40
1.0
 40
1.0
 40
1.0
 10
-16.64072192755359
 20
-110.4681438229932
 30
0.0
 10
-16.85514598955316
 20
-110.3518088799018
 30
0.0
 10
-18.02449304485684
 20
-109.71738417092
 30
0.0
 10
-19.65567362192085
 20
-108.3458566483789
 30
0.0
 10
-21.44421725308605
 20
-106.4087762598027
 30
0.0
 10
-22.57556071414689
 20
-104.357409054461
 30
0.0
 10
-23.08553985252244
 20
-102.2043131367478
 30
0.0
 10
-22.9370033998569
 20
-100.0066600568648
 30
0.0
 10
-22.13522932949754
 20
-97.80437564366655
 30
0.0
 10
-20.71658263384654
 20
-95.72456965044378
 30
0.0
 10
-18.69459520865745
 20
-93.80707847854099
 30
0.0
 10
-16.16166583315721
 20
-92.11560532278297
 30
0.0
 10
-13.14477890441253
 20
-90.67577376177658
 30
0.0
 10
-9.783531105660746
 20
-89.5488340096081
 30
0.0
 10
-6.112744426364083
 20
-88.77100032424305
 30
0.0
 10
-2.302413713675745
 20
-88.3546528496627
 30
0.0
 10
1.607126563907112
 20
-88.27717894205803
 30
0.0
 10
5.435798143338157
 20
-88.53272521428404
 30
0.0
 10
9.133546206927036
 20
-89.16447947977422
 30
0.0
 10
12.87264413947915
 20
-90.22996097569312
 30
0.0
 10
15.05930183367856
 20
-91.34596599141065
 30
0.0
 10
16.26345596729062
 20
-91.96053042752375
 30
0.0
  0
LWPOLYLINE
  5
10A
330
100
100
AcDbEntity
  8
0
  6
Continuous
 62
     7
370
    25
100
AcDbPolyline
 90
       22
 70
   128
 43
0.0
 10
-21.6940582649
 20
-105.8226797839
 10
-21.1083563907
 20
-104.9599135243
 10
-19.7970666211
 20
-103.4742341108
 10
-18.1735652846
 20
-102.095145912
 10
-16.2634559673
 20
-100.8443979727
 10
-14.096862234
 20
-99.7417153351
 10
-11.7079525623
 20
-98.804487963
 10
-9.1344014846
 20
-98.047496492
 10
-6.4167954389
 20
-97.4826791298
 10
-3.5979926959
 20
-97.1189433836
 10
-0.7224474588
 20
-96.9620255834
 10
2.1644912063
 20
-97.0144004166
 10
5.0172945521
 20
-97.2752419009
 10
7.7909721656
 20
-97.7404364102
 10
10.441781494
 20
-98.4026475492
 10
12.9279176906
 20
-99.2514318527
 10
15.2101729024
 20
-100.2734034851
 10
17.2525546015
 20
-101.4524453434
 10
19.0228532083
 20
-102.769963233
 10
20.4931500563
 20
-104.2051791099
 10
21.6402576859
 20
-105.7354587622
 10
21.7402019792
 20
-105.8990629426
  0
VIEWPORT
  5
135
330
100
100
AcDbEntity
  8
0
100
AcDbViewport
 10
0.0
 20
0.0
 30
0.0
 40
205.6
 41
156.0
 68
     1
 69
     1
 12
0.0
 22
0.0
 13
0.0
 23
0.0
 14
10.0
 24
10.0
 15
10.0
 25
10.0
 16
0.0
 26
0.0
 36
1.0
 17
0.0
 27
0.0
 37
0.0
 42
50.0
 43
0.0
 44
0.0
 45
414.0525291829
 50
0.0
 51
0.0
 72
   100
 90
   557152
  1

281
     0
 71
     1
 74
     0
110
0.0
120
0.0
130
0.0
111
1.0
121
0.0
131
0.0
112
0.0
122
1.0
132
0.0
 79
     0
146
0.0
  0
ENDBLK
  5
103
330
100
100
AcDbEntity
  8
0
100
AcDbBlockEnd
  0
BLOCK
  5
10D
330
10B
100
AcDbEntity
  8
0
100
AcDbBlockBegin
  2
*Paper_Space6
 70
     0
 10
0.0
 20
0.0
 30
0.0
  3
*Paper_Space6
  1

  0
SPLINE
  5
10F
330
10B
100
AcDbEntity
  8
0
  6
Continuous
 62
     7
370
    25
100
AcDbSpline
210
0.0
220
0.0
230
1.0
 70
     8
 71
     3
 72
   149
 73
   145
 74
     0
 42
0.000000001
 43
0.00000001
 40
0.0
 40
0.0
 40
0.0
 40
0.0
 40
0.0063206127573147
 40
0.011421597823431
 40
0.015301726066665
 40
0.0183663030500134
 40
0.0209600157407138
 40
0.0250340810182101
 40
0.0311159767900758
 40
0.0379592779246476
 40
0.0433905400757764
 40
0.0478140009480124
 40
0.0510156348467903
 40
0.0545210592598275
 40
0.0591847402956512
 40
0.0641126923269761
 40
0.0678448779325992
 40
0.0712449078667696
 40
0.0756802273862117
 40
0.0806949739308672
 40
0.0852673552189395
 40
0.0893362771664181
 40
0.09285433093385
 40
0.0964856611688634
 40
0.1011455527087094
 40
0.1075004767637399
 40
0.1132534368906466
 40
0.1179458629777268
 40
0.1224640452423274
 40
0.1286271353756429
 40
0.1350851078211408
 40
0.1406257186181132
 40
0.1452895509884564
 40
0.1507234067695733
 40
0.1572936215342353
 40
0.164085722553854
 40
0.169565105364794
 40
0.1739342809435474
 40
0.1782278377878293
 40
0.1832355047816798
 40
0.1896744514189337
 40
0.1973116781309248
 40
0.2042715831251518
 40
0.2097028770578761
 40
0.2148364579844123
 40
0.2201281809097405
 40
0.2247836988350667
 40
0.2290777046156438
 40
0.2330000761343573
 40
0.2389049161348296
 40
0.2462697287977552
 40
0.2547487778973313
 40
0.2624373911220901
 40
0.2694041371652323
 40
0.2752773315389052
 40
0.280655051140197
 40
0.2913193477940031
 40
0.3033864433313993
 40
0.3159865076360421
 40
0.3317888253237734
 40
0.3462973337005054
 40
0.3607211486640608
 40
0.3769777065300327
 40
0.3888359112488
 40
0.4014999358772993
 40
0.4149574615234097
 40
0.4291928690234404
 40
0.4437228676036961
 40
0.4574149060813222
 40
0.472405643991591
 40
0.486152740595672
 40
0.498656982875429
 40
0.5099229083912296
 40
0.5213169539483636
 40
0.5337264144796511
 40
0.5473482817700818
 40
0.5621984667471824
 40
0.5774268555584084
 40
0.5889768410974554
 40
0.6000903756004491
 40
0.6107238175451883
 40
0.620683802579411
 40
0.6297870124427949
 40
0.6354720239370565
 40
0.6420402617812271
 40
0.6499278470358046
 40
0.6573020956484897
 40
0.6639262336272297
 40
0.6711962923456019
 40
0.679065549171815
 40
0.6859693045062218
 40
0.6925019827719529
 40
0.7018512330644516
 40
0.7107311358869758
 40
0.717112389055392
 40
0.7249317441469176
 40
0.7342157186470203
 40
0.7427022001383434
 40
0.7502093737968589
 40
0.7539108603576077
 40
0.7576493746877948
 40
0.7614616228051035
 40
0.7649307128212937
 40
0.7677917852913051
 40
0.7708314292227441
 40
0.7793231288797771
 40
0.7883169511916942
 40
0.795889338755474
 40
0.8035389137108556
 40
0.8118986054696505
 40
0.8203567264345331
 40
0.8287063804894886
 40
0.8357730829637636
 40
0.8423752347533112
 40
0.8500025311412839
 40
0.8584737267419962
 40
0.8664014271577813
 40
0.8736260493913339
 40
0.8771812719927693
 40
0.8810020421481954
 40
0.8860814534675092
 40
0.8913206550740915
 40
0.895447340580155
 40
0.8987877208963252
 40
0.9019444512639871
 40
0.9054171853785813
 40
0.9101223497617873
 40
0.9172420742299586
 40
0.9219831070663128
 40
0.9263916107321472
 40
0.9317745074591334
 40
0.9374491269225117
 40
0.944077185389724
 40
0.9495725850349902
 40
0.9536490335619124
 40
0.9580453279763512
 40
0.9630290119600864
 40
0.9683495561773088
 40
0.972976259684997
 40
0.9767776001439743
 40
0.9808746595595805
 40
0.986070576358007
 40
0.9924321968939886
 40
1.0
 40
1.0
 40
1.0
 40
1.0
 10
-273.0136388223154
 20
10.44892640670854
 30
0.0
 10
-272.8203962520734
 20
8.912081120272807
 30
0.0
 10
-272.4711992668418
 20
6.134940761817809
 30
0.0
 10
-271.8246287507316
 20
2.439536094992083
 30
0.0
 10
-271.2403410889219
 20
-0.4552473447234362
 30
0.0
 10
-270.7261349247635
 20
-2.737099978338195
 30
0.0
 10
-270.1607645787511
 20
-5.055941202564772
 30
0.0
 10
-269.3570815212018
 20
-8.079303471751155
 30
0.0
 10
-268.1603335324901
 20
-12.07719314417334
 30
0.0
 10
-266.7014823545799
 20
-16.34105081313214
 30
0.0
 10
-265.2351504256916
 20
-20.1698890230968
 30
0.0
 10
-264.0033468905829
 20
-23.13073377537343
 30
0.0
 10
-262.8985943399538
 20
-25.63126217680321
 30
0.0
 10
-261.7213639021293
 20
-28.16470532116656
 30
0.0
 10
-260.2986164220336
 20
-31.05176169378734
 30
0.0
 10
-258.7738759662366
 20
-33.94935767024096
 30
0.0
 10
-257.3323004089947
 20
-36.53887928600882
 30
0.0
 10
-255.9018489677139
 20
-38.99642019884337
 30
0.0
 10
-254.2561974570089
 20
-41.69307630315172
 30
0.0
 10
-252.3882551609966
 20
-44.5906084226241
 30
0.0
 10
-250.5001957855461
 20
-47.36682979252603
 30
0.0
 10
-248.7655350573229
 20
-49.80137829683245
 30
0.0
 10
-247.1229907362454
 20
-52.01672997950422
 30
0.0
 10
-245.3533068898194
 20
-54.31763607821026
 30
0.0
 10
-243.101268495336
 20
-57.12651600303406
 30
0.0
 10
-240.438150964627
 20
-60.27322201050399
 30
0.0
 10
-237.6821538402117
 20
-63.35042651665734
 30
0.0
 10
-235.1575711463906
 20
-66.0249317310807
 30
0.0
 10
-232.507195026019
 20
-68.70721077901692
 30
0.0
 10
-229.4709918231514
 20
-71.62279027589518
 30
0.0
 10
-226.1613733272285
 20
-74.6113046521747
 30
0.0
 10
-223.0467574148388
 20
-77.26517354095607
 30
0.0
 10
-220.0639335950213
 20
-79.68496830204194
 30
0.0
 10
-216.8236598464716
 20
-82.18914935997121
 30
0.0
 10
-213.0930101490515
 20
-84.91082760231133
 30
0.0
 10
-209.2719146707501
 20
-87.52499482019465
 30
0.0
 10
-205.8359183586142
 20
-89.74040051360635
 30
0.0
 10
-202.8754311025368
 20
-91.55983622380576
 30
0.0
 10
-199.9811504243116
 20
-93.26444713222565
 30
0.0
 10
-196.6098672585346
 20
-95.16040659285582
 30
0.0
 10
-192.468235628425
 20
-97.3592180756378
 30
0.0
 10
-187.8342602793698
 20
-99.64796183032718
 30
0.0
 10
-183.3604668421201
 20
-101.6940590880709
 30
0.0
 10
-179.4035429967477
 20
-103.3860033862998
 30
0.0
 10
-175.7931028771195
 20
-104.8410194127025
 30
0.0
 10
-172.3329279686796
 20
-106.1538680179936
 30
0.0
 10
-169.0443643953049
 20
-107.3291073922026
 30
0.0
 10
-166.0517246356071
 20
-108.3415654731646
 30
0.0
 10
-162.735331011506
 20
-109.401825777365
 30
0.0
 10
-158.7486907544722
 20
-110.6048329269921
 30
0.0
 10
-153.8151198218602
 20
-111.975771320057
 30
0.0
 10
-148.6013200272848
 20
-113.389699499759
 30
0.0
 10
-143.5022962033347
 20
-114.7746449158375
 30
0.0
 10
-139.0263053754421
 20
-115.9862886469463
 30
0.0
 10
-135.1308589749396
 20
-117.0406027324226
 30
0.0
 10
-130.5402388225665
 20
-118.2832546961821
 30
0.0
 10
-124.5990798481432
 20
-119.8918538464394
 30
0.0
 10
-117.1217247928717
 20
-121.9169812613813
 30
0.0
 10
-108.5304760477186
 20
-124.2444978922806
 30
0.0
 10
-99.39592730018143
 20
-126.7200474998106
 30
0.0
 10
-89.83917754661347
 20
-129.3109612193149
 30
0.0
 10
-80.13366926073293
 20
-131.943111223266
 30
0.0
 10
-70.94325399859633
 20
-134.4365310532903
 30
0.0
 10
-62.10109645203385
 20
-136.8366146895512
 30
0.0
 10
-53.8424196698472
 20
-139.0794804596719
 30
0.0
 10
-45.044026322455
 20
-141.4707291372343
 30
0.0
 10
-35.81641833488565
 20
-143.980549847461
 30
0.0
 10
-26.51778698805898
 20
-146.5112691497082
 30
0.0
 10
-17.03556746989716
 20
-149.0932528514794
 30
0.0
 10
-7.704674417700924
 20
-151.6350528799559
 30
0.0
 10
1.387609478917785
 20
-154.1126401089835
 30
0.0
 10
9.680632332791387
 20
-156.3730178510214
 30
0.0
 10
17.47712069102506
 20
-158.4984564282941
 30
0.0
 10
25.2778067663741
 20
-160.6257200484763
 30
0.0
 10
33.51008087202987
 20
-162.8708678581692
 30
0.0
 10
42.43724705044779
 20
-165.306782857733
 30
0.0
 10
51.93480057459862
 20
-167.881494740478
 30
0.0
 10
60.88069064832263
 20
-170.3383645352044
 30
0.0
 10
69.36187952954374
 20
-172.1109877970433
 30
0.0
 10
77.08207969458779
 20
-173.217433368709
 30
0.0
 10
84.59608625695395
 20
-173.8833830887359
 30
0.0
 10
91.66574677842364
 20
-174.1514676934405
 30
0.0
 10
97.55664188452612
 20
-174.1050558729338
 30
0.0
 10
102.6647227758134
 20
-173.8811234910307
 30
0.0
 10
107.5339877579413
 20
-173.5106343121993
 30
0.0
 10
112.8416946162374
 20
-172.9268517614941
 30
0.0
 10
118.1625065215889
 20
-172.2111908580356
 30
0.0
 10
123.3239569623202
 20
-171.3810077671695
 30
0.0
 10
128.5832940796709
 20
-170.3954854989771
 30
0.0
 10
133.8787156169933
 20
-169.2419078159065
 30
0.0
 10
138.957060409615
 20
-167.9780229505479
 30
0.0
 10
144.3468956362382
 20
-166.4763353851468
 30
0.0
 10
150.1445793608266
 20
-164.6442921712985
 30
0.0
 10
155.8046376199674
 20
-162.5912661600608
 30
0.0
 10
161.0423681536363
 20
-160.4677596425936
 30
0.0
 10
166.2911685325449
 20
-158.1146939775256
 30
0.0
 10
171.8839905014473
 20
-155.2917623589333
 30
0.0
 10
177.2644417282972
 20
-152.2222334296
 30
0.0
 10
181.3378317335992
 20
-149.6273909445332
 30
0.0
 10
184.3588409747393
 20
-147.5467074181071
 30
0.0
 10
186.5921435545303
 20
-145.9268945715549
 30
0.0
 10
188.7320263986072
 20
-144.2906037932351
 30
0.0
 10
190.6508424651739
 20
-142.7463706266558
 30
0.0
 10
192.2947282276146
 20
-141.356624598482
 30
0.0
 10
194.5718585468198
 20
-139.4120438317879
 30
0.0
 10
197.4491294165384
 20
-136.9102477679125
 30
0.0
 10
200.8449463370601
 20
-133.8970980083485
 30
0.0
 10
204.1436058822105
 20
-130.9079308529128
 30
0.0
 10
207.3523678255766
 20
-127.9431578954354
 30
0.0
 10
210.6657092362669
 20
-124.817808774604
 30
0.0
 10
214.0527401620473
 20
-121.5525797266479
 30
0.0
 10
217.2503600826262
 20
-118.4017263664646
 30
0.0
 10
220.1724035491843
 20
-115.4660886060481
 30
0.0
 10
222.9825122888467
 20
-112.5957173313704
 30
0.0
 10
225.9532825817241
 20
-109.5100974368999
 30
0.0
 10
229.0722620446747
 20
-106.2113720968665
 30
0.0
 10
232.080993668901
 20
-102.972119552657
 30
0.0
 10
234.5280362573916
 20
-100.3001601310487
 30
0.0
 10
236.6991428170826
 20
-97.8933059889988
 30
0.0
 10
238.656032983513
 20
-95.69765840223153
 30
0.0
 10
240.8847601489391
 20
-93.07379377583948
 30
0.0
 10
243.1033098250271
 20
-90.321119019554
 30
0.0
 10
245.0003078492499
 20
-87.85158377889928
 30
0.0
 10
246.551534340333
 20
-85.75228732756717
 30
0.0
 10
247.9740990903845
 20
-83.76009313432932
 30
0.0
 10
249.55412605015
 20
-81.46771531557623
 30
0.0
 10
251.6228517889721
 20
-78.32999176306674
 30
0.0
 10
253.7605749419276
 20
-74.86676719024356
 30
0.0
 10
255.7554948865486
 20
-71.40602855644028
 30
0.0
 10
257.465518063775
 20
-68.27299460158537
 30
0.0
 10
259.2016507114852
 20
-64.89368880228437
 30
0.0
 10
261.0768450239008
 20
-60.97392274284785
 30
0.0
 10
262.8378033577724
 20
-56.97132537311078
 30
0.0
 10
264.3248557360293
 20
-53.28043936322111
 30
0.0
 10
265.5273627688962
 20
-50.066562567646
 30
0.0
 10
266.6169702953587
 20
-46.94504356842058
 30
0.0
 10
267.7228318550486
 20
-43.50657716205357
 30
0.0
 10
268.7506091560253
 20
-39.9846233989691
 30
0.0
 10
269.610957768528
 20
-36.717897041342
 30
0.0
 10
270.327398109283
 20
-33.72512692576021
 30
0.0
 10
271.0105805663864
 20
-30.58056010624551
 30
0.0
 10
271.7305477985802
 20
-26.8012740344389
 30
0.0
 10
272.4779355781957
 20
-22.16015662405578
 30
0.0
 10
272.8558612406914
 20
-18.75885672910651
 30
0.0
 10
273.0611868217049
 20
-16.910943378846
 30
0.0
  0
LWPOLYLINE
  5
110
330
10B
100
AcDbEntity
  8
0
  6
Continuous
 62
     7
370
    25
100
AcDbPolyline
 90
       95
 70
   128
 43
0.0
 10
-77.0047391735
 20
-75.1589861227
 10
18.4579163278
 20
-101.1036903707
 10
29.1731123535
 20
-104.0158510516
 10
39.8883083791
 20
-106.9280117325
 10
50.6035044048
 20
-109.8401724134
 10
61.3431979013
 20
-112.720548313
 10
72.4163682543
 20
-115.1276220042
 10
83.8366538365
 20
-116.9170377412
 10
95.5114888948
 20
-118.083505259
 10
106.0530136418
 20
-118.5935454398
 10
116.6595593532
 20
-118.6008961326
 10
127.2662160167
 20
-118.1016836675
 10
137.7771861315
 20
-117.0954784752
 10
148.0743092103
 20
-115.5901686216
 10
157.8736149549
 20
-113.6374249058
 10
167.2683072125
 20
-111.2389986692
 10
176.1688869967
 20
-108.4230512275
 10
184.5028892334
 20
-105.2148700278
 10
192.3637352227
 20
-101.5660424424
 10
199.5538940306
 20
-97.5519634017
 10
206.023784714
 20
-93.1946916281
 10
211.7174260519
 20
-88.5173049853
 10
216.7919273862
 20
-83.6134455946
 10
236.5818475487
 20
-64.2978768279
 10
242.8786403277
 20
-58.1520140386
 10
249.1754331067
 20
-52.0061512492
 10
255.4722258857
 20
-45.8602884598
 10
261.7051123711
 20
-39.7013664063
 10
265.8539138149
 20
-34.7208232365
 10
269.0849154873
 20
-29.5981072406
 10
271.392998393
 20
-24.3680924347
 10
272.7710906099
 20
-19.0623994975
 10
273.2087719577
 20
-13.6107565962
 10
272.6631375745
 20
-8.1396003087
 10
271.134827976
 20
-2.6969634409
 10
268.6295441239
 20
2.6601914225
 10
265.1633002754
 20
7.8758986363
 10
260.8658886418
 20
12.8094264146
 10
255.7356901263
 20
17.5033416705
 10
249.8239399577
 20
21.92047088
 10
243.1711262805
 20
26.036827545
 10
234.7317396582
 20
30.3333430383
 10
225.4411462648
 20
34.1721278538
 10
215.3596636329
 20
37.5170633549
 10
204.7064971898
 20
40.4523846116
 10
194.0146797736
 20
43.3581914873
 10
152.011111353
 20
54.7738613564
 10
77.0047391735
 20
75.1589861227
 10
-18.4579163278
 20
101.1036903707
 10
-29.1731123535
 20
104.0158510516
 10
-39.8883083791
 20
106.9280117325
 10
-50.6035044048
 20
109.8401724134
 10
-61.3431979013
 20
112.720548313
 10
-72.4163682543
 20
115.1276220042
 10
-83.8366538365
 20
116.9170377412
 10
-95.5114888948
 20
118.083505259
 10
-106.0530136418
 20
118.5935454398
 10
-116.6595593532
 20
118.6008961326
 10
-127.2662160167
 20
118.1016836675
 10
-137.7771861315
 20
117.0954784752
 10
-148.0743092103
 20
115.5901686216
 10
-157.8736149549
 20
113.6374249058
 10
-167.2683072125
 20
111.2389986692
 10
-176.1688869967
 20
108.4230512275
 10
-184.5028892334
 20
105.2148700278
 10
-192.3637352227
 20
101.5660424424
 10
-199.5538940306
 20
97.5519634017
 10
-206.023784714
 20
93.1946916281
 10
-211.7174260519
 20
88.5173049853
 10
-216.7919273862
 20
83.6134455946
 10
-236.5818475487
 20
64.2978768279
 10
-242.8786403277
 20
58.1520140386
 10
-249.1754331067
 20
52.0061512492
 10
-255.4722258857
 20
45.8602884598
 10
-261.7051123711
 20
39.7013664063
 10
-265.8539138149
 20
34.7208232365
 10
-269.0849154873
 20
29.5981072406
 10
-271.392998393
 20
24.3680924347
 10
-272.7710906099
 20
19.0623994975
 10
-273.2087719577
 20
13.6107565962
 10
-272.6631375745
 20
8.1396003087
 10
-271.134827976
 20
2.6969634409
 10
-268.6295441239
 20
-2.6601914225
 10
-265.1633002754
 20
-7.8758986363
 10
-260.8658886418
 20
-12.8094264146
 10
-255.7356901263
 20
-17.5033416705
 10
-249.8239399577
 20
-21.92047088
 10
-243.1711262805
 20
-26.036827545
 10
-234.7317396582
 20
-30.3333430383
 10
-225.4411462648
 20
-34.1721278538
 10
-215.3596636329
 20
-37.5170633549
 10
-204.7064971898
 20
-40.4523846116
 10
-194.0146797736
 20
-43.3581914873
 10
-152.011111353
 20
-54.7738613564
 10
-77.0047391735
 20
-75.1589861227
  0
SPLINE
  5
111
330
10B
100
AcDbEntity
  8
0
  6
Continuous
 62
     7
370
    25
100
AcDbSpline
210
0.0
220
0.0
230
1.0
 70
    11
 71
     3
 72
    69
 73
    65
 74
     0
 42
0.000000001
 43
0.00000001
 40
0.0
 40
0.0
 40
0.0
 40
0.0
 40
0.0098899023909711
 40
0.0148348535864566
 40
0.0197798047819422
 40
0.0988990239097112
 40
0.0988990239097112
 40
0.105426778683403
 40
0.105426778683403
 40
0.1449858270096646
 40
0.1449858270096646
 40
0.1604303108690124
 40
0.1787648215975489
 40
0.1970993323260854
 40
0.2154338430546219
 40
0.2154338430546219
 40
0.2175740905214062
 40
0.2175740905214062
 40
0.2500000000000001
 40
0.282425909478594
 40
0.282425909478594
 40
0.2845661569453778
 40
0.2845661569453778
 40
0.3029006676739143
 40
0.3212351784024507
 40
0.3395696891309873
 40
0.3550141729903354
 40
0.3550141729903354
 40
0.3945732213165967
 40
0.3945732213165967
 40
0.4011009760902891
 40
0.4011009760902891
 40
0.5000000000000002
 40
0.5988990239097115
 40
0.5988990239097115
 40
0.6054267786834028
 40
0.6054267786834028
 40
0.6449858270096647
 40
0.6449858270096647
 40
0.6604303108690124
 40
0.6787648215975489
 40
0.6970993323260855
 40
0.715433843054622
 40
0.715433843054622
 40
0.7175740905214064
 40
0.7175740905214064
 40
0.7500000000000002
 40
0.7824259094785941
 40
0.7824259094785941
 40
0.784566156945378
 40
0.784566156945378
 40
0.8029006676739144
 40
0.821235178402451
 40
0.8395696891309874
 40
0.8550141729903354
 40
0.8550141729903354
 40
0.8945732213165969
 40
0.8945732213165969
 40
0.9011009760902887
 40
0.9011009760902887
 40
0.9802201952180577
 40
0.9851651464135434
 40
0.9901100976090289
 40
1.0
 40
1.0
 40
1.0
 40
1.0
 10
-70.00430833950934
 20
-68.32635102064101
 30
0.0
 10
-74.22173258196393
 20
-67.1801454800121
 30
0.0
 10
-80.54786894564585
 20
-65.46083716906875
 30
0.0
 10
-88.98271743055504
 20
-63.16842608781095
 30
0.0
 10
-126.9395356126465
 20
-52.85257622215084
 30
0.0
 10
-162.7876416735106
 20
-43.1098291268054
 30
0.0
 10
-199.3107143738708
 20
-33.18364056163036
 30
0.0
 10
-202.0943931345934
 20
-32.42709632148667
 30
0.0
 10
-221.747529532423
 20
-27.08579496433014
 30
0.0
 10
-235.5647172402078
 20
-20.17461736960217
 30
0.0
 10
-248.588420644743
 20
-8.477110941985055
 30
0.0
 10
-255.0972034666352
 20
-0.8023098226641046
 30
0.0
 10
-259.2817854239394
 20
11.97084562064049
 30
0.0
 10
-256.8415839700058
 20
25.37883189257487
 30
0.0
 10
-250.7760721679062
 20
33.89010203756276
 30
0.0
 10
-246.168735549455
 20
38.38700382160452
 30
0.0
 10
-245.6871259288581
 20
38.8570695757326
 30
0.0
 10
-237.9088694466903
 20
46.44888635580386
 30
0.0
 10
-223.3155757235487
 20
60.6923884076903
 30
0.0
 10
-208.7222820004071
 20
74.93589045957671
 30
0.0
 10
-200.9440255182394
 20
82.52770723964787
 30
0.0
 10
-200.4624158976426
 20
82.99777299377584
 30
0.0
 10
-195.8550792791916
 20
87.49467477781747
 30
0.0
 10
-185.6364571793965
 20
94.87721853428089
 30
0.0
 10
-165.5232419526481
 20
103.4820583496422
 30
0.0
 10
-142.6885723672938
 20
108.911960176181
 30
0.0
 10
-126.7138338890771
 20
110.4762219697182
 30
0.0
 10
-100.6145052738669
 20
111.5409265995407
 30
0.0
 10
-81.73891285340403
 20
109.5669070769518
 30
0.0
 10
-62.08577645557453
 20
104.2256057197952
 30
0.0
 10
-59.30209769485159
 20
103.4690614796515
 30
0.0
 10
-14.34417650958245
 20
91.25046183321881
 30
0.0
 10
70.00430833950992
 20
68.32635102064089
 30
0.0
 10
154.3527931886032
 20
45.40224020806261
 30
0.0
 10
199.3107143738712
 20
33.18364056163017
 30
0.0
 10
202.0943931345937
 20
32.42709632148654
 30
0.0
 10
221.7475295324231
 20
27.08579496433007
 30
0.0
 10
235.564717240208
 20
20.17461736960202
 30
0.0
 10
248.5884206447431
 20
8.47711094198493
 30
0.0
 10
255.0972034666353
 20
0.8023098226640907
 30
0.0
 10
259.2817854239395
 20
-11.97084562064053
 30
0.0
 10
256.8415839700059
 20
-25.37883189257493
 30
0.0
 10
250.7760721679064
 20
-33.89010203756281
 30
0.0
 10
246.1687355494551
 20
-38.3870038216046
 30
0.0
 10
245.6871259288581
 20
-38.85706957573269
 30
0.0
 10
237.9088694466903
 20
-46.44888635580396
 30
0.0
 10
223.3155757235488
 20
-60.69238840769034
 30
0.0
 10
208.7222820004072
 20
-74.93589045957673
 30
0.0
 10
200.9440255182395
 20
-82.5277072396479
 30
0.0
 10
200.4624158976427
 20
-82.99777299377587
 30
0.0
 10
195.8550792791916
 20
-87.49467477781745
 30
0.0
 10
185.6364571793966
 20
-94.87721853428089
 30
0.0
 10
165.5232419526482
 20
-103.4820583496422
 30
0.0
 10
142.6885723672939
 20
-108.911960176181
 30
0.0
 10
126.7138338890773
 20
-110.4762219697183
 30
0.0
 10
100.6145052738673
 20
-111.5409265995408
 30
0.0
 10
81.7389128534043
 20
-109.5669070769518
 30
0.0
 10
62.08577645557487
 20
-104.2256057197954
 30
0.0
 10
59.30209769485227
 20
-103.4690614796517
 30
0.0
 10
22.77902499449147
 20
-93.54287291447686
 30
0.0
 10
-13.06908106637228
 20
-83.80012581913121
 30
0.0
 10
-51.02589924846363
 20
-73.48427595347108
 30
0.0
 10
-59.46074773337283
 20
-71.19186487221327
 30
0.0
 10
-65.78688409705474
 20
-69.47255656126993
 30
0.0
 10
-70.00430833950934
 20
-68.32635102064101
 30
0.0
  0
SPLINE
  5
112
330
10B
100
AcDbEntity
  8
0
  6
Continuous
 62
     7
370
    25
100
AcDbSpline
210
0.0
220
0.0
230
1.0
 70
     8
 71
     3
 72
    20
 73
    16
 74
     0
 42
0.000000001
 43
0.00000001
 40
0.0
 40
0.0
 40
0.0
 40
0.0
 40
0.0971031993096643
 40
0.1640600610327481
 40
0.2306974930693011
 40
0.2976890294913231
 40
0.3981755772404224
 40
0.4992207935188882
 40
0.5998577278224311
 40
0.7005498068875077
 40
0.7672781296990951
 40
0.8340387815925405
 40
0.9011546476270991
 40
0.9516105607670533
 40
1.0
 40
1.0
 40
1.0
 40
1.0
 10
-16.19003722389433
 20
-82.95191680951783
 30
0.0
 10
-14.23604012733554
 20
-82.47263204808712
 30
0.0
 10
-10.93467739986315
 20
-81.66285968454605
 30
0.0
 10
-5.912418467173216
 20
-81.07052691470626
 30
0.0
 10
-1.482812155879896
 20
-80.82988038141836
 30
0.0
 10
3.703558219466175
 20
-80.90506979307318
 30
0.0
 10
9.55345879166928
 20
-81.47295971461543
 30
0.0
 10
15.77711496676595
 20
-82.75865480068357
 30
0.0
 10
21.40372757610264
 20
-84.68241904603777
 30
0.0
 10
25.70964669501956
 20
-86.86229191999094
 30
0.0
 10
28.85795898639792
 20
-89.04538065123776
 30
0.0
 10
31.07727276262914
 20
-91.0811631398113
 30
0.0
 10
32.61314153945686
 20
-93.07288304992512
 30
0.0
 10
33.58796086515239
 20
-94.92447859836747
 30
0.0
 10
33.88792293584736
 20
-96.05063593294503
 30
0.0
 10
34.03476844798965
 20
-96.60194280372934
 30
0.0
  0
VIEWPORT
  5
137
330
10B
100
AcDbEntity
  8
0
100
AcDbViewport
 10
0.0
 20
0.0
 30
0.0
 40
205.6
 41
156.0
 68
     1
 69
     1
 12
0.0
 22
0.0
 13
0.0
 23
0.0
 14
10.0
 24
10.0
 15
10.0
 25
10.0
 16
0.0
 26
0.0
 36
1.0
 17
0.0
 27
0.0
 37
0.0
 42
50.0
 43
0.0
 44
0.0
 45
414.0525291829
 50
0.0
 51
0.0
 72
   100
 90
   557152
  1

281
     0
 71
     1
 74
     0
110
0.0
120
0.0
130
0.0
111
1.0
121
0.0
131
0.0
112
0.0
122
1.0
132
0.0
 79
     0
146
0.0
  0
ENDBLK
  5
10E
330
10B
100
AcDbEntity
  8
0
100
AcDbBlockEnd
  0
BLOCK
  5
115
330
113
100
AcDbEntity
  8
0
100
AcDbBlockBegin
  2
*Paper_Space7
 70
     0
 10
0.0
 20
0.0
 30
0.0
  3
*Paper_Space7
  1

  0
SPLINE
  5
117
330
113
100
AcDbEntity
  8
0
  6
Continuous
 62
     7
370
    25
100
AcDbSpline
210
0.0
220
0.0
230
1.0
 70
     8
 71
     3
 72
    64
 73
    60
 74
     0
 42
0.000000001
 43
0.00000001
 40
0.0
 40
0.0
 40
0.0
 40
0.0
 40
0.020204140509634
 40
0.0368718185906391
 40
0.0500208627093346
 40
0.0601099021860565
 40
0.0691802454996368
 40
0.084756570957352
 40
0.0988560246395874
 40
0.114360331539882
 40
0.1327152941145577
 40
0.1524102181800436
 40
0.1721236830241819
 40
0.1917805028088267
 40
0.2218911750438312
 40
0.248873336215389
 40
0.277208061234588
 40
0.299121630849217
 40
0.3215983200687892
 40
0.3440516058436418
 40
0.3568214708884766
 40
0.3718917248947899
 40
0.3864264087739509
 40
0.3978401550906039
 40
0.4094668531192783
 40
0.4233144486423975
 40
0.4414367057524972
 40
0.4585498583491454
 40
0.4712499803172058
 40
0.4823976317556614
 40
0.4937906649043778
 40
0.5060583926192531
 40
0.5196714368102642
 40
0.5523145520720663
 40
0.5782358084878317
 40
0.6006957702082071
 40
0.6273348734792392
 40
0.6589997943425056
 40
0.6894582349233258
 40
0.717814262360615
 40
0.7352519578960943
 40
0.752961201420963
 40
0.7709014347757449
 40
0.7888345657728516
 40
0.8062459958839144
 40
0.8212976581340805
 40
0.8380516067412139
 40
0.8595658048642311
 40
0.8834898040096766
 40
0.9074175787142007
 40
0.920900074083351
 40
0.9326366983588555
 40
0.9421880078869267
 40
0.9495500497027074
 40
0.9584294142013391
 40
0.9706489068208068
 40
0.9851197469305717
 40
0.998356624271224
 40
1.0
 40
1.0
 40
1.0
 40
1.0
 10
-275.2865825274305
 20
1.306616529977447
 30
0.0
 10
-275.1248798855692
 20
-0.3618762717331053
 30
0.0
 10
-274.8297784694266
 20
-3.406814702799875
 30
0.0
 10
-274.2124958611046
 20
-7.512044016873304
 30
0.0
 10
-273.6236485434097
 20
-10.77016830077598
 30
0.0
 10
-273.0791481192485
 20
-13.39470454546585
 30
0.0
 10
-272.4361866471179
 20
-16.20458888768277
 30
0.0
 10
-271.6364262594604
 20
-19.32045607053074
 30
0.0
 10
-270.5897077157811
 20
-22.92602692941471
 30
0.0
 10
-269.3594114293796
 20
-26.72060992119371
 30
0.0
 10
-267.8374047603559
 20
-30.90802394521061
 30
0.0
 10
-266.0198658786692
 20
-35.36011441726099
 30
0.0
 10
-263.9795298932063
 20
-39.83892072814711
 30
0.0
 10
-261.372469292729
 20
-45.01224067773934
 30
0.0
 10
-258.2134520808854
 20
-50.58342846576814
 30
0.0
 10
-254.3592064340836
 20
-56.58529942080809
 30
0.0
 10
-250.5936681733333
 20
-61.82485180359004
 30
0.0
 10
-246.823134007408
 20
-66.58835582944523
 30
0.0
 10
-243.1841518143566
 20
-70.82318997202617
 30
0.0
 10
-239.903803414586
 20
-74.34670800565634
 30
0.0
 10
-236.9574725217907
 20
-77.32337276633172
 30
0.0
 10
-234.4120450155794
 20
-79.77510056086184
 30
0.0
 10
-231.8893188022322
 20
-82.086017388468
 30
0.0
 10
-229.5355261181356
 20
-84.1504607456299
 30
0.0
 10
-227.1903509950203
 20
-86.13011792005004
 30
0.0
 10
-224.3728390253887
 20
-88.41065109992078
 30
0.0
 10
-221.1444934525449
 20
-90.89080126104453
 30
0.0
 10
-217.9259721280816
 20
-93.2267424365536
 30
0.0
 10
-215.1361205749662
 20
-95.1570728161662
 30
0.0
 10
-212.7140429170518
 20
-96.77045914997923
 30
0.0
 10
-210.3001862279728
 20
-98.32191647307425
 30
0.0
 10
-207.6879427832069
 20
-99.93929549970021
 30
0.0
 10
-203.5358054540517
 20
-102.4069554484318
 30
0.0
 10
-198.2734956317281
 20
-105.3147609479293
 30
0.0
 10
-192.208457924995
 20
-108.3094745287603
 30
0.0
 10
-186.5022639644336
 20
-110.8766840353323
 30
0.0
 10
-180.2722588892324
 20
-113.4172706491095
 30
0.0
 10
-173.3233978070931
 20
-115.9291710379288
 30
0.0
 10
-166.1485518430329
 20
-118.1981405302772
 30
0.0
 10
-160.0361565463124
 20
-119.8898320752209
 30
0.0
 10
-154.9075055413001
 20
-121.1615664034598
 30
0.0
 10
-150.5960623335264
 20
-122.139192081535
 30
0.0
 10
-146.2218002906709
 20
-123.0403099765683
 30
0.0
 10
-141.8503291360921
 20
-123.8524862256876
 30
0.0
 10
-137.7019077895152
 20
-124.5428511731834
 30
0.0
 10
-133.6272324225349
 20
-125.1507286018503
 30
0.0
 10
-129.2771536565032
 20
-125.7212045989297
 30
0.0
 10
-124.3604958382085
 20
-126.3627528527766
 30
0.0
 10
-118.774497466184
 20
-127.0770531500052
 30
0.0
 10
-113.7646473586169
 20
-127.7049606882329
 30
0.0
 10
-109.73053820687
 20
-128.1999752028675
 30
0.0
 10
-106.8671481363824
 20
-128.5454280448071
 30
0.0
 10
-104.5028203301007
 20
-128.8261854255262
 30
0.0
 10
-102.3715806416294
 20
-129.0756732244393
 30
0.0
 10
-100.0137376332574
 20
-129.347439151141
 30
0.0
 10
-97.0642410726253
 20
-129.6801394768431
 30
0.0
 10
-93.75034494450844
 20
-130.0422365677389
 30
0.0
 10
-91.30866368342816
 20
-130.2999850511319
 30
0.0
 10
-90.09395716328069
 20
-130.4238959522445
 30
0.0
 10
-89.95980492786626
 20
-130.4375806769914
 30
0.0
  0
SPLINE
  5
118
330
113
100
AcDbEntity
  8
0
  6
Continuous
 62
     7
370
    25
100
AcDbSpline
210
0.0
220
0.0
230
1.0
 70
     8
 71
     3
 72
   112
 73
   108
 74
     0
 42
0.000000001
 43
0.00000001
 40
0.0
 40
0.0
 40
0.0
 40
0.0
 40
0.0011774502529954
 40
0.0038975471202871
 40
0.0073774159994802
 40
0.0113056645871614
 40
0.0193840545340924
 40
0.0293396913050692
 40
0.0376750468960647
 40
0.0448221474237295
 40
0.0532271974040643
 40
0.062170718801499
 40
0.0709208259074108
 40
0.0865663920378142
 40
0.1028915748803773
 40
0.1201258627345346
 40
0.1447195806962828
 40
0.1710805504825549
 40
0.1990780277296503
 40
0.2285520115354336
 40
0.2441000321035784
 40
0.257509052193441
 40
0.2688027211302135
 40
0.2780074914949043
 40
0.2851514570445307
 40
0.2887267482542357
 40
0.2916591704596244
 40
0.2960215239300095
 40
0.3022768346741967
 40
0.3103434457264076
 40
0.3195882004022028
 40
0.3326948930615216
 40
0.3453563982798334
 40
0.3581879645277857
 40
0.3715785874340671
 40
0.3811714731864198
 40
0.389263263505442
 40
0.3974164711277913
 40
0.4063089164918959
 40
0.4138090310199692
 40
0.4223026519048869
 40
0.4307075640726045
 40
0.4372604464806445
 40
0.4430733796662809
 40
0.4492759875794619
 40
0.4565455867180089
 40
0.4663000045705382
 40
0.4734391867254444
 40
0.480178069810114
 40
0.4896140920819834
 40
0.4970942898639747
 40
0.5023545999690754
 40
0.5070212289267643
 40
0.5124595476291571
 40
0.5190510309112756
 40
0.5268920194217761
 40
0.5349507685163091
 40
0.5411761184369027
 40
0.5462038584234856
 40
0.5509917737283917
 40
0.5560119146021072
 40
0.5649450254087426
 40
0.5747360518513513
 40
0.5843866280951144
 40
0.5931757722779233
 40
0.6015117867750076
 40
0.6104597927768417
 40
0.6193967544922733
 40
0.6274623796226748
 40
0.6335517415923517
 40
0.6396203566720132
 40
0.645721792597364
 40
0.6510536249096324
 40
0.65893803606655
 40
0.6669864466911521
 40
0.6752065300947228
 40
0.6820130804965783
 40
0.6891690539769322
 40
0.6962214165091631
 40
0.7040891387357772
 40
0.7111656560774957
 40
0.71903760313471
 40
0.727714593336775
 40
0.7387467864826397
 40
0.7504597058377345
 40
0.7627693505663712
 40
0.7755387575612921
 40
0.7879620948460083
 40
0.7986731110713936
 40
0.8042687937780937
 40
0.8096486575316685
 40
0.8177269226073084
 40
0.8254134495141506
 40
0.8320446075281955
 40
0.8394747254173546
 40
0.8513770194908646
 40
0.8632463700709753
 40
0.8748029392422304
 40
0.8868861462156917
 40
0.9040395210192887
 40
0.920347333267623
 40
0.9358538552713714
 40
0.945790647591339
 40
0.956290749690783
 40
0.9685429249330854
 40
0.9831026174791963
 40
1.0
 40
1.0
 40
1.0
 40
1.0
 10
-92.29733627647485
 20
-130.1650616285732
 30
0.0
 10
-92.28448925862392
 20
-130.1665460819414
 30
0.0
 10
-92.24196359157203
 20
-130.171459858074
 30
0.0
 10
-91.65229196605765
 20
-130.2396380179833
 30
0.0
 10
-90.54840803678404
 20
-130.3684251158924
 30
0.0
 10
-88.63961371590386
 20
-130.5922660506727
 30
0.0
 10
-85.65703954636083
 20
-130.9441455783531
 30
0.0
 10
-81.82343704933476
 20
-131.3994579666056
 30
0.0
 10
-78.12535965131967
 20
-131.84108922992
 30
0.0
 10
-74.56909049303478
 20
-132.2675004293064
 30
0.0
 10
-70.90382194108768
 20
-132.7086886397184
 30
0.0
 10
-66.98368429822078
 20
-133.1825001268756
 30
0.0
 10
-61.97141640537608
 20
-133.7908185903925
 30
0.0
 10
-55.83490793965141
 20
-134.5397417470012
 30
0.0
 10
-48.38022399588064
 20
-135.456141672129
 30
0.0
 10
-39.52701002769196
 20
-136.5528513664068
 30
0.0
 10
-29.12045781205764
 20
-137.8547186403235
 30
0.0
 10
-17.06161709549195
 20
-139.3827173482323
 30
0.0
 10
-4.245557677398311
 20
-141.0273878453892
 30
0.0
 10
6.922248487888777
 20
-142.4787006015072
 30
0.0
 10
15.86324822290341
 20
-143.6516547150995
 30
0.0
 10
22.02951716275038
 20
-144.4654217283628
 30
0.0
 10
27.23271335282879
 20
-145.1555988065103
 30
0.0
 10
31.48512672689753
 20
-145.7221057575402
 30
0.0
 10
34.56284329997998
 20
-146.1336121487275
 30
0.0
 10
36.68264356403129
 20
-146.4177822489287
 30
0.0
 10
38.38582262284561
 20
-146.6465029511136
 30
0.0
 10
40.50510591514888
 20
-146.9317458680672
 30
0.0
 10
43.42523625161473
 20
-147.3261121781942
 30
0.0
 10
47.10654716126696
 20
-147.825698772662
 30
0.0
 10
51.85448609933303
 20
-148.4743115090279
 30
0.0
 10
57.11652507775675
 20
-149.1951515076368
 30
0.0
 10
62.43594416980801
 20
-149.9073942535548
 30
0.0
 10
67.32784448281528
 20
-150.5134563605003
 30
0.0
 10
71.68158581187251
 20
-151.0085248031261
 30
0.0
 10
75.45193973811608
 20
-151.394100222835
 30
0.0
 10
78.93261004618016
 20
-151.680396878721
 30
0.0
 10
82.6141890850361
 20
-151.9074943561989
 30
0.0
 10
86.41582513168625
 20
-152.0672717627516
 30
0.0
 10
90.27106694071082
 20
-152.1567263630972
 30
0.0
 10
94.04044357082044
 20
-152.1780347484958
 30
0.0
 10
97.68435928747584
 20
-152.1299198032734
 30
0.0
 10
100.9664802294587
 20
-152.0303148744817
 30
0.0
 10
103.9336803362051
 20
-151.8971595476462
 30
0.0
 10
107.0431045049501
 20
-151.7116365706371
 30
0.0
 10
110.775738557352
 20
-151.4262922373811
 30
0.0
 10
114.6324786029043
 20
-151.0411984061971
 30
0.0
 10
118.4562358325753
 20
-150.5834979563228
 30
0.0
 10
122.2129384512258
 20
-150.0943135005993
 30
0.0
 10
126.0128111830358
 20
-149.5451310689589
 30
0.0
 10
129.5564279867569
 20
-148.9785579354175
 30
0.0
 10
132.3326659351187
 20
-148.5006473524365
 30
0.0
 10
134.7762615210078
 20
-148.0558910734296
 30
0.0
 10
137.4212657540035
 20
-147.5472599418539
 30
0.0
 10
140.5600590773478
 20
-146.9039184284157
 30
0.0
 10
144.0935525420972
 20
-146.1235767405135
 30
0.0
 10
147.542899959879
 20
-145.2982088032744
 30
0.0
 10
150.5358197493205
 20
-144.5294322847043
 30
0.0
 10
153.0174958388961
 20
-143.8556882462899
 30
0.0
 10
155.3070085069193
 20
-143.2036369343142
 30
0.0
 10
158.1926550726987
 20
-142.3417100619075
 30
0.0
 10
161.8109230909682
 20
-141.186515233136
 30
0.0
 10
166.1054353938804
 20
-139.687933857591
 30
0.0
 10
170.3417305022701
 20
-138.0670019694109
 30
0.0
 10
174.3215050892072
 20
-136.4057326917643
 30
0.0
 10
178.1561877066399
 20
-134.6707192183622
 30
0.0
 10
181.9681377230911
 20
-132.7999157068911
 30
0.0
 10
185.6817941503473
 20
-130.8167600843535
 30
0.0
 10
188.9283465473791
 20
-128.9385177251619
 30
0.0
 10
191.7293415619745
 20
-127.2046908368698
 30
0.0
 10
194.1996479799061
 20
-125.5883392723946
 30
0.0
 10
196.5560120323604
 20
-123.9457870808306
 30
0.0
 10
198.7522601720759
 20
-122.3479316532353
 30
0.0
 10
200.5933749473184
 20
-120.9870377138235
 30
0.0
 10
202.7885732900197
 20
-119.3312076050749
 30
0.0
 10
204.8000417272768
 20
-117.7811157627852
 30
0.0
 10
206.7442247978546
 20
-116.254089182256
 30
0.0
 10
208.5756910668574
 20
-114.7891472030885
 30
0.0
 10
210.4891246243662
 20
-113.2302313927552
 30
0.0
 10
212.3964788212505
 20
-111.6458772981766
 30
0.0
 10
214.3847591354898
 20
-109.961396610523
 30
0.0
 10
216.4135953034459
 20
-108.2083643930508
 30
0.0
 10
218.7515157380646
 20
-106.1443210373234
 30
0.0
 10
221.3779538688083
 20
-103.7664278105596
 30
0.0
 10
224.2607921424124
 20
-101.0824529857854
 30
0.0
 10
227.2338427987762
 20
-98.23484426139589
 30
0.0
 10
230.1937708603035
 20
-95.31867878775408
 30
0.0
 10
233.0056254989596
 20
-92.47368496884799
 30
0.0
 10
235.3677571958515
 20
-90.0245783092471
 30
0.0
 10
237.2358196391471
 20
-88.04975147046981
 30
0.0
 10
239.1030092575521
 20
-86.04632404451111
 30
0.0
 10
241.3596328869776
 20
-83.53085030151415
 30
0.0
 10
243.6948236869168
 20
-80.76904909516547
 30
0.0
 10
245.8736150642888
 20
-78.06710251068615
 30
0.0
 10
248.4187908935295
 20
-74.75150287591754
 30
0.0
 10
251.3592432128272
 20
-70.64878672682697
 30
0.0
 10
254.4933866386156
 20
-65.87805829254484
 30
0.0
 10
257.4483691201418
 20
-60.96168367485783
 30
0.0
 10
260.6187045162295
 20
-55.16615536295606
 30
0.0
 10
263.8352836679672
 20
-48.50568709334406
 30
0.0
 10
266.8663344571344
 20
-41.16134661313504
 30
0.0
 10
269.0946237634029
 20
-34.77121027850258
 30
0.0
 10
270.7630091733043
 20
-29.18805110648452
 30
0.0
 10
272.0960222566197
 20
-24.05811446677496
 30
0.0
 10
273.3719677820425
 20
-18.14376445243219
 30
0.0
 10
274.5584012699599
 20
-11.15264696883512
 30
0.0
 10
275.0371170440756
 20
-6.075947233585101
 30
0.0
 10
275.294262488678
 20
-3.348963329731752
 30
0.0
  0
LWPOLYLINE
  5
11A
330
113
100
AcDbEntity
  8
0
  6
Continuous
 62
     7
370
    25
100
AcDbPolyline
 90
       95
 70
   128
 43
0.0
 10
-58.3363094345
 20
-51.4477890576
 10
42.6307957656
 20
-64.1684486206
 10
53.963838186
 20
-65.5962777553
 10
65.2968806064
 20
-67.0241068899
 10
76.6299230269
 20
-68.4519360245
 10
87.9796301574
 20
-69.8583409657
 10
99.546418852
 20
-70.9470143729
 10
111.3091054935
 20
-71.6246853804
 10
123.1745648781
 20
-71.8917783597
 10
133.757573347
 20
-71.7840946444
 10
144.2842073102
 20
-71.3508904296
 10
154.689125017
 20
-70.5923579936
 10
164.8771633802
 20
-69.5121767639
 10
174.7329688979
 20
-68.1202912246
 10
183.9871847027
 20
-66.4616098747
 10
192.7327180822
 20
-64.5334092391
 10
200.8875319498
 20
-62.3574702529
 10
208.385800802
 20
-59.9530249039
 10
215.3085834768
 20
-57.2851245683
 10
221.4780023691
 20
-54.4103448695
 10
226.8501633838
 20
-51.3448994083
 10
231.375066535
 20
-48.1059205515
 10
235.2311318315
 20
-44.7470601338
 10
250.2233377487
 20
-31.5251773132
 10
254.993585086
 20
-27.3182145975
 10
259.7638324233
 20
-23.1112518818
 10
264.5340797605
 20
-18.9042891662
 10
269.2377722387
 20
-14.6915781393
 10
272.1568241999
 20
-11.3216905322
 10
274.130952261
 20
-7.8983913531
 10
275.1634639047
 20
-4.4442886536
 10
275.2549463118
 20
-0.9799817685
 10
274.3781594598
 20
2.5392288611
 10
272.5209363679
 20
6.0303720097
 10
269.6954643114
 20
9.4626266225
 10
265.9210996166
 20
12.7996457227
 10
261.2271927246
 20
16.0061484023
 10
255.7763817495
 20
18.9971131533
 10
249.556822896
 20
21.7998103354
 10
242.6282969165
 20
24.3924818765
 10
235.0367488161
 20
26.7613949135
 10
225.6290584682
 20
29.1722447294
 10
215.4867987199
 20
31.2539871927
 10
204.6785089903
 20
32.9859166901
 10
193.4014484479
 20
34.4311810364
 10
182.0931326655
 20
35.8558949075
 10
137.6676063775
 20
41.4529851152
 10
58.3363094345
 20
51.4477890576
 10
-42.6307957656
 20
64.1684486206
 10
-53.963838186
 20
65.5962777553
 10
-65.2968806064
 20
67.0241068899
 10
-76.6299230269
 20
68.4519360245
 10
-87.9796301574
 20
69.8583409657
 10
-99.546418852
 20
70.9470143729
 10
-111.3091054935
 20
71.6246853804
 10
-123.1745648781
 20
71.8917783597
 10
-133.757573347
 20
71.7840946444
 10
-144.2842073102
 20
71.3508904296
 10
-154.689125017
 20
70.5923579936
 10
-164.8771633802
 20
69.5121767639
 10
-174.7329688979
 20
68.1202912246
 10
-183.9871847027
 20
66.4616098747
 10
-192.7327180822
 20
64.5334092391
 10
-200.8875319498
 20
62.3574702529
 10
-208.385800802
 20
59.9530249039
 10
-215.3085834768
 20
57.2851245683
 10
-221.4780023691
 20
54.4103448695
 10
-226.8501633838
 20
51.3448994083
 10
-231.375066535
 20
48.1059205515
 10
-235.2311318315
 20
44.7470601338
 10
-250.2233377487
 20
31.5251773132
 10
-254.993585086
 20
27.3182145975
 10
-259.7638324233
 20
23.1112518818
 10
-264.5340797605
 20
18.9042891662
 10
-269.2377722387
 20
14.6915781393
 10
-272.1568241999
 20
11.3216905322
 10
-274.130952261
 20
7.8983913531
 10
-275.1634639047
 20
4.4442886536
 10
-275.2549463118
 20
0.9799817685
 10
-274.3781594598
 20
-2.5392288611
 10
-272.5209363679
 20
-6.0303720097
 10
-269.6954643114
 20
-9.4626266225
 10
-265.9210996166
 20
-12.7996457227
 10
-261.2271927246
 20
-16.0061484023
 10
-255.7763817495
 20
-18.9971131533
 10
-249.556822896
 20
-21.7998103354
 10
-242.6282969165
 20
-24.3924818765
 10
-235.0367488161
 20
-26.7613949135
 10
-225.6290584682
 20
-29.1722447294
 10
-215.4867987199
 20
-31.2539871927
 10
-204.6785089903
 20
-32.9859166901
 10
-193.4014484479
 20
-34.4311810364
 10
-182.0931326655
 20
-35.8558949075
 10
-137.6676063775
 20
-41.4529851152
 10
-58.3363094345
 20
-51.4477890576
  0
SPLINE
  5
11B
330
113
100
AcDbEntity
  8
0
  6
Continuous
 62
     7
370
    25
100
AcDbSpline
210
0.0
220
0.0
230
1.0
 70
    11
 71
     3
 72
    69
 73
    65
 74
     0
 42
0.000000001
 43
0.00000001
 40
0.0
 40
0.0
 40
0.0
 40
0.0
 40
0.0098899023909711
 40
0.0148348535864566
 40
0.0197798047819422
 40
0.0988990239097112
 40
0.0988990239097112
 40
0.105426778683403
 40
0.105426778683403
 40
0.1449858270096646
 40
0.1449858270096646
 40
0.1604303108690124
 40
0.1787648215975489
 40
0.1970993323260854
 40
0.2154338430546219
 40
0.2154338430546219
 40
0.2175740905214062
 40
0.2175740905214062
 40
0.2500000000000001
 40
0.282425909478594
 40
0.282425909478594
 40
0.2845661569453778
 40
0.2845661569453778
 40
0.3029006676739143
 40
0.3212351784024507
 40
0.3395696891309873
 40
0.3550141729903354
 40
0.3550141729903354
 40
0.3945732213165967
 40
0.3945732213165967
 40
0.4011009760902891
 40
0.4011009760902891
 40
0.5000000000000002
 40
0.5988990239097115
 40
0.5988990239097115
 40
0.6054267786834028
 40
0.6054267786834028
 40
0.6449858270096647
 40
0.6449858270096647
 40
0.6604303108690124
 40
0.6787648215975489
 40
0.6970993323260855
 40
0.715433843054622
 40
0.715433843054622
 40
0.7175740905214064
 40
0.7175740905214064
 40
0.7500000000000002
 40
0.7824259094785941
 40
0.7824259094785941
 40
0.784566156945378
 40
0.784566156945378
 40
0.8029006676739144
 40
0.821235178402451
 40
0.8395696891309874
 40
0.8550141729903354
 40
0.8550141729903354
 40
0.8945732213165969
 40
0.8945732213165969
 40
0.9011009760902887
 40
0.9011009760902887
 40
0.9802201952180577
 40
0.9851651464135434
 40
0.9901100976090289
 40
1.0
 40
1.0
 40
1.0
 40
1.0
 10
-53.03300857682493
 20
-46.77071732507878
 30
0.0
 10
-57.49361272538297
 20
-46.208734026589
 30
0.0
 10
-64.18451894822007
 20
-45.36575907885432
 30
0.0
 10
-73.10572724533617
 20
-44.24179248187475
 30
0.0
 10
-113.2511645823587
 20
-39.18394279546663
 30
0.0
 10
-151.1662998451021
 20
-34.40708475830356
 30
0.0
 10
-189.795320839797
 20
-29.54028557303008
 30
0.0
 10
-192.7395086460267
 20
-29.16935277567497
 30
0.0
 10
-213.52585991367
 20
-26.55051867609819
 30
0.0
 10
-228.8987531074372
 20
-22.68252715258753
 30
0.0
 10
-244.6353648930418
 20
-15.70791076992158
 30
0.0
 10
-252.9397825426487
 20
-11.04775625454647
 30
0.0
 10
-260.164030908
 20
-3.017388202071106
 30
0.0
 10
-260.9671866150708
 20
5.694204454812072
 30
0.0
 10
-256.9953099230368
 20
11.41072360317069
 30
0.0
 10
-253.5049401415423
 20
14.4889404117417
 30
0.0
 10
-253.1400882096308
 20
14.81070957081594
 30
0.0
 10
-247.2475317010947
 20
20.00745594026919
 30
0.0
 10
-236.1921225478454
 20
29.75741036102715
 30
0.0
 10
-225.1367133945962
 20
39.50736478178513
 30
0.0
 10
-219.2441568860601
 20
44.70411115123828
 30
0.0
 10
-218.8793049541487
 20
45.02588031031246
 30
0.0
 10
-215.3889351726544
 20
48.10409711888337
 30
0.0
 10
-207.0244766680453
 20
53.2672029775388
 30
0.0
 10
-189.1355791168791
 20
59.62381828252976
 30
0.0
 10
-167.7826252390028
 20
64.05379727482593
 30
0.0
 10
-152.3071045613502
 20
65.71796117234784
 30
0.0
 10
-126.6648203908116
 20
67.47932668969854
 30
0.0
 10
-107.4598427600199
 20
66.99091597405936
 30
0.0
 10
-86.67349149237663
 20
64.37208187448255
 30
0.0
 10
-83.72930368614661
 20
64.00114907712741
 30
0.0
 10
-36.17907439433586
 20
58.01038329487443
 30
0.0
 10
53.03300857682554
 20
46.77071732507872
 30
0.0
 10
142.245091547988
 20
35.53105135528284
 30
0.0
 10
189.7953208397975
 20
29.54028557302998
 30
0.0
 10
192.739508646027
 20
29.16935277567491
 30
0.0
 10
213.5258599136702
 20
26.55051867609816
 30
0.0
 10
228.8987531074374
 20
22.68252715258745
 30
0.0
 10
244.635364893042
 20
15.70791076992152
 30
0.0
 10
252.9397825426488
 20
11.04775625454646
 30
0.0
 10
260.1640309080001
 20
3.017388202071078
 30
0.0
 10
260.9671866150709
 20
-5.694204454812106
 30
0.0
 10
256.995309923037
 20
-11.41072360317071
 30
0.0
 10
253.5049401415424
 20
-14.48894041174174
 30
0.0
 10
253.1400882096309
 20
-14.810709570816
 30
0.0
 10
247.2475317010948
 20
-20.00745594026924
 30
0.0
 10
236.1921225478455
 20
-29.75741036102718
 30
0.0
 10
225.1367133945963
 20
-39.50736478178512
 30
0.0
 10
219.2441568860603
 20
-44.70411115123829
 30
0.0
 10
218.8793049541488
 20
-45.02588031031246
 30
0.0
 10
215.3889351726544
 20
-48.10409711888337
 30
0.0
 10
207.0244766680454
 20
-53.2672029775388
 30
0.0
 10
189.1355791168792
 20
-59.62381828252978
 30
0.0
 10
167.7826252390029
 20
-64.05379727482588
 30
0.0
 10
152.3071045613505
 20
-65.71796117234788
 30
0.0
 10
126.664820390812
 20
-67.47932668969858
 30
0.0
 10
107.4598427600201
 20
-66.99091597405932
 30
0.0
 10
86.67349149237697
 20
-64.37208187448262
 30
0.0
 10
83.72930368614732
 20
-64.00114907712754
 30
0.0
 10
45.10028269145187
 20
-59.13434989185419
 30
0.0
 10
7.185147428708773
 20
-54.35749185469096
 30
0.0
 10
-32.96028990831367
 20
-49.29964216828285
 30
0.0
 10
-41.88149820542979
 20
-48.17567557130326
 30
0.0
 10
-48.57240442826686
 20
-47.33270062356858
 30
0.0
 10
-53.03300857682493
 20
-46.77071732507878
 30
0.0
  0
LWPOLYLINE
  5
11C
330
113
100
AcDbEntity
  8
0
  6
Continuous
 62
     7
370
    25
100
AcDbPolyline
 90
        9
 70
   128
 43
0.0
 10
35.5378864968
 20
-147.7923422536
 10
34.6684008049
 20
-148.377998443
 10
33.472854473
 20
-148.8958586651
 10
31.9971916762
 20
-149.326021842
 10
30.298121308
 20
-149.6519570439
 10
28.44093769
 20
-149.861138764
 10
26.497011347
 20
-149.945528266
 10
24.5410462782
 20
-149.9018825086
 10
22.6482091244
 20
-149.7318787739
  0
LWPOLYLINE
  5
11F
330
113
100
AcDbEntity
  8
0
  6
Continuous
 62
     7
370
    25
100
AcDbPolyline
 90
        8
 70
   128
 43
0.0
 10
-61.5390820808
 20
-139.125277061
 10
-63.2960506494
 20
-138.8354484972
 10
-64.849631316
 20
-138.4369330533
 10
-66.1401208468
 20
-137.9450454544
 10
-67.1179264529
 20
-137.3786886652
 10
-67.7454716133
 20
-136.7596274593
 10
-67.9986401192
 20
-136.1116520118
 10
-68.0035481756
 20
-136.0072292394
  0
LINE
  5
123
330
113
100
AcDbEntity
  8
0
  6
Continuous
 62
     7
370
    25
100
AcDbLine
 10
-68.0035481756
 20
-133.059573613
 30
0.0
 11
-68.0035481756
 21
-136.0072292394
 31
0.0
  0
LINE
  5
124
330
113
100
AcDbEntity
  8
0
  6
Continuous
 62
     7
370
    25
100
AcDbLine
 10
22.6482091244
 20
-149.7318787739
 30
0.0
 11
-61.5390820808
 21
-139.125277061
 31
0.0
  0
LINE
  5
125
330
113
100
AcDbEntity
  8
0
  6
Continuous
 62
     7
370
    25
100
AcDbLine
 10
37.0417527283
 20
-146.4660569024
 30
0.0
 11
35.5378864968
 21
-147.7923422536
 31
0.0
  0
LINE
  5
126
330
113
100
AcDbEntity
  8
0
  6
Continuous
 62
    60
370
    25
100
AcDbLine
 10
22.6482091244
 20
-149.7318787739
 30
0.0
 11
22.6482091244
 21
-144.5480222128
 31
0.0
  0
LINE
  5
127
330
113
100
AcDbEntity
  8
0
  6
Continuous
 62
    60
370
    25
100
AcDbLine
 10
35.5378864968
 20
-147.7923422536
 30
0.0
 11
35.5378864968
 21
-146.2643881725
 31
0.0
  0
LINE
  5
128
330
113
100
AcDbEntity
  8
0
  6
Continuous
 62
    60
370
    25
100
AcDbLine
 10
-61.5390820808
 20
-139.125277061
 30
0.0
 11
-61.5390820808
 21
-133.8446059676
 31
0.0
  0
VIEWPORT
  5
139
330
113
100
AcDbEntity
  8
0
100
AcDbViewport
 10
0.0
 20
0.0
 30
0.0
 40
205.6
 41
156.0
 68
     1
 69
     1
 12
0.0
 22
0.0
 13
0.0
 23
0.0
 14
10.0
 24
10.0
 15
10.0
 25
10.0
 16
0.0
 26
0.0
 36
1.0
 17
0.0
 27
0.0
 37
0.0
 42
50.0
 43
0.0
 44
0.0
 45
414.0525291829
 50
0.0
 51
0.0
 72
   100
 90
   557152
  1

281
     0
 71
     1
 74
     0
110
0.0
120
0.0
130
0.0
111
1.0
121
0.0
131
0.0
112
0.0
122
1.0
132
0.0
 79
     0
146
0.0
  0
ENDBLK
  5
116
330
113
100
AcDbEntity
  8
0
100
AcDbBlockEnd
  0
ENDSEC
  0
SECTION
  2
ENTITIES
  0
SPLINE
  5
73
330
1F
100
AcDbEntity
  8
0
  6
Continuous
 62
     7
370
    25
100
AcDbSpline
210
0.0
220
0.0
230
1.0
 70
    11
 71
     3
 72
    69
 73
    65
 74
     0
 42
0.000000001
 43
0.00000001
 40
0.0
 40
0.0
 40
0.0
 40
0.0
 40
0.0098899023909711
 40
0.0148348535864566
 40
0.0197798047819422
 40
0.0988990239097112
 40
0.0988990239097112
 40
0.105426778683403
 40
0.105426778683403
 40
0.1449858270096646
 40
0.1449858270096646
 40
0.1604303108690124
 40
0.1787648215975489
 40
0.1970993323260854
 40
0.2154338430546219
 40
0.2154338430546219
 40
0.2175740905214062
 40
0.2175740905214062
 40
0.2500000000000001
 40
0.282425909478594
 40
0.282425909478594
 40
0.2845661569453778
 40
0.2845661569453778
 40
0.3029006676739143
 40
0.3212351784024507
 40
0.3395696891309873
 40
0.3550141729903354
 40
0.3550141729903354
 40
0.3945732213165967
 40
0.3945732213165967
 40
0.4011009760902891
 40
0.4011009760902891
 40
0.5000000000000002
 40
0.5988990239097115
 40
0.5988990239097115
 40
0.6054267786834028
 40
0.6054267786834028
 40
0.6449858270096647
 40
0.6449858270096647
 40
0.6604303108690124
 40
0.6787648215975489
 40
0.6970993323260855
 40
0.715433843054622
 40
0.715433843054622
 40
0.7175740905214064
 40
0.7175740905214064
 40
0.7500000000000002
 40
0.7824259094785941
 40
0.7824259094785941
 40
0.784566156945378
 40
0.784566156945378
 40
0.8029006676739144
 40
0.821235178402451
 40
0.8395696891309874
 40
0.8550141729903354
 40
0.8550141729903354
 40
0.8945732213165969
 40
0.8945732213165969
 40
0.9011009760902887
 40
0.9011009760902887
 40
0.9802201952180577
 40
0.9851651464135434
 40
0.9901100976090289
 40
1.0
 40
1.0
 40
1.0
 40
1.0
 10
0.0000000000000004
 20
-150.0000000000001
 30
0.0
 10
-4.768586417537085
 20
-150.0
 30
0.0
 10
-11.9214660438427
 20
-150.0
 30
0.0
 10
-21.45863887891685
 20
-150.0
 30
0.0
 10
-64.37591663675056
 20
-149.9999999999999
 30
0.0
 10
-104.9089011858156
 20
-150.0000000000001
 30
0.0
 10
-146.2050616840753
 20
-150.0000000000001
 30
0.0
 10
-149.3525308420376
 20
-150.0
 30
0.0
 10
-171.5740750597824
 20
-150.0000000000001
 30
0.0
 10
-190.0567244576948
 20
-144.5806142157575
 30
0.0
 10
-212.1746747013775
 20
-130.5718779813459
 30
0.0
 10
-224.8855864008493
 20
-120.4304068195824
 30
0.0
 10
-240.1607435241637
 20
-100.4493998604105
 30
0.0
 10
-250.1520662592154
 20
-76.28651201574225
 30
0.0
 10
-252.4999999999999
 20
-58.84029946666672
 30
0.0
 10
-252.4999999999999
 20
-48.9680428990287
 30
0.0
 10
-252.4999999999999
 20
-47.93608579805738
 30
0.0
 10
-252.4999999999999
 20
-31.26941913139057
 30
0.0
 10
-252.4999999999999
 20
0.0000000000003643
 30
0.0
 10
-252.4999999999999
 20
31.26941913139129
 30
0.0
 10
-252.4999999999999
 20
47.93608579805782
 30
0.0
 10
-252.4999999999999
 20
48.96804289902891
 30
0.0
 10
-252.4999999999999
 20
58.84029946666664
 30
0.0
 10
-250.1520662592154
 20
76.28651201574222
 30
0.0
 10
-240.1607435241636
 20
100.4493998604105
 30
0.0
 10
-224.8855864008491
 20
120.4304068195825
 30
0.0
 10
-212.1746747013772
 20
130.5718779813461
 30
0.0
 10
-190.0567244576942
 20
144.5806142157576
 30
0.0
 10
-171.5740750597821
 20
150.0000000000001
 30
0.0
 10
-149.3525308420374
 20
149.9999999999999
 30
0.0
 10
-146.2050616840747
 20
150.0
 30
0.0
 10
-95.37172835074115
 20
150.0
 30
0.0
 10
0.0000000000006418
 20
150.0000000000001
 30
0.0
 10
95.3717283507436
 20
150.0
 30
0.0
 10
146.2050616840758
 20
150.0
 30
0.0
 10
149.352530842038
 20
150.0
 30
0.0
 10
171.5740750597826
 20
150.0
 30
0.0
 10
190.056724457695
 20
144.5806142157573
 30
0.0
 10
212.1746747013777
 20
130.5718779813458
 30
0.0
 10
224.8855864008494
 20
120.4304068195824
 30
0.0
 10
240.1607435241638
 20
100.4493998604105
 30
0.0
 10
250.1520662592155
 20
76.28651201574219
 30
0.0
 10
252.5000000000002
 20
58.84029946666674
 30
0.0
 10
252.5000000000001
 20
48.96804289902859
 30
0.0
 10
252.5000000000001
 20
47.93608579805722
 30
0.0
 10
252.5000000000001
 20
31.26941913139044
 30
0.0
 10
252.5000000000001
 20
-0.0000000000004094
 30
0.0
 10
252.5000000000001
 20
-31.26941913139125
 30
0.0
 10
252.5000000000001
 20
-47.9360857980578
 30
0.0
 10
252.5000000000001
 20
-48.96804289902889
 30
0.0
 10
252.4999999999999
 20
-58.84029946666664
 30
0.0
 10
250.1520662592155
 20
-76.28651201574216
 30
0.0
 10
240.1607435241637
 20
-100.4493998604105
 30
0.0
 10
224.8855864008492
 20
-120.4304068195824
 30
0.0
 10
212.1746747013775
 20
-130.571877981346
 30
0.0
 10
190.0567244576946
 20
-144.5806142157575
 30
0.0
 10
171.5740750597823
 20
-149.9999999999999
 30
0.0
 10
149.3525308420378
 20
-150.0000000000001
 30
0.0
 10
146.2050616840755
 20
-150.0000000000001
 30
0.0
 10
104.9089011858154
 20
-150.0000000000006
 30
0.0
 10
64.37591663675055
 20
-150.0000000000003
 30
0.0
 10
21.45863887891688
 20
-150.0000000000001
 30
0.0
 10
11.9214660438427
 20
-150.0000000000001
 30
0.0
 10
4.768586417537085
 20
-150.0000000000001
 30
0.0
 10
0.0000000000000004
 20
-150.0000000000001
 30
0.0
  0
SPLINE
  5
74
330
1F
100
AcDbEntity
  8
0
  6
Continuous
 62
     7
370
    25
100
AcDbSpline
210
0.0
220
0.0
230
1.0
 70
    11
 71
     3
 72
    90
 73
    86
 74
     0
 42
0.000000001
 43
0.00000001
 40
0.0
 40
0.0
 40
0.0
 40
0.0
 40
0.0157539044434
 40
0.0313659884320304
 40
0.0469272879954859
 40
0.0625778556807359
 40
0.0781871736262692
 40
0.0859406745748982
 40
0.0936841855487753
 40
0.1092166613181916
 40
0.1170309981059557
 40
0.1248087216998785
 40
0.1403088804176313
 40
0.1558432645789634
 40
0.1871830708188608
 40
0.2027986612871937
 40
0.2106255364002113
 40
0.2145508485718819
 40
0.2165174042083716
 40
0.2184910201972307
 40
0.2264071753949892
 40
0.2342797167437636
 40
0.2499232632716568
 40
0.2813150161043858
 40
0.2832885716406472
 40
0.2852545233697017
 40
0.2891786890663549
 40
0.2970035094447409
 40
0.3126159058600627
 40
0.3439527014770942
 40
0.3594812758257911
 40
0.3749704620844622
 40
0.3827407430498098
 40
0.3849661934344707
 40
0.3872046229439369
 40
0.3905587459496188
 40
0.4061055334784653
 40
0.413854768352093
 40
0.4216131080278905
 40
0.4372295569199913
 40
0.45287676532406
 40
0.4684371039384287
 40
0.4840508758013481
 40
0.4998195396606617
 40
0.5155077961314443
 40
0.5310749264520791
 40
0.5466637680199
 40
0.5623464138747758
 40
0.5778903195833048
 40
0.5856376082090989
 40
0.5933924432368533
 40
0.6090013938470307
 40
0.6168230786307063
 40
0.6246106336300091
 40
0.6402637448917844
 40
0.655847281483514
 40
0.6870726065383139
 40
0.7027867244673851
 40
0.7105985242628621
 40
0.7145001678609123
 40
0.7164508023627073
 40
0.7184054196850092
 40
0.7262357379517784
 40
0.734094443104327
 40
0.7498888084957616
 40
0.7811576604021966
 40
0.7831198561824559
 40
0.7850793392619924
 40
0.7890062815560739
 40
0.7968975086223521
 40
0.8125986576744928
 40
0.8437865934443187
 40
0.8751130252579217
 40
0.8829056213732746
 40
0.885117520950853
 40
0.8873393934716175
 40
0.890670851749946
 40
0.9061704252086893
 40
0.9139313464368642
 40
0.9217236735693007
 40
0.9373922978565321
 40
0.9529627420439989
 40
0.9685381967444748
 40
0.984254130617496
 40
1.0
 40
1.0
 40
1.0
 40
1.0
 10
0.0000000000000062
 20
-33.68815215368069
 30
0.0
 10
-1.123648383298378
 20
-33.68815202046918
 30
0.0
 10
-3.360833453446893
 20
-33.57989478390972
 30
0.0
 10
-6.67758548667386
 20
-33.10507107826083
 30
0.0
 10
-9.929393699932023
 20
-32.32925810103546
 30
0.0
 10
-13.09572151389788
 20
-31.25755663021527
 30
0.0
 10
-15.63937918649197
 20
-30.1211909704894
 30
0.0
 10
-17.5943727699437
 20
-29.07263635599756
 30
0.0
 10
-19.49122037576119
 20
-27.93293188436883
 30
0.0
 10
-21.30341160723852
 20
-26.6489342468739
 30
0.0
 10
-23.01294324903188
 20
-25.23296256864641
 30
0.0
 10
-24.64404955221002
 20
-23.73048752572604
 30
0.0
 10
-26.52729260314248
 20
-21.69510554041879
 30
0.0
 10
-29.2003956756428
 20
-18.13365157514764
 30
0.0
 10
-31.31869960671709
 20
-14.17392370779696
 30
0.0
 10
-32.64349008525639
 20
-10.49463078562829
 30
0.0
 10
-33.17034162469855
 20
-8.614929488012855
 30
0.0
 10
-33.39972591555198
 20
-7.663988210731022
 30
0.0
 10
-33.52123018992773
 20
-7.116492349399216
 30
0.0
 10
-33.69397935610422
 20
-6.288976300494307
 30
0.0
 10
-33.91360949408037
 20
-5.041120907038586
 30
0.0
 10
-34.19120484688101
 20
-2.816343787274965
 30
0.0
 10
-34.38728474731433
 20
1.098266745400006
 30
0.0
 10
-34.04216229651882
 20
4.605483110829541
 30
0.0
 10
-33.53079607238298
 20
7.071956162996357
 30
0.0
 10
-33.41004134041915
 20
7.619496239961597
 30
0.0
 10
-33.18199192602827
 20
8.570472921335858
 30
0.0
 10
-32.65777061743677
 20
10.45043982341978
 30
0.0
 10
-31.33813855615805
 20
14.13096205711676
 30
0.0
 10
-29.22573277005619
 20
18.0927909746578
 30
0.0
 10
-26.55890218864482
 20
21.6572319103404
 30
0.0
 10
-24.67969999821532
 20
23.69387517356037
 30
0.0
 10
-23.34539136472285
 20
24.92831953370059
 30
0.0
 10
-22.68459182973938
 20
25.49768497491998
 30
0.0
 10
-22.2574098406099
 20
25.85575574431261
 30
0.0
 10
-21.08494646189353
 20
26.80273895403129
 30
0.0
 10
-19.53276294016451
 20
27.90554776753408
 30
0.0
 10
-17.63606560494054
 20
29.04883273677685
 30
0.0
 10
-15.68138412619507
 20
30.10066947693184
 30
0.0
 10
-13.13866099223437
 20
31.24061652994182
 30
0.0
 10
-9.973636452714112
 20
32.31674792355147
 30
0.0
 10
-6.723160874411071
 20
33.09729047410917
 30
0.0
 10
-3.40603138420205
 20
33.57723447296274
 30
0.0
 10
-0.0489020250799055
 20
33.74435951490091
 30
0.0
 10
3.305278392706109
 20
33.58635906112473
 30
0.0
 10
6.616836667585438
 20
33.11729268857898
 30
0.0
 10
9.870884855838558
 20
32.34632441622414
 30
0.0
 10
13.038437036697
 20
31.27950707692172
 30
0.0
 10
15.58146321457115
 20
30.1487954029154
 30
0.0
 10
17.53479007508022
 20
29.10624374397325
 30
0.0
 10
19.43903973136502
 20
27.96757534280433
 30
0.0
 10
21.25913260779444
 20
26.68288564385434
 30
0.0
 10
22.97591793582976
 20
25.26521128290158
 30
0.0
 10
24.61834326086158
 20
23.75712333048302
 30
0.0
 10
26.51388713633795
 20
21.71232330871753
 30
0.0
 10
29.19177616355351
 20
18.14657896958155
 30
0.0
 10
31.31297880989287
 20
14.18604129253894
 30
0.0
 10
32.63895240266948
 20
10.50942390221656
 30
0.0
 10
33.16744125600321
 20
8.625760209998576
 30
0.0
 10
33.39627510893989
 20
7.67869671087214
 30
0.0
 10
33.51714673452773
 20
7.135339881706743
 30
0.0
 10
33.68866094671968
 20
6.316361968425856
 30
0.0
 10
33.90800658887108
 20
5.07706529401178
 30
0.0
 10
34.18888812745779
 20
2.849031006119542
 30
0.0
 10
34.38829325112191
 20
-1.066569708141712
 30
0.0
 10
34.04563332896238
 20
-4.574927523874683
 30
0.0
 10
33.53927608836452
 20
-7.032193533750829
 30
0.0
 10
33.41941474186417
 20
-7.57883054008389
 30
0.0
 10
33.19149213523425
 20
-8.534441096959213
 30
0.0
 10
32.66618595992109
 20
-10.42574877504948
 30
0.0
 10
31.34777788312183
 20
-14.10803588115839
 30
0.0
 10
28.71115294988657
 20
-19.06470776957088
 30
0.0
 10
25.48410401356017
 20
-22.95393111378911
 30
0.0
 10
23.31796200153711
 20
-24.95294900940549
 30
0.0
 10
22.65689558943502
 20
-25.52117004869356
 30
0.0
 10
22.23224937030096
 20
-25.87640464023649
 30
0.0
 10
21.06366802345457
 20
-26.8183878702662
 30
0.0
 10
19.51414358013394
 20
-27.91770411684448
 30
0.0
 10
17.61690916071597
 20
-29.05989233947879
 30
0.0
 10
15.65537743560606
 20
-30.11373537876669
 30
0.0
 10
13.11090550125522
 20
-31.25152607352742
 30
0.0
 10
9.945535776971798
 20
-32.32438558548687
 30
0.0
 10
6.69155936860492
 20
-33.10280059117149
 30
0.0
 10
3.3670870264521
 20
-33.57962026865935
 30
0.0
 10
1.123075281994014
 20
-33.68815228682428
 30
0.0
 10
0.0000000000000013
 20
-33.6881521536807
 30
0.0
  0
LWPOLYLINE
  5
75
330
1F
100
AcDbEntity
  8
0
  6
Continuous
 62
     7
370
    25
100
AcDbPolyline
 90
       95
 70
   128
 43
0.0
 10
0.0
 20
-165.0
 10
107.9383757088
 20
-165.0
 10
120.0539076761
 20
-165.0
 10
132.1694396434
 20
-165.0
 10
144.2849716107
 20
-165.0
 10
156.3933681983
 20
-164.9339866415
 10
168.3678208118
 20
-163.8995914539
 10
180.0895852996
 20
-161.6425632589
 10
191.4720011237
 20
-158.1970176781
 10
201.257283249
 20
-154.1531724754
 10
210.6445652241
 20
-149.2157690339
 10
219.5729293796
 20
-143.4084487309
 10
227.9572614209
 20
-136.7751821664
 10
235.7002057453
 20
-129.3846596008
 10
242.5974347313
 20
-121.4581372314
 10
248.7329665068
 20
-112.9551246382
 10
254.0531645746
 20
-103.9657489091
 10
258.5168534177
 20
-94.5672525058
 10
262.1627880226
 20
-84.6329024688
 10
264.8845866363
 20
-74.3843529783
 10
266.6583872129
 20
-63.8826222447
 10
267.4555906673
 20
-53.1934655174
 10
267.5
 20
-42.4043618856
 10
267.5
 20
0.0
 10
267.5
 20
13.4922969636
 10
267.5
 20
26.9845939272
 10
267.5
 20
40.4768908908
 10
267.4316466251
 20
53.9617883167
 10
266.5878641402
 20
64.4505526805
 10
264.8035347556
 20
74.7551218477
 10
262.1057317976
 20
84.8132215029
 10
258.5168534177
 20
94.5672525058
 10
253.9640078664
 20
104.1330218802
 10
248.5238182495
 20
113.2733905244
 10
242.2403753843
 20
121.9061759206
 10
235.1703372469
 20
129.9362231127
 10
227.378579715
 20
137.2749022464
 10
219.107415741
 20
143.741123563
 10
210.3168418845
 20
149.4072269057
 10
201.0858558394
 20
154.2332895239
 10
191.4720011237
 20
158.1970176781
 10
180.1148202229
 20
161.6363273769
 10
168.4195836274
 20
163.892372356
 10
156.4723657125
 20
164.9312799757
 10
144.3907071625
 20
165.0
 10
132.3016090831
 20
165.0
 10
84.8087237712
 20
165.0
 10
0.0
 20
165.0
 10
-107.9383757088
 20
165.0
 10
-120.0539076761
 20
165.0
 10
-132.1694396434
 20
165.0
 10
-144.2849716107
 20
165.0
 10
-156.3933681983
 20
164.9339866415
 10
-168.3678208118
 20
163.8995914539
 10
-180.0895852996
 20
161.6425632589
 10
-191.4720011237
 20
158.1970176781
 10
-201.257283249
 20
154.1531724754
 10
-210.6445652241
 20
149.2157690339
 10
-219.5729293796
 20
143.4084487309
 10
-227.9572614209
 20
136.7751821664
 10
-235.7002057453
 20
129.3846596008
 10
-242.5974347313
 20
121.4581372314
 10
-248.7329665068
 20
112.9551246382
 10
-254.0531645746
 20
103.9657489091
 10
-258.5168534177
 20
94.5672525058
 10
-262.1627880226
 20
84.6329024688
 10
-264.8845866363
 20
74.3843529783
 10
-266.6583872129
 20
63.8826222447
 10
-267.4555906673
 20
53.1934655174
 10
-267.5
 20
42.4043618856
 10
-267.5
 20
0.0
 10
-267.5
 20
-13.4922969636
 10
-267.5
 20
-26.9845939272
 10
-267.5
 20
-40.4768908908
 10
-267.4316466251
 20
-53.9617883167
 10
-266.5878641402
 20
-64.4505526805
 10
-264.8035347556
 20
-74.7551218477
 10
-262.1057317976
 20
-84.8132215029
 10
-258.5168534177
 20
-94.5672525058
 10
-253.9640078664
 20
-104.1330218802
 10
-248.5238182495
 20
-113.2733905244
 10
-242.2403753843
 20
-121.9061759206
 10
-235.1703372469
 20
-129.9362231127
 10
-227.378579715
 20
-137.2749022464
 10
-219.107415741
 20
-143.741123563
 10
-210.3168418845
 20
-149.4072269057
 10
-201.0858558394
 20
-154.2332895239
 10
-191.4720011237
 20
-158.1970176781
 10
-180.1148202229
 20
-161.6363273769
 10
-168.4195836274
 20
-163.892372356
 10
-156.4723657125
 20
-164.9312799757
 10
-144.3907071625
 20
-165.0
 10
-132.3016090831
 20
-165.0
 10
-84.8087237712
 20
-165.0
 10
0.0
 20
-165.0
  0
SPLINE
  5
76
330
1F
100
AcDbEntity
  8
0
  6
Continuous
 62
     7
370
    25
100
AcDbSpline
210
0.0
220
0.0
230
1.0
 70
    11
 71
     3
 72
   120
 73
   116
 74
     0
 42
0.000000001
 43
0.00000001
 40
0.0
 40
0.0
 40
0.0
 40
0.0
 40
0.0312500000000001
 40
0.0312500000000001
 40
0.0468750000000001
 40
0.0468750000000001
 40
0.0625000000000002
 40
0.0625000000000002
 40
0.0937500000000002
 40
0.0937500000000002
 40
0.1093750000000002
 40
0.1093750000000002
 40
0.1250000000000003
 40
0.1250000000000003
 40
0.1562500000000004
 40
0.1562500000000004
 40
0.1718750000000004
 40
0.1718750000000004
 40
0.1875000000000005
 40
0.1875000000000005
 40
0.2031250000000006
 40
0.2031250000000006
 40
0.2109375000000006
 40
0.2109375000000006
 40
0.2187500000000006
 40
0.2187500000000006
 40
0.2500000000000007
 40
0.2500000000000007
 40
0.2656250000000008
 40
0.2656250000000008
 40
0.2734375000000008
 40
0.2734375000000008
 40
0.2812500000000008
 40
0.2812500000000008
 40
0.3125000000000009
 40
0.3125000000000009
 40
0.3203125000000009
 40
0.3203125000000009
 40
0.3281250000000009
 40
0.3281250000000009
 40
0.343750000000001
 40
0.343750000000001
 40
0.3750000000000011
 40
0.3750000000000011
 40
0.390625000000001
 40
0.390625000000001
 40
0.406250000000001
 40
0.406250000000001
 40
0.421875000000001
 40
0.421875000000001
 40
0.4375000000000009
 40
0.4375000000000009
 40
0.468750000000001
 40
0.468750000000001
 40
0.4843750000000009
 40
0.4843750000000009
 40
0.500000000000001
 40
0.500000000000001
 40
0.531250000000001
 40
0.531250000000001
 40
0.546875000000001
 40
0.546875000000001
 40
0.562500000000001
 40
0.562500000000001
 40
0.5781250000000011
 40
0.5781250000000011
 40
0.5859375000000011
 40
0.5859375000000011
 40
0.5937500000000011
 40
0.5937500000000011
 40
0.6250000000000012
 40
0.6250000000000012
 40
0.6406250000000012
 40
0.6406250000000012
 40
0.6484375000000012
 40
0.6484375000000012
 40
0.6562500000000012
 40
0.6562500000000012
 40
0.6875000000000012
 40
0.6875000000000012
 40
0.6953125000000012
 40
0.6953125000000012
 40
0.7031250000000012
 40
0.7031250000000012
 40
0.7187500000000012
 40
0.7187500000000012
 40
0.750000000000001
 40
0.750000000000001
 40
0.7578125000000011
 40
0.7578125000000011
 40
0.7656250000000011
 40
0.7656250000000011
 40
0.781250000000001
 40
0.781250000000001
 40
0.796875000000001
 40
0.796875000000001
 40
0.8125000000000009
 40
0.8125000000000009
 40
0.8437500000000008
 40
0.8437500000000008
 40
0.8593750000000007
 40
0.8593750000000007
 40
0.8750000000000006
 40
0.8750000000000006
 40
0.9062500000000004
 40
0.9062500000000004
 40
0.9218750000000003
 40
0.9218750000000003
 40
0.9375000000000003
 40
0.9375000000000003
 40
0.9531250000000002
 40
0.9531250000000002
 40
0.9687500000000001
 40
0.9687500000000001
 40
1.0
 40
1.0
 40
1.0
 40
1.0
 10
0.000000000000001
 20
23.0
 30
0.0
 10
1.519667566802733
 20
23.00000000000001
 30
0.0
 10
3.013489537598848
 20
22.85086644802087
 30
0.0
 10
5.217016135431616
 20
22.41302181316192
 30
0.0
 10
5.945279387455762
 20
22.23111711945642
 30
0.0
 10
7.389038840024939
 20
21.79382986981632
 30
0.0
 10
8.107344291085315
 20
21.53693933922558
 30
0.0
 10
10.19756247100489
 20
20.67087008020365
 30
0.0
 10
11.51845497436376
 20
19.96451124598773
 30
0.0
 10
13.39263559977094
 20
18.71366987695498
 30
0.0
 10
14.00071687386373
 20
18.26350291757708
 30
0.0
 10
15.17387184157309
 20
17.30113363736476
 30
0.0
 10
15.73201290518884
 20
16.79484668802855
 30
0.0
 10
17.32393744011236
 20
15.20307905868811
 30
0.0
 10
18.27597100356006
 20
14.04539668282688
 30
0.0
 10
19.53658558691579
 20
12.16112226031575
 30
0.0
 10
19.92859390515744
 20
11.50732603585012
 30
0.0
 10
20.63882557518214
 20
10.17871732632558
 30
0.0
 10
20.95954482330398
 20
9.500454525851982
 30
0.0
 10
21.53332289230521
 20
8.116474641960915
 30
0.0
 10
21.78638102759283
 20
7.410757265219509
 30
0.0
 10
22.11460114565474
 20
6.331338448501257
 30
0.0
 10
22.21543152813935
 20
5.968052194834359
 30
0.0
 10
22.39964508287886
 20
5.234400170294205
 30
0.0
 10
22.48319769715567
 20
4.863045163815753
 30
0.0
 10
22.8529449626557
 20
3.006176609746701
 30
0.0
 10
22.9991074206181
 20
1.513423730393692
 30
0.0
 10
23.00044023515834
 20
-0.7362726207871784
 30
0.0
 10
22.96430322317632
 20
-1.487945285161097
 30
0.0
 10
22.85362918835142
 20
-2.618192858774269
 30
0.0
 10
22.80716771086543
 20
-2.996035232138974
 30
0.0
 10
22.69629453443213
 20
-3.74450804646844
 30
0.0
 10
22.63182560367751
 20
-4.116059522069983
 30
0.0
 10
22.26509805635306
 20
-5.960623025566878
 30
0.0
 10
21.8309544750156
 20
-7.394437752256778
 30
0.0
 10
21.11177625788686
 20
-9.13425809368572
 30
0.0
 10
20.95903648683414
 20
-9.479576075836794
 30
0.0
 10
20.63540762878481
 20
-10.16481800269496
 30
0.0
 10
20.46446439854873
 20
-10.504692895323
 30
0.0
 10
19.93011473876146
 20
-11.50486985054047
 30
0.0
 10
19.5434795874726
 20
-12.14966017675312
 30
0.0
 10
18.29468323787837
 20
-14.01969730100639
 30
0.0
 10
17.34449162540116
 20
-15.18123500941004
 30
0.0
 10
15.73635666547546
 20
-16.7911405340907
 30
0.0
 10
15.17512304253962
 20
-17.29971307235393
 30
0.0
 10
14.01380127590772
 20
-18.25315878256028
 30
0.0
 10
13.4121464834998
 20
-18.69960487028531
 30
0.0
 10
12.16722584506164
 20
-19.53252443579473
 30
0.0
 10
11.523954227985
 20
-19.9190051121464
 30
0.0
 10
10.19489309152226
 20
-20.63086136250347
 30
0.0
 10
9.505654330837482
 20
-20.95738095206658
 30
0.0
 10
7.414717657074411
 20
-21.82427741244868
 30
0.0
 10
5.981059051070197
 20
-22.25944365448991
 30
0.0
 10
3.771814287820452
 20
-22.70104384765476
 30
0.0
 10
3.024836758420064
 20
-22.81287241293766
 30
0.0
 10
1.513319189604273
 20
-22.96272305660713
 30
0.0
 10
0.7601036359807626
 20
-22.99969317857064
 30
0.0
 10
-1.492182708062923
 20
-23.00060795172677
 30
0.0
 10
-2.983961942945791
 20
-22.8555863453659
 30
0.0
 10
-5.206711916715023
 20
-22.41563327307961
 30
0.0
 10
-5.946553111455745
 20
-22.23074964005648
 30
0.0
 10
-7.388789233008601
 20
-21.79388715067625
 30
0.0
 10
-8.095261859282425
 20
-21.54130012154852
 30
0.0
 10
-9.479465446924012
 20
-20.96903932796049
 30
0.0
 10
-10.15719584155349
 20
-20.64936481482196
 30
0.0
 10
-11.15203478130024
 20
-20.11897969310297
 30
0.0
 10
-11.48001521473348
 20
-19.93369064855988
 30
0.0
 10
-12.12859883369
 20
-19.54584003143404
 30
0.0
 10
-12.45008013030488
 20
-19.34267226486818
 30
0.0
 10
-14.02546515143544
 20
-18.29157666358182
 30
0.0
 10
-15.18464566178641
 20
-17.33996819269344
 30
0.0
 10
-16.77662333576417
 20
-15.75140944961119
 30
0.0
 10
-17.28262771126238
 20
-15.19484406025528
 30
0.0
 10
-18.00359919121692
 20
-14.31829399116408
 30
0.0
 10
-18.23809028591234
 20
-14.01839358913198
 30
0.0
 10
-18.68952978978022
 20
-13.4106216236916
 30
0.0
 10
-18.90693598766782
 20
-13.10226558396193
 30
0.0
 10
-19.95313799895003
 20
-11.53853344173053
 30
0.0
 10
-20.66060925211758
 20
-10.21792602597712
 30
0.0
 10
-21.38293431159188
 20
-8.480082217169928
 30
0.0
 10
-21.51922597631291
 20
-8.128120087391999
 30
0.0
 10
-21.77515898453082
 20
-7.415246049396674
 30
0.0
 10
-21.89486125372482
 20
-7.05393989099094
 30
0.0
 10
-22.22496601945556
 20
-5.968496850660085
 30
0.0
 10
-22.40791450519191
 20
-5.239025104701094
 30
0.0
 10
-22.84832024816376
 20
-3.033533898947214
 30
0.0
 10
-22.99838603213543
 20
-1.540599229567928
 30
0.0
 10
-23.00038746351852
 20
0.3547913574887882
 30
0.0
 10
-22.99136041883223
 20
0.7349270998299038
 30
0.0
 10
-22.95481276766002
 20
1.48974580126362
 30
0.0
 10
-22.92730469996813
 20
1.865463473565046
 30
0.0
 10
-22.81751812805663
 20
2.987622061330522
 30
0.0
 10
-22.70804143097226
 20
3.729080025662636
 30
0.0
 10
-22.41725468922899
 20
5.198834068018436
 30
0.0
 10
-22.23594602119489
 20
5.927131384109781
 30
0.0
 10
-21.80014881347291
 20
7.370325203980389
 30
0.0
 10
-21.54394467070103
 20
8.088794986295524
 30
0.0
 10
-20.67855498240291
 20
10.18223890202575
 30
0.0
 10
-19.9726474938244
 20
11.5042790937425
 30
0.0
 10
-18.72356976954249
 20
13.37877821140245
 30
0.0
 10
-18.27528389508888
 20
13.98539005027707
 30
0.0
 10
-17.31257692385567
 20
15.1608646376143
 30
0.0
 10
-16.80594419949687
 20
15.7201784227047
 30
0.0
 10
-15.2143300106042
 20
17.31413418688671
 30
0.0
 10
-14.05771889120073
 20
18.26631709323058
 30
0.0
 10
-12.17709285614922
 20
19.52659365369028
 30
0.0
 10
-11.52343650012071
 20
19.91929784006651
 30
0.0
 10
-10.19467885848382
 20
20.63096067045776
 30
0.0
 10
-9.516556995797137
 20
20.95223315945538
 30
0.0
 10
-8.133298332989272
 20
21.52696889134719
 30
0.0
 10
-7.428161018680671
 20
21.78043023564788
 30
0.0
 10
-5.99057645316923
 20
22.2188593570441
 30
0.0
 10
-5.256092492626624
 20
22.40422756419147
 30
0.0
 10
-3.023645498266245
 20
22.8508479505095
 30
0.0
 10
-1.519667566802722
 20
22.99999999999999
 30
0.0
 10
0.0000000000000029
 20
23.0
 30
0.0
  0
SPLINE
  5
77
330
1B
100
AcDbEntity
 67
     1
  8
0
  6
Continuous
 62
     7
370
    25
100
AcDbSpline
210
0.0
220
0.0
230
1.0
 70
     8
 71
     3
 72
    38
 73
    34
 74
     0
 42
0.000000001
 43
0.00000001
 40
0.0
 40
0.0
 40
0.0
 40
0.0
 40
0.0414714845154493
 40
0.0905609204072606
 40
0.1403654825703126
 40
0.1888675038163656
 40
0.2343103338423983
 40
0.2756911631492683
 40
0.3107612661580578
 40
0.3421975389939362
 40
0.3703582807225188
 40
0.3956337202438593
 40
0.4187274881821739
 40
0.4491051307771707
 40
0.4769335757040092
 40
0.5024500339697215
 40
0.5258331735669579
 40
0.5472207945296252
 40
0.5673331093815742
 40
0.588041415792326
 40
0.6094650662613075
 40
0.6391406461063237
 40
0.6700976512042633
 40
0.7023602826895637
 40
0.7359661501670305
 40
0.7708089045618564
 40
0.8052127456496528
 40
0.8387892375800231
 40
0.8716204585687802
 40
0.9037776325856767
 40
0.9354141567153359
 40
0.9673958331220047
 40
1.0
 40
1.0
 40
1.0
 40
1.0
 10
55.00252459302678
 20
-129.4072740162218
 30
0.0
 10
58.89085414471197
 20
-129.2571022146225
 30
0.0
 10
67.38176560258813
 20
-128.9291733562528
 30
0.0
 10
80.53096515106192
 20
-128.1726440120134
 30
0.0
 10
94.32588913457894
 20
-127.1853420894352
 30
0.0
 10
107.7629832968151
 20
-126.0121497134056
 30
0.0
 10
120.3952187262774
 20
-124.7247220607825
 30
0.0
 10
131.7569059189441
 20
-123.4116174032228
 30
0.0
 10
141.7983195589814
 20
-122.1291962195034
 30
0.0
 10
150.5975876825991
 20
-120.9158891601768
 30
0.0
 10
158.4747425685961
 20
-119.7461914677049
 30
0.0
 10
165.5726209370077
 20
-118.6609284558194
 30
0.0
 10
172.8527608910083
 20
-117.3852463634802
 30
0.0
 10
180.261630920891
 20
-115.5351107640125
 30
0.0
 10
187.7459052331771
 20
-113.1330130866591
 30
0.0
 10
194.4528681247969
 20
-110.5043369796776
 30
0.0
 10
200.4483241734691
 20
-107.749356501708
 30
0.0
 10
205.8405469976367
 20
-104.9179328388166
 30
0.0
 10
210.8719951634021
 20
-101.95518118159
 30
0.0
 10
215.7595396310869
 20
-98.7540252172117
 30
0.0
 10
221.2084577212138
 20
-94.78671880349549
 30
0.0
 10
227.1544504942856
 20
-89.88553233239521
 30
0.0
 10
233.4755045406571
 20
-83.87326526177735
 30
0.0
 10
239.5812042549083
 20
-77.13426071077092
 30
0.0
 10
245.3729998265092
 20
-69.65546089731598
 30
0.0
 10
250.6562967029428
 20
-61.56681747935644
 30
0.0
 10
255.2645288665706
 20
-53.07901921592178
 30
0.0
 10
259.1051029398208
 20
-44.42409583285612
 30
0.0
 10
262.1890971816075
 20
-35.69594087990171
 30
0.0
 10
264.5553629200949
 20
-26.93443472632497
 30
0.0
 10
266.2316889370176
 20
-18.09939657514341
 30
0.0
 10
267.2991491108826
 20
-9.121357967491631
 30
0.0
 10
267.4326208949314
 20
-3.059926393960688
 30
0.0
 10
267.5000000000001
 20
0.0
 30
0.0
  0
SPLINE
  5
78
330
1B
100
AcDbEntity
 67
     1
  8
0
  6
Continuous
 62
     7
370
    25
100
AcDbSpline
210
0.0
220
0.0
230
1.0
 70
     8
 71
     3
 72
    38
 73
    34
 74
     0
 42
0.000000001
 43
0.00000001
 40
0.0
 40
0.0
 40
0.0
 40
0.0
 40
0.0326041684616924
 40
0.0645858464218223
 40
0.0962223720881769
 40
0.1283795476670584
 40
0.1612107702505419
 40
0.1947872638118391
 40
0.2291911065707492
 40
0.2640338626580072
 40
0.2976397317678268
 40
0.3299023648202357
 40
0.3608593714218649
 40
0.3905349527083261
 40
0.4119586042179277
 40
0.4326669116345529
 40
0.4527792274634271
 40
0.4741668494649662
 40
0.4975499901980038
 40
0.5230664497031391
 40
0.5508948959817003
 40
0.5812725400522438
 40
0.6058227087212306
 40
0.6328933983493515
 40
0.6632626378497234
 40
0.6973963955143256
 40
0.7356901297421187
 40
0.7782828909944507
 40
0.8220033189273632
 40
0.8681368994892443
 40
0.9151191482115353
 40
0.9612755329317062
 40
1.0
 40
1.0
 40
1.0
 40
1.0
 10
-267.4999999999999
 20
0.0
 30
0.0
 10
-267.4326208949312
 20
-3.059926393960688
 30
0.0
 10
-267.2991491108824
 20
-9.121357967491653
 30
0.0
 10
-266.2316889370173
 20
-18.09939657514342
 30
0.0
 10
-264.5553629200948
 20
-26.93443472632484
 30
0.0
 10
-262.1890971816078
 20
-35.6959408799025
 30
0.0
 10
-259.1051029398203
 20
-44.42409583285345
 30
0.0
 10
-255.2645288665715
 20
-53.07901921593229
 30
0.0
 10
-250.656296702937
 20
-61.56681747931568
 30
0.0
 10
-245.3729998265285
 20
-69.65546089746738
 30
0.0
 10
-239.581204254841
 20
-77.13426071023827
 30
0.0
 10
-233.4755045408941
 20
-83.87326526364764
 30
0.0
 10
-227.1544504934534
 20
-89.88553232583621
 30
0.0
 10
-221.2084577238335
 20
-94.7867188241464
 30
0.0
 10
-215.7595396243652
 20
-98.7540251642279
 30
0.0
 10
-210.8719951875213
 20
-101.9551813717071
 30
0.0
 10
-205.8405469080072
 20
-104.9179321323145
 30
0.0
 10
-200.4483245463085
 20
-107.7493594406035
 30
0.0
 10
-194.4528665315885
 20
-110.5043244212645
 30
0.0
 10
-187.7459120169572
 20
-113.1330665595942
 30
0.0
 10
-180.2616020432009
 20
-115.5348831365299
 30
0.0
 10
-172.7201476848931
 20
-117.4192466799388
 30
0.0
 10
-165.1360039277928
 20
-118.7294786473387
 30
0.0
 10
-157.5316926747963
 20
-119.8911032416117
 30
0.0
 10
-149.0306142789274
 20
-121.1402775763403
 30
0.0
 10
-139.4729926937897
 20
-122.438035486117
 30
0.0
 10
-128.7635064570941
 20
-123.7725288994754
 30
0.0
 10
-117.1440143930939
 20
-125.0718048349947
 30
0.0
 10
-104.7760340484342
 20
-126.2867492333327
 30
0.0
 10
-91.98188579399272
 20
-127.3648271867944
 30
0.0
 10
-78.94531510749245
 20
-128.2692448470233
 30
0.0
 10
-66.59173789632942
 20
-128.9632077155417
 30
0.0
 10
-58.63332418544216
 20
-129.2685934629966
 30
0.0
 10
-55.00252497490698
 20
-129.4079169979432
 30
0.0
  0
SPLINE
  5
79
330
1B
100
AcDbEntity
 67
     1
  8
0
  6
Continuous
 62
     7
370
    25
100
AcDbSpline
210
0.0
220
0.0
230
1.0
 70
     8
 71
     3
 72
    29
 73
    25
 74
     0
 42
0.000000001
 43
0.00000001
 40
0.0
 40
0.0
 40
0.0
 40
0.0
 40
0.1250000000000004
 40
0.1250000000000004
 40
0.1875000000000006
 40
0.1875000000000006
 40
0.2500000000000007
 40
0.2500000000000007
 40
0.3750000000000016
 40
0.3750000000000016
 40
0.4375000000000018
 40
0.4375000000000018
 40
0.5000000000000019
 40
0.5000000000000019
 40
0.6250000000000003
 40
0.6250000000000003
 40
0.6875000000000006
 40
0.6875000000000006
 40
0.7500000000000007
 40
0.8125000000000009
 40
0.8125000000000009
 40
0.8750000000000011
 40
0.8750000000000011
 40
1.0
 40
1.0
 40
1.0
 40
1.0
 10
44.99999999999979
 20
-127.9054935249185
 30
0.0
 10
45.66045165761597
 20
-127.9246277773255
 30
0.0
 10
46.30979532371558
 20
-127.9458157528984
 30
0.0
 10
47.26788503550789
 20
-127.9791634431528
 30
0.0
 10
47.58457327815584
 20
-127.9905687237033
 30
0.0
 10
48.2124804625787
 20
-128.0139266320607
 30
0.0
 10
48.52457289046828
 20
-128.0259190633779
 30
0.0
 10
49.4324420762026
 20
-128.0619742980742
 30
0.0
 10
50.00655623229538
 20
-128.0863398441234
 30
0.0
 10
50.82145644584641
 20
-128.1236873029013
 30
0.0
 10
51.08616369300801
 20
-128.1363143954122
 30
0.0
 10
51.59570034958645
 20
-128.1617334466366
 30
0.0
 10
51.83818368271806
 20
-128.1744047968104
 30
0.0
 10
52.5299334285767
 20
-128.2124122010071
 30
0.0
 10
52.94383645199385
 20
-128.2377394023578
 30
0.0
 10
53.4921341279649
 20
-128.2761427107815
 30
0.0
 10
53.66245167012599
 20
-128.2890080604404
 30
0.0
 10
53.97115622739178
 20
-128.3143823653537
 30
0.0
 10
54.25008220437907
 20
-128.3395444970884
 30
0.0
 10
54.47036684636853
 20
-128.3644314442882
 30
0.0
 10
54.66094079301742
 20
-128.3892535345815
 30
0.0
 10
54.74162696085315
 20
-128.4016843000765
 30
0.0
 10
54.93523463933546
 20
-128.4385996491579
 30
0.0
 10
54.99999999999993
 20
-128.4622249555875
 30
0.0
 10
54.9999999999998
 20
-128.4862669199871
 30
0.0
  0
SPLINE
  5
7A
330
1B
100
AcDbEntity
 67
     1
  8
0
  6
Continuous
 62
     7
370
    25
100
AcDbSpline
210
0.0
220
0.0
230
1.0
 70
     8
 71
     3
 72
    30
 73
    26
 74
     0
 42
0.000000001
 43
0.00000001
 40
0.0
 40
0.0
 40
0.0
 40
0.0
 40
0.015625
 40
0.015625
 40
0.0312499999999999
 40
0.0312499999999999
 40
0.0625000000000001
 40
0.0625000000000001
 40
0.1250000000000001
 40
0.1250000000000001
 40
0.2500000000000001
 40
0.2500000000000001
 40
0.5000000000000001
 40
0.5000000000000001
 40
0.7500000000000001
 40
0.7500000000000001
 40
0.8750000000000001
 40
0.8750000000000001
 40
0.9375000000000001
 40
0.9375000000000001
 40
0.9687500000000001
 40
0.9687500000000001
 40
0.984375
 40
0.984375
 40
1.0
 40
1.0
 40
1.0
 40
1.0
 10
-45.00000001434032
 20
-127.9054935254104
 30
0.0
 10
-44.53128451579148
 20
-127.8919141506401
 30
0.0
 10
-44.06272603635978
 20
-127.8735323458426
 30
0.0
 10
-43.12559032241291
 20
-127.8373431866122
 30
0.0
 10
-42.65705063609715
 20
-127.8183870861845
 30
0.0
 10
-41.25138308837339
 20
-127.7630016785762
 30
0.0
 10
-40.31424319653808
 20
-127.7269402883844
 30
0.0
 10
-37.50277326066227
 20
-127.6202931907158
 30
0.0
 10
-35.6283737323974
 20
-127.5518324639954
 30
0.0
 10
-30.00484234153725
 20
-127.3566282269736
 30
0.0
 10
-26.25537667516533
 20
-127.2400931720179
 30
0.0
 10
-15.00510520581751
 20
-126.947813439029
 30
0.0
 10
-7.503296963285204
 20
-126.8290554613733
 30
0.0
 10
7.501288561798093
 20
-126.8290341779053
 30
0.0
 10
15.00410503984111
 20
-126.9477934137824
 30
0.0
 10
26.25455958311547
 20
-127.2400689652287
 30
0.0
 10
30.00430258222893
 20
-127.3566104278378
 30
0.0
 10
35.62806110457872
 20
-127.5518211436143
 30
0.0
 10
37.50252844482127
 20
-127.6202840758595
 30
0.0
 10
40.31409089242955
 20
-127.726934425212
 30
0.0
 10
41.25126042611077
 20
-127.7629969794378
 30
0.0
 10
42.65696943716794
 20
-127.818383819866
 30
0.0
 10
43.12552179135017
 20
-127.8373404747068
 30
0.0
 10
44.06268684624085
 20
-127.8735308978958
 30
0.0
 10
44.53125931022566
 20
-127.891913420149
 30
0.0
 10
44.99999998565955
 20
-127.905493524572
 30
0.0
  0
SPLINE
  5
7B
330
1B
100
AcDbEntity
 67
     1
  8
0
  6
Continuous
 62
     7
370
    25
100
AcDbSpline
210
0.0
220
0.0
230
1.0
 70
     8
 71
     3
 72
    29
 73
    25
 74
     0
 42
0.000000001
 43
0.00000001
 40
0.0
 40
0.0
 40
0.0
 40
0.0
 40
0.1249999999999991
 40
0.1249999999999991
 40
0.1874999999999985
 40
0.1874999999999985
 40
0.2499999999999979
 40
0.2499999999999979
 40
0.3749999999999963
 40
0.3749999999999963
 40
0.4374999999999965
 40
0.4374999999999965
 40
0.4999999999999967
 40
0.4999999999999967
 40
0.6249999999999968
 40
0.6249999999999968
 40
0.6874999999999973
 40
0.6874999999999973
 40
0.7499999999999979
 40
0.8124999999999984
 40
0.8124999999999984
 40
0.8749999999999989
 40
0.8749999999999989
 40
1.0
 40
1.0
 40
1.0
 40
1.0
 10
-55.00000000000017
 20
-128.486266919933
 30
0.0
 10
-55.00000000000046
 20
-128.4622248855262
 30
0.0
 10
-54.93524213300233
 20
-128.4387358853984
 30
0.0
 10
-54.74496068422944
 20
-128.4022542932935
 30
0.0
 10
-54.66589423424865
 20
-128.3899702084175
 30
0.0
 10
-54.47577592644562
 20
-128.3650682621121
 30
0.0
 10
-54.36417779447155
 20
-128.3524105921382
 30
0.0
 10
-53.98814870104951
 20
-128.3146336604148
 30
0.0
 10
-53.68134435891815
 20
-128.2894604110821
 30
0.0
 10
-53.1377576764604
 20
-128.2512904960972
 30
0.0
 10
-52.94188261836781
 20
-128.2384572249742
 30
0.0
 10
-52.52406856548757
 20
-128.212760675663
 30
0.0
 10
-52.30423146833183
 20
-128.2000208939312
 30
0.0
 10
-51.61296402313558
 20
-128.1620114093238
 30
0.0
 10
-51.11007707062993
 20
-128.1369504768819
 30
0.0
 10
-50.29123225412554
 20
-128.0993696975517
 30
0.0
 10
-50.00739963931169
 20
-128.0868492887812
 30
0.0
 10
-49.43053330415032
 20
-128.0623041174102
 30
0.0
 10
-48.84143946910147
 20
-128.0381125908947
 30
0.0
 10
-48.2282714276369
 20
-128.014528117884
 30
0.0
 10
-47.60290747083832
 20
-127.9912374278735
 30
0.0
 10
-47.28275427161064
 20
-127.9796902897451
 30
0.0
 10
-46.31366396620949
 20
-127.9459322793198
 30
0.0
 10
-45.66045042641117
 20
-127.9246277417243
 30
0.0
 10
-44.99999999999777
 20
-127.9054935249873
 30
0.0
  0
SPLINE
  5
7C
330
1B
100
AcDbEntity
 67
     1
  8
0
  6
Continuous
 62
     7
370
    25
100
AcDbSpline
210
0.0
220
0.0
230
1.0
 70
    24
 71
     3
 72
    34
 73
    30
 74
     0
 42
0.000000001
 43
0.00000001
 40
0.0
 40
0.0
 40
0.0
 40
0.0
 40
0.2502854482592655
 40
0.278378712859795
 40
0.3064719774603248
 40
0.3345652420608545
 40
0.3626423785356624
 40
0.3905119154411035
 40
0.4181913948536913
 40
0.4457674599476434
 40
0.4703185686858911
 40
0.4949128469835796
 40
0.519609840384331
 40
0.5443999022620325
 40
0.5692198512389832
 40
0.5935837764213655
 40
0.6178973830536637
 40
0.6421187546938388
 40
0.6662448043209768
 40
0.6907827386825839
 40
0.7153706695497799
 40
0.7400667987733912
 40
0.7649214486592687
 40
0.7899392284468809
 40
0.8882656545487352
 40
0.9195513355811434
 40
0.9508370166135517
 40
0.98212269764596
 40
0.9999999999999999
 40
0.9999999999999999
 40
0.9999999999999999
 40
0.9999999999999999
 10
0.0000000000000013
 20
0.0
 30
0.0
 10
35.97954997706909
 20
0.0
 30
0.0
 10
75.99762086993161
 20
0.0
 30
0.0
 10
120.0538392061713
 20
0.0
 30
0.0
 10
132.169710068295
 20
0.0
 30
0.0
 10
144.2816401491614
 20
0.0
 30
0.0
 10
156.3674722896967
 20
0.0
 30
0.0
 10
168.3703009895969
 20
0.0
 30
0.0
 10
180.1242947162529
 20
0.0
 30
0.0
 10
191.1251156623845
 20
0.0
 30
0.0
 10
201.3320746404468
 20
0.0
 30
0.0
 10
210.7402868227571
 20
0.0
 30
0.0
 10
219.6800901002499
 20
0.0
 30
0.0
 10
228.0687826410831
 20
0.0
 30
0.0
 10
235.7740593856426
 20
0.0
 30
0.0
 10
242.7175967924406
 20
0.0
 30
0.0
 10
248.8578395093312
 20
0.0
 30
0.0
 10
254.1867511301193
 20
0.0
 30
0.0
 10
258.6877470054033
 20
0.0
 30
0.0
 10
262.3205565390141
 20
0.0
 30
0.0
 10
265.0463171288997
 20
0.0
 30
0.0
 10
266.8304560847076
 20
0.0
 30
0.0
 10
267.6056109741122
 20
0.0
 30
0.0
 10
267.3715566760653
 20
0.0
 30
0.0
 10
267.5132880783681
 20
0.0
 30
0.0
 10
267.4995558324604
 20
0.0
 30
0.0
 10
267.4942103609191
 20
0.0
 30
0.0
 10
267.5194037429499
 20
0.0
 30
0.0
 10
267.4765159379143
 20
0.0
 30
0.0
 10
267.4609204999423
 20
0.0
 30
0.0
  0
LINE
  5
85
330
1B
100
AcDbEntity
 67
     1
  8
0
  6
Continuous
 62
     7
370
    25
100
AcDbLine
 10
0.0
 20
0.0
 30
0.0
 11
-267.5
 21
0.0
 31
0.0
  0
LINE
  5
86
330
1B
100
AcDbEntity
 67
     1
  8
0
  6
Continuous
 62
     7
370
    25
100
AcDbLine
 10
45.0
 20
-135.0001
 30
0.0
 11
45.0
 21
-127.9054935243
 31
0.0
  0
LINE
  5
87
330
1B
100
AcDbEntity
 67
     1
  8
0
  6
Continuous
 62
     7
370
    25
100
AcDbLine
 10
55.0
 20
-135.0001
 30
0.0
 11
55.0
 21
-128.4862669197
 31
0.0
  0
LINE
  5
88
330
1B
100
AcDbEntity
 67
     1
  8
0
  6
Continuous
 62
     7
370
    25
100
AcDbLine
 10
-55.0
 20
-135.0001
 30
0.0
 11
-55.0
 21
-128.4862669198
 31
0.0
  0
LINE
  5
89
330
1B
100
AcDbEntity
 67
     1
  8
0
  6
Continuous
 62
     7
370
    25
100
AcDbLine
 10
-45.0
 20
-135.0001
 30
0.0
 11
-45.0
 21
-127.9054935247
 31
0.0
  0
LINE
  5
8A
330
1B
100
AcDbEntity
 67
     1
  8
0
  6
Continuous
 62
     7
370
    25
100
AcDbLine
 10
55.0
 20
-135.0001
 30
0.0
 11
-55.0
 21
-135.0001
 31
0.0
  0
VIEWPORT
  5
129
330
1B
100
AcDbEntity
 67
     1
  8
0
100
AcDbViewport
 10
0.0
 20
0.0
 30
0.0
 40
205.6
 41
156.0
 68
     1
 69
     1
 12
0.0
 22
0.0
 13
0.0
 23
0.0
 14
10.0
 24
10.0
 15
10.0
 25
10.0
 16
0.0
 26
0.0
 36
1.0
 17
0.0
 27
0.0
 37
0.0
 42
50.0
 43
0.0
 44
0.0
 45
414.0525291829
 50
0.0
 51
0.0
 72
   100
 90
   557152
  1

281
     0
 71
     1
 74
     0
110
0.0
120
0.0
130
0.0
111
1.0
121
0.0
131
0.0
112
0.0
122
1.0
132
0.0
 79
     0
146
0.0
  0
ENDSEC
  0
SECTION
  2
OBJECTS
  0
DICTIONARY
  5
C
330
0
100
AcDbDictionary
281
     1
  3
ACAD_GROUP
350
D
  3
ACAD_LAYOUT
350
1A
  3
ACAD_MLINESTYLE
350
17
  3
ACAD_PLOTSETTINGS
350
19
  3
ACAD_PLOTSTYLENAME
350
E
  3
ACAD_SCALELIST
350
47
  0
DICTIONARY
  5
D
102
{ACAD_REACTORS
330
C
102
}
330
C
100
AcDbDictionary
281
     1
  0
DICTIONARY
  5
1A
102
{ACAD_REACTORS
330
C
102
}
330
C
100
AcDbDictionary
281
     1
  3
_Dimetrisch
350
114
  3
_Isometrisch
350
101
  3
_Links
350
26
  3
_Normal auf
350
A3
  3
_Rechts
350
D1
  3
_Rückseite
350
BB
  3
_Trimetrisch
350
10C
  3
_Unten
350
EB
  3
_Vorderseite
350
1E
  3
Model
350
22
  0
DICTIONARY
  5
17
102
{ACAD_REACTORS
330
C
102
}
330
C
100
AcDbDictionary
281
     1
  3
Standard
350
18
  0
DICTIONARY
  5
19
102
{ACAD_REACTORS
330
C
102
}
330
C
100
AcDbDictionary
281
     1
  0
ACDBDICTIONARYWDFLT
  5
E
102
{ACAD_REACTORS
330
C
102
}
330
C
100
AcDbDictionary
281
     1
  3
Normal
350
F
100
AcDbDictionaryWithDefault
340
F
  0
DICTIONARY
  5
47
102
{ACAD_REACTORS
330
C
102
}
330
C
100
AcDbDictionary
281
     1
  3
A0
350
48
  3
A1
350
49
  3
A2
350
4A
  3
A3
350
4B
  3
A4
350
4C
  3
A5
350
4D
  3
A6
350
4E
  3
A7
350
4F
  3
A8
350
50
  3
A9
350
51
  3
B0
350
52
  3
B1
350
53
  3
B2
350
54
  3
B3
350
55
  3
B4
350
56
  3
B5
350
57
  3
B6
350
58
  3
B7
350
59
  3
B8
350
5A
  3
B9
350
5B
  3
C0
350
5C
  3
C1
350
5D
  3
C2
350
5E
  3
C3
350
5F
  3
C4
350
60
  3
C5
350
61
  3
C6
350
62
  3
C7
350
63
  3
C8
350
64
  3
C9
350
65
  3
D0
350
66
  3
D1
350
67
  3
D2
350
68
  0
LAYOUT
  5
114
102
{ACAD_REACTORS
330
1A
102
}
330
1A
100
AcDbPlotSettings
  1

  2
none_device
  4
ISO_A4_(210.00_x_297.00_MM)
  6

 40
7.5
 41
20.0
 42
7.5
 43
20.0
 44
210.0
 45
297.0
 46
0.0
 47
0.0
 48
0.0
 49
0.0
140
0.0
141
0.0
142
1.0
143
2.0817120623
 70
   688
 72
     1
 73
     1
 74
     1
  7

 75
     0
147
0.4803738318
148
267.5
149
135.0001
100
AcDbLayout
  1
_Dimetrisch
 70
     1
 71
     9
 10
0.0
 20
0.0
 11
0.0
 21
0.0
 12
0.0
 22
0.0
 32
0.0
 14
0.0
 24
0.0
 34
0.0
 15
0.0
 25
0.0
 35
0.0
146
0.0
 13
0.0
 23
0.0
 33
0.0
 16
1.0
 26
0.0
 36
0.0
 17
0.0
 27
1.0
 37
0.0
 76
     0
330
113
331
139
  0
LAYOUT
  5
101
102
{ACAD_REACTORS
330
1A
102
}
330
1A
100
AcDbPlotSettings
  1

  2
none_device
  4
ISO_A4_(210.00_x_297.00_MM)
  6

 40
7.5
 41
20.0
 42
7.5
 43
20.0
 44
210.0
 45
297.0
 46
0.0
 47
0.0
 48
0.0
 49
0.0
140
0.0
141
0.0
142
1.0
143
2.0817120623
 70
   688
 72
     1
 73
     1
 74
     1
  7

 75
     0
147
0.4803738318
148
267.5
149
135.0001
100
AcDbLayout
  1
_Isometrisch
 70
     1
 71
     7
 10
0.0
 20
0.0
 11
0.0
 21
0.0
 12
0.0
 22
0.0
 32
0.0
 14
0.0
 24
0.0
 34
0.0
 15
0.0
 25
0.0
 35
0.0
146
0.0
 13
0.0
 23
0.0
 33
0.0
 16
1.0
 26
0.0
 36
0.0
 17
0.0
 27
1.0
 37
0.0
 76
     0
330
100
331
135
  0
LAYOUT
  5
26
102
{ACAD_REACTORS
330
1A
102
}
330
1A
100
AcDbPlotSettings
  1

  2
none_device
  4
ISO_A4_(210.00_x_297.00_MM)
  6

 40
7.5
 41
20.0
 42
7.5
 43
20.0
 44
210.0
 45
297.0
 46
0.0
 47
0.0
 48
0.0
 49
0.0
140
0.0
141
0.0
142
1.0
143
2.0817120623
 70
   688
 72
     1
 73
     1
 74
     1
  7

 75
     0
147
0.4803738318
148
267.5
149
135.0001
100
AcDbLayout
  1
_Links
 70
     1
 71
     2
 10
0.0
 20
0.0
 11
0.0
 21
0.0
 12
0.0
 22
0.0
 32
0.0
 14
0.0
 24
0.0
 34
0.0
 15
0.0
 25
0.0
 35
0.0
146
0.0
 13
0.0
 23
0.0
 33
0.0
 16
1.0
 26
0.0
 36
0.0
 17
0.0
 27
1.0
 37
0.0
 76
     0
330
23
331
12B
  0
LAYOUT
  5
A3
102
{ACAD_REACTORS
330
1A
102
}
330
1A
100
AcDbPlotSettings
  1

  2
none_device
  4
ISO_A4_(210.00_x_297.00_MM)
  6

 40
7.5
 41
20.0
 42
7.5
 43
20.0
 44
210.0
 45
297.0
 46
0.0
 47
0.0
 48
0.0
 49
0.0
140
0.0
141
0.0
142
1.0
143
2.0817120623
 70
   688
 72
     1
 73
     1
 74
     1
  7

 75
     0
147
0.4803738318
148
267.5
149
135.0001
100
AcDbLayout
  1
_Normal auf
 70
     1
 71
     3
 10
0.0
 20
0.0
 11
0.0
 21
0.0
 12
0.0
 22
0.0
 32
0.0
 14
0.0
 24
0.0
 34
0.0
 15
0.0
 25
0.0
 35
0.0
146
0.0
 13
0.0
 23
0.0
 33
0.0
 16
1.0
 26
0.0
 36
0.0
 17
0.0
 27
1.0
 37
0.0
 76
     0
330
A2
331
12D
  0
LAYOUT
  5
D1
102
{ACAD_REACTORS
330
1A
102
}
330
1A
100
AcDbPlotSettings
  1

  2
none_device
  4
ISO_A4_(210.00_x_297.00_MM)
  6

 40
7.5
 41
20.0
 42
7.5
 43
20.0
 44
210.0
 45
297.0
 46
0.0
 47
0.0
 48
0.0
 49
0.0
140
0.0
141
0.0
142
1.0
143
2.0817120623
 70
   688
 72
     1
 73
     1
 74
     1
  7

 75
     0
147
0.4803738318
148
267.5
149
135.0001
100
AcDbLayout
  1
_Rechts
 70
     1
 71
     5
 10
0.0
 20
0.0
 11
0.0
 21
0.0
 12
0.0
 22
0.0
 32
0.0
 14
0.0
 24
0.0
 34
0.0
 15
0.0
 25
0.0
 35
0.0
146
0.0
 13
0.0
 23
0.0
 33
0.0
 16
1.0
 26
0.0
 36
0.0
 17
0.0
 27
1.0
 37
0.0
 76
     0
330
D0
331
131
  0
LAYOUT
  5
BB
102
{ACAD_REACTORS
330
1A
102
}
330
1A
100
AcDbPlotSettings
  1

  2
none_device
  4
ISO_A4_(210.00_x_297.00_MM)
  6

 40
7.5
 41
20.0
 42
7.5
 43
20.0
 44
210.0
 45
297.0
 46
0.0
 47
0.0
 48
0.0
 49
0.0
140
0.0
141
0.0
142
1.0
143
2.0817120623
 70
   688
 72
     1
 73
     1
 74
     1
  7

 75
     0
147
0.4803738318
148
267.5
149
135.0001
100
AcDbLayout
  1
_Rückseite
 70
     1
 71
     4
 10
0.0
 20
0.0
 11
0.0
 21
0.0
 12
0.0
 22
0.0
 32
0.0
 14
0.0
 24
0.0
 34
0.0
 15
0.0
 25
0.0
 35
0.0
146
0.0
 13
0.0
 23
0.0
 33
0.0
 16
1.0
 26
0.0
 36
0.0
 17
0.0
 27
1.0
 37
0.0
 76
     0
330
BA
331
12F
  0
LAYOUT
  5
10C
102
{ACAD_REACTORS
330
1A
102
}
330
1A
100
AcDbPlotSettings
  1

  2
none_device
  4
ISO_A4_(210.00_x_297.00_MM)
  6

 40
7.5
 41
20.0
 42
7.5
 43
20.0
 44
210.0
 45
297.0
 46
0.0
 47
0.0
 48
0.0
 49
0.0
140
0.0
141
0.0
142
1.0
143
2.0817120623
 70
   688
 72
     1
 73
     1
 74
     1
  7

 75
     0
147
0.4803738318
148
267.5
149
135.0001
100
AcDbLayout
  1
_Trimetrisch
 70
     1
 71
     8
 10
0.0
 20
0.0
 11
0.0
 21
0.0
 12
0.0
 22
0.0
 32
0.0
 14
0.0
 24
0.0
 34
0.0
 15
0.0
 25
0.0
 35
0.0
146
0.0
 13
0.0
 23
0.0
 33
0.0
 16
1.0
 26
0.0
 36
0.0
 17
0.0
 27
1.0
 37
0.0
 76
     0
330
10B
331
137
  0
LAYOUT
  5
EB
102
{ACAD_REACTORS
330
1A
102
}
330
1A
100
AcDbPlotSettings
  1

  2
none_device
  4
ISO_A4_(210.00_x_297.00_MM)
  6

 40
7.5
 41
20.0
 42
7.5
 43
20.0
 44
210.0
 45
297.0
 46
0.0
 47
0.0
 48
0.0
 49
0.0
140
0.0
141
0.0
142
1.0
143
2.0817120623
 70
   688
 72
     1
 73
     1
 74
     1
  7

 75
     0
147
0.4803738318
148
267.5
149
135.0001
100
AcDbLayout
  1
_Unten
 70
     1
 71
     6
 10
0.0
 20
0.0
 11
0.0
 21
0.0
 12
0.0
 22
0.0
 32
0.0
 14
0.0
 24
0.0
 34
0.0
 15
0.0
 25
0.0
 35
0.0
146
0.0
 13
0.0
 23
0.0
 33
0.0
 16
1.0
 26
0.0
 36
0.0
 17
0.0
 27
1.0
 37
0.0
 76
     0
330
EA
331
133
  0
LAYOUT
  5
1E
102
{ACAD_REACTORS
330
1A
102
}
330
1A
100
AcDbPlotSettings
  1

  2
none_device
  4
ISO_A4_(210.00_x_297.00_MM)
  6

 40
7.5
 41
20.0
 42
7.5
 43
20.0
 44
210.0
 45
297.0
 46
0.0
 47
0.0
 48
0.0
 49
0.0
140
0.0
141
0.0
142
1.0
143
2.0817120623
 70
   688
 72
     1
 73
     1
 74
     1
  7

 75
     0
147
0.4803738318
148
267.5
149
135.0001
100
AcDbLayout
  1
_Vorderseite
 70
     1
 71
     1
 10
-309.1342412451
 20
-150.6129404669
 11
309.1342412451
 21
286.546592607
 12
0.0
 22
0.0
 32
0.0
 14
-267.5
 24
-135.0001
 34
0.0
 15
267.5
 25
0.0
 35
0.0
146
0.0
 13
0.0
 23
0.0
 33
0.0
 16
1.0
 26
0.0
 36
0.0
 17
0.0
 27
1.0
 37
0.0
 76
     0
330
1B
331
129
  0
LAYOUT
  5
22
102
{ACAD_REACTORS
330
1A
102
}
330
1A
100
AcDbPlotSettings
  1

  2
none_device
  4
ANSI_A_(11.00_x_8.50_Inches)
  6

 40
6.35
 41
19.05
 42
6.35000508
 43
19.05000254
 44
279.4
 45
215.9
 46
133.34999746
 47
88.89999873
 48
0.0
 49
0.0
140
0.0
141
0.0
142
0.0203551402
143
1.0
 70
  1696
 72
     0
 73
     0
 74
     0
  7

 75
     0
147
0.0179189148
148
-1300.4909072572
149
0.0
100
AcDbLayout
  1
Model
 70
     1
 71
     0
 10
0.0
 20
0.0
 11
420.0
 21
297.0
 12
0.0
 22
0.0
 32
0.0
 14
-267.5
 24
-165.0
 34
0.0
 15
267.5
 25
165.0
 35
0.0
146
0.0
 13
0.0
 23
0.0
 33
0.0
 16
1.0
 26
0.0
 36
0.0
 17
0.0
 27
1.0
 37
0.0
 76
     0
330
1F
331
29
  0
MLINESTYLE
  5
18
102
{ACAD_REACTORS
330
17
102
}
330
17
100
AcDbMlineStyle
  2
Standard
 70
     0
  3

 62
   256
 51
90.0
 52
90.0
 71
     2
 49
0.5
 62
   256
  6
BYLAYER
 49
-0.5
 62
   256
  6
BYLAYER
  0
ACDBPLACEHOLDER
  5
F
102
{ACAD_REACTORS
330
E
102
}
330
E
  0
SCALE
  5
48
102
{ACAD_REACTORS
330
47
102
}
330
47
100
AcDbScale
 70
     0
300
1:1
140
1.0
141
1.0
290
     1
  0
SCALE
  5
49
102
{ACAD_REACTORS
330
47
102
}
330
47
100
AcDbScale
 70
     0
300
1:2
140
1.0
141
2.0
290
     0
  0
SCALE
  5
4A
102
{ACAD_REACTORS
330
47
102
}
330
47
100
AcDbScale
 70
     0
300
1:4
140
1.0
141
4.0
290
     0
  0
SCALE
  5
4B
102
{ACAD_REACTORS
330
47
102
}
330
47
100
AcDbScale
 70
     0
300
1:5
140
1.0
141
5.0
290
     0
  0
SCALE
  5
4C
102
{ACAD_REACTORS
330
47
102
}
330
47
100
AcDbScale
 70
     0
300
1:8
140
1.0
141
8.0
290
     0
  0
SCALE
  5
4D
102
{ACAD_REACTORS
330
47
102
}
330
47
100
AcDbScale
 70
     0
300
1:10
140
1.0
141
10.0
290
     0
  0
SCALE
  5
4E
102
{ACAD_REACTORS
330
47
102
}
330
47
100
AcDbScale
 70
     0
300
1:16
140
1.0
141
16.0
290
     0
  0
SCALE
  5
4F
102
{ACAD_REACTORS
330
47
102
}
330
47
100
AcDbScale
 70
     0
300
1:20
140
1.0
141
20.0
290
     0
  0
SCALE
  5
50
102
{ACAD_REACTORS
330
47
102
}
330
47
100
AcDbScale
 70
     0
300
1:30
140
1.0
141
30.0
290
     0
  0
SCALE
  5
51
102
{ACAD_REACTORS
330
47
102
}
330
47
100
AcDbScale
 70
     0
300
1:40
140
1.0
141
40.0
290
     0
  0
SCALE
  5
52
102
{ACAD_REACTORS
330
47
102
}
330
47
100
AcDbScale
 70
     0
300
1:50
140
1.0
141
50.0
290
     0
  0
SCALE
  5
53
102
{ACAD_REACTORS
330
47
102
}
330
47
100
AcDbScale
 70
     0
300
1:100
140
1.0
141
100.0
290
     0
  0
SCALE
  5
54
102
{ACAD_REACTORS
330
47
102
}
330
47
100
AcDbScale
 70
     0
300
2:1
140
2.0
141
1.0
290
     0
  0
SCALE
  5
55
102
{ACAD_REACTORS
330
47
102
}
330
47
100
AcDbScale
 70
     0
300
4:1
140
4.0
141
1.0
290
     0
  0
SCALE
  5
56
102
{ACAD_REACTORS
330
47
102
}
330
47
100
AcDbScale
 70
     0
300
8:1
140
8.0
141
1.0
290
     0
  0
SCALE
  5
57
102
{ACAD_REACTORS
330
47
102
}
330
47
100
AcDbScale
 70
     0
300
10:1
140
10.0
141
1.0
290
     0
  0
SCALE
  5
58
102
{ACAD_REACTORS
330
47
102
}
330
47
100
AcDbScale
 70
     0
300
100:1
140
100.0
141
1.0
290
     0
  0
SCALE
  5
59
102
{ACAD_REACTORS
330
47
102
}
330
47
100
AcDbScale
 70
     0
300
1/128" = 1'-0"
140
0.0078125
141
12.0
290
     0
  0
SCALE
  5
5A
102
{ACAD_REACTORS
330
47
102
}
330
47
100
AcDbScale
 70
     0
300
1/64" = 1'-0"
140
0.015625
141
12.0
290
     0
  0
SCALE
  5
5B
102
{ACAD_REACTORS
330
47
102
}
330
47
100
AcDbScale
 70
     0
300
1/32" = 1'-0"
140
0.03125
141
12.0
290
     0
  0
SCALE
  5
5C
102
{ACAD_REACTORS
330
47
102
}
330
47
100
AcDbScale
 70
     0
300
1/16" = 1'-0"
140
0.0625
141
12.0
290
     0
  0
SCALE
  5
5D
102
{ACAD_REACTORS
330
47
102
}
330
47
100
AcDbScale
 70
     0
300
3/32" = 1'-0"
140
0.09375
141
12.0
290
     0
  0
SCALE
  5
5E
102
{ACAD_REACTORS
330
47
102
}
330
47
100
AcDbScale
 70
     0
300
1/8" = 1'-0"
140
0.125
141
12.0
290
     0
  0
SCALE
  5
5F
102
{ACAD_REACTORS
330
47
102
}
330
47
100
AcDbScale
 70
     0
300
3/16" = 1'-0"
140
0.1875
141
12.0
290
     0
  0
SCALE
  5
60
102
{ACAD_REACTORS
330
47
102
}
330
47
100
AcDbScale
 70
     0
300
1/4" = 1'-0"
140
0.25
141
12.0
290
     0
  0
SCALE
  5
61
102
{ACAD_REACTORS
330
47
102
}
330
47
100
AcDbScale
 70
     0
300
3/8" = 1'-0"
140
0.375
141
12.0
290
     0
  0
SCALE
  5
62
102
{ACAD_REACTORS
330
47
102
}
330
47
100
AcDbScale
 70
     0
300
1/2" = 1'-0"
140
0.5
141
12.0
290
     0
  0
SCALE
  5
63
102
{ACAD_REACTORS
330
47
102
}
330
47
100
AcDbScale
 70
     0
300
3/4" = 1'-0"
140
0.75
141
12.0
290
     0
  0
SCALE
  5
64
102
{ACAD_REACTORS
330
47
102
}
330
47
100
AcDbScale
 70
     0
300
1" = 1'-0"
140
1.0
141
12.0
290
     0
  0
SCALE
  5
65
102
{ACAD_REACTORS
330
47
102
}
330
47
100
AcDbScale
 70
     0
300
1-1/2" = 1'-0"
140
1.5
141
12.0
290
     0
  0
SCALE
  5
66
102
{ACAD_REACTORS
330
47
102
}
330
47
100
AcDbScale
 70
     0
300
3" = 1'-0"
140
3.0
141
12.0
290
     0
  0
SCALE
  5
67
102
{ACAD_REACTORS
330
47
102
}
330
47
100
AcDbScale
 70
     0
300
6" = 1'-0"
140
6.0
141
12.0
290
     0
  0
SCALE
  5
68
102
{ACAD_REACTORS
330
47
102
}
330
47
100
AcDbScale
 70
     0
300
1'-0" = 1'-0"
140
12.0
141
12.0
290
     0
  0
ENDSEC
  0
EOF
