  0
SECTION
  2
HEADER
  9
$ACADVER
  1
AC1015
  9
$ACADMAINTVER
 70
     6
  9
$DWGCODEPAGE
  3
ANSI_1252
  9
$INSBASE
 10
0.0
 20
0.0
 30
0.0
  9
$EXTMIN
 10
-267.5
 20
-165.0
 30
0.0
  9
$EXTMAX
 10
267.5
 20
165.0
 30
0.0
  9
$LIMMIN
 10
0.0
 20
0.0
  9
$LIMMAX
 10
420.0
 20
297.0
  9
$ORTHOMODE
 70
     0
  9
$REGENMODE
 70
     1
  9
$FILLMODE
 70
     1
  9
$QTEXTMODE
 70
     0
  9
$MIRRTEXT
 70
     1
  9
$LTSCALE
 40
1.0
  9
$ATTMODE
 70
     1
  9
$TEXTSIZE
 40
3.5
  9
$TRACEWID
 40
1.0
  9
$TEXTSTYLE
  7
STANDARD
  9
$CLAYER
  8
0
  9
$CELTYPE
  6
ByLayer
  9
$CECOLOR
 62
   256
  9
$CELTSCALE
 40
1.0
  9
$DISPSILH
 70
     0
  9
$DIMSCALE
 40
1.0
  9
$DIMASZ
 40
8.0
  9
$DIMEXO
 40
1.0
  9
$DIMDLI
 40
3.75
  9
$DIMRND
 40
0.0
  9
$DIMDLE
 40
0.0
  9
$DIMEXE
 40
1.0
  9
$DIMTP
 40
0.0
  9
$DIMTM
 40
0.0
  9
$DIMTXT
 40
16.9333333333
  9
$DIMCEN
 40
2.5
  9
$DIMTSZ
 40
0.0
  9
$DIMTOL
 70
     0
  9
$DIMLIM
 70
     0
  9
$DIMTIH
 70
     1
  9
$DIMTOH
 70
     1
  9
$DIMSE1
 70
     0
  9
$DIMSE2
 70
     0
  9
$DIMTAD
 70
     1
  9
$DIMZIN
 70
     0
  9
$DIMBLK
  1

  9
$DIMASO
 70
     1
  9
$DIMSHO
 70
     1
  9
$DIMPOST
  1

  9
$DIMAPOST
  1

  9
$DIMALT
 70
     0
  9
$DIMALTD
 70
     3
  9
$DIMALTF
 40
0.0393700787
  9
$DIMLFAC
 40
1.0
  9
$DIMTOFL
 70
     1
  9
$DIMTVP
 40
0.0
  9
$DIMTIX
 70
     0
  9
$DIMSOXD
 70
     0
  9
$DIMSAH
 70
     0
  9
$DIMBLK1
  1

  9
$DIMBLK2
  1

  9
$DIMSTYLE
  2
ISO-25
  9
$DIMCLRD
 70
     0
  9
$DIMCLRE
 70
     0
  9
$DIMCLRT
 70
     0
  9
$DIMTFAC
 40
1.0
  9
$DIMGAP
 40
1.524
  9
$DIMJUST
 70
     0
  9
$DIMSD1
 70
     0
  9
$DIMSD2
 70
     0
  9
$DIMTOLJ
 70
     0
  9
$DIMTZIN
 70
     0
  9
$DIMALTZ
 70
     0
  9
$DIMALTTZ
 70
     0
  9
$DIMUPT
 70
     0
  9
$DIMDEC
 70
     2
  9
$DIMTDEC
 70
     2
  9
$DIMALTU
 70
     2
  9
$DIMALTTD
 70
     3
  9
$DIMTXSTY
  7
STANDARD
  9
$DIMAUNIT
 70
     0
  9
$DIMADEC
 70
     2
  9
$DIMALTRND
 40
0.0
  9
$DIMAZIN
 70
     0
  9
$DIMDSEP
 70
    44
  9
$DIMATFIT
 70
     3
  9
$DIMFRAC
 70
     0
  9
$DIMLDRBLK
  1

  9
$DIMLUNIT
 70
     2
  9
$DIMLWD
 70
    -2
  9
$DIMLWE
 70
    -2
  9
$DIMTMOVE
 70
     0
  9
$LUNITS
 70
     2
  9
$LUPREC
 70
     2
  9
$SKETCHINC
 40
1.0
  9
$FILLETRAD
 40
10.0
  9
$AUNITS
 70
     0
  9
$AUPREC
 70
     2
  9
$MENU
  1
.
  9
$ELEVATION
 40
0.0
  9
$PELEVATION
 40
0.0
  9
$THICKNESS
 40
0.0
  9
$LIMCHECK
 70
     0
  9
$CHAMFERA
 40
0.0
  9
$CHAMFERB
 40
0.0
  9
$CHAMFERC
 40
0.0
  9
$CHAMFERD
 40
0.0
  9
$SKPOLY
 70
     0
  9
$TDCREATE
 40
2458369.451815162
  9
$TDUCREATE
 40
2458369.368481829
  9
$TDUPDATE
 40
2458369.451844097
  9
$TDUUPDATE
 40
2458369.368510764
  9
$TDINDWG
 40
0.0000000116
  9
$TDUSRTIMER
 40
0.0000000116
  9
$USRTIMER
 70
     1
  9
$ANGBASE
 50
0.0
  9
$ANGDIR
 70
     0
  9
$PDMODE
 70
     0
  9
$PDSIZE
 40
-1.0
  9
$PLINEWID
 40
0.0
  9
$SPLFRAME
 70
     0
  9
$SPLINETYPE
 70
     6
  9
$SPLINESEGS
 70
     8
  9
$HANDSEED
  5
194
  9
$SURFTAB1
 70
     6
  9
$SURFTAB2
 70
     6
  9
$SURFTYPE
 70
     6
  9
$SURFU
 70
     6
  9
$SURFV
 70
     6
  9
$UCSBASE
  2

  9
$UCSNAME
  2

  9
$UCSORG
 10
0.0
 20
0.0
 30
0.0
  9
$UCSXDIR
 10
1.0
 20
0.0
 30
0.0
  9
$UCSYDIR
 10
0.0
 20
1.0
 30
0.0
  9
$UCSORTHOREF
  2

  9
$UCSORTHOVIEW
 70
     0
  9
$UCSORGTOP
 10
0.0
 20
0.0
 30
0.0
  9
$UCSORGBOTTOM
 10
0.0
 20
0.0
 30
0.0
  9
$UCSORGLEFT
 10
0.0
 20
0.0
 30
0.0
  9
$UCSORGRIGHT
 10
0.0
 20
0.0
 30
0.0
  9
$UCSORGFRONT
 10
0.0
 20
0.0
 30
0.0
  9
$UCSORGBACK
 10
0.0
 20
0.0
 30
0.0
  9
$PUCSBASE
  2

  9
$PUCSNAME
  2

  9
$PUCSORG
 10
0.0
 20
0.0
 30
0.0
  9
$PUCSXDIR
 10
1.0
 20
0.0
 30
0.0
  9
$PUCSYDIR
 10
0.0
 20
1.0
 30
0.0
  9
$PUCSORTHOREF
  2

  9
$PUCSORTHOVIEW
 70
     0
  9
$PUCSORGTOP
 10
0.0
 20
0.0
 30
0.0
  9
$PUCSORGBOTTOM
 10
0.0
 20
0.0
 30
0.0
  9
$PUCSORGLEFT
 10
0.0
 20
0.0
 30
0.0
  9
$PUCSORGRIGHT
 10
0.0
 20
0.0
 30
0.0
  9
$PUCSORGFRONT
 10
0.0
 20
0.0
 30
0.0
  9
$PUCSORGBACK
 10
0.0
 20
0.0
 30
0.0
  9
$USERI1
 70
     0
  9
$USERI2
 70
     0
  9
$USERI3
 70
     0
  9
$USERI4
 70
     0
  9
$USERI5
 70
     0
  9
$USERR1
 40
0.0
  9
$USERR2
 40
0.0
  9
$USERR3
 40
0.0
  9
$USERR4
 40
0.0
  9
$USERR5
 40
0.0
  9
$WORLDVIEW
 70
     1
  9
$SHADEDGE
 70
     3
  9
$SHADEDIF
 70
    70
  9
$TILEMODE
 70
     1
  9
$MAXACTVP
 70
    64
  9
$PINSBASE
 10
0.0
 20
0.0
 30
0.0
  9
$PLIMCHECK
 70
     0
  9
$PEXTMIN
 10
-267.5363119948
 20
-141.0
 30
0.0
  9
$PEXTMAX
 10
267.5
 20
0.0
 30
0.0
  9
$PLIMMIN
 10
-309.1733790761
 20
-156.6139001555
  9
$PLIMMAX
 10
309.1370670813
 20
280.5753041983
  9
$UNITMODE
 70
     0
  9
$VISRETAIN
 70
     1
  9
$PLINEGEN
 70
     0
  9
$PSLTSCALE
 70
     1
  9
$TREEDEPTH
 70
  3020
  9
$CMLSTYLE
  2
Standard
  9
$CMLJUST
 70
     0
  9
$CMLSCALE
 40
20.0
  9
$PROXYGRAPHICS
 70
     1
  9
$MEASUREMENT
 70
     1
  9
$CELWEIGHT
370
    -1
  9
$ENDCAPS
280
     0
  9
$JOINSTYLE
280
     0
  9
$LWDISPLAY
290
     1
  9
$INSUNITS
 70
     4
  9
$HYPERLINKBASE
  1

  9
$STYLESHEET
  1

  9
$XEDIT
290
     1
  9
$CEPSNTYPE
380
     0
  9
$PSTYLEMODE
290
     1
  9
$FINGERPRINTGUID
  2
{66326F40-6501-4AF3-989A-C2F37562B25B}
  9
$VERSIONGUID
  2
{FAEB1C32-E019-11D5-929B-00C0DF256EC4}
  9
$EXTNAMES
290
     1
  9
$PSVPSCALE
 40
0.0
  9
$OLESTARTUP
290
     0
  0
ENDSEC
  0
SECTION
  2
CLASSES
  0
CLASS
  1
ACDBDICTIONARYWDFLT
  2
AcDbDictionaryWithDefault
  3
ObjectDBX Classes
 90
        0
280
     0
281
     0
  0
CLASS
  1
VISUALSTYLE
  2
AcDbVisualStyle
  3
ObjectDBX Classes
 90
     4095
280
     0
281
     0
  0
CLASS
  1
MATERIAL
  2
AcDbMaterial
  3
ObjectDBX Classes
 90
     1153
280
     0
281
     0
  0
CLASS
  1
SCALE
  2
AcDbScale
  3
ObjectDBX Classes
 90
     1153
280
     0
281
     0
  0
CLASS
  1
TABLESTYLE
  2
AcDbTableStyle
  3
ObjectDBX Classes
 90
     4095
280
     0
281
     0
  0
CLASS
  1
MLEADERSTYLE
  2
AcDbMLeaderStyle
  3
ACDB_MLEADERSTYLE_CLASS
 90
     4095
280
     0
281
     0
  0
CLASS
  1
SUN
  2
AcDbSun
  3
SCENEOE
 90
     1153
280
     0
281
     0
  0
CLASS
  1
ACDBPLACEHOLDER
  2
AcDbPlaceHolder
  3
ObjectDBX Classes
 90
        0
280
     0
281
     0
  0
CLASS
  1
LAYOUT
  2
AcDbLayout
  3
ObjectDBX Classes
 90
        0
280
     0
281
     0
  0
ENDSEC
  0
SECTION
  2
TABLES
  0
TABLE
  2
VPORT
  5
8
330
0
100
AcDbSymbolTable
 70
     1
  0
VPORT
  5
29
330
8
100
AcDbSymbolTableRecord
100
AcDbViewportTableRecord
  2
*Active
 70
     0
 10
0.0
 20
0.0
 11
1.0
 21
1.0
 12
0.0
 22
0.0
 13
0.0
 23
0.0
 14
10.0
 24
10.0
 15
10.0
 25
10.0
 16
0.0
 26
0.0
 36
1.0
 17
0.0
 27
0.0
 37
0.0
 40
336.6
 41
1.6212121212
 42
50.0
 43
0.0
 44
0.0
 50
0.0
 51
0.0
 71
     0
 72
   100
 73
     1
 74
     3
 75
     0
 76
     0
 77
     0
 78
     0
281
     0
 65
     1
110
0.0
120
0.0
130
0.0
111
1.0
121
0.0
131
0.0
112
0.0
122
1.0
132
0.0
 79
     0
146
0.0
  0
ENDTAB
  0
TABLE
  2
LTYPE
  5
5
330
0
100
AcDbSymbolTable
 70
     6
  0
LTYPE
  5
14
330
5
100
AcDbSymbolTableRecord
100
AcDbLinetypeTableRecord
  2
ByBlock
 70
     0
  3

 72
    65
 73
     0
 40
0.0
  0
LTYPE
  5
15
330
5
100
AcDbSymbolTableRecord
100
AcDbLinetypeTableRecord
  2
ByLayer
 70
     0
  3

 72
    65
 73
     0
 40
0.0
  0
LTYPE
  5
16
330
5
100
AcDbSymbolTableRecord
100
AcDbLinetypeTableRecord
  2
Continuous
 70
     0
  3
Solid line
 72
    65
 73
     0
 40
0.0
  0
LTYPE
  5
6E
330
5
100
AcDbSymbolTableRecord
100
AcDbLinetypeTableRecord
  2
HIDDEN
 70
     0
  3
Hidden __ __ __ __ __ __ __ __ __ __ __ __ __ __
 72
    65
 73
     2
 40
1.905
 49
1.27
 74
     0
 49
-0.635
 74
     0
  0
LTYPE
  5
6F
330
5
100
AcDbSymbolTableRecord
100
AcDbLinetypeTableRecord
  2
PHANTOM
 70
     0
  3
Phantom ______  __  __  ______  __  __  ______
 72
    65
 73
     6
 40
12.7
 49
6.35
 74
     0
 49
-1.27
 74
     0
 49
1.27
 74
     0
 49
-1.27
 74
     0
 49
1.27
 74
     0
 49
-1.27
 74
     0
  0
LTYPE
  5
70
330
5
100
AcDbSymbolTableRecord
100
AcDbLinetypeTableRecord
  2
CENTER
 70
     0
  3
Center ____ _ ____ _ ____ _ ____ _ ____ _ ____
 72
    65
 73
     4
 40
10.16
 49
6.35
 74
     0
 49
-1.27
 74
     0
 49
1.27
 74
     0
 49
-1.27
 74
     0
  0
LTYPE
  5
71
330
5
100
AcDbSymbolTableRecord
100
AcDbLinetypeTableRecord
  2
CENTERX2
 70
     0
  3
Center (2x) ________  __  ________  __  _____
 72
    65
 73
     4
 40
20.32
 49
12.7
 74
     0
 49
-2.54
 74
     0
 49
2.54
 74
     0
 49
-2.54
 74
     0
  0
LTYPE
  5
72
330
5
100
AcDbSymbolTableRecord
100
AcDbLinetypeTableRecord
  2
DOT2
 70
     0
  3
Dot (.5x) ........................................
 72
    65
 73
     2
 40
0.635
 49
0.0
 74
     0
 49
-0.635
 74
     0
  0
ENDTAB
  0
TABLE
  2
LAYER
  5
2
330
0
100
AcDbSymbolTable
 70
     1
  0
LAYER
  5
10
330
2
100
AcDbSymbolTableRecord
100
AcDbLayerTableRecord
  2
0
 70
     0
 62
     7
  6
Continuous
370
    -3
390
F
  0
ENDTAB
  0
TABLE
  2
STYLE
  5
3
330
0
100
AcDbSymbolTable
 70
     1
  0
STYLE
  5
11
330
3
100
AcDbSymbolTableRecord
100
AcDbTextStyleTableRecord
  2
STANDARD
 70
     0
 40
0.0
 41
1.0
 50
0.0
 71
     0
 42
3.5
  3
GOTHIC.TTF
  4

1001
ACAD
1000
CENTURY GOTHIC
1071
       34
  0
ENDTAB
  0
TABLE
  2
VIEW
  5
6
330
0
100
AcDbSymbolTable
 70
     0
  0
ENDTAB
  0
TABLE
  2
UCS
  5
7
330
0
100
AcDbSymbolTable
 70
     0
  0
ENDTAB
  0
TABLE
  2
APPID
  5
9
330
0
100
AcDbSymbolTable
 70
     1
  0
APPID
  5
12
330
9
100
AcDbSymbolTableRecord
100
AcDbRegAppTableRecord
  2
ACAD
 70
     0
  0
ENDTAB
  0
TABLE
  2
DIMSTYLE
  5
A
330
0
100
AcDbSymbolTable
 70
     1
100
AcDbDimStyleTable
  0
DIMSTYLE
105
27
330
A
100
AcDbSymbolTableRecord
100
AcDbDimStyleTableRecord
  2
ISO-25
 70
     0
 41
2.5
 42
0.625
 43
3.75
 44
1.25
 73
     0
 74
     0
 77
     1
 78
     8
140
2.5
141
2.5
143
0.0393700787
147
0.625
171
     3
172
     1
178
     0
271
     2
272
     2
274
     3
278
    44
283
     0
284
     8
340
11
  0
ENDTAB
  0
TABLE
  2
BLOCK_RECORD
  5
1
330
0
100
AcDbSymbolTable
 70
     8
  0
BLOCK_RECORD
  5
1F
330
1
100
AcDbSymbolTableRecord
100
AcDbBlockTableRecord
  2
*Model_Space
340
22
  0
BLOCK_RECORD
  5
1B
330
1
100
AcDbSymbolTableRecord
100
AcDbBlockTableRecord
  2
*Paper_Space
340
1E
  0
BLOCK_RECORD
  5
23
330
1
100
AcDbSymbolTableRecord
100
AcDbBlockTableRecord
  2
*Paper_Space0
340
26
  0
BLOCK_RECORD
  5
B6
330
1
100
AcDbSymbolTableRecord
100
AcDbBlockTableRecord
  2
*Paper_Space1
340
B7
  0
BLOCK_RECORD
  5
CD
330
1
100
AcDbSymbolTableRecord
100
AcDbBlockTableRecord
  2
*Paper_Space2
340
CE
  0
BLOCK_RECORD
  5
E3
330
1
100
AcDbSymbolTableRecord
100
AcDbBlockTableRecord
  2
*Paper_Space3
340
E4
  0
BLOCK_RECORD
  5
FD
330
1
100
AcDbSymbolTableRecord
100
AcDbBlockTableRecord
  2
*Paper_Space4
340
FE
  0
BLOCK_RECORD
  5
113
330
1
100
AcDbSymbolTableRecord
100
AcDbBlockTableRecord
  2
*Paper_Space5
340
114
  0
BLOCK_RECORD
  5
147
330
1
100
AcDbSymbolTableRecord
100
AcDbBlockTableRecord
  2
*Paper_Space6
340
148
  0
BLOCK_RECORD
  5
168
330
1
100
AcDbSymbolTableRecord
100
AcDbBlockTableRecord
  2
*Paper_Space7
340
169
  0
ENDTAB
  0
ENDSEC
  0
SECTION
  2
BLOCKS
  0
BLOCK
  5
20
330
1F
100
AcDbEntity
  8
0
100
AcDbBlockBegin
  2
*Model_Space
 70
     0
 10
0.0
 20
0.0
 30
0.0
  3
*Model_Space
  1

  0
ENDBLK
  5
21
330
1F
100
AcDbEntity
  8
0
100
AcDbBlockEnd
  0
BLOCK
  5
1C
330
1B
100
AcDbEntity
 67
     1
  8
0
100
AcDbBlockBegin
  2
*Paper_Space
 70
     0
 10
0.0
 20
0.0
 30
0.0
  3
*Paper_Space
  1

  0
ENDBLK
  5
1D
330
1B
100
AcDbEntity
 67
     1
  8
0
100
AcDbBlockEnd
  0
BLOCK
  5
24
330
23
100
AcDbEntity
  8
0
100
AcDbBlockBegin
  2
*Paper_Space0
 70
     0
 10
0.0
 20
0.0
 30
0.0
  3
*Paper_Space0
  1

  0
SPLINE
  5
9F
330
23
100
AcDbEntity
  8
0
  6
Continuous
 62
     7
370
    25
100
AcDbSpline
210
0.0
220
0.0
230
1.0
 70
     8
 71
     3
 72
    40
 73
    36
 74
     0
 42
0.000000001
 43
0.00000001
 40
0.0
 40
0.0
 40
0.0
 40
0.0
 40
0.0404887860511722
 40
0.086851643495911
 40
0.1298157075918447
 40
0.1683817602612196
 40
0.2028126976329817
 40
0.2341803442648842
 40
0.2636881805820308
 40
0.2888010350325197
 40
0.3138621470412707
 40
0.3390228878601624
 40
0.3617974690959724
 40
0.3871234493889329
 40
0.4066018428121799
 40
0.420329284863815
 40
0.4241124079104902
 40
0.4273322982444056
 40
0.43037914800849
 40
0.4336844893465397
 40
0.4376061617271509
 40
0.4423740203697394
 40
0.454928689772176
 40
0.4719673063119322
 40
0.4937770026729265
 40
0.5205421874908164
 40
0.5524012012978651
 40
0.5894658895689382
 40
0.6318285357668754
 40
0.6795636355075554
 40
0.7327271961255533
 40
0.7913546586702563
 40
0.8554579410280568
 40
0.9250218504570861
 40
0.9999999999999999
 40
0.9999999999999999
 40
0.9999999999999999
 40
0.9999999999999999
 10
54.9875465238147
 20
-127.6767249948717
 30
0.0
 10
56.48230181804381
 20
-127.3943173169039
 30
0.0
 10
59.68866996560778
 20
-126.7885305458121
 30
0.0
 10
63.71129109428324
 20
-125.7466362570278
 30
0.0
 10
67.60258684036332
 20
-124.5995905581537
 30
0.0
 10
71.18346415354631
 20
-123.4237220379639
 30
0.0
 10
74.5523816858781
 20
-122.2523049030105
 30
0.0
 10
77.7299823512315
 20
-121.1064645412663
 30
0.0
 10
80.62977483814267
 20
-120.0348597700357
 30
0.0
 10
83.28196161899486
 20
-119.0379278896238
 30
0.0
 10
85.76789440746468
 20
-118.0935806336755
 30
0.0
 10
88.05408845398057
 20
-117.2152767813411
 30
0.0
 10
90.2932033326931
 20
-116.2734425715608
 30
0.0
 10
92.48464845182615
 20
-115.2785933790862
 30
0.0
 10
94.54235329783029
 20
-114.2675566150254
 30
0.0
 10
96.0442967469268
 20
-113.4816697279725
 30
0.0
 10
97.03324876817888
 20
-112.9416837526375
 30
0.0
 10
97.57735694019296
 20
-112.638743012645
 30
0.0
 10
98.12738382785525
 20
-112.3261161457581
 30
0.0
 10
98.6524569067717
 20
-112.02190015843
 30
0.0
 10
99.15265308558965
 20
-111.7270986016808
 30
0.0
 10
99.8668334034267
 20
-111.2994968378133
 30
0.0
 10
100.6943555126125
 20
-110.7913677937853
 30
0.0
 10
101.6022939640549
 20
-110.2210823952625
 30
0.0
 10
102.4938067918447
 20
-109.6496317302796
 30
0.0
 10
103.3689784319209
 20
-109.079419539439
 30
0.0
 10
104.2248559149333
 20
-108.5142437284655
 30
0.0
 10
105.0592411446819
 20
-107.9574008999037
 30
0.0
 10
105.8689661320061
 20
-107.412537901033
 30
0.0
 10
106.6501514274411
 20
-106.8835599410793
 30
0.0
 10
107.3976852658072
 20
-106.3749657372508
 30
0.0
 10
108.1058056996951
 20
-105.8914873157698
 30
0.0
 10
108.7649776912942
 20
-105.4402796231759
 30
0.0
 10
109.374409085869
 20
-105.0223739116707
 30
0.0
 10
109.7050542798651
 20
-104.7954731488284
 30
0.0
 10
109.8765695120226
 20
-104.6777731558381
 30
0.0
  0
SPLINE
  5
A0
330
23
100
AcDbEntity
  8
0
  6
Continuous
 62
     7
370
    25
100
AcDbSpline
210
0.0
220
0.0
230
1.0
 70
     8
 71
     3
 72
    22
 73
    18
 74
     0
 42
0.000000001
 43
0.00000001
 40
0.0
 40
0.0
 40
0.0
 40
0.0
 40
0.042314551898254
 40
0.0828673514828977
 40
0.1215706435048698
 40
0.158582226275719
 40
0.2015464830001368
 40
0.2542772125644848
 40
0.3168255435924657
 40
0.3795824312211416
 40
0.4496975738417645
 40
0.5269117488598919
 40
0.6108307548230344
 40
0.700877782918874
 40
0.7963430775344045
 40
0.8963597037520987
 40
1.0
 40
1.0
 40
1.0
 40
1.0
 10
-165.0
 20
0.0
 30
0.0
 10
-164.9794217010654
 20
-1.73555583263342
 30
0.0
 10
-164.9391218738375
 20
-5.134408207269139
 30
0.0
 10
-164.6252422092122
 20
-10.11243783705665
 30
0.0
 10
-164.1568324300785
 20
-14.85866774475534
 30
0.0
 10
-163.4975781461374
 20
-19.68230231950517
 30
0.0
 10
-162.5516562082791
 20
-25.0436855858944
 30
0.0
 10
-161.1288008702832
 20
-31.37862625728342
 30
0.0
 10
-159.1337376493309
 20
-38.40731628733123
 30
0.0
 10
-156.4765394880812
 20
-45.97386195050084
 30
0.0
 10
-153.1048033935544
 20
-53.91012832155086
 30
0.0
 10
-148.7769111088031
 20
-62.35929593999958
 30
0.0
 10
-143.3741346245704
 20
-71.14326845036204
 30
0.0
 10
-136.8063029644121
 20
-80.04887726019804
 30
0.0
 10
-129.0148549382289
 20
-88.80784199771036
 30
0.0
 10
-120.0661123834297
 20
-97.24280165206444
 30
0.0
 10
-113.3131357336474
 20
-102.1702247553796
 30
0.0
 10
-109.8765695120556
 20
-104.6777731558157
 30
0.0
  0
SPLINE
  5
A1
330
23
100
AcDbEntity
  8
0
  6
Continuous
 62
     7
370
    25
100
AcDbSpline
210
0.0
220
0.0
230
1.0
 70
     8
 71
     3
 72
    21
 73
    17
 74
     0
 42
0.000000001
 43
0.00000001
 40
0.0
 40
0.0
 40
0.0
 40
0.0
 40
0.0848616109180858
 40
0.1674817119273681
 40
0.2473399106210398
 40
0.3239512245712481
 40
0.3968705886370754
 40
0.4657242569254019
 40
0.5301936216295148
 40
0.5900486305207406
 40
0.6623848524201239
 40
0.7294462099789844
 40
0.7968861628525937
 40
0.8645896642783938
 40
0.9323553048628445
 40
1.0
 40
1.0
 40
1.0
 40
1.0
 10
109.8765695120556
 20
-104.6777731558155
 30
0.0
 10
112.7005184838114
 20
-102.6398821034761
 30
0.0
 10
118.2738254605282
 20
-98.61792826033337
 30
0.0
 10
125.8573280695798
 20
-91.85492918511227
 30
0.0
 10
132.6851004878864
 20
-84.80614504596006
 30
0.0
 10
138.6958353906827
 20
-77.55613478915424
 30
0.0
 10
143.9048312712983
 20
-70.26087142544453
 30
0.0
 10
148.3380019182314
 20
-63.04939724007414
 30
0.0
 10
152.0472011305168
 20
-56.04233639083916
 30
0.0
 10
155.3833636635849
 20
-48.69408608285465
 30
0.0
 10
158.2841792049282
 20
-41.04657190343866
 30
0.0
 10
160.7490725908603
 20
-32.92337095986797
 30
0.0
 10
162.6397257105343
 20
-24.84195007398374
 30
0.0
 10
163.9927669191948
 20
-16.62585309099005
 30
0.0
 10
164.8415790680657
 20
-8.329551222390805
 30
0.0
 10
164.9472244760511
 20
-2.774863300283675
 30
0.0
 10
165.0
 20
0.0
 30
0.0
  0
SPLINE
  5
A2
330
23
100
AcDbEntity
  8
0
  6
Continuous
 62
     7
370
    25
100
AcDbSpline
210
0.0
220
0.0
230
1.0
 70
     8
 71
     3
 72
    40
 73
    36
 74
     0
 42
0.000000001
 43
0.00000001
 40
0.0
 40
0.0
 40
0.0
 40
0.0
 40
0.0758863831036539
 40
0.1461008660310179
 40
0.2105820165700329
 40
0.2693029828104903
 40
0.322266132274066
 40
0.369498264763703
 40
0.4110465107105694
 40
0.4427889224785986
 40
0.4702812949936628
 40
0.4935853917897098
 40
0.5127743491343252
 40
0.5279399883688323
 40
0.5392146732264848
 40
0.5475221066707925
 40
0.5512183151387708
 40
0.5547970699036388
 40
0.558425592504359
 40
0.5622658683635189
 40
0.5710800075217999
 40
0.5820304327507171
 40
0.5956251827108825
 40
0.6122517253152276
 40
0.6319634022861134
 40
0.6548025380906873
 40
0.6796236358466934
 40
0.7102472928672482
 40
0.7454592099569404
 40
0.786481284048622
 40
0.8339647600283564
 40
0.8754560681251844
 40
0.9194330219478927
 40
0.9643368798065185
 40
1.0
 40
1.0
 40
1.0
 40
1.0
 10
-109.876569512062
 20
-104.6777731558114
 30
0.0
 10
-109.7809660415464
 20
-104.7436347990521
 30
0.0
 10
-109.5969046952726
 20
-104.8704354544814
 30
0.0
 10
-109.2175772871533
 20
-105.1338638984579
 30
0.0
 10
-108.7866985858645
 20
-105.433255277433
 30
0.0
 10
-108.306404893296
 20
-105.7667845034145
 30
0.0
 10
-107.7863176782726
 20
-106.1273782914553
 30
0.0
 10
-107.2325807341467
 20
-106.5104383164542
 30
0.0
 10
-106.6704437483355
 20
-106.8981191493327
 30
0.0
 10
-106.1095783223912
 20
-107.2833424745662
 30
0.0
 10
-105.5636347932554
 20
-107.656482600628
 30
0.0
 10
-105.0023637176882
 20
-108.0375805852837
 30
0.0
 10
-104.4326325712298
 20
-108.4213287031686
 30
0.0
 10
-103.8436333570997
 20
-108.8136989370477
 30
0.0
 10
-103.2606964238261
 20
-109.1974608183849
 30
0.0
 10
-102.6275319111637
 20
-109.6074653027582
 30
0.0
 10
-101.984543690616
 20
-110.0155647532926
 30
0.0
 10
-101.4535698445194
 20
-110.3481778807326
 30
0.0
 10
-100.8562477371218
 20
-110.7169209762953
 30
0.0
 10
-99.93524545387125
 20
-111.2762404570603
 30
0.0
 10
-98.59158612090246
 20
-112.0686119327982
 30
0.0
 10
-96.82833316979554
 20
-113.0614748575163
 30
0.0
 10
-94.78343619786828
 20
-114.1525448709171
 30
0.0
 10
-92.3404886574118
 20
-115.3708015475271
 30
0.0
 10
-89.51928075426014
 20
-116.6677509524569
 30
0.0
 10
-86.29639093612192
 20
-117.9725623494724
 30
0.0
 10
-82.88869207534665
 20
-119.2681785814328
 30
0.0
 10
-79.52495950730733
 20
-120.5494719549062
 30
0.0
 10
-76.03682502899728
 20
-121.8433987728015
 30
0.0
 10
-72.4497990342762
 20
-123.1314310757489
 30
0.0
 10
-69.01315689600847
 20
-124.2893951935893
 30
0.0
 10
-65.63430997201966
 20
-125.3250006535962
 30
0.0
 10
-62.25040978849199
 20
-126.2288149820078
 30
0.0
 10
-58.8554262540361
 20
-127.0155325011239
 30
0.0
 10
-56.17805165914113
 20
-127.4832704103231
 30
0.0
 10
-54.9929068977358
 20
-127.6903154513328
 30
0.0
  0
SPLINE
  5
A4
330
23
100
AcDbEntity
  8
0
  6
Continuous
 62
     7
370
    25
100
AcDbSpline
210
0.0
220
0.0
230
1.0
 70
     8
 71
     3
 72
    29
 73
    25
 74
     0
 42
0.000000001
 43
0.00000001
 40
0.0
 40
0.0
 40
0.0
 40
0.0
 40
0.1249999999999999
 40
0.1249999999999999
 40
0.1875000000000005
 40
0.1875000000000005
 40
0.250000000000001
 40
0.250000000000001
 40
0.3750000000000008
 40
0.3750000000000008
 40
0.437500000000001
 40
0.437500000000001
 40
0.5000000000000012
 40
0.5000000000000012
 40
0.6250000000000016
 40
0.6250000000000016
 40
0.6875000000000013
 40
0.6875000000000013
 40
0.7500000000000011
 40
0.8125000000000009
 40
0.8125000000000009
 40
0.8750000000000006
 40
0.8750000000000006
 40
1.0
 40
1.0
 40
1.0
 40
1.0
 10
44.99999999999975
 20
-128.4862998609145
 30
0.0
 10
45.66028560471719
 20
-128.4622569672743
 30
0.0
 10
46.30955571739238
 20
-128.4387725503082
 30
0.0
 10
47.26753901667051
 20
-128.402295558218
 30
0.0
 10
47.58419672610346
 20
-128.3900132739969
 30
0.0
 10
48.21204828707377
 20
-128.3651153747069
 30
0.0
 10
48.52412512939765
 20
-128.3524599504071
 30
0.0
 10
49.43196614954638
 20
-128.3146900685744
 30
0.0
 10
50.00606770793543
 20
-128.2895219615352
 30
0.0
 10
50.82095452672126
 20
-128.2513598378323
 30
0.0
 10
51.08564357223775
 20
-128.2385291880926
 30
0.0
 10
51.59522172911713
 20
-128.212837810064
 30
0.0
 10
51.83772418525164
 20
-128.2001005531567
 30
0.0
 10
52.52952792998367
 20
-128.1620984093532
 30
0.0
 10
52.94346243142159
 20
-128.1370420394269
 30
0.0
 10
53.4918060153034
 20
-128.0994676945283
 30
0.0
 10
53.66215760785325
 20
-128.0869493657599
 30
0.0
 10
53.97091969220232
 20
-128.0624082335942
 30
0.0
 10
54.24989671215338
 20
-128.0382206501668
 30
0.0
 10
54.47022255542034
 20
-128.0146402780279
 30
0.0
 10
54.66083457260323
 20
-127.9913540685545
 30
0.0
 10
54.74153724389657
 20
-127.9798093689081
 30
0.0
 10
54.93520762165404
 20
-127.9460599100159
 30
0.0
 10
54.99999999999958
 20
-127.9247624521945
 30
0.0
 10
54.99999999999971
 20
-127.9056404642757
 30
0.0
  0
SPLINE
  5
A5
330
23
100
AcDbEntity
  8
0
  6
Continuous
 62
     7
370
    25
100
AcDbSpline
210
0.0
220
0.0
230
1.0
 70
     8
 71
     3
 72
    10
 73
     6
 74
     0
 42
0.000000001
 43
0.00000001
 40
0.0
 40
0.0
 40
0.0
 40
0.0
 40
0.5
 40
0.5
 40
1.0
 40
1.0
 40
1.0
 40
1.0
 10
-45.00000000045539
 20
-128.4862998609346
 30
0.0
 10
-30.00549388111942
 20
-129.0322928573587
 30
0.0
 10
-15.00280537813201
 20
-129.4170560667586
 30
0.0
 10
15.00287459582642
 20
-129.4170548465036
 30
0.0
 10
30.00548999474612
 20
-129.0322929988768
 30
0.0
 10
44.99999999954458
 20
-128.4862998609782
 30
0.0
  0
SPLINE
  5
A6
330
23
100
AcDbEntity
  8
0
  6
Continuous
 62
     7
370
    25
100
AcDbSpline
210
0.0
220
0.0
230
1.0
 70
     8
 71
     3
 72
    29
 73
    25
 74
     0
 42
0.000000001
 43
0.00000001
 40
0.0
 40
0.0
 40
0.0
 40
0.0
 40
0.1249999999999991
 40
0.1249999999999991
 40
0.1874999999999986
 40
0.1874999999999986
 40
0.2499999999999982
 40
0.2499999999999982
 40
0.3749999999999974
 40
0.3749999999999974
 40
0.4374999999999974
 40
0.4374999999999974
 40
0.4999999999999974
 40
0.4999999999999974
 40
0.6249999999999974
 40
0.6249999999999974
 40
0.6874999999999981
 40
0.6874999999999981
 40
0.7499999999999987
 40
0.8124999999999993
 40
0.8124999999999993
 40
0.875
 40
0.875
 40
1.0
 40
1.0
 40
1.0
 40
1.0
 10
-55.00000000000023
 20
-127.9056404642267
 30
0.0
 10
-55.00000000000001
 20
-127.9247624879706
 30
0.0
 10
-54.93521555014282
 20
-127.9459434363764
 30
0.0
 10
-54.7448814425031
 20
-127.979282645966
 30
0.0
 10
-54.66579468992425
 20
-127.9906855024961
 30
0.0
 10
-54.475630581924
 20
-128.0140389011465
 30
0.0
 10
-54.36400988098588
 20
-128.0260292429621
 30
0.0
 10
-53.98791651966145
 20
-128.0620784002732
 30
0.0
 10
-53.6810654615605
 20
-128.0864400684487
 30
0.0
 10
-53.13739938740081
 20
-128.1237811405791
 30
0.0
 10
-52.94148361632389
 20
-128.1364060138998
 30
0.0
 10
-52.52364858043816
 20
-128.1618204360396
 30
0.0
 10
-52.30380105426769
 20
-128.1744894035688
 30
0.0
 10
-51.6125012659898
 20
-128.2124894685056
 30
0.0
 10
-51.10959133314493
 20
-128.2378115101989
 30
0.0
 10
-50.29070563293227
 20
-128.2762069830531
 30
0.0
 10
-50.00688902929185
 20
-128.2890697065169
 30
0.0
 10
-49.43005226632541
 20
-128.314438937445
 30
0.0
 10
-48.84098691159674
 20
-128.3395964145238
 30
0.0
 10
-48.22784609040402
 20
-128.3644786676654
 30
0.0
 10
-47.60251067636224
 20
-128.389296712174
 30
0.0
 10
-47.28236417393317
 20
-128.4017256468078
 30
0.0
 10
-46.31341068416739
 20
-128.4386363213407
 30
0.0
 10
-45.66028368108179
 20
-128.4622570373666
 30
0.0
 10
-45.00000000000205
 20
-128.4862998609617
 30
0.0
  0
LINE
  5
B0
330
23
100
AcDbEntity
  8
0
  6
Continuous
 62
     7
370
    25
100
AcDbLine
 10
55.0
 20
-141.0
 30
0.0
 11
55.0
 21
-127.7272609508
 31
0.0
  0
LINE
  5
B1
330
23
100
AcDbEntity
  8
0
  6
Continuous
 62
     7
370
    25
100
AcDbLine
 10
-55.0
 20
-141.0
 30
0.0
 11
-55.0
 21
-127.7192029128
 31
0.0
  0
LINE
  5
B2
330
23
100
AcDbEntity
  8
0
  6
Continuous
 62
     7
370
    25
100
AcDbLine
 10
-165.0
 20
0.0
 30
0.0
 11
165.0
 21
0.0
 31
0.0
  0
LINE
  5
B3
330
23
100
AcDbEntity
  8
0
  6
Continuous
 62
     7
370
    25
100
AcDbLine
 10
55.0
 20
-141.0
 30
0.0
 11
-55.0
 21
-141.0
 31
0.0
  0
LINE
  5
B4
330
23
100
AcDbEntity
  8
0
  6
Continuous
 62
     7
370
    25
100
AcDbLine
 10
-45.0
 20
-141.0
 30
0.0
 11
-45.0
 21
-128.4862998607
 31
0.0
  0
LINE
  5
B5
330
23
100
AcDbEntity
  8
0
  6
Continuous
 62
     7
370
    25
100
AcDbLine
 10
45.0
 20
-141.0
 30
0.0
 11
45.0
 21
-128.4862998608
 31
0.0
  0
VIEWPORT
  5
184
330
23
100
AcDbEntity
  8
0
100
AcDbViewport
 10
0.0
 20
0.0
 30
0.0
 40
205.6
 41
156.0
 68
     1
 69
     1
 12
0.0
 22
0.0
 13
0.0
 23
0.0
 14
10.0
 24
10.0
 15
10.0
 25
10.0
 16
0.0
 26
0.0
 36
1.0
 17
0.0
 27
0.0
 37
0.0
 42
50.0
 43
0.0
 44
0.0
 45
414.0525291829
 50
0.0
 51
0.0
 72
   100
 90
   557152
  1

281
     0
 71
     1
 74
     0
110
0.0
120
0.0
130
0.0
111
1.0
121
0.0
131
0.0
112
0.0
122
1.0
132
0.0
 79
     0
146
0.0
  0
ENDBLK
  5
25
330
23
100
AcDbEntity
  8
0
100
AcDbBlockEnd
  0
BLOCK
  5
B8
330
B6
100
AcDbEntity
  8
0
100
AcDbBlockBegin
  2
*Paper_Space1
 70
     0
 10
0.0
 20
0.0
 30
0.0
  3
*Paper_Space1
  1

  0
SPLINE
  5
BA
330
B6
100
AcDbEntity
  8
0
  6
Continuous
 62
     7
370
    25
100
AcDbSpline
210
0.0
220
0.0
230
1.0
 70
     8
 71
     3
 72
    38
 73
    34
 74
     0
 42
0.000000001
 43
0.00000001
 40
0.0
 40
0.0
 40
0.0
 40
0.0
 40
0.0414916141477543
 40
0.0906280874359357
 40
0.14049097619009
 40
0.1890473211196999
 40
0.2345282451719919
 40
0.2759276426945245
 40
0.3110003895871438
 40
0.3424294011558058
 40
0.3705769931387669
 40
0.3958362221282547
 40
0.4189200929638249
 40
0.4492861705951867
 40
0.4771047383152324
 40
0.5026132771705354
 40
0.5259906159910722
 40
0.5473746743081302
 40
0.5674741255803142
 40
0.5881657618884504
 40
0.6095739568821669
 40
0.6392307192592166
 40
0.6701708551104568
 40
0.7024184916169973
 40
0.7360112101515911
 40
0.7708447449940894
 40
0.80524338458311
 40
0.8388145668902331
 40
0.8716405186991409
 40
0.9037925937552218
 40
0.9354239645720135
 40
0.9674004195692463
 40
0.9999999999999999
 40
0.9999999999999999
 40
0.9999999999999999
 40
0.9999999999999999
 10
55.00445978663868
 20
-129.4071874142234
 30
0.0
 10
58.89464987225693
 20
-129.2569327247737
 30
0.0
 10
67.39180030767584
 20
-128.9287388134786
 30
0.0
 10
80.5526554519516
 20
-128.1713221285936
 30
0.0
 10
94.36240073649049
 20
-127.1825216600052
 30
0.0
 10
107.8134377773853
 20
-126.0074430513369
 30
0.0
 10
120.4558658980352
 20
-124.7181635301842
 30
0.0
 10
131.8229109162799
 20
-123.4036189252151
 30
0.0
 10
141.865453029721
 20
-122.1202536680907
 30
0.0
 10
150.6629347864374
 20
-120.906617621128
 30
0.0
 10
158.5365048860126
 20
-119.7365827321816
 30
0.0
 10
165.6307778807343
 20
-118.6523321029448
 30
0.0
 10
172.9067265219558
 20
-117.3733979291517
 30
0.0
 10
180.311872075806
 20
-115.5208098270023
 30
0.0
 10
187.792446214187
 20
-113.116371676938
 30
0.0
 10
194.4962529252525
 20
-110.4858634738543
 30
0.0
 10
200.4891321295135
 20
-107.7292709940786
 30
0.0
 10
205.8784104125853
 20
-104.8968196240865
 30
0.0
 10
210.9061006888969
 20
-101.9338930819651
 30
0.0
 10
215.78906045084
 20
-98.73352438069026
 30
0.0
 10
221.2329610759168
 20
-94.76753527861906
 30
0.0
 10
227.1740268825019
 20
-89.86801808435372
 30
0.0
 10
233.4904010127227
 20
-83.85783487759454
 30
0.0
 10
239.5921392616679
 20
-77.12104032994964
 30
0.0
 10
245.3808043571982
 20
-69.64434623836966
 30
0.0
 10
250.6618449239388
 20
-61.55740772540049
 30
0.0
 10
255.268470730061
 20
-53.07092444777346
 30
0.0
 10
259.1078220774507
 20
-44.41715402127967
 30
0.0
 10
262.1908192344894
 20
-35.69027831268873
 30
0.0
 10
264.5563114656916
 20
-26.93014034812562
 30
0.0
 10
266.2320876952111
 20
-18.09654117906148
 30
0.0
 10
267.2992124665944
 20
-9.119944553842435
 30
0.0
 10
267.4326416479392
 20
-3.059474986391461
 30
0.0
 10
267.5000000000001
 20
0.0
 30
0.0
  0
SPLINE
  5
BB
330
B6
100
AcDbEntity
  8
0
  6
Continuous
 62
     7
370
    25
100
AcDbSpline
210
0.0
220
0.0
230
1.0
 70
     8
 71
     3
 72
    38
 73
    34
 74
     0
 42
0.000000001
 43
0.00000001
 40
0.0
 40
0.0
 40
0.0
 40
0.0
 40
0.0325995800227361
 40
0.0645760346197508
 40
0.096207405040643
 40
0.1283594796943074
 40
0.1611854310923651
 40
0.194756612979311
 40
0.2291552521377971
 40
0.2639887865443167
 40
0.2975815046584623
 40
0.3298291407613914
 40
0.3607692762253848
 40
0.3904260382312503
 40
0.4118342329570204
 40
0.4325258690061791
 40
0.4526253200267973
 40
0.4740093780762116
 40
0.4973867166041573
 40
0.5228952551401951
 40
0.5507138225120638
 40
0.5810798997633624
 40
0.6056191275467694
 40
0.6326728342418632
 40
0.6630288732682521
 40
0.6971567793781509
 40
0.7354569814823698
 40
0.7780737740975617
 40
0.8218347722743594
 40
0.8680214953522265
 40
0.915058089963846
 40
0.9612574564228545
 40
1.0
 40
1.0
 40
1.0
 40
1.0
 10
-267.4999999999999
 20
0.0
 30
0.0
 10
-267.432641647939
 20
-3.059474986391433
 30
0.0
 10
-267.2992124665942
 20
-9.119944553842393
 30
0.0
 10
-266.232087695211
 20
-18.09654117906144
 30
0.0
 10
-264.5563114656917
 20
-26.93014034812541
 30
0.0
 10
-262.1908192344899
 20
-35.6902783126896
 30
0.0
 10
-259.1078220774505
 20
-44.41715402127679
 30
0.0
 10
-255.2684707300621
 20
-53.07092444778479
 30
0.0
 10
-250.6618449239326
 20
-61.55740772535632
 30
0.0
 10
-245.3808043572199
 20
-69.6443462385334
 30
0.0
 10
-239.592139261593
 20
-77.12104032937336
 30
0.0
 10
-233.4904010129885
 20
-83.85783487961812
 30
0.0
 10
-227.1740268815705
 20
-89.86801807725789
 30
0.0
 10
-221.2329610788485
 20
-94.76753530095705
 30
0.0
 10
-215.789060443318
 20
-98.73352432338467
 30
0.0
 10
-210.9061007158857
 20
-101.9338932875853
 30
0.0
 10
-205.8784103122515
 20
-104.8968188596712
 30
0.0
 10
-200.4891325470841
 20
-107.7292741754299
 30
0.0
 10
-194.4962511411438
 20
-110.4858498812321
 30
0.0
 10
-187.7924538101442
 20
-113.1164295483898
 30
0.0
 10
-180.3118397426888
 20
-115.5205634901185
 30
0.0
 10
-172.7742368579122
 20
-117.407501620052
 30
0.0
 10
-165.194427096948
 20
-118.7208644759228
 30
0.0
 10
-157.5939063937382
 20
-119.8814901656232
 30
0.0
 10
-149.0963687727582
 20
-121.1310665880705
 30
0.0
 10
-139.5400634252496
 20
-122.4292797277089
 30
0.0
 10
-128.8284593916386
 20
-123.7648832260203
 30
0.0
 10
-117.2025079482266
 20
-125.065699553311
 30
0.0
 10
-104.8236889358092
 20
-126.2824637455283
 30
0.0
 10
-92.01583200314722
 20
-127.3622901019311
 30
0.0
 10
-78.96529001361286
 20
-128.2680593166686
 30
0.0
 10
-66.60099374313376
 20
-128.9628111277635
 30
0.0
 10
-58.63690955522027
 20
-129.2684353850851
 30
0.0
 10
-55.00444027626288
 20
-129.4078325460681
 30
0.0
  0
SPLINE
  5
BC
330
B6
100
AcDbEntity
  8
0
  6
Continuous
 62
     7
370
    25
100
AcDbSpline
210
0.0
220
0.0
230
1.0
 70
     8
 71
     3
 72
    29
 73
    25
 74
     0
 42
0.000000001
 43
0.00000001
 40
0.0
 40
0.0
 40
0.0
 40
0.0
 40
0.1249999999999975
 40
0.1249999999999975
 40
0.1874999999999969
 40
0.1874999999999969
 40
0.2499999999999963
 40
0.2499999999999963
 40
0.3749999999999966
 40
0.3749999999999966
 40
0.4374999999999966
 40
0.4374999999999966
 40
0.4999999999999966
 40
0.4999999999999966
 40
0.6249999999999981
 40
0.6249999999999981
 40
0.6874999999999987
 40
0.6874999999999987
 40
0.7499999999999991
 40
0.8124999999999997
 40
0.8124999999999997
 40
0.8750000000000002
 40
0.8750000000000002
 40
1.0
 40
1.0
 40
1.0
 40
1.0
 10
44.99999999999978
 20
-127.9056404642267
 30
0.0
 10
45.6604518551145
 20
-127.9247624879706
 30
0.0
 10
46.30979556789963
 20
-127.9459434363768
 30
0.0
 10
47.26788531146748
 20
-127.9792826459663
 30
0.0
 10
47.58457355638659
 20
-127.9906855024965
 30
0.0
 10
48.21248074407463
 20
-128.0140389011469
 30
0.0
 10
48.52457315121121
 20
-128.0260292429625
 30
0.0
 10
49.43244226506594
 20
-128.0620784002735
 30
0.0
 10
50.00655639957588
 20
-128.086440068449
 30
0.0
 10
50.82145663408129
 20
-128.1237811405795
 30
0.0
 10
51.08616393035022
 20
-128.1364060139
 30
0.0
 10
51.59570052788158
 20
-128.1618204360398
 30
0.0
 10
51.83818384361131
 20
-128.1744894035691
 30
0.0
 10
52.52993356441126
 20
-128.2124894685059
 30
0.0
 10
52.94383660742544
 20
-128.2378115101991
 30
0.0
 10
53.4921343301646
 20
-128.2762069830532
 30
0.0
 10
53.66245184877094
 20
-128.2890697065171
 30
0.0
 10
53.97115637482312
 20
-128.3144389374452
 30
0.0
 10
54.25008233003388
 20
-128.3395961436087
 30
0.0
 10
54.47036695791629
 20
-128.3644786676655
 30
0.0
 10
54.66094089001368
 20
-128.3892967121742
 30
0.0
 10
54.74162705307219
 20
-128.4017256468078
 30
0.0
 10
54.93523466401692
 20
-128.4386363213407
 30
0.0
 10
54.99999999999991
 20
-128.4622570373666
 30
0.0
 10
54.99999999999979
 20
-128.4862998609616
 30
0.0
  0
SPLINE
  5
BD
330
B6
100
AcDbEntity
  8
0
  6
Continuous
 62
     7
370
    25
100
AcDbSpline
210
0.0
220
0.0
230
1.0
 70
     8
 71
     3
 72
    30
 73
    26
 74
     0
 42
0.000000001
 43
0.00000001
 40
0.0
 40
0.0
 40
0.0
 40
0.0
 40
0.015625
 40
0.015625
 40
0.03125
 40
0.03125
 40
0.0625000000000002
 40
0.0625000000000002
 40
0.1250000000000003
 40
0.1250000000000003
 40
0.2500000000000003
 40
0.2500000000000003
 40
0.5000000000000004
 40
0.5000000000000004
 40
0.7500000000000006
 40
0.7500000000000006
 40
0.8750000000000006
 40
0.8750000000000006
 40
0.9375000000000004
 40
0.9375000000000004
 40
0.9687500000000003
 40
0.9687500000000003
 40
0.9843750000000001
 40
0.9843750000000001
 40
1.0
 40
1.0
 40
1.0
 40
1.0
 10
-45.00000001434031
 20
-127.9056404646902
 30
0.0
 10
-44.53128418059432
 20
-127.8920697628248
 30
0.0
 10
-44.06277052728723
 20
-127.8723163745506
 30
0.0
 10
-43.12562307063049
 20
-127.8364844087657
 30
0.0
 10
-42.657055925246
 20
-127.8183671334702
 30
0.0
 10
-41.25137447019657
 20
-127.7634043279732
 30
0.0
 10
-40.31424351705977
 20
-127.727067719696
 30
0.0
 10
-37.50277405380421
 20
-127.620400277307
 30
0.0
 10
-35.62837478159184
 20
-127.5519274186106
 30
0.0
 10
-30.00484398213514
 20
-127.3566907479901
 30
0.0
 10
-26.25537847414981
 20
-127.240139355843
 30
0.0
 10
-15.00510682108094
 20
-126.9478226341905
 30
0.0
 10
-7.503297841454906
 20
-126.8290550835371
 30
0.0
 10
7.501288945519533
 20
-126.8290337929036
 30
0.0
 10
15.0041063136149
 20
-126.9478026001564
 30
0.0
 10
26.25456108386539
 20
-127.2401151369315
 30
0.0
 10
30.00430403650978
 20
-127.356672939962
 30
0.0
 10
35.62806204350723
 20
-127.551916092251
 30
0.0
 10
37.50252914742551
 20
-127.6203911574069
 30
0.0
 10
40.31409114404246
 20
-127.7270618527238
 30
0.0
 10
41.25125112696804
 20
-127.7633994499707
 30
0.0
 10
42.65697505143356
 20
-127.8183639988741
 30
0.0
 10
43.12555682728436
 20
-127.8364818612554
 30
0.0
 10
44.06273448190981
 20
-127.8723150110356
 30
0.0
 10
44.53125894019657
 20
-127.8920690318005
 30
0.0
 10
44.99999998565932
 20
-127.9056404638605
 30
0.0
  0
SPLINE
  5
BE
330
B6
100
AcDbEntity
  8
0
  6
Continuous
 62
     7
370
    25
100
AcDbSpline
210
0.0
220
0.0
230
1.0
 70
     8
 71
     3
 72
    29
 73
    25
 74
     0
 42
0.000000001
 43
0.00000001
 40
0.0
 40
0.0
 40
0.0
 40
0.0
 40
0.1249999999999999
 40
0.1249999999999999
 40
0.1875000000000005
 40
0.1875000000000005
 40
0.250000000000001
 40
0.250000000000001
 40
0.3750000000000008
 40
0.3750000000000008
 40
0.437500000000001
 40
0.437500000000001
 40
0.5000000000000012
 40
0.5000000000000012
 40
0.6250000000000016
 40
0.6250000000000016
 40
0.6875000000000013
 40
0.6875000000000013
 40
0.7500000000000011
 40
0.8125000000000009
 40
0.8125000000000009
 40
0.8750000000000006
 40
0.8750000000000006
 40
1.0
 40
1.0
 40
1.0
 40
1.0
 10
-55.00000000000016
 20
-128.4862998609145
 30
0.0
 10
-55.00000000000042
 20
-128.4622569672743
 30
0.0
 10
-54.93524215702534
 20
-128.4387725503082
 30
0.0
 10
-54.74496075065492
 20
-128.402295558218
 30
0.0
 10
-54.66589431541263
 20
-128.3900132739969
 30
0.0
 10
-54.4757760335205
 20
-128.3651153747069
 30
0.0
 10
-54.36417791270873
 20
-128.3524599504071
 30
0.0
 10
-53.98814884630563
 20
-128.3146900685744
 30
0.0
 10
-53.68134451290939
 20
-128.2895219615352
 30
0.0
 10
-53.13775783062579
 20
-128.2513598378323
 30
0.0
 10
-52.9418827700483
 20
-128.2385291880926
 30
0.0
 10
-52.52406871083029
 20
-128.212837810064
 30
0.0
 10
-52.30423161072306
 20
-128.2001005531567
 30
0.0
 10
-51.61296415975926
 20
-128.1620984093532
 30
0.0
 10
-51.11007720830615
 20
-128.1370420394269
 30
0.0
 10
-50.29123240097967
 20
-128.0994676945283
 30
0.0
 10
-50.00739980090636
 20
-128.0869493657599
 30
0.0
 10
-49.43053349670997
 20
-128.0624082335942
 30
0.0
 10
-48.84143969383346
 20
-128.0382206501668
 30
0.0
 10
-48.22827167444797
 20
-128.0146402780279
 30
0.0
 10
-47.60290772291955
 20
-127.9913540685545
 30
0.0
 10
-47.282754510095
 20
-127.9798093689081
 30
0.0
 10
-46.31366419795411
 20
-127.9460599100159
 30
0.0
 10
-45.66045061777507
 20
-127.9247624521945
 30
0.0
 10
-44.99999999999844
 20
-127.9056404642757
 30
0.0
  0
SPLINE
  5
BF
330
B6
100
AcDbEntity
  8
0
  6
Continuous
 62
     7
370
    25
100
AcDbSpline
210
0.0
220
0.0
230
1.0
 70
    24
 71
     3
 72
    34
 73
    30
 74
     0
 42
0.000000001
 43
0.00000001
 40
0.0
 40
0.0
 40
0.0
 40
0.0
 40
0.2502841748862739
 40
0.2783772965571819
 40
0.3064704182280901
 40
0.3345635398989979
 40
0.3626405335262389
 40
0.3905078067834839
 40
0.4181768561715135
 40
0.445741738215626
 40
0.470290587009894
 40
0.4948982201907179
 40
0.5196106740058968
 40
0.5444002933216792
 40
0.56922015908955
 40
0.59358791247808
 40
0.6179047173414591
 40
0.6421235085752429
 40
0.6662470711615051
 40
0.6907838616165667
 40
0.7153710282786833
 40
0.7400676267819191
 40
0.7649226446718991
 40
0.7899402971769812
 40
0.88826622302516
 40
0.9195517448859443
 40
0.9508372667467285
 40
0.9821227886075129
 40
1.0
 40
1.0
 40
1.0
 40
1.0
 10
0.0
 20
0.0
 30
0.0
 10
35.97955031021576
 20
0.0
 30
0.0
 10
75.99762157361896
 20
0.0
 30
0.0
 10
120.0538389566237
 20
0.0
 30
0.0
 10
132.1697110538944
 20
0.0
 30
0.0
 10
144.2816364572081
 20
0.0
 30
0.0
 10
156.3671808728504
 20
0.0
 30
0.0
 10
168.3681647053352
 20
0.0
 30
0.0
 10
180.1194968882618
 20
0.0
 30
0.0
 10
191.1179292250081
 20
0.0
 30
0.0
 10
201.3251586176667
 20
0.0
 30
0.0
 10
210.7358543021946
 20
0.0
 30
0.0
 10
219.6774878396222
 20
0.0
 30
0.0
 10
228.0712249801292
 20
0.0
 30
0.0
 10
235.7767077856524
 20
0.0
 30
0.0
 10
242.7184400324478
 20
0.0
 30
0.0
 10
248.8591994565313
 20
0.0
 30
0.0
 10
254.1876630326285
 20
0.0
 30
0.0
 10
258.6879133247315
 20
0.0
 30
0.0
 10
262.3203961057811
 20
0.0
 30
0.0
 10
265.0458402454441
 20
0.0
 30
0.0
 10
266.8302700362629
 20
0.0
 30
0.0
 10
267.6056551454645
 20
0.0
 30
0.0
 10
267.3715038586693
 20
0.0
 30
0.0
 10
267.5132941606447
 20
0.0
 30
0.0
 10
267.4995549998077
 20
0.0
 30
0.0
 10
267.4942104904735
 20
0.0
 30
0.0
 10
267.5194040309702
 20
0.0
 30
0.0
 10
267.4765155463381
 20
0.0
 30
0.0
 10
267.4609198612463
 20
0.0
 30
0.0
  0
SPLINE
  5
C0
330
B6
100
AcDbEntity
  8
0
  6
Continuous
 62
     7
370
    25
100
AcDbSpline
210
0.0
220
0.0
230
1.0
 70
    24
 71
     3
 72
    33
 73
    29
 74
     0
 42
0.000000001
 43
0.00000001
 40
0.0
 40
0.0
 40
0.0
 40
0.0
 40
0.0134079472524701
 40
0.1117337267027771
 40
0.1430192019824204
 40
0.1743046772620636
 40
0.2055901525417068
 40
0.2368588743389261
 40
0.2612589676063435
 40
0.2855089766221028
 40
0.3096550663169405
 40
0.3337537439739288
 40
0.358316264298071
 40
0.3829782117446218
 40
0.4077401154682386
 40
0.4325522602589054
 40
0.4573713355795596
 40
0.4817152641207495
 40
0.5059823455665547
 40
0.5301483201637497
 40
0.5542587495903896
 40
0.5817634241226621
 40
0.6093716037520462
 40
0.6371767937668471
 40
0.6651917822644828
 40
0.693223568115043
 40
0.8033484410993872
 40
0.9999999999999999
 40
0.9999999999999999
 40
0.9999999999999999
 40
0.9999999999999999
 10
-267.4761992506334
 20
0.0
 30
0.0
 10
-267.4846957096817
 20
0.0
 30
0.0
 10
-267.5555000629039
 20
0.0
 30
0.0
 10
-267.4960271369278
 20
0.0
 30
0.0
 10
-267.4978230489096
 20
0.0
 30
0.0
 10
-267.5119323707741
 20
0.0
 30
0.0
 10
-267.4544577291167
 20
0.0
 30
0.0
 10
-267.6543482118414
 20
0.0
 30
0.0
 10
-266.7528520750497
 20
0.0
 30
0.0
 10
-264.9590540592682
 20
0.0
 30
0.0
 10
-262.2575893424787
 20
0.0
 30
0.0
 10
-258.6390848823745
 20
0.0
 30
0.0
 10
-254.1032420026864
 20
0.0
 30
0.0
 10
-248.6543815969243
 20
0.0
 30
0.0
 10
-242.365564836086
 20
0.0
 30
0.0
 10
-235.2926369309246
 20
0.0
 30
0.0
 10
-227.5380093642547
 20
0.0
 30
0.0
 10
-219.2079385098287
 20
0.0
 30
0.0
 10
-210.4040365598178
 20
0.0
 30
0.0
 10
-201.1505775970604
 20
0.0
 30
0.0
 10
-191.0655411923126
 20
0.0
 30
0.0
 10
-180.1446355045365
 20
0.0
 30
0.0
 10
-168.4200558705031
 20
0.0
 30
0.0
 10
-156.4462927767171
 20
0.0
 30
0.0
 10
-144.3872885262714
 20
0.0
 30
0.0
 10
-120.5015437529333
 20
0.0
 30
0.0
 10
-72.36928390073119
 20
0.0
 30
0.0
 10
-28.26925152372306
 20
0.0
 30
0.0
 10
0.0
 20
0.0
 30
0.0
  0
LINE
  5
C8
330
B6
100
AcDbEntity
  8
0
  6
Continuous
 62
     7
370
    25
100
AcDbLine
 10
45.0
 20
-141.0
 30
0.0
 11
45.0
 21
-127.9056404636
 31
0.0
  0
LINE
  5
C9
330
B6
100
AcDbEntity
  8
0
  6
Continuous
 62
     7
370
    25
100
AcDbLine
 10
55.0
 20
-141.0
 30
0.0
 11
55.0
 21
-128.4862998607
 31
0.0
  0
LINE
  5
CA
330
B6
100
AcDbEntity
  8
0
  6
Continuous
 62
     7
370
    25
100
AcDbLine
 10
-55.0
 20
-141.0
 30
0.0
 11
-55.0
 21
-128.4862998608
 31
0.0
  0
LINE
  5
CB
330
B6
100
AcDbEntity
  8
0
  6
Continuous
 62
     7
370
    25
100
AcDbLine
 10
-45.0
 20
-141.0
 30
0.0
 11
-45.0
 21
-127.905640464
 31
0.0
  0
LINE
  5
CC
330
B6
100
AcDbEntity
  8
0
  6
Continuous
 62
     7
370
    25
100
AcDbLine
 10
55.0
 20
-141.0
 30
0.0
 11
-55.0
 21
-141.0
 31
0.0
  0
VIEWPORT
  5
186
330
B6
100
AcDbEntity
  8
0
100
AcDbViewport
 10
0.0
 20
0.0
 30
0.0
 40
205.6
 41
156.0
 68
     1
 69
     1
 12
0.0
 22
0.0
 13
0.0
 23
0.0
 14
10.0
 24
10.0
 15
10.0
 25
10.0
 16
0.0
 26
0.0
 36
1.0
 17
0.0
 27
0.0
 37
0.0
 42
50.0
 43
0.0
 44
0.0
 45
414.0525291829
 50
0.0
 51
0.0
 72
   100
 90
   557152
  1

281
     0
 71
     1
 74
     0
110
0.0
120
0.0
130
0.0
111
1.0
121
0.0
131
0.0
112
0.0
122
1.0
132
0.0
 79
     0
146
0.0
  0
ENDBLK
  5
B9
330
B6
100
AcDbEntity
  8
0
100
AcDbBlockEnd
  0
BLOCK
  5
CF
330
CD
100
AcDbEntity
  8
0
100
AcDbBlockBegin
  2
*Paper_Space2
 70
     0
 10
0.0
 20
0.0
 30
0.0
  3
*Paper_Space2
  1

  0
SPLINE
  5
D1
330
CD
100
AcDbEntity
  8
0
  6
Continuous
 62
     7
370
    25
100
AcDbSpline
210
0.0
220
0.0
230
1.0
 70
     8
 71
     3
 72
    38
 73
    34
 74
     0
 42
0.000000001
 43
0.00000001
 40
0.0
 40
0.0
 40
0.0
 40
0.0
 40
0.041491614147755
 40
0.090628087435936
 40
0.140490976190091
 40
0.1890473211197007
 40
0.2345282451719926
 40
0.275927642694526
 40
0.3110003895871445
 40
0.3424294011558069
 40
0.3705769931387681
 40
0.3958362221282558
 40
0.4189200929638234
 40
0.4492861705951847
 40
0.4771047383152315
 40
0.5026132771705352
 40
0.5259906159910722
 40
0.5473746743081299
 40
0.5674741255803136
 40
0.5881657618884495
 40
0.6095739568821652
 40
0.6392307192592155
 40
0.6701708551104566
 40
0.7024184916169983
 40
0.7360112101515913
 40
0.7708447449940885
 40
0.8052433845831091
 40
0.8388145668902328
 40
0.8716405186991413
 40
0.9037925937552221
 40
0.9354239645720134
 40
0.9674004195692463
 40
1.0
 40
1.0
 40
1.0
 40
1.0
 10
55.00445978663903
 20
-129.4071874142234
 30
0.0
 10
58.89464987225736
 20
-129.2569327247737
 30
0.0
 10
67.39180030767628
 20
-128.9287388134785
 30
0.0
 10
80.55265545195212
 20
-128.1713221285939
 30
0.0
 10
94.362400736491
 20
-127.1825216600052
 30
0.0
 10
107.8134377773858
 20
-126.0074430513369
 30
0.0
 10
120.4558658980359
 20
-124.718163530184
 30
0.0
 10
131.8229109162805
 20
-123.4036189252151
 30
0.0
 10
141.8654530297216
 20
-122.1202536680905
 30
0.0
 10
150.662934786438
 20
-120.906617621128
 30
0.0
 10
158.5365048860131
 20
-119.7365827321814
 30
0.0
 10
165.6307778807345
 20
-118.6523321029447
 30
0.0
 10
172.9067265219559
 20
-117.3733979291517
 30
0.0
 10
180.3118720758057
 20
-115.5208098270021
 30
0.0
 10
187.792446214187
 20
-113.1163716769382
 30
0.0
 10
194.4962529252528
 20
-110.4858634738545
 30
0.0
 10
200.4891321295137
 20
-107.7292709940788
 30
0.0
 10
205.8784104125853
 20
-104.8968196240865
 30
0.0
 10
210.9061006888968
 20
-101.933893081965
 30
0.0
 10
215.7890604508397
 20
-98.73352438069018
 30
0.0
 10
221.2329610759164
 20
-94.76753527861892
 30
0.0
 10
227.1740268825018
 20
-89.86801808435384
 30
0.0
 10
233.490401012723
 20
-83.85783487759458
 30
0.0
 10
239.5921392616685
 20
-77.12104032995
 30
0.0
 10
245.3808043571984
 20
-69.64434623836966
 30
0.0
 10
250.6618449239383
 20
-61.55740772540028
 30
0.0
 10
255.2684707300606
 20
-53.07092444777339
 30
0.0
 10
259.107822077451
 20
-44.41715402127977
 30
0.0
 10
262.1908192344898
 20
-35.69027831268885
 30
0.0
 10
264.5563114656918
 20
-26.93014034812561
 30
0.0
 10
266.2320876952107
 20
-18.09654117906137
 30
0.0
 10
267.2992124665942
 20
-9.119944553842442
 30
0.0
 10
267.432641647939
 20
-3.059474986391461
 30
0.0
 10
267.5
 20
0.0
 30
0.0
  0
SPLINE
  5
D2
330
CD
100
AcDbEntity
  8
0
  6
Continuous
 62
     7
370
    25
100
AcDbSpline
210
0.0
220
0.0
230
1.0
 70
     8
 71
     3
 72
    38
 73
    34
 74
     0
 42
0.000000001
 43
0.00000001
 40
0.0
 40
0.0
 40
0.0
 40
0.0
 40
0.0325995800227361
 40
0.0645760346197509
 40
0.0962074050406432
 40
0.1283594796943077
 40
0.1611854310923649
 40
0.1947566129793101
 40
0.2291552521377961
 40
0.2639887865443171
 40
0.2975815046584633
 40
0.3298291407613913
 40
0.3607692762253836
 40
0.3904260382312489
 40
0.4118342329570194
 40
0.4325258690061787
 40
0.4526253200267972
 40
0.4740093780762117
 40
0.4973867166041572
 40
0.5228952551401944
 40
0.5507138225120621
 40
0.581079899763361
 40
0.6056191275467702
 40
0.632672834241864
 40
0.6630288732682531
 40
0.6971567793781517
 40
0.7354569814823713
 40
0.7780737740975622
 40
0.8218347722743603
 40
0.8680214953522272
 40
0.9150580899638462
 40
0.9612574564228552
 40
1.0
 40
1.0
 40
1.0
 40
1.0
 10
-267.5000000000001
 20
0.0
 30
0.0
 10
-267.4326416479392
 20
-3.059474986391433
 30
0.0
 10
-267.2992124665943
 20
-9.119944553842414
 30
0.0
 10
-266.2320876952113
 20
-18.09654117906151
 30
0.0
 10
-264.5563114656914
 20
-26.93014034812542
 30
0.0
 10
-262.1908192344895
 20
-35.69027831268954
 30
0.0
 10
-259.1078220774505
 20
-44.41715402127672
 30
0.0
 10
-255.2684707300625
 20
-53.07092444778486
 30
0.0
 10
-250.6618449239332
 20
-61.55740772535655
 30
0.0
 10
-245.3808043572197
 20
-69.6443462385333
 30
0.0
 10
-239.5921392615923
 20
-77.12104032937303
 30
0.0
 10
-233.4904010129883
 20
-83.857834879618
 30
0.0
 10
-227.1740268815706
 20
-89.86801807725791
 30
0.0
 10
-221.2329610788487
 20
-94.76753530095708
 30
0.0
 10
-215.7890604433184
 20
-98.73352432338483
 30
0.0
 10
-210.9061007158857
 20
-101.9338932875853
 30
0.0
 10
-205.8784103122514
 20
-104.8968188596712
 30
0.0
 10
-200.4891325470839
 20
-107.7292741754297
 30
0.0
 10
-194.4962511411435
 20
-110.4858498812318
 30
0.0
 10
-187.7924538101442
 20
-113.1164295483896
 30
0.0
 10
-180.3118397426889
 20
-115.5205634901187
 30
0.0
 10
-172.7742368579122
 20
-117.4075016200521
 30
0.0
 10
-165.1944270969477
 20
-118.7208644759228
 30
0.0
 10
-157.5939063937377
 20
-119.8814901656233
 30
0.0
 10
-149.0963687727577
 20
-121.1310665880705
 30
0.0
 10
-139.5400634252491
 20
-122.429279727709
 30
0.0
 10
-128.8284593916381
 20
-123.7648832260204
 30
0.0
 10
-117.202507948226
 20
-125.0656995533111
 30
0.0
 10
-104.8236889358087
 20
-126.2824637455283
 30
0.0
 10
-92.01583200314667
 20
-127.3622901019311
 30
0.0
 10
-78.96529001361239
 20
-128.2680593166686
 30
0.0
 10
-66.6009937431333
 20
-128.9628111277635
 30
0.0
 10
-58.63690955521984
 20
-129.2684353850851
 30
0.0
 10
-55.00444027626249
 20
-129.4078325460681
 30
0.0
  0
SPLINE
  5
D3
330
CD
100
AcDbEntity
  8
0
  6
Continuous
 62
     7
370
    25
100
AcDbSpline
210
0.0
220
0.0
230
1.0
 70
     8
 71
     3
 72
    29
 73
    25
 74
     0
 42
0.000000001
 43
0.00000001
 40
0.0
 40
0.0
 40
0.0
 40
0.0
 40
0.1249999999999991
 40
0.1249999999999991
 40
0.1874999999999986
 40
0.1874999999999986
 40
0.2499999999999982
 40
0.2499999999999982
 40
0.3749999999999974
 40
0.3749999999999974
 40
0.4374999999999974
 40
0.4374999999999974
 40
0.4999999999999974
 40
0.4999999999999974
 40
0.6249999999999974
 40
0.6249999999999974
 40
0.6874999999999981
 40
0.6874999999999981
 40
0.7499999999999987
 40
0.8124999999999993
 40
0.8124999999999993
 40
0.875
 40
0.875
 40
1.0
 40
1.0
 40
1.0
 40
1.0
 10
45.00000000000017
 20
-127.9056404642267
 30
0.0
 10
45.66045185511543
 20
-127.9247624879706
 30
0.0
 10
46.30979556788837
 20
-127.9459434363764
 30
0.0
 10
47.26788531145722
 20
-127.979282645966
 30
0.0
 10
47.58457355637668
 20
-127.9906855024961
 30
0.0
 10
48.21248074406536
 20
-128.0140389011465
 30
0.0
 10
48.52457315120226
 20
-128.0260292429621
 30
0.0
 10
49.43244226505819
 20
-128.0620784002732
 30
0.0
 10
50.00655639956889
 20
-128.0864400684487
 30
0.0
 10
50.82145663407537
 20
-128.1237811405791
 30
0.0
 10
51.08616393034462
 20
-128.1364060138998
 30
0.0
 10
51.59570052787677
 20
-128.1618204360396
 30
0.0
 10
51.83818384360679
 20
-128.1744894035688
 30
0.0
 10
52.52993356440781
 20
-128.2124894685056
 30
0.0
 10
52.94383660742258
 20
-128.2378115101989
 30
0.0
 10
53.49213433016256
 20
-128.2762069830531
 30
0.0
 10
53.66245184876913
 20
-128.2890697065169
 30
0.0
 10
53.97115637482181
 20
-128.314438937445
 30
0.0
 10
54.25008249468696
 20
-128.3395964145238
 30
0.0
 10
54.47036695791586
 20
-128.3644786676654
 30
0.0
 10
54.66094089001353
 20
-128.389296712174
 30
0.0
 10
54.74162705307216
 20
-128.4017256468078
 30
0.0
 10
54.93523466401721
 20
-128.4386363213407
 30
0.0
 10
55.00000000000031
 20
-128.4622570373666
 30
0.0
 10
55.00000000000017
 20
-128.4862998609617
 30
0.0
  0
SPLINE
  5
D4
330
CD
100
AcDbEntity
  8
0
  6
Continuous
 62
     7
370
    25
100
AcDbSpline
210
0.0
220
0.0
230
1.0
 70
     8
 71
     3
 72
    30
 73
    26
 74
     0
 42
0.000000001
 43
0.00000001
 40
0.0
 40
0.0
 40
0.0
 40
0.0
 40
0.015625
 40
0.015625
 40
0.03125
 40
0.03125
 40
0.0625
 40
0.0625
 40
0.1250000000000001
 40
0.1250000000000001
 40
0.2500000000000002
 40
0.2500000000000002
 40
0.5000000000000002
 40
0.5000000000000002
 40
0.7500000000000003
 40
0.7500000000000003
 40
0.8750000000000003
 40
0.8750000000000003
 40
0.9375000000000002
 40
0.9375000000000002
 40
0.9687500000000001
 40
0.9687500000000001
 40
0.9843750000000001
 40
0.9843750000000001
 40
1.0
 40
1.0
 40
1.0
 40
1.0
 10
-44.99999998565968
 20
-127.9056404638486
 30
0.0
 10
-44.53126764341037
 20
-127.8920692837723
 30
0.0
 10
-44.06273750548329
 20
-127.8723151261774
 30
0.0
 10
-43.12555704274405
 20
-127.8364818699585
 30
0.0
 10
-42.65697339478226
 20
-127.8183639352609
 30
0.0
 10
-41.25124243343448
 20
-127.7633991077232
 30
0.0
 10
-40.31407846911795
 20
-127.7270613648763
 30
0.0
 10
-37.50250997477121
 20
-127.6203904439177
 30
0.0
 10
-35.62804467483842
 20
-127.5519154799968
 30
0.0
 10
-30.00431576370497
 20
-127.3566733656147
 30
0.0
 10
-26.25471814316732
 20
-127.2401195093043
 30
0.0
 10
-15.00404998374531
 20
-126.9478005533619
 30
0.0
 10
-7.502115628948601
 20
-126.8290470321346
 30
0.0
 10
7.501625976112058
 20
-126.8290418429657
 30
0.0
 10
15.0047894912432
 20
-126.9478167802611
 30
0.0
 10
26.25500863746555
 20
-127.2401285507913
 30
0.0
 10
30.00450568617812
 20
-127.3566796593104
 30
0.0
 10
35.62813612469063
 20
-127.5519188048934
 30
0.0
 10
37.50257731226552
 20
-127.6203929518048
 30
0.0
 10
40.31411979481959
 20
-127.7270629562235
 30
0.0
 10
41.25127709109792
 20
-127.763400479577
 30
0.0
 10
42.65699922839161
 20
-127.818364937008
 30
0.0
 10
43.12557941246652
 20
-127.836482730549
 30
0.0
 10
44.06275191443415
 20
-127.8723156718255
 30
0.0
 10
44.5312828038816
 20
-127.8920697229657
 30
0.0
 10
45.00000001434024
 20
-127.9056404646909
 30
0.0
  0
SPLINE
  5
D5
330
CD
100
AcDbEntity
  8
0
  6
Continuous
 62
     7
370
    25
100
AcDbSpline
210
0.0
220
0.0
230
1.0
 70
     8
 71
     3
 72
    29
 73
    25
 74
     0
 42
0.000000001
 43
0.00000001
 40
0.0
 40
0.0
 40
0.0
 40
0.0
 40
0.1249999999999982
 40
0.1249999999999982
 40
0.1874999999999974
 40
0.1874999999999974
 40
0.2499999999999967
 40
0.2499999999999967
 40
0.3749999999999951
 40
0.3749999999999951
 40
0.4374999999999948
 40
0.4374999999999948
 40
0.4999999999999946
 40
0.4999999999999946
 40
0.6249999999999949
 40
0.6249999999999949
 40
0.6874999999999956
 40
0.6874999999999956
 40
0.7499999999999962
 40
0.8124999999999969
 40
0.8124999999999969
 40
0.8749999999999976
 40
0.8749999999999976
 40
1.0
 40
1.0
 40
1.0
 40
1.0
 10
-54.9999999999998
 20
-128.4862998609145
 30
0.0
 10
-55.00000000000009
 20
-128.4622569672744
 30
0.0
 10
-54.93524215702462
 20
-128.4387725503082
 30
0.0
 10
-54.7449607506537
 20
-128.4022955582179
 30
0.0
 10
-54.66589431541125
 20
-128.3900132739969
 30
0.0
 10
-54.47577603351873
 20
-128.3651153747068
 30
0.0
 10
-54.36417791270677
 20
-128.352459950407
 30
0.0
 10
-53.98814884630301
 20
-128.3146900685743
 30
0.0
 10
-53.68134451290622
 20
-128.289521961535
 30
0.0
 10
-53.1377578306217
 20
-128.251359837832
 30
0.0
 10
-52.9418827700439
 20
-128.2385291880925
 30
0.0
 10
-52.5240687108253
 20
-128.2128378100638
 30
0.0
 10
-52.30423161071777
 20
-128.2001005531566
 30
0.0
 10
-51.61296415975304
 20
-128.162098409353
 30
0.0
 10
-51.11007720829922
 20
-128.1370420394267
 30
0.0
 10
-50.29123240097159
 20
-128.099467694528
 30
0.0
 10
-50.00739980089796
 20
-128.0869493657597
 30
0.0
 10
-49.43053349670095
 20
-128.0624082335939
 30
0.0
 10
-48.84143964846406
 20
-128.0382201105395
 30
0.0
 10
-48.22827167443763
 20
-128.0146402780275
 30
0.0
 10
-47.60290772290852
 20
-127.9913540685541
 30
0.0
 10
-47.28275451008356
 20
-127.9798093689077
 30
0.0
 10
-46.3136641979419
 20
-127.9460599100155
 30
0.0
 10
-45.66045061777518
 20
-127.9247624521946
 30
0.0
 10
-44.99999999999809
 20
-127.9056404642757
 30
0.0
  0
SPLINE
  5
D6
330
CD
100
AcDbEntity
  8
0
  6
Continuous
 62
     7
370
    25
100
AcDbSpline
210
0.0
220
0.0
230
1.0
 70
    24
 71
     3
 72
    60
 73
    56
 74
     0
 42
0.000000001
 43
0.00000001
 40
0.0
 40
0.0
 40
0.0
 40
0.0
 40
0.0067039786170255
 40
0.0558669049416197
 40
0.071509654226718
 40
0.0871524035118162
 40
0.1027951527969144
 40
0.1184295253345645
 40
0.1306295810506295
 40
0.1427545945850001
 40
0.1548276484202285
 40
0.1668769962188844
 40
0.1791582655237715
 40
0.1914892484268722
 40
0.2038702095057123
 40
0.2162762911367785
 40
0.2286858380354183
 40
0.2408578113674636
 40
0.2529913611232121
 40
0.2650743574170207
 40
0.2771295811048765
 40
0.2908819286089759
 40
0.3046860287001583
 40
0.3185886340573816
 40
0.3325961387341143
 40
0.3466120420935623
 40
0.4016745195771077
 40
0.5000003722262963
 40
0.6251423665070822
 40
0.6391889168855378
 40
0.6532354672639933
 40
0.6672820176424488
 40
0.6813205040050739
 40
0.6952541302607645
 40
0.7090886446556317
 40
0.7228710754173134
 40
0.7351454906767204
 40
0.7474492981075241
 40
0.7598055158164885
 40
0.7722003162470314
 40
0.7846102398923602
 40
0.7967941075163064
 40
0.8089525008966417
 40
0.8210618874986624
 40
0.8331236598123692
 40
0.8453920459066614
 40
0.8576856200857296
 40
0.8700339101446242
 40
0.882461409837923
 40
0.8949702267782358
 40
0.9441331531028301
 40
0.9597759023879282
 40
0.9754186516730263
 40
0.9910614009581246
 40
0.9999999999999999
 40
0.9999999999999999
 40
0.9999999999999999
 40
0.9999999999999999
 10
-267.4761992506335
 20
0.0
 30
0.0
 10
-267.4846957096818
 20
0.0
 30
0.0
 10
-267.5555000629038
 20
0.0
 30
0.0
 10
-267.496027136928
 20
0.0
 30
0.0
 10
-267.4978230489098
 20
0.0
 30
0.0
 10
-267.5119323707742
 20
0.0
 30
0.0
 10
-267.4544577291167
 20
0.0
 30
0.0
 10
-267.6543482118418
 20
0.0
 30
0.0
 10
-266.7528520750498
 20
0.0
 30
0.0
 10
-264.9590540592683
 20
0.0
 30
0.0
 10
-262.2575893424786
 20
0.0
 30
0.0
 10
-258.6390848823747
 20
0.0
 30
0.0
 10
-254.1032420026863
 20
0.0
 30
0.0
 10
-248.6543815969244
 20
0.0
 30
0.0
 10
-242.3655648360855
 20
0.0
 30
0.0
 10
-235.2926369309261
 20
0.0
 30
0.0
 10
-227.5380093642489
 20
0.0
 30
0.0
 10
-219.2079385098486
 20
0.0
 30
0.0
 10
-210.4040365597424
 20
0.0
 30
0.0
 10
-201.1505775973386
 20
0.0
 30
0.0
 10
-191.0655411912138
 20
0.0
 30
0.0
 10
-180.1446355092914
 20
0.0
 30
0.0
 10
-168.4200558527061
 20
0.0
 30
0.0
 10
-156.4462928438473
 20
0.0
 30
0.0
 10
-144.3872882736366
 20
0.0
 30
0.0
 10
-120.5015458637702
 20
0.0
 30
0.0
 10
-72.36923524970443
 20
0.0
 30
0.0
 10
7.709428280717431
 20
0.0
 30
0.0
 10
75.99763480130922
 20
0.0
 30
0.0
 10
120.0538381404738
 20
0.0
 30
0.0
 10
132.1697112725902
 20
0.0
 30
0.0
 10
144.2816363986313
 20
0.0
 30
0.0
 10
156.3671808884169
 20
0.0
 30
0.0
 10
168.3681647012094
 20
0.0
 30
0.0
 10
180.1194968893643
 20
0.0
 30
0.0
 10
191.1179292247494
 20
0.0
 30
0.0
 10
201.3251586177331
 20
0.0
 30
0.0
 10
210.7358543021769
 20
0.0
 30
0.0
 10
219.677487839627
 20
0.0
 30
0.0
 10
228.0712249801279
 20
0.0
 30
0.0
 10
235.7767077856525
 20
0.0
 30
0.0
 10
242.7184400324475
 20
0.0
 30
0.0
 10
248.8591994565312
 20
0.0
 30
0.0
 10
254.1876630326283
 20
0.0
 30
0.0
 10
258.6879133247313
 20
0.0
 30
0.0
 10
262.3203961057809
 20
0.0
 30
0.0
 10
265.0458402454441
 20
0.0
 30
0.0
 10
266.8302700362627
 20
0.0
 30
0.0
 10
267.6056551454644
 20
0.0
 30
0.0
 10
267.371503858669
 20
0.0
 30
0.0
 10
267.5132941606448
 20
0.0
 30
0.0
 10
267.4995549998075
 20
0.0
 30
0.0
 10
267.4942104904735
 20
0.0
 30
0.0
 10
267.51940403097
 20
0.0
 30
0.0
 10
267.476515546338
 20
0.0
 30
0.0
 10
267.4609198612462
 20
0.0
 30
0.0
  0
LINE
  5
DE
330
CD
100
AcDbEntity
  8
0
  6
Continuous
 62
     7
370
    25
100
AcDbLine
 10
-55.0
 20
-141.0
 30
0.0
 11
-55.0
 21
-128.4862998607
 31
0.0
  0
LINE
  5
DF
330
CD
100
AcDbEntity
  8
0
  6
Continuous
 62
     7
370
    25
100
AcDbLine
 10
-45.0
 20
-141.0
 30
0.0
 11
-45.0
 21
-127.9056404636
 31
0.0
  0
LINE
  5
E0
330
CD
100
AcDbEntity
  8
0
  6
Continuous
 62
     7
370
    25
100
AcDbLine
 10
55.0
 20
-141.0
 30
0.0
 11
-55.0
 21
-141.0
 31
0.0
  0
LINE
  5
E1
330
CD
100
AcDbEntity
  8
0
  6
Continuous
 62
     7
370
    25
100
AcDbLine
 10
45.0
 20
-141.0
 30
0.0
 11
45.0
 21
-127.9056404645
 31
0.0
  0
LINE
  5
E2
330
CD
100
AcDbEntity
  8
0
  6
Continuous
 62
     7
370
    25
100
AcDbLine
 10
55.0
 20
-141.0
 30
0.0
 11
55.0
 21
-128.4862998607
 31
0.0
  0
VIEWPORT
  5
188
330
CD
100
AcDbEntity
  8
0
100
AcDbViewport
 10
0.0
 20
0.0
 30
0.0
 40
205.6
 41
156.0
 68
     1
 69
     1
 12
0.0
 22
0.0
 13
0.0
 23
0.0
 14
10.0
 24
10.0
 15
10.0
 25
10.0
 16
0.0
 26
0.0
 36
1.0
 17
0.0
 27
0.0
 37
0.0
 42
50.0
 43
0.0
 44
0.0
 45
414.0525291829
 50
0.0
 51
0.0
 72
   100
 90
   557152
  1

281
     0
 71
     1
 74
     0
110
0.0
120
0.0
130
0.0
111
1.0
121
0.0
131
0.0
112
0.0
122
1.0
132
0.0
 79
     0
146
0.0
  0
ENDBLK
  5
D0
330
CD
100
AcDbEntity
  8
0
100
AcDbBlockEnd
  0
BLOCK
  5
E5
330
E3
100
AcDbEntity
  8
0
100
AcDbBlockBegin
  2
*Paper_Space3
 70
     0
 10
0.0
 20
0.0
 30
0.0
  3
*Paper_Space3
  1

  0
SPLINE
  5
E7
330
E3
100
AcDbEntity
  8
0
  6
Continuous
 62
     7
370
    25
100
AcDbSpline
210
0.0
220
0.0
230
1.0
 70
     8
 71
     3
 72
    40
 73
    36
 74
     0
 42
0.000000001
 43
0.00000001
 40
0.0
 40
0.0
 40
0.0
 40
0.0
 40
0.0404887860495037
 40
0.0868516434943189
 40
0.1298157075903238
 40
0.1683817602597639
 40
0.2028126976315844
 40
0.2341803442635406
 40
0.263688180580738
 40
0.2888010350312708
 40
0.3138621470400656
 40
0.3390228878590024
 40
0.3617974690948529
 40
0.3871234493878584
 40
0.40660184281114
 40
0.4203292848627991
 40
0.4241124079094808
 40
0.4273322982434023
 40
0.4303791480074925
 40
0.4336844893455484
 40
0.4376061617261659
 40
0.4423740203687626
 40
0.4549286897712202
 40
0.4719673063110028
 40
0.4937770026720329
 40
0.5205421874899661
 40
0.5524012012970677
 40
0.589465889568203
 40
0.6318285357662112
 40
0.6795636355069737
 40
0.7327271961250643
 40
0.7913546586698718
 40
0.8554579410277882
 40
0.9250218504569456
 40
1.0
 40
1.0
 40
1.0
 40
1.0
 10
54.98754652400196
 20
-127.6767249948345
 30
0.0
 10
56.48230181816614
 20
-127.3943173168787
 30
0.0
 10
59.68866996566424
 20
-126.7885305457987
 30
0.0
 10
63.71129109428202
 20
-125.7466362570276
 30
0.0
 10
67.60258684036292
 20
-124.5995905581538
 30
0.0
 10
71.18346415354547
 20
-123.4237220379639
 30
0.0
 10
74.55238168587738
 20
-122.2523049030106
 30
0.0
 10
77.72998235123055
 20
-121.1064645412664
 30
0.0
 10
80.62977483814186
 20
-120.034859770036
 30
0.0
 10
83.28196161899392
 20
-119.037927889624
 30
0.0
 10
85.7678944074638
 20
-118.0935806336757
 30
0.0
 10
88.0540884539799
 20
-117.2152767813413
 30
0.0
 10
90.29320333269261
 20
-116.2734425715609
 30
0.0
 10
92.4846484518259
 20
-115.2785933790863
 30
0.0
 10
94.54235329783019
 20
-114.2675566150257
 30
0.0
 10
96.04429674692675
 20
-113.4816697279724
 30
0.0
 10
97.03324876817888
 20
-112.9416837526376
 30
0.0
 10
97.57735694019298
 20
-112.6387430126449
 30
0.0
 10
98.12738382785541
 20
-112.326116145758
 30
0.0
 10
98.65245690677186
 20
-112.0219001584297
 30
0.0
 10
99.1526530855901
 20
-111.7270986016804
 30
0.0
 10
99.86683340342746
 20
-111.2994968378128
 30
0.0
 10
100.6943555126139
 20
-110.7913677937844
 30
0.0
 10
101.6022939640572
 20
-110.2210823952609
 30
0.0
 10
102.493806791848
 20
-109.6496317302775
 30
0.0
 10
103.3689784319255
 20
-109.0794195394357
 30
0.0
 10
104.2248559149396
 20
-108.5142437284615
 30
0.0
 10
105.0592411446898
 20
-107.9574008998983
 30
0.0
 10
105.8689661320162
 20
-107.4125379010264
 30
0.0
 10
106.6501514274534
 20
-106.8835599410712
 30
0.0
 10
107.397685265822
 20
-106.3749657372412
 30
0.0
 10
108.1058056997126
 20
-105.8914873157581
 30
0.0
 10
108.7649776913145
 20
-105.4402796231622
 30
0.0
 10
109.3744090858925
 20
-105.0223739116551
 30
0.0
 10
109.7050542798908
 20
-104.7954731488111
 30
0.0
 10
109.8765695120494
 20
-104.67777315582
 30
0.0
  0
SPLINE
  5
E8
330
E3
100
AcDbEntity
  8
0
  6
Continuous
 62
     7
370
    25
100
AcDbSpline
210
0.0
220
0.0
230
1.0
 70
     8
 71
     3
 72
    22
 73
    18
 74
     0
 42
0.000000001
 43
0.00000001
 40
0.0
 40
0.0
 40
0.0
 40
0.0
 40
0.042314551898254
 40
0.0828673514828976
 40
0.1215706435048697
 40
0.1585822262757188
 40
0.2015464830001365
 40
0.2542772125644847
 40
0.3168255435924655
 40
0.3795824312211414
 40
0.4496975738417648
 40
0.5269117488598927
 40
0.6108307548230357
 40
0.7008777829188758
 40
0.7963430775344045
 40
0.8963597037520978
 40
0.9999999999999999
 40
0.9999999999999999
 40
0.9999999999999999
 40
0.9999999999999999
 10
-165.0
 20
0.0
 30
0.0
 10
-164.9794217010655
 20
-1.73555583263342
 30
0.0
 10
-164.9391218738375
 20
-5.134408207269139
 30
0.0
 10
-164.6252422092123
 20
-10.11243783705664
 30
0.0
 10
-164.1568324300786
 20
-14.85866774475532
 30
0.0
 10
-163.4975781461375
 20
-19.68230231950514
 30
0.0
 10
-162.5516562082792
 20
-25.04368558589436
 30
0.0
 10
-161.1288008702832
 20
-31.37862625728336
 30
0.0
 10
-159.1337376493309
 20
-38.40731628733116
 30
0.0
 10
-156.4765394880814
 20
-45.9738619505009
 30
0.0
 10
-153.1048033935546
 20
-53.91012832155089
 30
0.0
 10
-148.776911108803
 20
-62.35929593999957
 30
0.0
 10
-143.3741346245699
 20
-71.1432684503619
 30
0.0
 10
-136.8063029644119
 20
-80.04887726019788
 30
0.0
 10
-129.014854938229
 20
-88.8078419977105
 30
0.0
 10
-120.0661123834298
 20
-97.24280165206434
 30
0.0
 10
-113.3131357336474
 20
-102.1702247553795
 30
0.0
 10
-109.8765695120556
 20
-104.6777731558155
 30
0.0
  0
SPLINE
  5
E9
330
E3
100
AcDbEntity
  8
0
  6
Continuous
 62
     7
370
    25
100
AcDbSpline
210
0.0
220
0.0
230
1.0
 70
     8
 71
     3
 72
    40
 73
    36
 74
     0
 42
0.000000001
 43
0.00000001
 40
0.0
 40
0.0
 40
0.0
 40
0.0
 40
0.0758855250104827
 40
0.1460992139802744
 40
0.2105796353919677
 40
0.269299937638984
 40
0.3222624882162306
 40
0.3694940866236074
 40
0.4110418627593541
 40
0.4427839155967528
 40
0.4702759772389501
 40
0.4935798105214939
 40
0.5127685508849746
 40
0.5279340186324357
 40
0.5392085760004157
 40
0.5475159155075545
 40
0.5512120821802708
 40
0.5547907964779968
 40
0.5584192780488192
 40
0.56225951048366
 40
0.5710735499751441
 40
0.5820238513809877
 40
0.5956184476171021
 40
0.6122448022150858
 40
0.6319562562941313
 40
0.6547951338427995
 40
0.6796159509316578
 40
0.7102392616720212
 40
0.7454507805992933
 40
0.7864723908295991
 40
0.8339553298849826
 40
0.8754461688145223
 40
0.9194226253632438
 40
0.9643259754668193
 40
1.0
 40
1.0
 40
1.0
 40
1.0
 10
-109.8765695120888
 20
-104.6777731557927
 30
0.0
 10
-109.7809660415718
 20
-104.7436347990345
 30
0.0
 10
-109.5969046952952
 20
-104.8704354544657
 30
0.0
 10
-109.2175772871719
 20
-105.1338638984449
 30
0.0
 10
-108.7866985858795
 20
-105.4332552774225
 30
0.0
 10
-108.3064048933077
 20
-105.7667845034063
 30
0.0
 10
-107.7863176782816
 20
-106.127378291449
 30
0.0
 10
-107.2325807341531
 20
-106.5104383164496
 30
0.0
 10
-106.6704437483402
 20
-106.8981191493296
 30
0.0
 10
-106.109578322394
 20
-107.283342474564
 30
0.0
 10
-105.5636347932573
 20
-107.6564826006266
 30
0.0
 10
-105.002363717689
 20
-108.037580585283
 30
0.0
 10
-104.4326325712301
 20
-108.4213287031683
 30
0.0
 10
-103.8436333570995
 20
-108.8136989370476
 30
0.0
 10
-103.2606964238258
 20
-109.1974608183849
 30
0.0
 10
-102.6275319111636
 20
-109.6074653027582
 30
0.0
 10
-101.9845436906158
 20
-110.0155647532925
 30
0.0
 10
-101.4535698445193
 20
-110.3481778807325
 30
0.0
 10
-100.8562477371218
 20
-110.7169209762953
 30
0.0
 10
-99.93524545387122
 20
-111.2762404570602
 30
0.0
 10
-98.5915861209025
 20
-112.0686119327981
 30
0.0
 10
-96.82833316979512
 20
-113.0614748575163
 30
0.0
 10
-94.78343619787039
 20
-114.1525448709173
 30
0.0
 10
-92.34048865740155
 20
-115.3708015475263
 30
0.0
 10
-89.51928075430945
 20
-116.6677509524611
 30
0.0
 10
-86.29639093589829
 20
-117.9725623494532
 30
0.0
 10
-82.88869207634838
 20
-119.2681785815187
 30
0.0
 10
-79.52495950229667
 20
-120.5494719544772
 30
0.0
 10
-76.0368250522051
 20
-121.8433987747881
 30
0.0
 10
-72.44979892528947
 20
-123.13143106642
 30
0.0
 10
-69.01315734606034
 20
-124.2893952321122
 30
0.0
 10
-65.6343084973887
 20
-125.3250005273732
 30
0.0
 10
-62.25041573823775
 20
-126.2288154912831
 30
0.0
 10
-58.85509729999198
 20
-127.0156021567173
 30
0.0
 10
-56.17733519787416
 20
-127.4834047095857
 30
0.0
 10
-54.9918094674119
 20
-127.6905149539062
 30
0.0
  0
SPLINE
  5
EA
330
E3
100
AcDbEntity
  8
0
  6
Continuous
 62
     7
370
    25
100
AcDbSpline
210
0.0
220
0.0
230
1.0
 70
     8
 71
     3
 72
    21
 73
    17
 74
     0
 42
0.000000001
 43
0.00000001
 40
0.0
 40
0.0
 40
0.0
 40
0.0
 40
0.0848616109180851
 40
0.1674817119273677
 40
0.2473399106210408
 40
0.3239512245712501
 40
0.3968705886370767
 40
0.4657242569254029
 40
0.5301936216295148
 40
0.5900486305207405
 40
0.6623848524201237
 40
0.7294462099789844
 40
0.7968861628525935
 40
0.8645896642783937
 40
0.9323553048628446
 40
1.0
 40
1.0
 40
1.0
 40
1.0
 10
109.8765695120556
 20
-104.6777731558157
 30
0.0
 10
112.7005184838114
 20
-102.6398821034763
 30
0.0
 10
118.2738254605282
 20
-98.61792826033354
 30
0.0
 10
125.8573280695796
 20
-91.85492918511218
 30
0.0
 10
132.6851004878864
 20
-84.80614504595997
 30
0.0
 10
138.6958353906831
 20
-77.55613478915437
 30
0.0
 10
143.9048312712987
 20
-70.26087142544469
 30
0.0
 10
148.3380019182314
 20
-63.04939724007415
 30
0.0
 10
152.0472011305166
 20
-56.04233639083915
 30
0.0
 10
155.3833636635847
 20
-48.69408608285464
 30
0.0
 10
158.2841792049281
 20
-41.0465719034387
 30
0.0
 10
160.7490725908604
 20
-32.92337095986804
 30
0.0
 10
162.6397257105341
 20
-24.84195007398375
 30
0.0
 10
163.9927669191948
 20
-16.62585309099009
 30
0.0
 10
164.8415790680655
 20
-8.32955122239079
 30
0.0
 10
164.947224476051
 20
-2.774863300283661
 30
0.0
 10
165.0
 20
0.0
 30
0.0
  0
SPLINE
  5
EB
330
E3
100
AcDbEntity
  8
0
  6
Continuous
 62
     7
370
    25
100
AcDbSpline
210
0.0
220
0.0
230
1.0
 70
     8
 71
     3
 72
    29
 73
    25
 74
     0
 42
0.000000001
 43
0.00000001
 40
0.0
 40
0.0
 40
0.0
 40
0.0
 40
0.1249999999999975
 40
0.1249999999999975
 40
0.1874999999999969
 40
0.1874999999999969
 40
0.2499999999999963
 40
0.2499999999999963
 40
0.3749999999999966
 40
0.3749999999999966
 40
0.4374999999999966
 40
0.4374999999999966
 40
0.4999999999999966
 40
0.4999999999999966
 40
0.6249999999999981
 40
0.6249999999999981
 40
0.6874999999999987
 40
0.6874999999999987
 40
0.7499999999999991
 40
0.8124999999999997
 40
0.8124999999999997
 40
0.8750000000000002
 40
0.8750000000000002
 40
1.0
 40
1.0
 40
1.0
 40
1.0
 10
-54.99999999999973
 20
-127.9056404642267
 30
0.0
 10
-54.99999999999953
 20
-127.9247624879706
 30
0.0
 10
-54.93521555014079
 20
-127.9459434363768
 30
0.0
 10
-54.74488144250014
 20
-127.9792826459663
 30
0.0
 10
-54.66579468992097
 20
-127.9906855024965
 30
0.0
 10
-54.47563058192021
 20
-128.0140389011469
 30
0.0
 10
-54.36400988098192
 20
-128.0260292429625
 30
0.0
 10
-53.98791651965696
 20
-128.0620784002735
 30
0.0
 10
-53.68106546155574
 20
-128.086440068449
 30
0.0
 10
-53.13739938739577
 20
-128.1237811405795
 30
0.0
 10
-52.94148361631878
 20
-128.1364060139
 30
0.0
 10
-52.52364858043307
 20
-128.1618204360398
 30
0.0
 10
-52.30380105426266
 20
-128.1744894035691
 30
0.0
 10
-51.61250126598492
 20
-128.2124894685059
 30
0.0
 10
-51.10959133314019
 20
-128.2378115101991
 30
0.0
 10
-50.29070563292787
 20
-128.2762069830532
 30
0.0
 10
-50.00688902928763
 20
-128.2890697065171
 30
0.0
 10
-49.43005226632157
 20
-128.3144389374452
 30
0.0
 10
-48.84098683274159
 20
-128.3395961436087
 30
0.0
 10
-48.22784609040099
 20
-128.3644786676655
 30
0.0
 10
-47.60251067635966
 20
-128.3892967121742
 30
0.0
 10
-47.28236417393082
 20
-128.4017256468078
 30
0.0
 10
-46.3134106841658
 20
-128.4386363213407
 30
0.0
 10
-45.66028368108078
 20
-128.4622570373666
 30
0.0
 10
-45.00000000000156
 20
-128.4862998609616
 30
0.0
  0
SPLINE
  5
EE
330
E3
100
AcDbEntity
  8
0
  6
Continuous
 62
     7
370
    25
100
AcDbSpline
210
0.0
220
0.0
230
1.0
 70
     8
 71
     3
 72
    29
 73
    25
 74
     0
 42
0.000000001
 43
0.00000001
 40
0.0
 40
0.0
 40
0.0
 40
0.0
 40
0.1249999999999982
 40
0.1249999999999982
 40
0.1874999999999974
 40
0.1874999999999974
 40
0.2499999999999967
 40
0.2499999999999967
 40
0.3749999999999951
 40
0.3749999999999951
 40
0.4374999999999948
 40
0.4374999999999948
 40
0.4999999999999946
 40
0.4999999999999946
 40
0.6249999999999949
 40
0.6249999999999949
 40
0.6874999999999956
 40
0.6874999999999956
 40
0.7499999999999962
 40
0.8124999999999969
 40
0.8124999999999969
 40
0.8749999999999976
 40
0.8749999999999976
 40
1.0
 40
1.0
 40
1.0
 40
1.0
 10
45.00000000000025
 20
-128.4862998609145
 30
0.0
 10
45.66028560471815
 20
-128.4622569672744
 30
0.0
 10
46.30955571739592
 20
-128.4387725503082
 30
0.0
 10
47.2675390166746
 20
-128.4022955582179
 30
0.0
 10
47.58419672610771
 20
-128.3900132739969
 30
0.0
 10
48.21204828707837
 20
-128.3651153747068
 30
0.0
 10
48.52412512940246
 20
-128.352459950407
 30
0.0
 10
49.43196614955156
 20
-128.3146900685743
 30
0.0
 10
50.00606770794083
 20
-128.289521961535
 30
0.0
 10
50.82095452672694
 20
-128.251359837832
 30
0.0
 10
51.08564357224354
 20
-128.2385291880925
 30
0.0
 10
51.5952217291229
 20
-128.2128378100638
 30
0.0
 10
51.8377241852574
 20
-128.2001005531566
 30
0.0
 10
52.52952792998938
 20
-128.162098409353
 30
0.0
 10
52.94346243142716
 20
-128.1370420394267
 30
0.0
 10
53.49180601530869
 20
-128.099467694528
 30
0.0
 10
53.66215760785838
 20
-128.0869493657597
 30
0.0
 10
53.97091969220708
 20
-128.0624082335939
 30
0.0
 10
54.24989654935216
 20
-128.0382201105395
 30
0.0
 10
54.47022255542424
 20
-128.0146402780275
 30
0.0
 10
54.66083457260661
 20
-127.9913540685541
 30
0.0
 10
54.74153724389964
 20
-127.9798093689077
 30
0.0
 10
54.9352076216561
 20
-127.9460599100155
 30
0.0
 10
55.00000000000018
 20
-127.9247624521946
 30
0.0
 10
55.00000000000028
 20
-127.9056404642757
 30
0.0
  0
SPLINE
  5
EF
330
E3
100
AcDbEntity
  8
0
  6
Continuous
 62
     7
370
    25
100
AcDbSpline
210
0.0
220
0.0
230
1.0
 70
     8
 71
     3
 72
    10
 73
     6
 74
     0
 42
0.000000001
 43
0.00000001
 40
0.0
 40
0.0
 40
0.0
 40
0.0
 40
0.5
 40
0.5
 40
1.0
 40
1.0
 40
1.0
 40
1.0
 10
-44.99999999954463
 20
-128.4862998609796
 30
0.0
 10
-30.0054938802083
 20
-129.032292857397
 30
0.0
 10
-15.00280537766741
 20
-129.4170560667669
 30
0.0
 10
15.00287459629101
 20
-129.4170548464953
 30
0.0
 10
30.00548999565744
 20
-129.0322929988503
 30
0.0
 10
45.00000000045566
 20
-128.4862998609452
 30
0.0
  0
SPLINE
  5
F0
330
E3
100
AcDbEntity
  8
0
  6
Continuous
 62
     7
370
    25
100
AcDbSpline
210
0.0
220
0.0
230
1.0
 70
    24
 71
     3
 72
    59
 73
    55
 74
     0
 42
0.000000001
 43
0.00000001
 40
0.0
 40
0.0
 40
0.0
 40
0.0
 40
0.1185205892762313
 40
0.131823920725604
 40
0.1451272521749769
 40
0.1584305836243496
 40
0.1717262777341256
 40
0.184922660004284
 40
0.1980251745347073
 40
0.2110783612361138
 40
0.2227033232476825
 40
0.2343561222574873
 40
0.2460585584581282
 40
0.2577975359247419
 40
0.269550836419676
 40
0.2810900417739848
 40
0.2926051207558357
 40
0.3040737859636554
 40
0.3154973562092173
 40
0.3271166080656429
 40
0.3387597152766805
 40
0.3504546432882178
 40
0.3622245898624679
 40
0.3740715510958644
 40
0.4206332111686695
 40
0.4354482848281984
 40
0.4502633584877273
 40
0.4650784321472562
 40
0.4798855722825555
 40
0.4914401091986488
 40
0.5029235745000847
 40
0.5143578293490554
 40
0.5257696324747646
 40
0.5374010858764848
 40
0.5490796224734922
 40
0.5608054928442148
 40
0.5725551546102232
 40
0.5843080982925634
 40
0.5958360386954605
 40
0.607327588557109
 40
0.6187712597978876
 40
0.6301886279128278
 40
0.6432133230959668
 40
0.6562870325780462
 40
0.6694540353006964
 40
0.6827203870007574
 40
0.6959946929996953
 40
0.7481437522812368
 40
0.841267072426847
 40
0.9597876617030783
 40
0.9730909931524512
 40
0.9863943246018241
 40
0.9996976560511969
 40
1.0
 40
1.0
 40
1.0
 40
1.0
 10
-165.0
 20
0.0
 30
0.0
 10
-165.0032589656116
 20
0.0
 30
0.0
 10
-165.0068837334857
 20
0.0
 30
0.0
 10
-164.9975588297997
 20
0.0
 30
0.0
 10
-165.0096415024904
 20
0.0
 30
0.0
 10
-164.963883918275
 20
0.0
 30
0.0
 10
-165.1343136638209
 20
0.0
 30
0.0
 10
-164.1126675811758
 20
0.0
 30
0.0
 10
-161.8504156601008
 20
0.0
 30
0.0
 10
-158.5250885251111
 20
0.0
 30
0.0
 10
-154.3070013460482
 20
0.0
 30
0.0
 10
-149.3545871316312
 20
0.0
 30
0.0
 10
-143.5349942575542
 20
0.0
 30
0.0
 10
-136.9002995440496
 20
0.0
 30
0.0
 10
-129.5481397106845
 20
0.0
 30
0.0
 10
-121.562091702239
 20
0.0
 30
0.0
 10
-113.0519023150499
 20
0.0
 30
0.0
 10
-104.051408215815
 20
0.0
 30
0.0
 10
-94.57452549629565
 20
0.0
 30
0.0
 10
-84.67519344460929
 20
0.0
 30
0.0
 10
-74.40385817426943
 20
0.0
 30
0.0
 10
-63.88087238998527
 20
0.0
 30
0.0
 10
-53.17237013839733
 20
0.0
 30
0.0
 10
-31.86331021896235
 20
0.0
 30
0.0
 10
-9.63757775202678
 20
0.0
 30
0.0
 10
13.49225075570898
 20
0.0
 30
0.0
 10
26.98492796590359
 20
0.0
 30
0.0
 10
40.47319284288277
 20
0.0
 30
0.0
 10
52.97893981644569
 20
0.0
 30
0.0
 10
64.45011866618108
 20
0.0
 30
0.0
 10
74.774665706129
 20
0.0
 30
0.0
 10
84.8544512043469
 20
0.0
 30
0.0
 10
94.69072918204705
 20
0.0
 30
0.0
 10
104.2221876735052
 20
0.0
 30
0.0
 10
113.3740008342312
 20
0.0
 30
0.0
 10
122.0144759281494
 20
0.0
 30
0.0
 10
130.056604482807
 20
0.0
 30
0.0
 10
137.3564661781681
 20
0.0
 30
0.0
 10
143.8634378639398
 20
0.0
 30
0.0
 10
149.5418818218751
 20
0.0
 30
0.0
 10
154.3821953236122
 20
0.0
 30
0.0
 10
158.5400252848224
 20
0.0
 30
0.0
 10
161.8433705214132
 20
0.0
 30
0.0
 10
164.1042117474768
 20
0.0
 30
0.0
 10
165.131875905149
 20
0.0
 30
0.0
 10
164.9659670356562
 20
0.0
 30
0.0
 10
165.0406425669682
 20
0.0
 30
0.0
 10
164.9702984267436
 20
0.0
 30
0.0
 10
165.0156203771417
 20
0.0
 30
0.0
 10
164.9924682907985
 20
0.0
 30
0.0
 10
165.0025377826704
 20
0.0
 30
0.0
 10
164.9900801969126
 20
0.0
 30
0.0
 10
165.0218108712825
 20
0.0
 30
0.0
 10
164.9990056326176
 20
0.0
 30
0.0
 10
164.9984988569002
 20
0.0
 30
0.0
  0
LINE
  5
F8
330
E3
100
AcDbEntity
  8
0
  6
Continuous
 62
     7
370
    25
100
AcDbLine
 10
-55.0
 20
-141.0
 30
0.0
 11
-55.0
 21
-127.7241045197
 31
0.0
  0
LINE
  5
F9
330
E3
100
AcDbEntity
  8
0
  6
Continuous
 62
     7
370
    25
100
AcDbLine
 10
55.0
 20
-141.0
 30
0.0
 11
55.0
 21
-127.72726095
 31
0.0
  0
LINE
  5
FA
330
E3
100
AcDbEntity
  8
0
  6
Continuous
 62
     7
370
    25
100
AcDbLine
 10
55.0
 20
-141.0
 30
0.0
 11
-55.0
 21
-141.0
 31
0.0
  0
LINE
  5
FB
330
E3
100
AcDbEntity
  8
0
  6
Continuous
 62
     7
370
    25
100
AcDbLine
 10
45.0
 20
-141.0
 30
0.0
 11
45.0
 21
-128.4862998607
 31
0.0
  0
LINE
  5
FC
330
E3
100
AcDbEntity
  8
0
  6
Continuous
 62
     7
370
    25
100
AcDbLine
 10
-45.0
 20
-141.0
 30
0.0
 11
-45.0
 21
-128.4862998607
 31
0.0
  0
VIEWPORT
  5
18A
330
E3
100
AcDbEntity
  8
0
100
AcDbViewport
 10
0.0
 20
0.0
 30
0.0
 40
205.6
 41
156.0
 68
     1
 69
     1
 12
0.0
 22
0.0
 13
0.0
 23
0.0
 14
10.0
 24
10.0
 15
10.0
 25
10.0
 16
0.0
 26
0.0
 36
1.0
 17
0.0
 27
0.0
 37
0.0
 42
50.0
 43
0.0
 44
0.0
 45
414.0525291829
 50
0.0
 51
0.0
 72
   100
 90
   557152
  1

281
     0
 71
     1
 74
     0
110
0.0
120
0.0
130
0.0
111
1.0
121
0.0
131
0.0
112
0.0
122
1.0
132
0.0
 79
     0
146
0.0
  0
ENDBLK
  5
E6
330
E3
100
AcDbEntity
  8
0
100
AcDbBlockEnd
  0
BLOCK
  5
FF
330
FD
100
AcDbEntity
  8
0
100
AcDbBlockBegin
  2
*Paper_Space4
 70
     0
 10
0.0
 20
0.0
 30
0.0
  3
*Paper_Space4
  1

  0
CIRCLE
  5
101
330
FD
100
AcDbEntity
  8
0
  6
Continuous
 62
     7
370
    25
100
AcDbCircle
 10
0.0
 20
0.0
 30
0.0
 40
22.9999999999964
  0
LWPOLYLINE
  5
10A
330
FD
100
AcDbEntity
  8
0
  6
Continuous
 62
     7
370
    25
100
AcDbPolyline
 90
       95
 70
   128
 43
0.0
 10
0.0
 20
165.0
 10
107.9383757088
 20
165.0
 10
120.0539076761
 20
165.0
 10
132.1694396434
 20
165.0
 10
144.2849716107
 20
165.0
 10
156.3933681983
 20
164.9339866415
 10
168.3669753355
 20
163.9004369302
 10
180.0849502556
 20
161.6471983029
 10
191.4635463218
 20
158.20547248
 10
201.2481234822
 20
154.1623322421
 10
210.6397098365
 20
149.2206244215
 10
219.5729796709
 20
143.4085185675
 10
227.9590816673
 20
136.7777098338
 10
235.7020599507
 20
129.3871959467
 10
242.5987467235
 20
121.4579427359
 10
248.7347042627
 20
112.9534707292
 10
254.0540760987
 20
103.964837385
 10
258.5169996242
 20
94.5671062993
 10
262.1625917644
 20
84.633098727
 10
264.8841650422
 20
74.3847745723
 10
266.658188222
 20
63.8828212355
 10
267.4555906673
 20
53.1934655174
 10
267.5
 20
42.4043618856
 10
267.5
 20
0.0
 10
267.5
 20
-13.4922969636
 10
267.5
 20
-26.9845939272
 10
267.5
 20
-40.4768908908
 10
267.4316455022
 20
-53.9617894395
 10
266.5876486738
 20
-64.4507681469
 10
264.8031120335
 20
-74.7555445697
 10
262.1055408062
 20
-84.8134124943
 10
258.5169996242
 20
-94.5671062993
 10
253.9649403668
 20
-104.1320893798
 10
248.5255517453
 20
-113.2717540508
 10
242.241669738
 20
-121.9061081696
 10
235.172323192
 20
-129.9389667246
 10
227.3802628164
 20
-137.2772394688
 10
219.1074361668
 20
-143.741151927
 10
210.3117218457
 20
-149.4123469445
 10
201.0766717699
 20
-154.2424735934
 10
191.4635463218
 20
-158.20547248
 10
180.1101756577
 20
-161.6409719422
 10
168.418726529
 20
-163.8932294544
 10
156.4723657125
 20
-164.9312799757
 10
144.3907071625
 20
-165.0
 10
132.3016090831
 20
-165.0
 10
84.8087237712
 20
-165.0
 10
0.0
 20
-165.0
 10
-107.9383757088
 20
-165.0
 10
-120.0539076761
 20
-165.0
 10
-132.1694396434
 20
-165.0
 10
-144.2849716107
 20
-165.0
 10
-156.3933681983
 20
-164.9339866415
 10
-168.3669753355
 20
-163.9004369302
 10
-180.0849502556
 20
-161.6471983029
 10
-191.4635463218
 20
-158.20547248
 10
-201.2481234822
 20
-154.1623322421
 10
-210.6397098365
 20
-149.2206244215
 10
-219.5729796709
 20
-143.4085185675
 10
-227.9590816673
 20
-136.7777098338
 10
-235.7020599507
 20
-129.3871959467
 10
-242.5987467235
 20
-121.4579427359
 10
-248.7347042627
 20
-112.9534707292
 10
-254.0540760987
 20
-103.964837385
 10
-258.5169996242
 20
-94.5671062993
 10
-262.1625917644
 20
-84.633098727
 10
-264.8841650422
 20
-74.3847745723
 10
-266.658188222
 20
-63.8828212355
 10
-267.4555906673
 20
-53.1934655174
 10
-267.5
 20
-42.4043618856
 10
-267.5
 20
0.0
 10
-267.5
 20
13.4922969636
 10
-267.5
 20
26.9845939272
 10
-267.5
 20
40.4768908908
 10
-267.4316455022
 20
53.9617894395
 10
-266.5876486738
 20
64.4507681469
 10
-264.8031120335
 20
74.7555445697
 10
-262.1055408062
 20
84.8134124943
 10
-258.5169996242
 20
94.5671062993
 10
-253.9649403668
 20
104.1320893798
 10
-248.5255517453
 20
113.2717540508
 10
-242.241669738
 20
121.9061081696
 10
-235.172323192
 20
129.9389667246
 10
-227.3802628164
 20
137.2772394688
 10
-219.1074361668
 20
143.741151927
 10
-210.3117218457
 20
149.4123469445
 10
-201.0766717699
 20
154.2424735934
 10
-191.4635463218
 20
158.20547248
 10
-180.1101756577
 20
161.6409719422
 10
-168.418726529
 20
163.8932294544
 10
-156.4723657125
 20
164.9312799757
 10
-144.3907071625
 20
165.0
 10
-132.3016090831
 20
165.0
 10
-84.8087237712
 20
165.0
 10
0.0
 20
165.0
  0
LINE
  5
10B
330
FD
100
AcDbEntity
  8
0
  6
Continuous
 62
     7
370
    25
100
AcDbLine
 10
-45.0
 20
-55.0
 30
0.0
 11
45.0
 21
-55.0
 31
0.0
  0
LINE
  5
10C
330
FD
100
AcDbEntity
  8
0
  6
Continuous
 62
     7
370
    25
100
AcDbLine
 10
45.0
 20
55.0
 30
0.0
 11
-45.0
 21
55.0
 31
0.0
  0
LINE
  5
10D
330
FD
100
AcDbEntity
  8
0
  6
Continuous
 62
     7
370
    25
100
AcDbLine
 10
55.0
 20
-45.0
 30
0.0
 11
55.0
 21
45.0
 31
0.0
  0
LINE
  5
10E
330
FD
100
AcDbEntity
  8
0
  6
Continuous
 62
     7
370
    25
100
AcDbLine
 10
-55.0
 20
45.0
 30
0.0
 11
-55.0
 21
-45.0
 31
0.0
  0
ARC
  5
10F
330
FD
100
AcDbEntity
  8
0
  6
Continuous
 62
     7
370
    25
100
AcDbCircle
 10
-45.0
 20
45.0
 30
0.0
 40
10.00000000000004
100
AcDbArc
 50
90.0
 51
180.0
  0
ARC
  5
110
330
FD
100
AcDbEntity
  8
0
  6
Continuous
 62
     7
370
    25
100
AcDbCircle
 10
45.0
 20
45.0
 30
0.0
 40
9.999999999999964
100
AcDbArc
 50
0.0
 51
90.0
  0
ARC
  5
111
330
FD
100
AcDbEntity
  8
0
  6
Continuous
 62
     7
370
    25
100
AcDbCircle
 10
45.0
 20
-45.0
 30
0.0
 40
10.00000000000007
100
AcDbArc
 50
270.0
 51
0.0
  0
ARC
  5
112
330
FD
100
AcDbEntity
  8
0
  6
Continuous
 62
     7
370
    25
100
AcDbCircle
 10
-45.0
 20
-45.0
 30
0.0
 40
10.00000000000002
100
AcDbArc
 50
180.0
 51
270.0
  0
VIEWPORT
  5
18C
330
FD
100
AcDbEntity
  8
0
100
AcDbViewport
 10
0.0
 20
0.0
 30
0.0
 40
205.6
 41
156.0
 68
     1
 69
     1
 12
0.0
 22
0.0
 13
0.0
 23
0.0
 14
10.0
 24
10.0
 15
10.0
 25
10.0
 16
0.0
 26
0.0
 36
1.0
 17
0.0
 27
0.0
 37
0.0
 42
50.0
 43
0.0
 44
0.0
 45
414.0525291829
 50
0.0
 51
0.0
 72
   100
 90
   557152
  1

281
     0
 71
     1
 74
     0
110
0.0
120
0.0
130
0.0
111
1.0
121
0.0
131
0.0
112
0.0
122
1.0
132
0.0
 79
     0
146
0.0
  0
ENDBLK
  5
100
330
FD
100
AcDbEntity
  8
0
100
AcDbBlockEnd
  0
BLOCK
  5
115
330
113
100
AcDbEntity
  8
0
100
AcDbBlockBegin
  2
*Paper_Space5
 70
     0
 10
0.0
 20
0.0
 30
0.0
  3
*Paper_Space5
  1

  0
SPLINE
  5
117
330
113
100
AcDbEntity
  8
0
  6
Continuous
 62
     7
370
    25
100
AcDbSpline
210
0.0
220
0.0
230
1.0
 70
     8
 71
     3
 72
   161
 73
   157
 74
     0
 42
0.000000001
 43
0.00000001
 40
0.0
 40
0.0
 40
0.0
 40
0.0
 40
0.006951284065858
 40
0.0123824350457667
 40
0.0162815863079008
 40
0.0187156950448157
 40
0.0210856943107145
 40
0.0269613951704948
 40
0.0327269836391728
 40
0.0369508558770559
 40
0.0423318872809667
 40
0.0485442357718107
 40
0.0541780174928006
 40
0.0586606156457347
 40
0.0635074210076386
 40
0.0702451938740599
 40
0.0756359658684999
 40
0.0793905253790206
 40
0.083851839507662
 40
0.0893589675834549
 40
0.0963414903085997
 40
0.1015249224673298
 40
0.1058378575735338
 40
0.1092411702261844
 40
0.1123874734035548
 40
0.1154693883216377
 40
0.1191737513637467
 40
0.1239567471631559
 40
0.1296157850186263
 40
0.1338235450243552
 40
0.1372206208531714
 40
0.1411878293161363
 40
0.1457162276396814
 40
0.1506587447184831
 40
0.1556721522759555
 40
0.1592885917570044
 40
0.1622190229505887
 40
0.1654155240376142
 40
0.1691359714806772
 40
0.1741333518626474
 40
0.1784140984197202
 40
0.1827735034276764
 40
0.1876876355257611
 40
0.1933034045110682
 40
0.1992799078460462
 40
0.2048611901412135
 40
0.210031030545272
 40
0.214791528876202
 40
0.2215448945412004
 40
0.2282582805272785
 40
0.2351411311009173
 40
0.2446239045631512
 40
0.2545313765431486
 40
0.2655451199015244
 40
0.2777767066492829
 40
0.2897324417626417
 40
0.3026682109538441
 40
0.3165863710334362
 40
0.3314875332482505
 40
0.3461562706888455
 40
0.3592480528627632
 40
0.3707489608983293
 40
0.3806505550892733
 40
0.3881601361791155
 40
0.3943811160003496
 40
0.3993145879819458
 40
0.402990042801855
 40
0.4069653026525371
 40
0.4120480403276224
 40
0.4182937907712352
 40
0.4256961919048249
 40
0.4342471939916694
 40
0.4441462966436783
 40
0.4552177558016192
 40
0.4669556572321837
 40
0.4779903583627534
 40
0.4882468401313254
 40
0.4977313319242369
 40
0.5064505871805108
 40
0.5159579839564126
 40
0.5258130311964744
 40
0.537077702955276
 40
0.5487808414591814
 40
0.5603227469651104
 40
0.5716752302611998
 40
0.5828228069121406
 40
0.5935364230921968
 40
0.6036900962069373
 40
0.6132838625830523
 40
0.6223579567254808
 40
0.6310873820613522
 40
0.6385504270869571
 40
0.6466040492748257
 40
0.6552641438669476
 40
0.6645127163303143
 40
0.6741719755625396
 40
0.6841275396766093
 40
0.6934632446998862
 40
0.7003980321525002
 40
0.706535087457527
 40
0.712712164875454
 40
0.7189705659289889
 40
0.7251601514800637
 40
0.7312088688432378
 40
0.737613367112242
 40
0.7452323267752089
 40
0.753119814410706
 40
0.7620197555305653
 40
0.7714123689589406
 40
0.7797867421796391
 40
0.7870392915588749
 40
0.7930608452630274
 40
0.7983212015485143
 40
0.8039054343994435
 40
0.8099905210927051
 40
0.8152496854395862
 40
0.8211236493246524
 40
0.8269797572689342
 40
0.8317076327984886
 40
0.8355657428222675
 40
0.8401265931928653
 40
0.8482165828813929
 40
0.8568342479504963
 40
0.8655046868588837
 40
0.8732938006885848
 40
0.8776084388602617
 40
0.8816682727391264
 40
0.8857202976295572
 40
0.890275920062267
 40
0.8955369891362086
 40
0.901602402648895
 40
0.907658596123039
 40
0.9112946183396969
 40
0.914218332369213
 40
0.9171022305525354
 40
0.9200759679782539
 40
0.9239558546990045
 40
0.9288885376575071
 40
0.933607185288639
 40
0.937410430199063
 40
0.9406054657672984
 40
0.9435068825959941
 40
0.9463804407850441
 40
0.9501295207328718
 40
0.9548052491753084
 40
0.9591746801082036
 40
0.962564267942136
 40
0.9653441142554772
 40
0.9687589389383864
 40
0.9728500068159025
 40
0.976752838384039
 40
0.9795363452546386
 40
0.9826260054334952
 40
0.9870521038868751
 40
0.9928395136725797
 40
1.0
 40
1.0
 40
1.0
 40
1.0
 10
-257.7862802102548
 20
36.31021579006052
 30
0.0
 10
-257.5225547904224
 20
34.63260316107077
 30
0.0
 10
-257.0527764228495
 20
31.64424457672629
 30
0.0
 10
-256.2548896756273
 20
27.74270708733441
 30
0.0
 10
-255.6109507321111
 20
24.92955350008569
 30
0.0
 10
-255.0999703212254
 20
22.87198800240156
 30
0.0
 10
-254.4360954717441
 20
20.33666102643121
 30
0.0
 10
-253.506264033996
 20
17.0682223551174
 30
0.0
 10
-252.3455192947971
 20
13.4227578985337
 30
0.0
 10
-251.1114877536541
 20
9.875228400745172
 30
0.0
 10
-249.7500941479332
 20
6.259704003101454
 30
0.0
 10
-248.1485215700596
 20
2.367258536285346
 30
0.0
 10
-246.5185588066726
 20
-1.273460066348327
 30
0.0
 10
-244.938776812445
 20
-4.570566797366705
 30
0.0
 10
-243.1585783507773
 20
-8.070529590113464
 30
0.0
 10
-241.1704106102461
 20
-11.71169566439995
 30
0.0
 10
-239.2079388756642
 20
-15.06084016224669
 30
0.0
 10
-237.4615613458245
 20
-17.89282389805149
 30
0.0
 10
-235.6433982147789
 20
-20.71266363606118
 30
0.0
 10
-233.3138671493998
 20
-24.14067256069469
 30
0.0
 10
-230.7782302501373
 20
-27.64128537952021
 30
0.0
 10
-228.3209159385423
 20
-30.83533059115438
 30
0.0
 10
-226.3419408525207
 20
-33.29189465302883
 30
0.0
 10
-224.638432960477
 20
-35.33030803975124
 30
0.0
 10
-223.1006963704277
 20
-37.11467496014819
 30
0.0
 10
-221.4886897580411
 20
-38.93195287260459
 30
0.0
 10
-219.578331604636
 20
-41.01949236837508
 30
0.0
 10
-217.1937109536066
 20
-43.52669908212816
 30
0.0
 10
-214.664084560445
 20
-46.06448534168186
 30
0.0
 10
-212.3241059789856
 20
-48.31127451232155
 30
0.0
 10
-210.2498435261273
 20
-50.23708868638136
 30
0.0
 10
-208.086458257103
 20
-52.18147746703148
 30
0.0
 10
-205.6018160167744
 20
-54.33288120300585
 30
0.0
 10
-202.8770541135289
 20
-56.59654364580155
 30
0.0
 10
-200.2796473671047
 20
-58.66274004333198
 30
0.0
 10
-198.0363426516448
 20
-60.38143303953168
 30
0.0
 10
-196.1279587420601
 20
-61.80232939830209
 30
0.0
 10
-194.1752761463578
 20
-63.21807048167499
 30
0.0
 10
-191.7881993318423
 20
-64.89537394464614
 30
0.0
 10
-189.1584099334501
 20
-66.67724157791396
 30
0.0
 10
-186.3742523375809
 20
-68.50185225240202
 30
0.0
 10
-183.6715035136258
 20
-70.2175772232321
 30
0.0
 10
-180.834553287627
 20
-71.94607796687482
 30
0.0
 10
-177.8792371894272
 20
-73.7408809276016
 30
0.0
 10
-174.9360438789317
 20
-75.52094718347529
 30
0.0
 10
-172.0619876158593
 20
-77.25657428152385
 30
0.0
 10
-169.4274433973368
 20
-78.84460580836422
 30
0.0
 10
-166.6194005920007
 20
-80.5348541761203
 30
0.0
 10
-163.6207025066361
 20
-82.33716840801259
 30
0.0
 10
-160.2623857166306
 20
-84.35224002555043
 30
0.0
 10
-156.440195720843
 20
-86.64165515340311
 30
0.0
 10
-152.0722310417489
 20
-89.25247117849445
 30
0.0
 10
-146.9946911834909
 20
-92.2797308091002
 30
0.0
 10
-141.4431391919006
 20
-95.58046981270493
 30
0.0
 10
-135.5310501238555
 20
-99.08468681714427
 30
0.0
 10
-129.2780638974208
 20
-102.7788726253904
 30
0.0
 10
-122.7219826960501
 20
-106.6389652614926
 30
0.0
 10
-115.6459440790268
 20
-110.7897172276492
 30
0.0
 10
-108.2534133093889
 20
-115.1085505711511
 30
0.0
 10
-100.969998346448
 20
-119.3456560617866
 30
0.0
 10
-94.22578696472328
 20
-123.2534019252446
 30
0.0
 10
-88.26374018419185
 20
-126.695643979684
 30
0.0
 10
-83.23144404807664
 20
-129.5922555509064
 30
0.0
 10
-79.08741997330308
 20
-131.9719386074001
 30
0.0
 10
-75.7825224949199
 20
-133.866444194678
 30
0.0
 10
-73.13258941031286
 20
-135.3834232867328
 30
0.0
 10
-70.82341337511454
 20
-136.7043728499633
 30
0.0
 10
-68.48590889266086
 20
-138.0397426369509
 30
0.0
 10
-65.70568736448344
 20
-139.6255416495471
 30
0.0
 10
-62.31174417717214
 20
-141.5581817577407
 30
0.0
 10
-58.29952610230291
 20
-143.8385114563582
 30
0.0
 10
-53.631780181582
 20
-146.4857447953921
 30
0.0
 10
-48.30366481443934
 20
-149.5002830311668
 30
0.0
 10
-42.39949393210219
 20
-152.8319679549872
 30
0.0
 10
-36.28531614133587
 20
-156.2725869499821
 30
0.0
 10
-30.2989014652845
 20
-159.6321787529568
 30
0.0
 10
-24.70504534100672
 20
-162.7637219207779
 30
0.0
 10
-19.51842209034692
 20
-165.6607656130525
 30
0.0
 10
-14.4484987898148
 20
-168.4870405480773
 30
0.0
 10
-9.312981007869814
 20
-171.3437432202545
 30
0.0
 10
-3.604197628989531
 20
-174.5150055854969
 30
0.0
 10
2.683548500257676
 20
-177.9900349904389
 30
0.0
 10
9.248624457877593
 20
-181.6422613875483
 30
0.0
 10
16.12481369614194
 20
-184.9822914797272
 30
0.0
 10
23.33352875897843
 20
-187.7904549377835
 30
0.0
 10
30.68355599828278
 20
-190.0829449586713
 30
0.0
 10
38.03328776095212
 20
-191.8598610194653
 30
0.0
 10
45.21737480435614
 20
-193.1408318237148
 30
0.0
 10
52.1442737415062
 20
-193.9667212947697
 30
0.0
 10
58.80506682619353
 20
-194.3775309120865
 30
0.0
 10
64.96457549922832
 20
-194.5553222335349
 30
0.0
 10
70.88571400716485
 20
-194.5295130723062
 30
0.0
 10
76.79391131534074
 20
-194.3172662057918
 30
0.0
 10
83.13456984691412
 20
-193.8718670083323
 30
0.0
 10
89.84817621612936
 20
-193.1480963188626
 30
0.0
 10
96.83672403306194
 20
-192.1047508492555
 30
0.0
 10
103.7895305203213
 20
-190.7496908959407
 30
0.0
 10
110.0125807277521
 20
-189.2388779128585
 30
0.0
 10
115.2531103392249
 20
-187.7402170259725
 30
0.0
 10
119.7006535845426
 20
-186.3041571702269
 30
0.0
 10
123.935125686095
 20
-184.780978005602
 30
0.0
 10
128.1259860578559
 20
-183.1042569973809
 30
0.0
 10
132.1818603454851
 20
-181.313549690248
 30
0.0
 10
136.0067748153883
 20
-179.4232425449157
 30
0.0
 10
139.9276081283767
 20
-177.4205722040394
 30
0.0
 10
144.1754415454626
 20
-175.217506166966
 30
0.0
 10
148.8305404140172
 20
-172.7489263223963
 30
0.0
 10
153.7592951429764
 20
-170.0769594490063
 30
0.0
 10
158.7125076276759
 20
-167.3256033889471
 30
0.0
 10
163.3342736479655
 20
-164.6970667209022
 30
0.0
 10
167.314064759489
 20
-162.3857646365411
 30
0.0
 10
170.7159141388154
 20
-160.3757510236222
 30
0.0
 10
173.8200996623262
 20
-158.5152858551471
 30
0.0
 10
176.9267561829168
 20
-156.6283161273961
 30
0.0
 10
180.0233744545259
 20
-154.721106075943
 30
0.0
 10
183.1659581948026
 20
-152.7601820067613
 30
0.0
 10
186.2501529006699
 20
-150.8113787078066
 30
0.0
 10
189.2437688323643
 20
-148.8968599374092
 30
0.0
 10
191.9547920190346
 20
-147.1406148279064
 30
0.0
 10
194.5517519532118
 20
-145.4483849127566
 30
0.0
 10
197.8956546787304
 20
-143.1873537709545
 30
0.0
 10
202.1119174232866
 20
-140.1348376427626
 30
0.0
 10
206.9981204210902
 20
-136.2919376742326
 30
0.0
 10
211.6608252690639
 20
-132.2952553922998
 30
0.0
 10
215.386940460973
 20
-128.8315018816821
 30
0.0
 10
218.203698481752
 20
-126.0516983099678
 30
0.0
 10
220.3244870238895
 20
-123.8700946174787
 30
0.0
 10
222.441090814639
 20
-121.6030877236796
 30
0.0
 10
224.7047041322227
 20
-119.0717487201608
 30
0.0
 10
227.2248242943609
 20
-116.1099396077153
 30
0.0
 10
229.8894751051449
 20
-112.790539031128
 30
0.0
 10
232.2111392837184
 20
-109.7085340289382
 30
0.0
 10
234.0079108389216
 20
-107.1960070458292
 30
0.0
 10
235.3210409997935
 20
-105.2927815295262
 30
0.0
 10
236.515434782452
 20
-103.5049678386708
 30
0.0
 10
237.8097141217148
 20
-101.5026241432138
 30
0.0
 10
239.3329785864793
 20
-99.05148154083369
 30
0.0
 10
241.0167739006042
 20
-96.19787335211153
 30
0.0
 10
242.6187285439574
 20
-93.31902311611128
 30
0.0
 10
243.9571140746918
 20
-90.78137801974026
 30
0.0
 10
245.0480101577197
 20
-88.61681345936083
 30
0.0
 10
246.0046046079846
 20
-86.63978848230985
 30
0.0
 10
246.9878997349273
 20
-84.52529450346694
 30
0.0
 10
248.1098155714241
 20
-81.99677573087324
 30
0.0
 10
249.3154648129678
 20
-79.10541997755924
 30
0.0
 10
250.4186661823252
 20
-76.26759270880842
 30
0.0
 10
251.3031517442049
 20
-73.84347020153383
 30
0.0
 10
252.0706019029778
 20
-71.62598006239845
 30
0.0
 10
252.8541651082236
 20
-69.23277109966139
 30
0.0
 10
253.6690331786951
 20
-66.56094446150799
 30
0.0
 10
254.3836855438447
 20
-64.02081998780143
 30
0.0
 10
254.9896312668476
 20
-61.70537113328216
 30
0.0
 10
255.5889569060723
 20
-59.25641013548578
 30
0.0
 10
256.2958269010058
 20
-56.07776234243341
 30
0.0
 10
257.1130095226102
 20
-51.90286605107894
 30
0.0
 10
257.5773507106032
 20
-48.76667158052692
 30
0.0
 10
257.8341421382478
 20
-47.03228342740024
 30
0.0
  0
SPLINE
  5
118
330
113
100
AcDbEntity
  8
0
  6
Continuous
 62
     7
370
    25
100
AcDbSpline
210
0.0
220
0.0
230
1.0
 70
     8
 71
     3
 72
    73
 73
    69
 74
     0
 42
0.000000001
 43
0.00000001
 40
0.0
 40
0.0
 40
0.0
 40
0.0
 40
0.0193572246559123
 40
0.0391954408211898
 40
0.0593206909579475
 40
0.078935734392175
 40
0.0978471997891328
 40
0.1160465698923949
 40
0.1335258498632674
 40
0.1502802016669006
 40
0.1664047278596157
 40
0.1818643667769262
 40
0.1966806747439178
 40
0.2108878363780805
 40
0.2245180227084603
 40
0.2377065468833808
 40
0.2511675553471531
 40
0.2650585302673504
 40
0.2793774689016866
 40
0.2941063694958094
 40
0.3092259350450292
 40
0.3242666421820114
 40
0.3386093628484738
 40
0.3522362852239388
 40
0.3651530750912093
 40
0.3773828326577378
 40
0.3905406196710507
 40
0.4028426097228985
 40
0.4144556103102076
 40
0.427294293599713
 40
0.4419608726306167
 40
0.4584346472649412
 40
0.4766536217696559
 40
0.4940867982510906
 40
0.5128586366039399
 40
0.5329652973996503
 40
0.5544025665884829
 40
0.5767688958993848
 40
0.6196519829616386
 40
0.6609287429216955
 40
0.6964515322979383
 40
0.7307395297837824
 40
0.7641144958243794
 40
0.7969216738007452
 40
0.8175007669246228
 40
0.8378461559700534
 40
0.8578662730777594
 40
0.8764738847080096
 40
0.8872817912972545
 40
0.8974023431566993
 40
0.9068345781406809
 40
0.9155852594857532
 40
0.923762131231199
 40
0.9294145568260264
 40
0.9374932266244386
 40
0.9462426948855623
 40
0.9537614382196938
 40
0.9574856666269693
 40
0.9607950020520363
 40
0.9646096563885188
 40
0.9695983673569916
 40
0.9757368168242145
 40
0.9815572654016356
 40
0.9862189089635407
 40
0.9904837730504671
 40
0.9946192780147577
 40
0.9987230627252156
 40
1.0
 40
1.0
 40
1.0
 40
1.0
 10
216.9950675029168
 20
-90.99017142097088
 30
0.0
 10
214.481462628602
 20
-92.43883712109789
 30
0.0
 10
209.3917944116777
 20
-95.37216520548692
 30
0.0
 10
201.2379296429226
 20
-100.1097076591457
 30
0.0
 10
192.7210564822487
 20
-105.0517980827477
 30
0.0
 10
184.3216414599431
 20
-109.9110785545685
 30
0.0
 10
176.1880033580756
 20
-114.6058544274065
 30
0.0
 10
168.3480311576387
 20
-119.1186987415217
 30
0.0
 10
160.8116310682826
 20
-123.4559942224777
 30
0.0
 10
153.5457959625513
 20
-127.6028617252144
 30
0.0
 10
146.6150859794203
 20
-131.6469102164491
 30
0.0
 10
139.3174325585351
 20
-135.1829530635656
 30
0.0
 10
131.817193240741
 20
-138.2334191727019
 30
0.0
 10
124.2049017411259
 20
-140.8223636905461
 30
0.0
 10
116.5488473020781
 20
-142.9839947984491
 30
0.0
 10
108.7612098398798
 20
-144.7827212373924
 30
0.0
 10
100.7531637762089
 20
-146.236323297408
 30
0.0
 10
92.37479046294547
 20
-147.3512984928753
 30
0.0
 10
83.63300367027513
 20
-148.0969793546895
 30
0.0
 10
74.57442164822983
 20
-148.4360147963328
 30
0.0
 10
65.35192499309076
 20
-148.3253281878861
 30
0.0
 10
56.25125793178433
 20
-147.7659105625372
 30
0.0
 10
47.5568908020029
 20
-146.8156728759592
 30
0.0
 10
39.43272185780192
 20
-145.5453476770033
 30
0.0
 10
31.89872775488106
 20
-144.0149886835153
 30
0.0
 10
24.65217250671326
 20
-142.2062410689158
 30
0.0
 10
17.74966727985104
 20
-140.1396755892741
 30
0.0
 10
11.21859238275147
 20
-137.8364127956527
 30
0.0
 10
5.01386383202021
 20
-135.3071797769664
 30
0.0
 10
-1.273280177944438
 20
-132.3818069215553
 30
0.0
 10
-7.805630989648524
 20
-128.7555731184899
 30
0.0
 10
-14.86500500791632
 20
-124.5490148575677
 30
0.0
 10
-22.38879714946606
 20
-120.1570049300544
 30
0.0
 10
-30.21342994508927
 20
-115.565631683114
 30
0.0
 10
-38.30905882155711
 20
-110.8255565562423
 30
0.0
 10
-46.972454932957
 20
-105.7556598572658
 30
0.0
 10
-56.1467580731077
 20
-100.3938795056365
 30
0.0
 10
-68.5856367770308
 20
-93.13517725916418
 30
0.0
 10
-83.9127912134132
 20
-84.21585283754732
 30
0.0
 10
-101.190857387124
 20
-74.20011363148606
 30
0.0
 10
-117.283016071242
 20
-64.90889145255545
 30
0.0
 10
-132.2902234711286
 20
-56.27504824236814
 30
0.0
 10
-146.9308526612644
 20
-47.87776639795456
 30
0.0
 10
-159.5608988118326
 20
-40.65293020678201
 30
0.0
 10
-170.2925436251392
 20
-34.52516257658665
 30
0.0
 10
-179.1587930569271
 20
-29.46882501441901
 30
0.0
 10
-187.7406814140602
 20
-24.57993937754352
 30
0.0
 10
-194.9088093015237
 20
-20.50007493097655
 30
0.0
 10
-200.6171230655293
 20
-17.25311084658854
 30
0.0
 10
-204.989516890169
 20
-14.76737819805442
 30
0.0
 10
-209.0360373944171
 20
-12.4676865213254
 30
0.0
 10
-212.8319973898454
 20
-10.31321703364262
 30
0.0
 10
-215.832644231619
 20
-8.609759022020844
 30
0.0
 10
-218.2010770897708
 20
-7.122542990005573
 30
0.0
 10
-220.3815075142468
 20
-5.645065854034362
 30
0.0
 10
-222.5421975413354
 20
-4.027255682626671
 30
0.0
 10
-224.1276146749262
 20
-2.720438410238751
 30
0.0
 10
-225.2132931148864
 20
-1.764116776256014
 30
0.0
 10
-225.9933194927933
 20
-1.04639205790203
 30
0.0
 10
-226.8110452479594
 20
-0.2591404397353711
 30
0.0
 10
-227.749458151742
 20
0.6967716289302608
 30
0.0
 10
-228.7341072976052
 20
1.776494263921895
 30
0.0
 10
-229.6138448828025
 20
2.825647679957056
 30
0.0
 10
-230.313265175201
 20
3.724481116089584
 30
0.0
 10
-230.8691431183481
 20
4.494666021846741
 30
0.0
 10
-231.30899241524
 20
5.127329838984424
 30
0.0
 10
-231.7649354247376
 20
5.868595948132577
 30
0.0
 10
-231.7329315672514
 20
5.797477821187169
 30
0.0
 10
-231.7253365049766
 20
5.780600274371245
 30
0.0
  0
SPLINE
  5
119
330
113
100
AcDbEntity
  8
0
  6
Continuous
 62
     7
370
    25
100
AcDbSpline
210
0.0
220
0.0
230
1.0
 70
     8
 71
     3
 72
    22
 73
    18
 74
     0
 42
0.000000001
 43
0.00000001
 40
0.0
 40
0.0
 40
0.0
 40
0.0
 40
0.0341364263834297
 40
0.0694489708076702
 40
0.1040027800093089
 40
0.1845300390248484
 40
0.2868847367564503
 40
0.4001546221418834
 40
0.4805026945160025
 40
0.5521701325207438
 40
0.6068092688960619
 40
0.6364508558556774
 40
0.6802203187673549
 40
0.7382764010925359
 40
0.8107806005648648
 40
0.8979344904322121
 40
0.9999999999999999
 40
0.9999999999999999
 40
0.9999999999999999
 40
0.9999999999999999
 10
233.0140066129343
 20
-76.4581020885646
 30
0.0
 10
232.9757096294564
 20
-76.52718136711562
 30
0.0
 10
232.8977961988674
 20
-76.66771994445878
 30
0.0
 10
232.6391420793256
 20
-77.1098758688463
 30
0.0
 10
232.295461035211
 20
-77.66250449385048
 30
0.0
 10
231.7365791227888
 20
-78.49785225632641
 30
0.0
 10
230.8277349772436
 20
-79.70617654841647
 30
0.0
 10
229.7163263079846
 20
-81.00665947780409
 30
0.0
 10
228.5471562691382
 20
-82.23423361734739
 30
0.0
 10
227.5217938498664
 20
-83.22671086079117
 30
0.0
 10
226.7054940431769
 20
-83.96978345333027
 30
0.0
 10
225.9093611623155
 20
-84.66414035225567
 30
0.0
 10
224.9880430393479
 20
-85.43722374761515
 30
0.0
 10
223.6848473360439
 20
-86.47466906750529
 30
0.0
 10
221.9375496721601
 20
-87.77488481356563
 30
0.0
 10
219.7033129714792
 20
-89.32210659836353
 30
0.0
 10
217.9440299971623
 20
-90.40568564484776
 30
0.0
 10
216.9950675029168
 20
-90.99017142097088
 30
0.0
  0
LWPOLYLINE
  5
11C
330
113
100
AcDbEntity
  8
0
  6
Continuous
 62
     7
370
    25
100
AcDbPolyline
 90
       95
 70
   128
 43
0.0
 10
-116.6726188958
 20
-67.3536692254
 10
-40.3486614818
 20
-111.4145519782
 10
-31.7816866701
 20
-116.3601612668
 10
-23.2147118583
 20
-121.3057705554
 10
-14.6477370465
 20
-126.2513798439
 10
-6.0391292168
 20
-131.1671295209
 10
3.1583195948
 20
-135.632905334
 10
13.0374594356
 20
-139.4964490769
 10
23.5170095428
 20
-142.7363117015
 10
33.2946822834
 20
-145.07998954
 10
43.4298517912
 20
-146.8964480057
 10
53.8564069316
 20
-148.1705198017
 10
64.4749663414
 20
-148.8870376308
 10
75.1759612782
 20
-149.030915027
 10
85.659483978
 20
-148.609417219
 10
96.0118309894
 20
-147.6425800069
 10
106.1291184776
 20
-146.144772577
 10
115.9300813449
 20
-144.1303641158
 10
125.5323083874
 20
-141.5634074312
 10
134.7034108132
 20
-138.4909571954
 10
143.3838370538
 20
-134.9281807056
 10
151.5062016449
 20
-130.8902452588
 10
159.1666521262
 20
-126.5042174663
 10
189.1510639674
 20
-109.1945849563
 10
198.6915586441
 20
-103.6869746122
 10
208.2320533209
 20
-98.1793642681
 10
217.7725479976
 20
-92.671753924
 10
227.2594772762
 20
-87.1392610596
 10
234.0795093672
 20
-82.5130944804
 10
240.1042286947
 20
-77.5781878548
 10
245.3087444009
 20
-72.3713658581
 10
249.6681656277
 20
-66.9250114215
 10
253.2128380566
 20
-61.1623774817
 10
255.8293283434
 20
-55.2111487963
 10
257.4913631125
 20
-49.1214643026
 10
258.1726689878
 20
-42.9566829272
 10
257.8517926764
 20
-36.7804195804
 10
256.5726971851
 20
-30.7648229056
 10
254.3633283976
 20
-24.8593718371
 10
251.2485771718
 20
-19.117909651
 10
247.2533343656
 20
-13.576080634
 10
241.6545539461
 20
-7.5392038661
 10
234.9800375452
 20
-1.8473262609
 10
227.2666973642
 20
3.4529631108
 10
218.7722670707
 20
8.4127969257
 10
210.2239838403
 20
13.3476157941
 10
176.6414425782
 20
32.7344042053
 10
116.6726188958
 20
67.3536692254
 10
40.3486614818
 20
111.4145519782
 10
31.7816866701
 20
116.3601612668
 10
23.2147118583
 20
121.3057705554
 10
14.6477370465
 20
126.2513798439
 10
6.0391292168
 20
131.1671295209
 10
-3.1583195948
 20
135.632905334
 10
-13.0374594356
 20
139.4964490769
 10
-23.5170095428
 20
142.7363117015
 10
-33.2946822834
 20
145.07998954
 10
-43.4298517912
 20
146.8964480057
 10
-53.8564069316
 20
148.1705198017
 10
-64.4749663414
 20
148.8870376308
 10
-75.1759612782
 20
149.030915027
 10
-85.659483978
 20
148.609417219
 10
-96.0118309894
 20
147.6425800069
 10
-106.1291184776
 20
146.144772577
 10
-115.9300813449
 20
144.1303641158
 10
-125.5323083874
 20
141.5634074312
 10
-134.7034108132
 20
138.4909571954
 10
-143.3838370538
 20
134.9281807056
 10
-151.5062016449
 20
130.8902452588
 10
-159.1666521262
 20
126.5042174663
 10
-189.1510639674
 20
109.1945849563
 10
-198.6915586441
 20
103.6869746122
 10
-208.2320533209
 20
98.1793642681
 10
-217.7725479976
 20
92.671753924
 10
-227.2594772762
 20
87.1392610596
 10
-234.0795093672
 20
82.5130944804
 10
-240.1042286947
 20
77.5781878548
 10
-245.3087444009
 20
72.3713658581
 10
-249.6681656277
 20
66.9250114215
 10
-253.2128380566
 20
61.1623774817
 10
-255.8293283434
 20
55.2111487963
 10
-257.4913631125
 20
49.1214643026
 10
-258.1726689878
 20
42.9566829272
 10
-257.8517926764
 20
36.7804195804
 10
-256.5726971851
 20
30.7648229056
 10
-254.3633283976
 20
24.8593718371
 10
-251.2485771718
 20
19.117909651
 10
-247.2533343656
 20
13.576080634
 10
-241.6545539461
 20
7.5392038661
 10
-234.9800375452
 20
1.8473262609
 10
-227.2666973642
 20
-3.4529631108
 10
-218.7722670707
 20
-8.4127969257
 10
-210.2239838403
 20
-13.3476157941
 10
-176.6414425782
 20
-32.7344042053
 10
-116.6726188958
 20
-67.3536692254
  0
SPLINE
  5
11D
330
113
100
AcDbEntity
  8
0
  6
Continuous
 62
     7
370
    25
100
AcDbSpline
210
0.0
220
0.0
230
1.0
 70
     8
 71
     3
 72
    27
 73
    23
 74
     0
 42
0.000000001
 43
0.00000001
 40
0.0
 40
0.0
 40
0.0
 40
0.0
 40
0.1249999999999997
 40
0.1249999999999997
 40
0.1874999999999998
 40
0.1874999999999998
 40
0.2499999999999998
 40
0.2499999999999998
 40
0.3749999999999999
 40
0.3749999999999999
 40
0.5000000000000001
 40
0.5000000000000001
 40
0.6250000000000002
 40
0.6250000000000002
 40
0.6875
 40
0.6875
 40
0.7499999999999997
 40
0.8124999999999994
 40
0.8124999999999994
 40
0.8749999999999992
 40
0.8749999999999992
 40
1.0
 40
1.0
 40
1.0
 40
1.0
 10
-49.49747468305825
 20
-89.27476275005385
 30
0.0
 10
-49.96422551147268
 20
-89.51711126290205
 30
0.0
 10
-50.37738887312913
 20
-89.78090921459389
 30
0.0
 10
-50.92005940561676
 20
-90.20692170149178
 30
0.0
 10
-51.088008653454
 20
-90.35401750112163
 30
0.0
 10
-51.39744339869204
 20
-90.65854147269987
 30
0.0
 10
-51.53917981470873
 20
-90.81651788270985
 30
0.0
 10
-51.91520915382898
 20
-91.29584375606272
 30
0.0
 10
-52.1042472923213
 20
-91.62546757748115
 30
0.0
 10
-52.36022514953876
 20
-92.30433629843897
 30
0.0
 10
-52.425913802354
 20
-92.6552700055775
 30
0.0
 10
-52.42689428241148
 20
-93.35125216201929
 30
0.0
 10
-52.36427817545867
 20
-93.69982932779223
 30
0.0
 10
-52.17338645379014
 20
-94.22484309627806
 30
0.0
 10
-52.09322872119142
 20
-94.40022215148718
 30
0.0
 10
-51.90377457419925
 20
-94.74411164651458
 30
0.0
 10
-51.68457233220474
 20
-95.08313150164821
 30
0.0
 10
-51.40678002495953
 20
-95.41290123756676
 30
0.0
 10
-51.09929570429238
 20
-95.7381288473134
 30
0.0
 10
-50.92992565746324
 20
-95.89912529563274
 30
0.0
 10
-50.38119905421263
 20
-96.37026946913993
 30
0.0
 10
-49.96479074695055
 20
-96.66657457755781
 30
0.0
 10
-49.49747468305828
 20
-96.94517138285651
 30
0.0
  0
SPLINE
  5
11E
330
113
100
AcDbEntity
  8
0
  6
Continuous
 62
     7
370
    25
100
AcDbSpline
210
0.0
220
0.0
230
1.0
 70
     8
 71
     3
 72
    10
 73
     6
 74
     0
 42
0.000000001
 43
0.00000001
 40
0.0
 40
0.0
 40
0.0
 40
0.0
 40
0.5
 40
0.5
 40
1.0
 40
1.0
 40
1.0
 40
1.0
 10
-49.49747468305829
 20
-96.94517138285651
 30
0.0
 10
-42.42696277146011
 20
-101.1603528897601
 30
0.0
 10
-35.35577017069301
 20
-105.3289365232573
 30
0.0
 10
-21.21282532676059
 20
-113.4934852193416
 30
0.0
 10
-14.14159058836958
 20
-117.4891508879088
 30
0.0
 10
-7.071067811865613
 20
-121.4374147375378
 30
0.0
  0
SPLINE
  5
11F
330
113
100
AcDbEntity
  8
0
  6
Continuous
 62
     7
370
    25
100
AcDbSpline
210
0.0
220
0.0
230
1.0
 70
     8
 71
     3
 72
    29
 73
    25
 74
     0
 42
0.000000001
 43
0.00000001
 40
0.0
 40
0.0
 40
0.0
 40
0.0
 40
0.1250000000000015
 40
0.1250000000000015
 40
0.1875000000000016
 40
0.1875000000000016
 40
0.2500000000000017
 40
0.2500000000000017
 40
0.3750000000000024
 40
0.3750000000000024
 40
0.4375000000000026
 40
0.4375000000000026
 40
0.5000000000000028
 40
0.5000000000000028
 40
0.625000000000003
 40
0.625000000000003
 40
0.6875000000000026
 40
0.6875000000000026
 40
0.750000000000002
 40
0.8125000000000016
 40
0.8125000000000016
 40
0.8750000000000011
 40
0.8750000000000011
 40
1.0
 40
1.0
 40
1.0
 40
1.0
 10
-7.07106781186561
 20
-121.4374147375378
 30
0.0
 10
-6.603777977379276
 20
-121.6983549281179
 30
0.0
 10
-6.098405001256451
 20
-121.934244607288
 30
0.0
 10
-5.28553651671616
 20
-122.2517479896335
 30
0.0
 10
-5.005377590839299
 20
-122.3514773799795
 30
0.0
 10
-4.426229922350429
 20
-122.5383349395127
 30
0.0
 10
-4.126378390669784
 20
-122.6255870878363
 30
0.0
 10
-3.217970003345568
 20
-122.8623709573447
 30
0.0
 10
-2.594690721226086
 20
-122.9893137395337
 30
0.0
 10
-1.633459584973268
 20
-123.1327169742277
 30
0.0
 10
-1.307281714602565
 20
-123.1727488357756
 30
0.0
 10
-0.6519968217869009
 20
-123.2356217050035
 30
0.0
 10
-0.3252871497972723
 20
-123.25830966663
 30
0.0
 10
0.6521492988832666
 20
-123.3006419019674
 30
0.0
 10
1.300218043371413
 20
-123.2946756988071
 30
0.0
 10
2.267099936154434
 20
-123.2293490109514
 30
0.0
 10
2.587668987844047
 20
-123.1982050862785
 30
0.0
 10
3.213102973708574
 20
-123.1187155114387
 30
0.0
 10
3.826323106123738
 20
-123.0218268044107
 30
0.0
 10
4.415445804320218
 20
-122.8907146461789
 30
0.0
 10
4.992336229943592
 20
-122.7423004281279
 30
0.0
 10
5.27591174964424
 20
-122.6590043094861
 30
0.0
 10
6.097072353149061
 20
-122.3857277115218
 30
0.0
 10
6.604343924856135
 20
-122.1734217471703
 30
0.0
 10
7.071067811865468
 20
-121.9310872229624
 30
0.0
  0
SPLINE
  5
120
330
113
100
AcDbEntity
  8
0
  6
Continuous
 62
     7
370
    25
100
AcDbSpline
210
0.0
220
0.0
230
1.0
 70
     8
 71
     3
 72
    18
 73
    14
 74
     0
 42
0.000000001
 43
0.00000001
 40
0.0
 40
0.0
 40
0.0
 40
0.0
 40
0.125
 40
0.125
 40
0.2500000000000001
 40
0.2500000000000001
 40
0.5000000000000001
 40
0.5000000000000001
 40
0.75
 40
0.75
 40
0.8750000000000001
 40
0.8750000000000001
 40
1.0
 40
1.0
 40
1.0
 40
1.0
 10
7.071067811865447
 20
-121.9310872229624
 30
0.0
 10
8.837271079977903
 20
-121.0140310350415
 30
0.0
 10
10.60426254310675
 20
-120.0648264183258
 30
0.0
 10
14.13910700416519
 20
-118.1312774166686
 30
0.0
 10
15.90699910659992
 20
-117.1465648298556
 30
0.0
 10
21.21122301293356
 20
-114.1620811307992
 30
0.0
 10
24.74771444116672
 20
-112.1315433067141
 30
0.0
 10
31.82057673139257
 20
-108.0484676129528
 30
0.0
 10
35.35709549926676
 20
-105.9958440865984
 30
0.0
 10
40.66128355856368
 20
-102.8562253729758
 30
0.0
 10
42.42931019996776
 20
-101.799694363048
 30
0.0
 10
45.96435504616109
 20
-99.65187741487334
 30
0.0
 10
47.73137468111454
 20
-98.5609369575682
 30
0.0
 10
49.49747468305825
 20
-97.43884386828111
 30
0.0
  0
SPLINE
  5
121
330
113
100
AcDbEntity
  8
0
  6
Continuous
 62
     7
370
    25
100
AcDbSpline
210
0.0
220
0.0
230
1.0
 70
     8
 71
     3
 72
    27
 73
    23
 74
     0
 42
0.000000001
 43
0.00000001
 40
0.0
 40
0.0
 40
0.0
 40
0.0
 40
0.1249999999999986
 40
0.1249999999999986
 40
0.1874999999999986
 40
0.1874999999999986
 40
0.2499999999999986
 40
0.2499999999999986
 40
0.3749999999999987
 40
0.3749999999999987
 40
0.4999999999999988
 40
0.4999999999999988
 40
0.6249999999999989
 40
0.6249999999999989
 40
0.6874999999999994
 40
0.6874999999999994
 40
0.7499999999999998
 40
0.8125000000000002
 40
0.8125000000000002
 40
0.8750000000000007
 40
0.8750000000000007
 40
1.0
 40
1.0
 40
1.0
 40
1.0
 10
49.49747468305826
 20
-97.43884386828113
 30
0.0
 10
49.96422550590125
 20
-97.14229334897037
 30
0.0
 10
50.37738886325344
 20
-96.82339238798846
 30
0.0
 10
50.92005939112165
 20
-96.31240646740687
 30
0.0
 10
51.08800863772956
 20
-96.13659991414475
 30
0.0
 10
51.39744338117401
 20
-95.77371183915342
 30
0.0
 10
51.53917979676486
 20
-95.585984734929
 30
0.0
 10
51.91520913585426
 20
-95.01769545766705
 30
0.0
 10
52.10424727568493
 20
-94.62855450742616
 30
0.0
 10
52.36022513867564
 20
-93.82960599355097
 30
0.0
 10
52.42591379628769
 20
-93.41646754975383
 30
0.0
 10
52.42689428833933
 20
-92.60742358073395
 30
0.0
 10
52.36427818855291
 20
-92.20762453350376
 30
0.0
 10
52.17338646805219
 20
-91.61634623467057
 30
0.0
 10
52.09322873353006
 20
-91.42068124634054
 30
0.0
 10
51.90377458092963
 20
-91.04106750450167
 30
0.0
 10
51.68457233121497
 20
-90.67090462474502
 30
0.0
 10
51.40678001343109
 20
-90.3196841348305
 30
0.0
 10
51.09929568184467
 20
-89.9782035293487
 30
0.0
 10
50.92992562781453
 20
-89.81167129483454
 30
0.0
 10
50.3811990206098
 20
-89.33245856198691
 30
0.0
 10
49.96479072089158
 20
-89.04205535238434
 30
0.0
 10
49.49747468305828
 20
-88.78110203608968
 30
0.0
  0
SPLINE
  5
122
330
113
100
AcDbEntity
  8
0
  6
Continuous
 62
     7
370
    25
100
AcDbSpline
210
0.0
220
0.0
230
1.0
 70
     8
 71
     3
 72
    10
 73
     6
 74
     0
 42
0.000000001
 43
0.00000001
 40
0.0
 40
0.0
 40
0.0
 40
0.0
 40
0.5
 40
0.5
 40
1.0
 40
1.0
 40
1.0
 40
1.0
 10
49.49747468305829
 20
-88.78110203608966
 30
0.0
 10
42.42695154067911
 20
-84.83286077628455
 30
0.0
 10
35.35606322023072
 20
-80.83751442414726
 30
0.0
 10
21.21294019418206
 20
-72.67287328816467
 30
0.0
 10
14.14166220723982
 20
-68.5041177301094
 30
0.0
 10
7.071067811865603
 20
-64.28886114344317
 30
0.0
  0
SPLINE
  5
123
330
113
100
AcDbEntity
  8
0
  6
Continuous
 62
     7
370
    25
100
AcDbSpline
210
0.0
220
0.0
230
1.0
 70
     8
 71
     3
 72
    29
 73
    25
 74
     0
 42
0.000000001
 43
0.00000001
 40
0.0
 40
0.0
 40
0.0
 40
0.0
 40
0.1250000000000006
 40
0.1250000000000006
 40
0.1875000000000017
 40
0.1875000000000017
 40
0.2500000000000028
 40
0.2500000000000028
 40
0.3750000000000042
 40
0.3750000000000042
 40
0.437500000000004
 40
0.437500000000004
 40
0.5000000000000038
 40
0.5000000000000038
 40
0.6250000000000023
 40
0.6250000000000023
 40
0.687500000000002
 40
0.687500000000002
 40
0.7500000000000017
 40
0.8125000000000013
 40
0.8125000000000013
 40
0.8750000000000009
 40
0.8750000000000009
 40
1.0
 40
1.0
 40
1.0
 40
1.0
 10
7.071067811865613
 20
-64.28886114344317
 30
0.0
 10
6.603778011376092
 20
-64.01027828332549
 30
0.0
 10
6.098405055915072
 20
-63.76858580506031
 30
0.0
 10
5.285536571730871
 20
-63.45885996015009
 30
0.0
 10
5.005377640886842
 20
-63.36448073626003
 30
0.0
 10
4.42622995042746
 20
-63.19374631526195
 30
0.0
 10
4.126378408316453
 20
-63.11733003740856
 30
0.0
 10
3.217969993451909
 20
-62.92010727943121
 30
0.0
 10
2.59469068388302
 20
-62.8290083457078
 30
0.0
 10
1.633459496623843
 20
-62.7513057523611
 30
0.0
 10
1.30728159619754
 20
-62.73528173641493
 30
0.0
 10
0.6519967055186384
 20
-62.72367881256742
 30
0.0
 10
0.3252870351941259
 20
-62.72804912510497
 30
0.0
 10
-0.6521494093769987
 20
-62.77044039721069
 30
0.0
 10
-1.3002181542172
 20
-62.83733042200221
 30
0.0
 10
-2.267100080647906
 20
-62.99333587723441
 30
0.0
 10
-2.587669098711932
 20
-63.05483543223778
 30
0.0
 10
-3.213103049296631
 20
-63.19419298657999
 30
0.0
 10
-3.826323159674509
 20
-63.35042927815912
 30
0.0
 10
-4.415445859153253
 20
-63.54005144915735
 30
0.0
 10
-4.992336296493094
 20
-63.74667806586819
 30
0.0
 10
-5.275911831804001
 20
-63.85906304596291
 30
0.0
 10
-6.097072381790191
 20
-64.21828066970616
 30
0.0
 10
-6.604343933676249
 20
-64.48598599536984
 30
0.0
 10
-7.07106781186544
 20
-64.78251939537269
 30
0.0
  0
SPLINE
  5
124
330
113
100
AcDbEntity
  8
0
  6
Continuous
 62
     7
370
    25
100
AcDbSpline
210
0.0
220
0.0
230
1.0
 70
     8
 71
     3
 72
    18
 73
    14
 74
     0
 42
0.000000001
 43
0.00000001
 40
0.0
 40
0.0
 40
0.0
 40
0.0
 40
0.125
 40
0.125
 40
0.25
 40
0.25
 40
0.5
 40
0.5
 40
0.75
 40
0.75
 40
0.875
 40
0.875
 40
1.0
 40
1.0
 40
1.0
 40
1.0
 10
-7.071067811865433
 20
-64.7825193953727
 30
0.0
 10
-8.837159638783998
 20
-65.90460729065079
 30
0.0
 10
-10.60418647571977
 20
-66.99555245088595
 30
0.0
 10
-14.13926258299141
 20
-69.14338819237439
 30
0.0
 10
-15.90728058712835
 20
-70.19991370342811
 30
0.0
 10
-21.21139456357524
 20
-73.33948860247875
 30
0.0
 10
-24.74790218693822
 20
-75.39210616967748
 30
0.0
 10
-31.82072208137865
 20
-79.47515792564782
 30
0.0
 10
-35.35721086781952
 20
-81.50569404115232
 30
0.0
 10
-40.66131200449191
 20
-84.49011091791535
 30
0.0
 10
-42.42934154818249
 20
-85.47490148203946
 30
0.0
 10
-45.96435181102402
 20
-87.40854132760298
 30
0.0
 10
-47.73136404270839
 20
-88.35775465674602
 30
0.0
 10
-49.49747468305824
 20
-89.27476275005385
 30
0.0
  0
LINE
  5
135
330
113
100
AcDbEntity
  8
0
  6
Continuous
 62
     7
370
    25
100
AcDbLine
 10
47.4264068712
 20
-98.7146065054
 30
0.0
 11
47.4264068712
 21
-93.9021933669
 31
0.0
  0
LINE
  5
136
330
113
100
AcDbEntity
  8
0
  6
Continuous
 62
     7
370
    25
100
AcDbLine
 10
-47.4264068712
 20
-93.9021933669
 30
0.0
 11
-47.4264068712
 21
-98.1685698882
 31
0.0
  0
LINE
  5
137
330
113
100
AcDbEntity
  8
0
  6
Continuous
 62
     7
370
    25
100
AcDbLine
 10
-3.5355339059
 20
-67.3689297326
 30
0.0
 11
-45.9619407771
 21
-91.8611730873
 31
0.0
  0
LINE
  5
138
330
113
100
AcDbEntity
  8
0
  6
Continuous
 62
     7
370
    25
100
AcDbLine
 10
45.9619407771
 20
-91.8611730873
 30
0.0
 11
3.5355339059
 21
-67.3689297326
 31
0.0
  0
LINE
  5
139
330
113
100
AcDbEntity
  8
0
  6
Continuous
 62
     7
370
    25
100
AcDbLine
 10
3.5355339059
 20
-120.4354570011
 30
0.0
 11
45.9619407771
 21
-95.9432136464
 31
0.0
  0
LINE
  5
13A
330
113
100
AcDbEntity
  8
0
  6
Continuous
 62
     7
370
    25
100
AcDbLine
 10
-45.9619407771
 20
-95.9432136464
 30
0.0
 11
-3.5355339059
 21
-120.4354570011
 31
0.0
  0
LINE
  5
13B
330
113
100
AcDbEntity
  8
0
  6
Continuous
 62
    60
370
    25
100
AcDbLine
 10
-49.4974746831
 20
-89.2747627501
 30
0.0
 11
-49.4974746831
 21
-96.9451713829
 31
0.0
  0
LINE
  5
13C
330
113
100
AcDbEntity
  8
0
  6
Continuous
 62
    60
370
    25
100
AcDbLine
 10
49.4974746831
 20
-88.7811020361
 30
0.0
 11
49.4974746831
 21
-97.4388438683
 31
0.0
  0
LINE
  5
13D
330
113
100
AcDbEntity
  8
0
  6
Continuous
 62
    60
370
    25
100
AcDbLine
 10
7.0710678119
 20
-64.2888611434
 30
0.0
 11
7.0710678119
 21
-69.4099500122
 31
0.0
  0
LINE
  5
13E
330
113
100
AcDbEntity
  8
0
  6
Continuous
 62
    60
370
    25
100
AcDbLine
 10
-7.0710678119
 20
-64.7825193954
 30
0.0
 11
-7.0710678119
 21
-69.4099500122
 31
0.0
  0
LINE
  5
13F
330
113
100
AcDbEntity
  8
0
  6
Continuous
 62
    60
370
    25
100
AcDbLine
 10
3.5355339059
 20
-122.9800159113
 30
0.0
 11
3.5355339059
 21
-120.4354570011
 31
0.0
  0
LINE
  5
140
330
113
100
AcDbEntity
  8
0
  6
Continuous
 62
    60
370
    25
100
AcDbLine
 10
-3.5355339059
 20
-122.7181526183
 30
0.0
 11
-3.5355339059
 21
-120.4354570011
 31
0.0
  0
LINE
  5
141
330
113
100
AcDbEntity
  8
0
  6
Continuous
 62
    60
370
    25
100
AcDbLine
 10
45.9619407771
 20
-99.6167069174
 30
0.0
 11
45.9619407771
 21
-95.9432136464
 31
0.0
  0
LINE
  5
142
330
113
100
AcDbEntity
  8
0
  6
Continuous
 62
    60
370
    25
100
AcDbLine
 10
-45.9619407771
 20
-99.0336432674
 30
0.0
 11
-45.9619407771
 21
-95.9432136464
 31
0.0
  0
ARC
  5
143
330
113
100
AcDbEntity
  8
0
  6
Continuous
 62
     7
370
    25
100
AcDbCircle
 10
0.0
 20
-113.6119015763
 30
0.0
 40
7.685109539558551
100
AcDbArc
 50
242.6096722366
 51
297.3903277634
  0
ARC
  5
144
330
113
100
AcDbEntity
  8
0
  6
Continuous
 62
     7
370
    25
100
AcDbCircle
 10
0.0
 20
-74.1924851574
 30
0.0
 40
7.685109539558579
100
AcDbArc
 50
62.6096722366
 51
117.3903277634
  0
ARC
  5
145
330
113
100
AcDbEntity
  8
0
  6
Continuous
 62
     7
370
    25
100
AcDbCircle
 10
45.1873056431
 20
-93.9021933669
 30
0.0
 40
2.183076584171358
100
AcDbArc
 50
290.7834207995
 51
69.2165792005
  0
ARC
  5
146
330
113
100
AcDbEntity
  8
0
  6
Continuous
 62
     7
370
    25
100
AcDbCircle
 10
-45.1873056431
 20
-93.9021933669
 30
0.0
 40
2.183076584171359
100
AcDbArc
 50
110.7834207995
 51
249.2165792005
  0
VIEWPORT
  5
18E
330
113
100
AcDbEntity
  8
0
100
AcDbViewport
 10
0.0
 20
0.0
 30
0.0
 40
205.6
 41
156.0
 68
     1
 69
     1
 12
0.0
 22
0.0
 13
0.0
 23
0.0
 14
10.0
 24
10.0
 15
10.0
 25
10.0
 16
0.0
 26
0.0
 36
1.0
 17
0.0
 27
0.0
 37
0.0
 42
50.0
 43
0.0
 44
0.0
 45
414.0525291829
 50
0.0
 51
0.0
 72
   100
 90
   557152
  1

281
     0
 71
     1
 74
     0
110
0.0
120
0.0
130
0.0
111
1.0
121
0.0
131
0.0
112
0.0
122
1.0
132
0.0
 79
     0
146
0.0
  0
ENDBLK
  5
116
330
113
100
AcDbEntity
  8
0
100
AcDbBlockEnd
  0
BLOCK
  5
149
330
147
100
AcDbEntity
  8
0
100
AcDbBlockBegin
  2
*Paper_Space6
 70
     0
 10
0.0
 20
0.0
 30
0.0
  3
*Paper_Space6
  1

  0
SPLINE
  5
14B
330
147
100
AcDbEntity
  8
0
  6
Continuous
 62
     7
370
    25
100
AcDbSpline
210
0.0
220
0.0
230
1.0
 70
     8
 71
     3
 72
   149
 73
   145
 74
     0
 42
0.000000001
 43
0.00000001
 40
0.0
 40
0.0
 40
0.0
 40
0.0
 40
0.0063119674084807
 40
0.0114088966069587
 40
0.0152895385073471
 40
0.0183550580604963
 40
0.0209468172283377
 40
0.0250142066762909
 40
0.0310963753816972
 40
0.0379444220237431
 40
0.0433776052536164
 40
0.0477943703786498
 40
0.0509797678888396
 40
0.0544699026310813
 40
0.0591388944739179
 40
0.0640820527017844
 40
0.067816521351581
 40
0.0712119725543204
 40
0.0756586164584277
 40
0.0806862440030372
 40
0.0852360280332379
 40
0.0892690724944952
 40
0.0927732234463574
 40
0.0964098391414107
 40
0.1010961337951758
 40
0.1074769451427016
 40
0.1132037329446263
 40
0.117881238538496
 40
0.1223987005957446
 40
0.1285690534002201
 40
0.135025916124465
 40
0.1405505052677013
 40
0.1452074887370488
 40
0.1506518573734879
 40
0.1572406214317414
 40
0.1639977630915005
 40
0.1694518428086733
 40
0.1738152622833888
 40
0.178102951086269
 40
0.1831197742438034
 40
0.1896097865070082
 40
0.1972317118074509
 40
0.204124524564829
 40
0.2095447480360383
 40
0.2146750632582235
 40
0.2199872206343594
 40
0.2247042009531568
 40
0.2290328074936049
 40
0.2329394303049099
 40
0.2388229152626688
 40
0.2461728971244581
 40
0.2546547280696637
 40
0.2623533326973174
 40
0.2693289362080105
 40
0.2752098161570979
 40
0.2805816326904676
 40
0.2912302632039213
 40
0.3032793621626503
 40
0.3158747855022592
 40
0.3316743779391295
 40
0.3461822947780815
 40
0.3605837681572938
 40
0.3768122675104222
 40
0.3886503244919314
 40
0.4012931241058119
 40
0.4147284281496762
 40
0.4289407137907157
 40
0.4434683229499967
 40
0.4571664483793416
 40
0.4721660447502693
 40
0.4859236864801469
 40
0.4984400335622954
 40
0.5097195150858717
 40
0.5211003802761079
 40
0.5334783750134297
 40
0.547068393631032
 40
0.5618869487536874
 40
0.5771175823707833
 40
0.588671585532498
 40
0.599786549759012
 40
0.6104256576389956
 40
0.6203985590179115
 40
0.6295355479183807
 40
0.6360649498311913
 40
0.6438588696733543
 40
0.6528783945846417
 40
0.6607984547587296
 40
0.6686924990809336
 40
0.6776316819071255
 40
0.6857445858347423
 40
0.692294884895369
 40
0.7014299598012452
 40
0.7104054710706375
 40
0.7168132966882236
 40
0.7246365650640125
 40
0.7339005401424904
 40
0.7424067109109426
 40
0.7498461657500608
 40
0.7535297160972529
 40
0.7572593158731891
 40
0.7610636792733325
 40
0.7645987325172043
 40
0.7675100297130167
 40
0.7704041682166544
 40
0.7780986522588061
 40
0.7864477664820432
 40
0.7938325761122742
 40
0.8010231146918045
 40
0.8095960749493596
 40
0.8189853755447495
 40
0.8284165409452301
 40
0.8349812915550021
 40
0.8405825035296485
 40
0.8466819703146058
 40
0.8538245307681024
 40
0.861020094301725
 40
0.8676178938061347
 40
0.8736624692800403
 40
0.8771998101928544
 40
0.8810224005480872
 40
0.8861041578886039
 40
0.8913437678260199
 40
0.8954802351921876
 40
0.8988355437547183
 40
0.9019969334895641
 40
0.9054700068150252
 40
0.910175422562454
 40
0.9172888525591074
 40
0.9220232903255156
 40
0.92642975354563
 40
0.9318098886572724
 40
0.9374773999087452
 40
0.9440931680947259
 40
0.9495838795123677
 40
0.9536667006083998
 40
0.958061736022713
 40
0.9630371133209613
 40
0.9683584766289641
 40
0.972986971247948
 40
0.9767841426720152
 40
0.9808777407288292
 40
0.9860739323540177
 40
0.9924352584565258
 40
1.0
 40
1.0
 40
1.0
 40
1.0
 10
-273.0139758849733
 20
10.44699134082054
 30
0.0
 10
-272.8209403031985
 20
8.912297211748202
 30
0.0
 10
-272.4720280146187
 20
6.138333800852269
 30
0.0
 10
-271.8260202335165
 20
2.44594405091425
 30
0.0
 10
-271.2419222333177
 20
-0.4481759656516093
 30
0.0
 10
-270.7277846546231
 20
-2.729894338285265
 30
0.0
 10
-270.1629112171767
 20
-5.04691694832611
 30
0.0
 10
-269.3598967100437
 20
-8.0684001612049
 30
0.0
 10
-268.163562187466
 20
-12.06605864947208
 30
0.0
 10
-266.7044650494935
 20
-16.33172005276767
 30
0.0
 10
-265.2383929328715
 20
-20.16073618426981
 30
0.0
 10
-264.0088575046839
 20
-23.11699225598535
 30
0.0
 10
-262.9083245745606
 20
-25.6091885658461
 30
0.0
 10
-261.7345123200994
 20
-28.13712839501338
 30
0.0
 10
-260.3121549520775
 20
-31.02572010780579
 30
0.0
 10
-258.7856776603226
 20
-33.92861651591192
 30
0.0
 10
-257.3432308787355
 20
-36.52098595812927
 30
0.0
 10
-255.9121742342248
 20
-38.98043653023794
 30
0.0
 10
-254.2642736638674
 20
-41.68121697640425
 30
0.0
 10
-252.3960587139846
 20
-44.57885512021856
 30
0.0
 10
-250.5141796097059
 20
-47.34560755249841
 30
0.0
 10
-248.7900238005452
 20
-49.7657289099903
 30
0.0
 10
-247.1544102059271
 20
-51.97254785312245
 30
0.0
 10
-245.3825848080272
 20
-54.27718531997743
 30
0.0
 10
-243.1222041317511
 20
-57.09726286038197
 30
0.0
 10
-240.4552193783598
 20
-60.24886555863321
 30
0.0
 10
-237.7022734016047
 20
-63.32354886924355
 30
0.0
 10
-235.1853933093392
 20
-65.99144411773389
 30
0.0
 10
-232.5372797428272
 20
-68.6732931624064
 30
0.0
 10
-229.5011472357148
 20
-71.59086514015661
 30
0.0
 10
-226.1943945314371
 20
-74.5788620788328
 30
0.0
 10
-223.0853438008528
 20
-77.22999165079422
 30
0.0
 10
-220.1060076272842
 20
-79.64900715998552
 30
0.0
 10
-216.8625287167559
 20
-82.15769414367463
 30
0.0
 10
-213.1340595850383
 20
-84.87953178034954
 30
0.0
 10
-209.3224596317989
 20
-87.48901645756175
 30
0.0
 10
-205.9012180503211
 20
-89.6970312653029
 30
0.0
 10
-202.9494783780934
 20
-91.51308247732747
 30
0.0
 10
-200.0566950862382
 20
-93.21876154854371
 30
0.0
 10
-196.6748027276096
 20
-95.12281778796557
 30
0.0
 10
-192.5243005134337
 20
-97.32812133621232
 30
0.0
 10
-187.8979952540365
 20
-99.61451052302917
 30
0.0
 10
-183.4460557215985
 20
-101.6528192537375
 30
0.0
 10
-179.508532461876
 20
-103.3390782615397
 30
0.0
 10
-175.897606818632
 20
-104.7967559145142
 30
0.0
 10
-172.4201092837602
 20
-106.1183690508244
 30
0.0
 10
-169.1051353471679
 20
-107.3045749626177
 30
0.0
 10
-166.0938916527692
 20
-108.3239548044577
 30
0.0
 10
-162.7786832726285
 20
-109.3849989729564
 30
0.0
 10
-158.803826097471
 20
-110.5819638147738
 30
0.0
 10
-153.8796735004954
 20
-111.9556214940472
 30
0.0
 10
-148.6620736022838
 20
-113.3697372240311
 30
0.0
 10
-143.5559030768586
 20
-114.7574384292195
 30
0.0
 10
-139.0719511451071
 20
-115.9714532912126
 30
0.0
 10
-135.172208043731
 20
-117.027165651662
 30
0.0
 10
-130.5848936833438
 20
-118.2691613196821
 30
0.0
 10
-124.6521390468816
 20
-119.8757807776817
 30
0.0
 10
-117.1831518780295
 20
-121.8989717057104
 30
0.0
 10
-108.5974721260585
 20
-124.2253135349532
 30
0.0
 10
-99.46492560793256
 20
-126.7006203771199
 30
0.0
 10
-89.914010180415
 20
-129.2902058888676
 30
0.0
 10
-80.22018461820961
 20
-131.9193879554096
 30
0.0
 10
-71.04560069011897
 20
-134.408642653629
 30
0.0
 10
-62.21906851791
 20
-136.8045550519903
 30
0.0
 10
-53.97473345985026
 20
-139.0435443086725
 30
0.0
 10
-45.19137776852673
 20
-141.4306681153841
 30
0.0
 10
-35.97473130195155
 20
-143.9374206511087
 30
0.0
 10
-26.68079318894059
 20
-146.4667248678297
 30
0.0
 10
-17.19612631159548
 20
-149.0491859010564
 30
0.0
 10
-7.859776618120047
 20
-151.5922381355342
 30
0.0
 10
1.239419752942464
 20
-154.0714337877049
 30
0.0
 10
9.540703592260918
 20
-156.3337719528575
 30
0.0
 10
17.33986079432625
 20
-158.4596312097608
 30
0.0
 10
25.13544086129384
 20
-160.5851528396208
 30
0.0
 10
33.35238159319022
 20
-162.825737085869
 30
0.0
 10
42.25939944701501
 20
-165.255880637349
 30
0.0
 10
51.74326580796509
 20
-167.826123840312
 30
0.0
 10
60.68334381719043
 20
-170.2824326052885
 30
0.0
 10
69.15340883753134
 20
-172.071940284842
 30
0.0
 10
76.87072683407935
 20
-173.190092867961
 30
0.0
 10
84.38675875147636
 20
-173.8678710472095
 30
0.0
 10
91.46883785385224
 20
-174.1462541977062
 30
0.0
 10
97.5696440345401
 20
-174.1050403029234
 30
0.0
 10
103.1818251250892
 20
-173.8557785886493
 30
0.0
 10
108.8374355128328
 20
-173.3827249660837
 30
0.0
 10
114.8531749573015
 20
-172.6770718529667
 30
0.0
 10
120.8882430971262
 20
-171.7941136146109
 30
0.0
 10
126.881396859832
 20
-170.7358147130656
 30
0.0
 10
132.8849794524437
 20
-169.4761464190192
 30
0.0
 10
138.5163152889083
 20
-168.0948974442282
 30
0.0
 10
144.1465767873629
 20
-166.5318744552881
 30
0.0
 10
149.9231806875842
 20
-164.7153399307665
 30
0.0
 10
155.5664024076016
 20
-162.6798035029587
 30
0.0
 10
160.835911533284
 20
-160.5530663079551
 30
0.0
 10
166.0904239478794
 20
-158.207396674285
 30
0.0
 10
171.6888704448367
 20
-155.3936198739343
 30
0.0
 10
177.059991152614
 20
-152.3425189274831
 30
0.0
 10
181.1248835880306
 20
-149.7650553551921
 30
0.0
 10
184.1313848510679
 20
-147.7052348464114
 30
0.0
 10
186.3629105392193
 20
-146.0955820941737
 30
0.0
 10
188.5165027171169
 20
-144.4578153528339
 30
0.0
 10
190.4643825594701
 20
-142.8992231129129
 30
0.0
 10
192.1206611991567
 20
-141.5036983936919
 30
0.0
 10
194.2833305526708
 20
-139.6586670848631
 30
0.0
 10
196.9736370808615
 20
-137.3249777558021
 30
0.0
 10
200.1442613982203
 20
-134.5222652477138
 30
0.0
 10
203.2676013004864
 20
-131.7062320423059
 30
0.0
 10
206.4157320254246
 20
-128.8146256655156
 30
0.0
 10
209.8296790693906
 20
-125.6145370151493
 30
0.0
 10
213.5194613836884
 20
-122.0745152152654
 30
0.0
 10
216.9261493181721
 20
-118.7247738202786
 30
0.0
 10
219.7933869782931
 20
-115.8479253689536
 30
0.0
 10
222.2051422219266
 20
-113.3920297592124
 30
0.0
 10
224.6812758167306
 20
-110.8352848375354
 30
0.0
 10
227.340482837079
 20
-108.0475274952139
 30
0.0
 10
230.0522092480922
 20
-105.1593119499725
 30
0.0
 10
232.5593613699743
 20
-102.4497103831423
 30
0.0
 10
234.7176945478214
 20
-100.089197850985
 30
0.0
 10
236.7116020319599
 20
-97.87822047302116
 30
0.0
 10
238.6665620815606
 20
-95.68430976132873
 30
0.0
 10
240.8956781650066
 20
-93.05915791856519
 30
0.0
 10
243.1157280569846
 20
-90.30381562202142
 30
0.0
 10
245.0160660903134
 20
-87.82903938323588
 30
0.0
 10
246.5710495397257
 20
-85.723626479189
 30
0.0
 10
247.995859783033
 20
-83.72709285728624
 30
0.0
 10
249.575902727208
 20
-81.43324517722378
 30
0.0
 10
251.642872208342
 20
-78.29617381921473
 30
0.0
 10
253.7779348007009
 20
-74.83512186507446
 30
0.0
 10
255.7701530099847
 20
-71.37715879019841
 30
0.0
 10
257.4781265181013
 20
-68.24629241027384
 30
0.0
 10
259.2122031324673
 20
-64.8693600970575
 30
0.0
 10
261.0843483174788
 20
-60.95431572563795
 30
0.0
 10
262.8424415628521
 20
-56.95706896484247
 30
0.0
 10
264.3282797206064
 20
-53.26862099781054
 30
0.0
 10
265.5306064538499
 20
-50.05466196339324
 30
0.0
 10
266.6197075222756
 20
-46.93388936307253
 30
0.0
 10
267.7247337858328
 20
-43.49750354533187
 30
0.0
 10
268.7520170625857
 20
-39.97695483911355
 30
0.0
 10
269.6121595673401
 20
-36.71065712750769
 30
0.0
 10
270.3281917404021
 20
-33.71934876981562
 30
0.0
 10
271.0109847334835
 20
-30.57663302290551
 30
0.0
 10
271.7308297238218
 20
-26.79829591707795
 30
0.0
 10
272.4781570733703
 20
-22.15806385586935
 30
0.0
 10
272.856102387558
 20
-18.75769077745723
 30
0.0
 10
273.0614050395399
 20
-16.91058331370765
 30
0.0
  0
SPLINE
  5
14C
330
147
100
AcDbEntity
  8
0
  6
Continuous
 62
     7
370
    25
100
AcDbSpline
210
0.0
220
0.0
230
1.0
 70
     8
 71
     3
 72
    43
 73
    39
 74
     0
 42
0.000000001
 43
0.00000001
 40
0.0
 40
0.0
 40
0.0
 40
0.0
 40
0.0356174365219647
 40
0.0759074995008649
 40
0.1208221238321442
 40
0.1699047323552206
 40
0.2179937101536052
 40
0.2538798778741282
 40
0.2881213754750731
 40
0.3207395689851411
 40
0.3517538997486944
 40
0.3804638622194349
 40
0.393989274279803
 40
0.4062986808833579
 40
0.4174039319768046
 40
0.4273156652203867
 40
0.4370685918236542
 40
0.4495017226332765
 40
0.4678076518714361
 40
0.490062069106226
 40
0.5150208679516552
 40
0.5373722099555371
 40
0.5611904439530876
 40
0.579917877341346
 40
0.5946034342528768
 40
0.6071683964607293
 40
0.629015793291229
 40
0.6536423670166647
 40
0.6849963384859182
 40
0.7192779675317855
 40
0.7561647513565162
 40
0.7956194457332277
 40
0.8375755954198821
 40
0.881946462904517
 40
0.9128764783393847
 40
0.9449249332573452
 40
0.9781414950054518
 40
0.9999999999999999
 40
0.9999999999999999
 40
0.9999999999999999
 40
0.9999999999999999
 10
245.1980463899951
 20
-51.19441727665637
 30
0.0
 10
244.0916725237427
 20
-52.25740425753311
 30
0.0
 10
241.7337803815461
 20
-54.52283073398849
 30
0.0
 10
237.6054957651293
 20
-58.5819304247252
 30
0.0
 10
232.8069313257283
 20
-63.29273522389028
 30
0.0
 10
227.4667482695712
 20
-68.52149079220868
 30
0.0
 10
222.4848302574778
 20
-73.37604767909512
 30
0.0
 10
218.0887486029164
 20
-77.6452380528397
 30
0.0
 10
214.2911922772858
 20
-81.32177514300551
 30
0.0
 10
210.7081823787232
 20
-84.7912703258389
 30
0.0
 10
207.3405589247544
 20
-88.0259558106972
 30
0.0
 10
204.7550437171287
 20
-90.57736291672136
 30
0.0
 10
202.7380830390591
 20
-92.39356517719175
 30
0.0
 10
201.3240355030327
 20
-93.5799199653208
 30
0.0
 10
200.0220057505034
 20
-94.61088882628762
 30
0.0
 10
198.8146464608262
 20
-95.51907229413347
 30
0.0
 10
197.5484580254378
 20
-96.42984452629743
 30
0.0
 10
195.8069433042473
 20
-97.62153086310556
 30
0.0
 10
193.3804233408442
 20
-99.16896961998101
 30
0.0
 10
190.1576130807266
 20
-101.046481176058
 30
0.0
 10
186.4889916079184
 20
-102.970494862809
 30
0.0
 10
182.6005310180179
 20
-104.8058178359057
 30
0.0
 10
178.9219761040457
 20
-106.3713599271701
 30
0.0
 10
175.7327596971471
 20
-107.6104401231981
 30
0.0
 10
172.9886037760309
 20
-108.6098094991662
 30
0.0
 10
169.8002869140566
 20
-109.6991604005882
 30
0.0
 10
165.8614455722258
 20
-110.9369113656699
 30
0.0
 10
160.4398102861417
 20
-112.4533533877982
 30
0.0
 10
153.9023981893183
 20
-114.0256331902444
 30
0.0
 10
146.2189770324459
 20
-115.5419250762833
 30
0.0
 10
137.6810614287047
 20
-116.8438509860038
 30
0.0
 10
128.3335435161699
 20
-117.8417548198659
 30
0.0
 10
118.2319631807017
 20
-118.4536517912751
 30
0.0
 10
108.7354205140197
 20
-118.5701191435568
 30
0.0
 10
100.050064414766
 20
-118.3153556186859
 30
0.0
 10
92.31634955531375
 20
-117.8007288864167
 30
0.0
 10
85.36174585677169
 20
-117.1289634053285
 30
0.0
 10
81.07467558901477
 20
-116.4775526736274
 30
0.0
 10
79.37319881554828
 20
-116.2190170862095
 30
0.0
  0
SPLINE
  5
14D
330
147
100
AcDbEntity
  8
0
  6
Continuous
 62
     7
370
    25
100
AcDbSpline
210
0.0
220
0.0
230
1.0
 70
     8
 71
     3
 72
    60
 73
    56
 74
     0
 42
0.000000001
 43
0.00000001
 40
0.0
 40
0.0
 40
0.0
 40
0.0
 40
0.0108954957912712
 40
0.0390414928374484
 40
0.0668357669911244
 40
0.1309152477130956
 40
0.1929936210229404
 40
0.2368943573113842
 40
0.2797517097506752
 40
0.3215714711610692
 40
0.3623592224835543
 40
0.4021203590990283
 40
0.4408460624628667
 40
0.4775043445271276
 40
0.5087333616836047
 40
0.5376973192665649
 40
0.5644013996557505
 40
0.5888500497466826
 40
0.6110469797123894
 40
0.6323932547505465
 40
0.6452988698877037
 40
0.6587919147262838
 40
0.6728721686530812
 40
0.6875392937315866
 40
0.7027161911661073
 40
0.7166164861657414
 40
0.7239822441270685
 40
0.730627322331438
 40
0.7383696681054861
 40
0.7485277152815816
 40
0.7600297516399701
 40
0.774175976065991
 40
0.787688699752617
 40
0.7997699675891777
 40
0.8121824510361131
 40
0.8266947055199294
 40
0.8398892471289693
 40
0.8543365353321059
 40
0.8654653400210942
 40
0.8721827466266449
 40
0.8807721338465055
 40
0.8910397734748305
 40
0.900827006401232
 40
0.9095611647131858
 40
0.9172299970769779
 40
0.925108520846758
 40
0.9325217348124127
 40
0.9396807778992071
 40
0.9483999446545632
 40
0.9590839407890313
 40
0.9700705292491683
 40
0.9790566605180651
 40
0.9865494592955366
 40
0.9942168608649778
 40
1.0
 40
1.0
 40
1.0
 40
1.0
 10
51.31491086536785
 20
-110.0309709705624
 30
0.0
 10
50.08462939338398
 20
-109.6906434402595
 30
0.0
 10
45.67619987382199
 20
-108.4711583345564
 30
0.0
 10
38.13182040786883
 20
-106.3853290986753
 30
0.0
 10
24.57933361014704
 20
-102.6397633395004
 30
0.0
 10
7.190421697849267
 20
-97.839170241591
 30
0.0
 10
-12.02750675428113
 20
-92.54588336852315
 30
0.0
 10
-28.85483878499288
 20
-87.92326918048623
 30
0.0
 10
-43.39765413250959
 20
-83.93834511811264
 30
0.0
 10
-57.59443914437119
 20
-80.0591823381603
 30
0.0
 10
-71.4469602084078
 20
-76.28552623626443
 30
0.0
 10
-84.95585322950764
 20
-72.61740443968579
 30
0.0
 10
-98.0022078127757
 20
-69.08532038612691
 30
0.0
 10
-110.0921110598901
 20
-65.82041238850007
 30
0.0
 10
-121.0877913228775
 20
-62.8569181009122
 30
0.0
 10
-130.9651939934795
 20
-60.19883659817381
 30
0.0
 10
-140.084856529346
 20
-57.74753937291246
 30
0.0
 10
-148.4471560258213
 20
-55.50174929282381
 30
0.0
 10
-156.2157049116966
 20
-53.41677366792536
 30
0.0
 10
-162.6740493246651
 20
-51.68408224259745
 30
0.0
 10
-168.1242804942839
 20
-50.22154243335113
 30
0.0
 10
-172.7414244234365
 20
-48.98239977959206
 30
0.0
 10
-177.5550032543262
 20
-47.69030283734846
 30
0.0
 10
-182.5565298044931
 20
-46.34748694919929
 30
0.0
 10
-187.5335482432058
 20
-45.01096357359111
 30
0.0
 10
-191.6781247084763
 20
-43.89775232679771
 30
0.0
 10
-194.8507566434093
 20
-43.04547099803413
 30
0.0
 10
-197.322954225822
 20
-42.38127750189227
 30
0.0
 10
-200.1082451844846
 20
-41.6329559674129
 30
0.0
 10
-203.4457614013134
 20
-40.73609165097941
 30
0.0
 10
-207.4893087117932
 20
-39.6501836781107
 30
0.0
 10
-211.7953555660383
 20
-38.49677728369976
 30
0.0
 10
-215.942020045031
 20
-37.21735073899054
 30
0.0
 10
-219.1584731517117
 20
-36.10885948875783
 30
0.0
 10
-222.2307230401536
 20
-34.96396938308775
 30
0.0
 10
-225.5890222669095
 20
-33.58636973192471
 30
0.0
 10
-228.7785790262796
 20
-32.13630963066197
 30
0.0
 10
-231.5539231686592
 20
-30.74969771961807
 30
0.0
 10
-233.7366119285817
 20
-29.55541118631871
 30
0.0
 10
-235.409847139766
 20
-28.58073501027993
 30
0.0
 10
-236.9424187468906
 20
-27.63887372667817
 30
0.0
 10
-238.5559090703495
 20
-26.57935040516403
 30
0.0
 10
-240.0693241208494
 20
-25.51210094542994
 30
0.0
 10
-241.3539691666856
 20
-24.54299650865594
 30
0.0
 10
-242.4651593037187
 20
-23.65200141669526
 30
0.0
 10
-243.4457079657176
 20
-22.81810587353018
 30
0.0
 10
-244.3418410055179
 20
-22.00987120514165
 30
0.0
 10
-245.2092858677014
 20
-21.18046399354211
 30
0.0
 10
-246.0877092622683
 20
-20.28416116019114
 30
0.0
 10
-246.9849498772545
 20
-19.29155361921056
 30
0.0
 10
-247.7813832727779
 20
-18.32191782510133
 30
0.0
 10
-248.4039870667489
 20
-17.48409502763793
 30
0.0
 10
-248.8518338238983
 20
-16.83217956253806
 30
0.0
 10
-249.2478140656257
 20
-16.19765990415671
 30
0.0
 10
-249.3767852668236
 20
-15.97388557106138
 30
0.0
 10
-249.4322371938
 20
-15.87767247959007
 30
0.0
  0
SPLINE
  5
14E
330
147
100
AcDbEntity
  8
0
  6
Continuous
 62
     7
370
    25
100
AcDbSpline
210
0.0
220
0.0
230
1.0
 70
     8
 71
     3
 72
    17
 73
    13
 74
     0
 42
0.000000001
 43
0.00000001
 40
0.0
 40
0.0
 40
0.0
 40
0.0
 40
0.0349859563522172
 40
0.0982066437669329
 40
0.2518185323025413
 40
0.3843614471980691
 40
0.4293675338514922
 40
0.4957370649084722
 40
0.585523762448039
 40
0.6991735544298544
 40
0.8371412050258927
 40
0.9999999999999999
 40
0.9999999999999999
 40
0.9999999999999999
 40
0.9999999999999999
 10
251.0011319180437
 20
-44.4090073240554
 30
0.0
 10
251.0013462675425
 20
-44.41063863368575
 30
0.0
 10
251.0019479531063
 20
-44.41521776944317
 30
0.0
 10
250.8579652108438
 20
-44.74010469855629
 30
0.0
 10
250.7259078712094
 20
-44.97847621610128
 30
0.0
 10
250.5362534924673
 20
-45.29635164888576
 30
0.0
 10
250.2995380067042
 20
-45.65072425294482
 30
0.0
 10
249.9062786066605
 20
-46.20514107340835
 30
0.0
 10
249.2731207257744
 20
-47.02041652389036
 30
0.0
 10
248.307319246436
 20
-48.1494977809265
 30
0.0
 10
246.944946747196
 20
-49.56583419771131
 30
0.0
 10
245.8116050333102
 20
-50.62241486087774
 30
0.0
 10
245.1980463899951
 20
-51.19441727665637
 30
0.0
  0
LWPOLYLINE
  5
150
330
147
100
AcDbEntity
  8
0
  6
Continuous
 62
     7
370
    25
100
AcDbPolyline
 90
       95
 70
   128
 43
0.0
 10
-77.0047391735
 20
-75.1589861227
 10
18.4579163278
 20
-101.1036903707
 10
29.1731123535
 20
-104.0158510516
 10
39.8883083791
 20
-106.9280117325
 10
50.6035044048
 20
-109.8401724134
 10
61.3431979013
 20
-112.720548313
 10
72.4152259198
 20
-115.1278039026
 10
83.830391366
 20
-116.9180349389
 10
95.5000654977
 20
-118.0853242514
 10
106.0406377571
 20
-118.5955161005
 10
116.6529991735
 20
-118.6019407358
 10
127.2662279029
 20
-118.101727567
 10
137.7776163397
 20
-117.0970673756
 10
148.0747654022
 20
-115.5917696377
 10
157.8748660747
 20
-113.6376516695
 10
167.270615987
 20
-111.238662996
 10
176.1701185693
 20
-108.4228551193
 10
184.503086775
 20
-105.2148385724
 10
192.3634700557
 20
-101.566084666
 10
199.5533244092
 20
-97.5520541048
 10
206.0235158548
 20
-93.1947344396
 10
211.7174260519
 20
-88.5173049853
 10
216.7919273862
 20
-83.6134455946
 10
236.5818475487
 20
-64.2978768279
 10
242.8786403277
 20
-58.1520140386
 10
249.1754331067
 20
-52.0061512492
 10
255.4722258857
 20
-45.8602884598
 10
261.7051119021
 20
-39.701365625
 10
265.8538238097
 20
-34.7206732988
 10
269.0847389067
 20
-29.597813079
 10
271.3929186116
 20
-24.3679595285
 10
272.7711516837
 20
-19.0625012389
 10
273.2091614843
 20
-13.6114054998
 10
272.6639069749
 20
-8.1407624104
 10
271.1359411068
 20
-2.6973054206
 10
268.6325809607
 20
2.660963809
 10
265.1658796117
 20
7.8765587019
 10
260.865919944
 20
12.8094344251
 10
255.7335513697
 20
17.506904577
 10
249.8201035631
 20
21.9268618435
 10
243.1675945176
 20
26.0427110294
 10
234.7297995177
 20
30.3365750746
 10
225.4407882353
 20
34.172724287
 10
215.3596636329
 20
37.5170633549
 10
204.7064971898
 20
40.4523846116
 10
194.0146797736
 20
43.3581914873
 10
152.011111353
 20
54.7738613564
 10
77.0047391735
 20
75.1589861227
 10
-18.4579163278
 20
101.1036903707
 10
-29.1731123535
 20
104.0158510516
 10
-39.8883083791
 20
106.9280117325
 10
-50.6035044048
 20
109.8401724134
 10
-61.3431979013
 20
112.720548313
 10
-72.4152259198
 20
115.1278039026
 10
-83.830391366
 20
116.9180349389
 10
-95.5000654977
 20
118.0853242514
 10
-106.0406377571
 20
118.5955161005
 10
-116.6529991735
 20
118.6019407358
 10
-127.2662279029
 20
118.101727567
 10
-137.7776163397
 20
117.0970673756
 10
-148.0747654022
 20
115.5917696377
 10
-157.8748660747
 20
113.6376516695
 10
-167.270615987
 20
111.238662996
 10
-176.1701185693
 20
108.4228551193
 10
-184.503086775
 20
105.2148385724
 10
-192.3634700557
 20
101.566084666
 10
-199.5533244092
 20
97.5520541048
 10
-206.0235158548
 20
93.1947344396
 10
-211.7174260519
 20
88.5173049853
 10
-216.7919273862
 20
83.6134455946
 10
-236.5818475487
 20
64.2978768279
 10
-242.8786403277
 20
58.1520140386
 10
-249.1754331067
 20
52.0061512492
 10
-255.4722258857
 20
45.8602884598
 10
-261.7051119021
 20
39.701365625
 10
-265.8538238097
 20
34.7206732988
 10
-269.0847389067
 20
29.597813079
 10
-271.3929186116
 20
24.3679595285
 10
-272.7711516837
 20
19.0625012389
 10
-273.2091614843
 20
13.6114054998
 10
-272.6639069749
 20
8.1407624104
 10
-271.1359411068
 20
2.6973054206
 10
-268.6325809607
 20
-2.660963809
 10
-265.1658796117
 20
-7.8765587019
 10
-260.865919944
 20
-12.8094344251
 10
-255.7335513698
 20
-17.506904577
 10
-249.8201035631
 20
-21.9268618435
 10
-243.1675945176
 20
-26.0427110294
 10
-234.7297995177
 20
-30.3365750746
 10
-225.4407882353
 20
-34.172724287
 10
-215.3596636329
 20
-37.5170633549
 10
-204.7064971898
 20
-40.4523846116
 10
-194.0146797736
 20
-43.3581914873
 10
-152.011111353
 20
-54.7738613564
 10
-77.0047391735
 20
-75.1589861227
  0
SPLINE
  5
151
330
147
100
AcDbEntity
  8
0
  6
Continuous
 62
     7
370
    25
100
AcDbSpline
210
0.0
220
0.0
230
1.0
 70
     8
 71
     3
 72
    11
 73
     7
 74
     0
 42
0.000000001
 43
0.00000001
 40
0.0
 40
0.0
 40
0.0
 40
0.0
 40
0.0582301560638719
 40
0.3336136715940542
 40
0.60899934874448
 40
0.9999999999999999
 40
0.9999999999999999
 40
0.9999999999999999
 40
0.9999999999999999
 10
37.30219810999994
 20
-106.1562090349914
 30
0.0
 10
37.53664197780392
 20
-105.9270544478396
 30
0.0
 10
38.87982366934884
 20
-104.6141762357583
 30
0.0
 10
41.3316761129505
 20
-102.1900104382611
 30
0.0
 10
45.12334118155673
 20
-98.40634214005824
 30
0.0
 10
47.80445131034411
 20
-95.59854695095486
 30
0.0
 10
49.37758653499871
 20
-93.95107955744199
 30
0.0
  0
SPLINE
  5
152
330
147
100
AcDbEntity
  8
0
  6
Continuous
 62
     7
370
    25
100
AcDbSpline
210
0.0
220
0.0
230
1.0
 70
     8
 71
     3
 72
    27
 73
    23
 74
     0
 42
0.000000001
 43
0.00000001
 40
0.0
 40
0.0
 40
0.0
 40
0.0
 40
0.1249999999999986
 40
0.1249999999999986
 40
0.1874999999999986
 40
0.1874999999999986
 40
0.2499999999999986
 40
0.2499999999999986
 40
0.3749999999999987
 40
0.3749999999999987
 40
0.4999999999999988
 40
0.4999999999999988
 40
0.6249999999999989
 40
0.6249999999999989
 40
0.6874999999999994
 40
0.6874999999999994
 40
0.7499999999999998
 40
0.8125000000000002
 40
0.8125000000000002
 40
0.8750000000000007
 40
0.8750000000000007
 40
1.0
 40
1.0
 40
1.0
 40
1.0
 10
49.37758653499868
 20
-93.95107955744197
 30
0.0
 10
49.68564532130337
 20
-93.6219553394356
 30
0.0
 10
49.93130232699192
 20
-93.28184375380481
 30
0.0
 10
50.21004779092456
 20
-92.75535641001028
 30
0.0
 10
50.28789541685332
 20
-92.57712203473935
 30
0.0
 10
50.41277989364865
 20
-92.2149758113236
 30
0.0
 10
50.45975105298118
 20
-92.03046591387722
 30
0.0
 10
50.55099156600843
 20
-91.48009257810355
 30
0.0
 10
50.54771380453717
 20
-91.11377144658604
 30
0.0
 10
50.41420092585373
 20
-90.38198529462159
 30
0.0
 10
50.28148639130789
 20
-90.0137094120469
 30
0.0
 10
49.89739285092222
 20
-89.31280348293612
 30
0.0
 10
49.64611372647845
 20
-88.9765004830071
 30
0.0
 10
49.17815852604747
 20
-88.49501779100511
 30
0.0
 10
49.00665316405144
 20
-88.33843268884377
 30
0.0
 10
48.64055840248705
 20
-88.0401602512979
 30
0.0
 10
48.2497064333234
 20
-87.75492108137873
 30
0.0
 10
47.8100910143129
 20
-87.49569754944905
 30
0.0
 10
47.34576213064507
 20
-87.24980595112541
 30
0.0
 10
47.10015739596389
 20
-87.13308010407903
 30
0.0
 10
46.3327841424917
 20
-86.80729877699395
 30
0.0
 10
45.78485759363405
 20
-86.62370073108059
 30
0.0
 10
45.20035920752506
 20
-86.4741080416243
 30
0.0
  0
SPLINE
  5
153
330
147
100
AcDbEntity
  8
0
  6
Continuous
 62
     7
370
    25
100
AcDbSpline
210
0.0
220
0.0
230
1.0
 70
     8
 71
     3
 72
    10
 73
     6
 74
     0
 42
0.000000001
 43
0.00000001
 40
0.0
 40
0.0
 40
0.0
 40
0.0
 40
0.5
 40
0.5
 40
1.0
 40
1.0
 40
1.0
 40
1.0
 10
45.20035920752508
 20
-86.47410804162429
 30
0.0
 10
36.35685923943466
 20
-84.21076056988926
 30
0.0
 10
27.51290252264568
 20
-81.89806148792107
 30
0.0
 10
9.823305089622746
 20
-77.09041844273573
 30
0.0
 10
0.9788609950886727
 20
-74.59578596892578
 30
0.0
 10
-7.864728093120103
 20
-72.05215694512084
 30
0.0
  0
SPLINE
  5
154
330
147
100
AcDbEntity
  8
0
  6
Continuous
 62
     7
370
    25
100
AcDbSpline
210
0.0
220
0.0
230
1.0
 70
     8
 71
     3
 72
    29
 73
    25
 74
     0
 42
0.000000001
 43
0.00000001
 40
0.0
 40
0.0
 40
0.0
 40
0.0
 40
0.1250000000000006
 40
0.1250000000000006
 40
0.1875000000000017
 40
0.1875000000000017
 40
0.2500000000000028
 40
0.2500000000000028
 40
0.3750000000000042
 40
0.3750000000000042
 40
0.437500000000004
 40
0.437500000000004
 40
0.5000000000000038
 40
0.5000000000000038
 40
0.6250000000000023
 40
0.6250000000000023
 40
0.687500000000002
 40
0.687500000000002
 40
0.7500000000000017
 40
0.8125000000000013
 40
0.8125000000000013
 40
0.8750000000000009
 40
0.8750000000000009
 40
1.0
 40
1.0
 40
1.0
 40
1.0
 10
-7.86472809312009
 20
-72.05215694512084
 30
0.0
 10
-8.449193662711242
 20
-71.88405058339391
 30
0.0
 10
-9.054196850741748
 20
-71.75435027253693
 30
0.0
 10
-9.991259549132401
 20
-71.61478022674365
 30
0.0
 10
-10.3085767391234
 20
-71.57748330637781
 30
0.0
 10
-10.95336596570838
 20
-71.52165223897828
 30
0.0
 10
-11.28170963175466
 20
-71.5032034909712
 30
0.0
 10
-12.26061748692209
 20
-71.47719813820876
 30
0.0
 10
-12.91186828190573
 20
-71.49790541691783
 30
0.0
 10
-13.88677593375814
 20
-71.58439030719505
 30
0.0
 10
-14.21274095238904
 20
-71.62272267902334
 30
0.0
 10
-14.85784103279066
 20
-71.71758084499348
 30
0.0
 10
-15.17465957776289
 20
-71.77367853793204
 30
0.0
 10
-16.10846913872894
 20
-71.96686969200383
 30
0.0
 10
-16.70898328360849
 20
-72.12848729793784
 30
0.0
 10
-17.5761010957202
 20
-72.41750094965083
 30
0.0
 10
-17.85866586827114
 20
-72.52168469208246
 30
0.0
 10
-18.40020633521868
 20
-72.74152320825206
 30
0.0
 10
-18.92130863110458
 20
-72.97383906917469
 30
0.0
 10
-19.40209223648108
 20
-73.2308631863836
 30
0.0
 10
-19.86241274383341
 20
-73.50049098218037
 30
0.0
 10
-20.08327455096599
 20
-73.64229469206202
 30
0.0
 10
-20.70598542498214
 20
-74.0818825216658
 30
0.0
 10
-21.06782219654908
 20
-74.3927027644486
 30
0.0
 10
-21.37586319919502
 20
-74.72180798272822
 30
0.0
  0
SPLINE
  5
155
330
147
100
AcDbEntity
  8
0
  6
Continuous
 62
     7
370
    25
100
AcDbSpline
210
0.0
220
0.0
230
1.0
 70
     8
 71
     3
 72
    10
 73
     6
 74
     0
 42
0.000000001
 43
0.00000001
 40
0.0
 40
0.0
 40
0.0
 40
0.0
 40
0.3806449813429397
 40
0.7612516558331678
 40
1.0
 40
1.0
 40
1.0
 40
1.0
 10
-21.37586319919502
 20
-74.72180798272825
 30
0.0
 10
-22.88129921245958
 20
-76.29829694852798
 30
0.0
 10
-25.89201973688448
 20
-79.45111622748895
 30
0.0
 10
-29.84993479842125
 20
-83.39234900999348
 30
0.0
 10
-32.30115512494666
 20
-85.7954181631548
 30
0.0
 10
-33.24604904929875
 20
-86.72175082205482
 30
0.0
  0
LWPOLYLINE
  5
159
330
147
100
AcDbEntity
  8
0
  6
Continuous
 62
     7
370
    25
100
AcDbPolyline
 90
        9
 70
   128
 43
0.0
 10
44.9554959266
 20
-93.3217756906
 10
45.3257654641
 20
-92.8543558801
 10
45.5118672887
 20
-92.3587131182
 10
45.5066496118
 20
-91.8538946782
 10
45.3103129457
 20
-91.3593004496
 10
44.9304023984
 20
-90.8939374113
 10
44.3815177192
 20
-90.4756892038
 10
43.6847522385
 20
-90.1206288713
 10
42.8668822629
 20
-89.8424011831
  0
LINE
  5
15F
330
147
100
AcDbEntity
  8
0
  6
Continuous
 62
     7
370
    25
100
AcDbLine
 10
45.5334053182
 20
-97.9397701174
 30
0.0
 11
45.5334053182
 21
-92.1199462171
 31
0.0
  0
LINE
  5
160
330
147
100
AcDbEntity
  8
0
  6
Continuous
 62
     7
370
    25
100
AcDbLine
 10
-16.9537725908
 20
-76.4961630627
 30
0.0
 11
-28.7053619057
 21
-87.9660744956
 31
0.0
  0
LINE
  5
161
330
147
100
AcDbEntity
  8
0
  6
Continuous
 62
     7
370
    25
100
AcDbLine
 10
42.8668822629
 20
-89.8424011831
 30
0.0
 11
-10.1982050378
 21
-75.4204475021
 31
0.0
  0
LINE
  5
162
330
147
100
AcDbEntity
  8
0
  6
Continuous
 62
     7
370
    25
100
AcDbLine
 10
33.0187289905
 20
-104.9724261587
 30
0.0
 11
44.9554959266
 21
-93.3217756906
 31
0.0
  0
LINE
  5
163
330
147
100
AcDbEntity
  8
0
  6
Continuous
 62
    60
370
    25
100
AcDbLine
 10
-21.3758631992
 20
-74.7218079827
 30
0.0
 11
-21.3758631992
 21
-80.8122590619
 31
0.0
  0
LINE
  5
164
330
147
100
AcDbEntity
  8
0
  6
Continuous
 62
    60
370
    25
100
AcDbLine
 10
45.2003592075
 20
-86.4741080416
 30
0.0
 11
45.2003592075
 21
-91.1958092508
 31
0.0
  0
LINE
  5
165
330
147
100
AcDbEntity
  8
0
  6
Continuous
 62
    60
370
    25
100
AcDbLine
 10
-7.8647280931
 20
-72.0521569451
 30
0.0
 11
-7.8647280931
 21
-76.0546365353
 31
0.0
  0
LINE
  5
166
330
147
100
AcDbEntity
  8
0
  6
Continuous
 62
    60
370
    25
100
AcDbLine
 10
44.9554959266
 20
-98.539404111
 30
0.0
 11
44.9554959266
 21
-93.3217756906
 31
0.0
  0
ARC
  5
167
330
147
100
AcDbEntity
  8
0
  6
Continuous
 62
     7
370
    25
100
AcDbCircle
 10
-12.4901716362
 20
-82.7773116863
 30
0.0
 40
7.705618827393963
100
AcDbArc
 50
72.6960345908
 51
125.398914916
  0
VIEWPORT
  5
190
330
147
100
AcDbEntity
  8
0
100
AcDbViewport
 10
0.0
 20
0.0
 30
0.0
 40
205.6
 41
156.0
 68
     1
 69
     1
 12
0.0
 22
0.0
 13
0.0
 23
0.0
 14
10.0
 24
10.0
 15
10.0
 25
10.0
 16
0.0
 26
0.0
 36
1.0
 17
0.0
 27
0.0
 37
0.0
 42
50.0
 43
0.0
 44
0.0
 45
414.0525291829
 50
0.0
 51
0.0
 72
   100
 90
   557152
  1

281
     0
 71
     1
 74
     0
110
0.0
120
0.0
130
0.0
111
1.0
121
0.0
131
0.0
112
0.0
122
1.0
132
0.0
 79
     0
146
0.0
  0
ENDBLK
  5
14A
330
147
100
AcDbEntity
  8
0
100
AcDbBlockEnd
  0
BLOCK
  5
16A
330
168
100
AcDbEntity
  8
0
100
AcDbBlockBegin
  2
*Paper_Space7
 70
     0
 10
0.0
 20
0.0
 30
0.0
  3
*Paper_Space7
  1

  0
SPLINE
  5
16C
330
168
100
AcDbEntity
  8
0
  6
Continuous
 62
     7
370
    25
100
AcDbSpline
210
0.0
220
0.0
230
1.0
 70
     8
 71
     3
 72
    57
 73
    53
 74
     0
 42
0.000000001
 43
0.00000001
 40
0.0
 40
0.0
 40
0.0
 40
0.0
 40
0.0204246057167092
 40
0.0372267822590761
 40
0.0504249125485429
 40
0.0605571822141465
 40
0.0696927964838158
 40
0.0853433876681419
 40
0.0996939012001988
 40
0.1155724963175228
 40
0.134353313179155
 40
0.1542831421633347
 40
0.1742324711489523
 40
0.1940556155516368
 40
0.2242046601551759
 40
0.2514737657310718
 40
0.2800120537940576
 40
0.3015629785563254
 40
0.3245308832348295
 40
0.3475735815823243
 40
0.3637056823421815
 40
0.3817949947516089
 40
0.3961011087251836
 40
0.4097150490368331
 40
0.4266241968437352
 40
0.4490192311041842
 40
0.464370160191067
 40
0.4759557893112722
 40
0.4873076038221505
 40
0.4992025348912469
 40
0.5122763396010532
 40
0.5274106451781571
 40
0.5537754865241149
 40
0.5743918414052749
 40
0.5920693688121792
 40
0.6112501708880516
 40
0.6342037681164936
 40
0.667076754886033
 40
0.6980174964560152
 40
0.726442370101527
 40
0.7565268223725004
 40
0.7871293037515891
 40
0.8166449336919591
 40
0.8428112597681741
 40
0.8720519216115948
 40
0.9070283526715387
 40
0.9319754753210107
 40
0.958501384036557
 40
0.9708552375166996
 40
0.9834913225511813
 40
0.9960765828760592
 40
1.0
 40
1.0
 40
1.0
 40
1.0
 10
-275.2865272232982
 20
1.305283000739121
 30
0.0
 10
-275.1228266769338
 20
-0.38080281257033
 30
0.0
 10
-274.8244588807706
 20
-3.45393677230392
 30
0.0
 10
-274.1996185510206
 20
-7.590483446809862
 30
0.0
 10
-273.6049145836526
 20
-10.86547097841796
 30
0.0
 10
-273.0555230115902
 20
-13.50138798351827
 30
0.0
 10
-272.4065063689487
 20
-16.32444637801876
 30
0.0
 10
-271.5953200889247
 20
-19.4697429362648
 30
0.0
 10
-270.5272886999459
 20
-23.12853713930176
 30
0.0
 10
-269.2622520074023
 20
-27.00242439475068
 30
0.0
 10
-267.699015632138
 20
-31.26478621258961
 30
0.0
 10
-265.8378260258363
 20
-35.77833982805724
 30
0.0
 10
-263.7582702294674
 20
-40.29601495244091
 30
0.0
 10
-261.1132841062046
 20
-45.48930104742747
 30
0.0
 10
-257.9105125529715
 20
-51.08041279545085
 30
0.0
 10
-254.0058633349752
 20
-57.0998999844589
 30
0.0
 10
-250.2093264700676
 20
-62.32795825396096
 30
0.0
 10
-246.4012573305281
 20
-67.09329317499987
 30
0.0
 10
-242.7027773873471
 20
-71.35685178775587
 30
0.0
 10
-239.1544806801331
 20
-75.12665117691627
 30
0.0
 10
-235.7694450291465
 20
-78.48712511449763
 30
0.0
 10
-232.8154320264484
 20
-81.25356367571207
 30
0.0
 10
-229.9473418883429
 20
-83.7971782311884
 30
0.0
 10
-227.1014767811346
 20
-86.20670018365881
 30
0.0
 10
-223.6755733037303
 20
-88.96495545586377
 30
0.0
 10
-220.0585955442149
 20
-91.6959035623785
 30
0.0
 10
-216.7231508715696
 20
-94.06589488781538
 30
0.0
 10
-214.1057120255621
 20
-95.84722821604025
 30
0.0
 10
-211.7032707373291
 20
-97.42369399415254
 30
0.0
 10
-209.1741307057736
 20
-99.02333885742804
 30
0.0
 10
-206.3526477161832
 20
-100.7389776062162
 30
0.0
 10
-202.4483113840271
 20
-103.0102596749095
 30
0.0
 10
-197.906332368416
 20
-105.4798521469869
 30
0.0
 10
-193.0739330832206
 20
-107.8790690771217
 30
0.0
 10
-188.7218456028409
 20
-109.8875489464552
 30
0.0
 10
-184.1421268818601
 20
-111.8525938610982
 30
0.0
 10
-178.3329544284635
 20
-114.1417405504865
 30
0.0
 10
-171.5199627363386
 20
-116.5300388541062
 30
0.0
 10
-164.1854025425132
 20
-118.7676307045723
 30
0.0
 10
-156.9971770051986
 20
-120.6798020377498
 30
0.0
 10
-149.7669546738965
 20
-122.3429884007218
 30
0.0
 10
-142.3894567793716
 20
-123.7802811100141
 30
0.0
 10
-135.2614047393425
 20
-124.9382808647653
 30
0.0
 10
-128.2788891019977
 20
-125.8495651836835
 30
0.0
 10
-121.1438057155148
 20
-126.7742211075894
 30
0.0
 10
-113.873675585929
 20
-127.6903728165563
 30
0.0
 10
-106.7789549354755
 20
-128.5562149889152
 30
0.0
 10
-101.4996248425331
 20
-129.1759591533026
 30
0.0
 10
-97.22698180176437
 20
-129.6583250293232
 30
0.0
 10
-94.1135092641042
 20
-129.9993788011073
 30
0.0
 10
-91.67864137842129
 20
-130.2594111584908
 30
0.0
 10
-90.32986904542604
 20
-130.3977517769295
 30
0.0
 10
-90.00932268524804
 20
-130.4306295136835
 30
0.0
  0
SPLINE
  5
16D
330
168
100
AcDbEntity
  8
0
  6
Continuous
 62
     7
370
    25
100
AcDbSpline
210
0.0
220
0.0
230
1.0
 70
     8
 71
     3
 72
   138
 73
   134
 74
     0
 42
0.000000001
 43
0.00000001
 40
0.0
 40
0.0
 40
0.0
 40
0.0
 40
0.0008461427582826
 40
0.0040737802491141
 40
0.0070027708605143
 40
0.011837389906192
 40
0.0180200811277889
 40
0.0258414035341378
 40
0.034731970340639
 40
0.0429839740777314
 40
0.0487602819835019
 40
0.0536994154871202
 40
0.0642601462809551
 40
0.0762004438882689
 40
0.0882163431533787
 40
0.0988474422777801
 40
0.1080356916546546
 40
0.1166072275191785
 40
0.1265081250866374
 40
0.1377945688341817
 40
0.1539063960741864
 40
0.1717131712128412
 40
0.189829940807795
 40
0.2081168254919178
 40
0.2265488588996677
 40
0.241512769354871
 40
0.2565212747655279
 40
0.2700887232557361
 40
0.2812479522956364
 40
0.2873393147886553
 40
0.292355780315833
 40
0.2963397281781248
 40
0.299321052715564
 40
0.3027036084807695
 40
0.3044499034174115
 40
0.3062794128018493
 40
0.3082864486282991
 40
0.3104690278929734
 40
0.3109512356130016
 40
0.3113589456753554
 40
0.3117148948810282
 40
0.3120543130009823
 40
0.3124189733146019
 40
0.3137685856678488
 40
0.3159361369253895
 40
0.3195001243057999
 40
0.3241678389167973
 40
0.329042775518146
 40
0.3334973427647313
 40
0.3404312699984877
 40
0.3462112456343502
 40
0.3526809226379209
 40
0.3603047902092112
 40
0.3690490900741247
 40
0.3771475510516279
 40
0.3832543043211994
 40
0.3878947428328646
 40
0.3921031737936213
 40
0.3980214405493871
 40
0.4056870498112803
 40
0.4148545347749566
 40
0.4225937015352803
 40
0.428884856525474
 40
0.434310160293337
 40
0.4391612425343042
 40
0.4455230451954527
 40
0.4542749035032302
 40
0.461195432574563
 40
0.4662998552462538
 40
0.4709923973818667
 40
0.4762360912243732
 40
0.482176525721393
 40
0.4889130017938173
 40
0.4951584832713417
 40
0.500086482674426
 40
0.5055821871834909
 40
0.5128404827331261
 40
0.5208356509024169
 40
0.5277272863963334
 40
0.5335133858656846
 40
0.5384958031007478
 40
0.5429430761817701
 40
0.5485424737462705
 40
0.5559808404722367
 40
0.5642953406611713
 40
0.5709652293697011
 40
0.5770974585711957
 40
0.5830544405219257
 40
0.5891319767456111
 40
0.5954912937678769
 40
0.6070787445712877
 40
0.6189665893038733
 40
0.6310039049763014
 40
0.6440871508642639
 40
0.6499024106625063
 40
0.6545439646695664
 40
0.6597448426205543
 40
0.6661807092832606
 40
0.6735674848587483
 40
0.6803028733186014
 40
0.686178450219996
 40
0.6913715787727487
 40
0.6971381159727714
 40
0.7093965383759563
 40
0.7211794211999875
 40
0.7320608705535387
 40
0.7501706878207783
 40
0.7685724361083868
 40
0.7884227652187266
 40
0.7949048043172959
 40
0.8017312260075974
 40
0.8090214209009339
 40
0.815912074054992
 40
0.8212861047967474
 40
0.8251493005299128
 40
0.8284419962036966
 40
0.8326411879111741
 40
0.8412668011202412
 40
0.8516580230273296
 40
0.8634333322999311
 40
0.8749512145153168
 40
0.8857778460366844
 40
0.9021719440390853
 40
0.9161195875240663
 40
0.928669839226853
 40
0.933335123284204
 40
0.9380841662471285
 40
0.9441581904588082
 40
0.9519180508458605
 40
0.9613699982271362
 40
0.9725235403710379
 40
0.9853930926131377
 40
0.9999999999999999
 40
0.9999999999999999
 40
0.9999999999999999
 40
0.9999999999999999
 10
-92.20066846748561
 20
-130.1745714086263
 30
0.0
 10
-92.22957106502416
 20
-130.1713032977793
 30
0.0
 10
-92.36872350691189
 20
-130.1555688779191
 30
0.0
 10
-91.78472449564848
 20
-130.2228563469891
 30
0.0
 10
-90.6138592743787
 20
-130.3595533064498
 30
0.0
 10
-88.77001531089256
 20
-130.575762052293
 30
0.0
 10
-86.12683291612416
 20
-130.8876743041284
 30
0.0
 10
-82.83076933563027
 20
-131.2787118458674
 30
0.0
 10
-79.11197086379248
 20
-131.7222277436334
 30
0.0
 10
-75.67138113612951
 20
-132.1345081894385
 30
0.0
 10
-72.75998182579931
 20
-132.4845667003321
 30
0.0
 10
-69.46129314644868
 20
-132.8820467631852
 30
0.0
 10
-65.25452362888106
 20
-133.3909477103206
 30
0.0
 10
-60.00456418413697
 20
-134.0298142054664
 30
0.0
 10
-54.75920947063447
 20
-134.6717568361486
 30
0.0
 10
-49.90917147281662
 20
-135.2682748861294
 30
0.0
 10
-45.56724817271179
 20
-135.8047008708175
 30
0.0
 10
-41.30801597926628
 20
-136.3330625692087
 30
0.0
 10
-36.70471798129059
 20
-136.906606727317
 30
0.0
 10
-30.9173410703253
 20
-137.6313392143956
 30
0.0
 10
-23.88508682186327
 20
-138.5179125824805
 30
0.0
 10
-15.77643511905499
 20
-139.5485155180828
 30
0.0
 10
-7.335971097301944
 20
-140.6303583181679
 30
0.0
 10
1.199037601527113
 20
-141.7334011790752
 30
0.0
 10
9.23833978746902
 20
-142.7808976966637
 30
0.0
 10
16.76754467647519
 20
-143.7690788180574
 30
0.0
 10
23.5272850628561
 20
-144.6621286238489
 30
0.0
 10
29.72944868887874
 20
-145.4861591684346
 30
0.0
 10
34.59260799129869
 20
-146.1356862883127
 30
0.0
 10
38.14869277820172
 20
-146.6128503734568
 30
0.0
 10
40.57991635172155
 20
-146.9402536248622
 30
0.0
 10
42.54418147185747
 20
-147.2058345788375
 30
0.0
 10
44.22353350626602
 20
-147.4337092225566
 30
0.0
 10
45.40715387548599
 20
-147.5952515737125
 30
0.0
 10
46.16779128739073
 20
-147.7000491441137
 30
0.0
 10
46.50669540694737
 20
-147.747158702464
 30
0.0
 10
46.6361809948574
 20
-147.7654837709355
 30
0.0
 10
46.52032329963635
 20
-147.7492208942805
 30
0.0
 10
46.50272831901296
 20
-147.7468093224407
 30
0.0
 10
46.53896616134247
 20
-147.7520310922628
 30
0.0
 10
46.61876290595549
 20
-147.7635042454232
 30
0.0
 10
46.74697539434142
 20
-147.7819504096776
 30
0.0
 10
47.06196473035543
 20
-147.8273116150133
 30
0.0
 10
47.71819412275575
 20
-147.9220223049156
 30
0.0
 10
48.83308755126426
 20
-148.0832628631216
 30
0.0
 10
50.31390052454954
 20
-148.2947658683641
 30
0.0
 10
51.98489295804236
 20
-148.5273040648036
 30
0.0
 10
53.72095728732018
 20
-148.7651051129394
 30
0.0
 10
55.72553601356671
 20
-149.0350753416418
 30
0.0
 10
57.80690278256969
 20
-149.3098194552839
 30
0.0
 10
60.02615077432918
 20
-149.5967532335405
 30
0.0
 10
62.30842766576169
 20
-149.8866431585008
 30
0.0
 10
64.90009660170142
 20
-150.2092367337485
 30
0.0
 10
67.59652177508629
 20
-150.5359516578331
 30
0.0
 10
70.09563926345966
 20
-150.826954043806
 30
0.0
 10
72.20391614588637
 20
-151.0607221676147
 30
0.0
 10
74.00998831968008
 20
-151.249788053922
 30
0.0
 10
76.0883027152892
 20
-151.4456297563858
 30
0.0
 10
78.61849387838738
 20
-151.6512455653926
 30
0.0
 10
81.95564404535618
 20
-151.8696489731073
 30
0.0
 10
85.64450236641538
 20
-152.0393691401869
 30
0.0
 10
89.2279269424013
 20
-152.1358856195758
 30
0.0
 10
92.32647350939088
 20
-152.1700350406535
 30
0.0
 10
94.98455122363627
 20
-152.1631552911636
 30
0.0
 10
97.65127032397713
 20
-152.1244949177143
 30
0.0
 10
100.8541788264745
 20
-152.0363017191978
 30
0.0
 10
104.4126820575961
 20
-151.8745724074603
 30
0.0
 10
107.787687660514
 20
-151.6557225484829
 30
0.0
 10
110.5067786184817
 20
-151.4369393877542
 30
0.0
 10
112.9640203771393
 20
-151.207846567604
 30
0.0
 10
115.567482216555
 20
-150.9256771379044
 30
0.0
 10
118.5097552741453
 20
-150.5737221255601
 30
0.0
 10
121.6085694961002
 20
-150.1713274462199
 30
0.0
 10
124.5305452534363
 20
-149.758148818088
 30
0.0
 10
127.2438429963735
 20
-149.3469082473857
 30
0.0
 10
130.1170322233307
 20
-148.8830624599641
 30
0.0
 10
133.4763056862206
 20
-148.2987486890704
 30
0.0
 10
137.041372279088
 20
-147.6233647004513
 30
0.0
 10
140.3502897291217
 20
-146.9440597489349
 30
0.0
 10
143.1649687389474
 20
-146.3264405507175
 30
0.0
 10
145.5811002846024
 20
-145.7660149367314
 30
0.0
 10
147.9615042535373
 20
-145.1867503238007
 30
0.0
 10
150.7265767619674
 20
-144.478943685913
 30
0.0
 10
154.0795399137493
 20
-143.5629974100433
 30
0.0
 10
157.5700763911883
 20
-142.5327970691467
 30
0.0
 10
160.8434132439612
 20
-141.4932793761228
 30
0.0
 10
163.7353845523532
 20
-140.5160007264883
 30
0.0
 10
166.5222811453181
 20
-139.5176663858943
 30
0.0
 10
169.328438398747
 20
-138.4525667292486
 30
0.0
 10
172.9712984927434
 20
-136.9849910931983
 30
0.0
 10
177.4483397578444
 20
-135.0213253093642
 30
0.0
 10
182.6888310714628
 20
-132.4502247287409
 30
0.0
 10
188.0402987131191
 20
-129.505150246532
 30
0.0
 10
192.3795463601344
 20
-126.8125264538981
 30
0.0
 10
195.5738417607483
 20
-124.6383840043364
 30
0.0
 10
197.5303787376498
 20
-123.2357969327012
 30
0.0
 10
199.2904128573209
 20
-121.9516438789628
 30
0.0
 10
201.1404769150064
 20
-120.575697810076
 30
0.0
 10
202.9584567792365
 20
-119.1993512671963
 30
0.0
 10
204.7367710587845
 20
-117.8285499855736
 30
0.0
 10
206.3063264123928
 20
-116.5984953008574
 30
0.0
 10
207.7906830405027
 20
-115.4183533823048
 30
0.0
 10
209.8505957784238
 20
-113.7567897952693
 30
0.0
 10
212.4876025421833
 20
-111.5781067259549
 30
0.0
 10
215.5357706068955
 20
-108.9780553137799
 30
0.0
 10
219.0700880700472
 20
-105.8709465009919
 30
0.0
 10
223.0733103081659
 20
-102.2165343670938
 30
0.0
 10
227.7397757301198
 20
-97.76001240692976
 30
0.0
 10
231.2141600205228
 20
-94.29770607040044
 30
0.0
 10
233.9415144907961
 20
-91.50360055165201
 30
0.0
 10
235.8611056344699
 20
-89.50503841929645
 30
0.0
 10
237.9292990045485
 20
-87.30053719417813
 30
0.0
 10
239.8976283280462
 20
-85.1550414876753
 30
0.0
 10
241.5140689910256
 20
-83.33062131543059
 30
0.0
 10
242.7964517929853
 20
-81.82892228115
 30
0.0
 10
243.9884297489476
 20
-80.3965506900157
 30
0.0
 10
245.6448327681897
 20
-78.35302133692878
 30
0.0
 10
247.9730428676724
 20
-75.34802133082141
 30
0.0
 10
250.9322752975265
 20
-71.25804842100091
 30
0.0
 10
253.9997810013493
 20
-66.65669819372067
 30
0.0
 10
256.9171350126904
 20
-61.87170484031264
 30
0.0
 10
260.0182908385098
 20
-56.30796297565892
 30
0.0
 10
263.0342296336095
 20
-50.23053020009269
 30
0.0
 10
265.8282641567688
 20
-43.74816500295259
 30
0.0
 10
267.6341936872283
 20
-38.94812031687847
 30
0.0
 10
268.8019870074327
 20
-35.5276123574537
 30
0.0
 10
269.5846370428482
 20
-33.10184891526545
 30
0.0
 10
270.4673490064799
 20
-30.17187237475819
 30
0.0
 10
271.4812711710683
 20
-26.47334592851291
 30
0.0
 10
272.5762637677923
 20
-21.93164709282564
 30
0.0
 10
273.6608674614026
 20
-16.52725062212665
 30
0.0
 10
274.6587653844018
 20
-10.24397701982235
 30
0.0
 10
275.0736688821416
 20
-5.741867291045574
 30
0.0
 10
275.2942379455438
 20
-3.348476703547293
 30
0.0
  0
SPLINE
  5
16F
330
168
100
AcDbEntity
  8
0
  6
Continuous
 62
     7
370
    25
100
AcDbSpline
210
0.0
220
0.0
230
1.0
 70
     8
 71
     3
 72
    20
 73
    16
 74
     0
 42
0.000000001
 43
0.00000001
 40
0.0
 40
0.0
 40
0.0
 40
0.0
 40
0.0200900253154779
 40
0.1445435728700488
 40
0.2424884842895509
 40
0.3128956619247748
 40
0.3748933508365602
 40
0.442240361972372
 40
0.5223897144394977
 40
0.6286674520762745
 40
0.7411983019366086
 40
0.8349272919296964
 40
0.9192586198464957
 40
0.99672062235234
 40
1.0
 40
1.0
 40
1.0
 40
1.0
 10
-246.4857664034747
 20
-22.95047356310788
 30
0.0
 10
-246.6209298913587
 20
-22.89892057537347
 30
0.0
 10
-247.5934032035389
 20
-22.52800750173407
 30
0.0
 10
-249.2203855635729
 20
-21.80199032618684
 30
0.0
 10
-250.939654703741
 20
-20.98741874588731
 30
0.0
 10
-252.0671671111959
 20
-20.40592517066635
 30
0.0
 10
-252.8654757522206
 20
-19.97178598194039
 30
0.0
 10
-253.6352324586166
 20
-19.52895282687057
 30
0.0
 10
-254.4008938318042
 20
-19.05772052509572
 30
0.0
 10
-255.1037606644342
 20
-18.5883566651577
 30
0.0
 10
-255.6690910536776
 20
-18.1681888398573
 30
0.0
 10
-256.0144914644115
 20
-17.87925195719703
 30
0.0
 10
-256.1590734190497
 20
-17.74985776133017
 30
0.0
 10
-256.2281807885043
 20
-17.67721308507488
 30
0.0
 10
-256.2093069347392
 20
-17.69953104009265
 30
0.0
 10
-256.2085403576255
 20
-17.70043750221515
 30
0.0
  0
SPLINE
  5
170
330
168
100
AcDbEntity
  8
0
  6
Continuous
 62
     7
370
    25
100
AcDbSpline
210
0.0
220
0.0
230
1.0
 70
     8
 71
     3
 72
    31
 73
    27
 74
     0
 42
0.000000001
 43
0.00000001
 40
0.0
 40
0.0
 40
0.0
 40
0.0
 40
0.0057370146151916
 40
0.0227864311539057
 40
0.0541573915453823
 40
0.0891319087330369
 40
0.1276127451528111
 40
0.1695854975412107
 40
0.2425163245034535
 40
0.3209245058617369
 40
0.437754861911981
 40
0.5517258089388027
 40
0.5935270033201689
 40
0.6329428836257598
 40
0.6658436173893103
 40
0.6961744220057449
 40
0.7174293837960749
 40
0.7326690718972227
 40
0.756006435068921
 40
0.7865164275058806
 40
0.8175694009964596
 40
0.847998790379042
 40
0.879348892988731
 40
0.9210391568553902
 40
0.9672988560660558
 40
1.0
 40
1.0
 40
1.0
 40
1.0
 10
258.1690407634635
 20
-22.06033861897001
 30
0.0
 10
258.1766832639626
 20
-22.05095833792191
 30
0.0
 10
258.2070379559315
 20
-22.0137014817618
 30
0.0
 10
257.8768968971058
 20
-22.3348672779831
 30
0.0
 10
256.7881228844744
 20
-23.26734124143552
 30
0.0
 10
255.3238398889487
 20
-24.56251337049477
 30
0.0
 10
253.5997317836028
 20
-26.09255245154435
 30
0.0
 10
251.1920192432747
 20
-28.2359200372327
 30
0.0
 10
247.9787559243533
 20
-31.09259887388298
 30
0.0
 10
243.3409298469785
 20
-35.19996212505268
 30
0.0
 10
238.0078540554287
 20
-39.89751997162512
 30
0.0
 10
233.2655113627792
 20
-44.05064611014096
 30
0.0
 10
229.8522018070492
 20
-47.02784964756543
 30
0.0
 10
227.860876752314
 20
-48.76345141534384
 30
0.0
 10
226.1716622331276
 20
-50.22829385235539
 30
0.0
 10
224.9005510694418
 20
-51.35344418364237
 30
0.0
 10
224.0268937532749
 20
-52.04212897137263
 30
0.0
 10
223.4600571906986
 20
-52.4624603092536
 30
0.0
 10
222.5469793092081
 20
-53.10441545904651
 30
0.0
 10
221.3289589153741
 20
-53.8860552826449
 30
0.0
 10
219.7898022756372
 20
-54.79064260005881
 30
0.0
 10
218.0342774095362
 20
-55.73516379782594
 30
0.0
 10
215.7857957386672
 20
-56.84825885879894
 30
0.0
 10
212.7744320027719
 20
-58.19150256372917
 30
0.0
 10
209.2493004766291
 20
-59.61364581822361
 30
0.0
 10
206.8227258903127
 20
-60.43601556867452
 30
0.0
 10
205.8177750608458
 20
-60.77659490528528
 30
0.0
  0
SPLINE
  5
171
330
168
100
AcDbEntity
  8
0
  6
Continuous
 62
     7
370
    25
100
AcDbSpline
210
0.0
220
0.0
230
1.0
 70
     8
 71
     3
 72
     9
 73
     5
 74
     0
 42
0.000000001
 43
0.00000001
 40
0.0
 40
0.0
 40
0.0
 40
0.0
 40
0.1678879334239189
 40
1.0
 40
1.0
 40
1.0
 40
1.0
 10
200.2958294263666
 20
-62.51550055833019
 30
0.0
 10
199.9411273716593
 20
-62.62369076517665
 30
0.0
 10
197.8283962928172
 20
-63.26810995981463
 30
0.0
 10
195.6382059225325
 20
-63.81352310420685
 30
0.0
 10
193.8157220873199
 20
-64.26736796292484
 30
0.0
  0
LWPOLYLINE
  5
173
330
168
100
AcDbEntity
  8
0
  6
Continuous
 62
     7
370
    25
100
AcDbPolyline
 90
       95
 70
   128
 43
0.0
 10
-58.3363094345
 20
-51.4477890576
 10
42.6307957656
 20
-64.1684486206
 10
53.963838186
 20
-65.5962777553
 10
65.2968806064
 20
-67.0241068899
 10
76.6299230269
 20
-68.4519360245
 10
87.9796301574
 20
-69.8583409657
 10
99.5453290603
 20
-70.9471783561
 10
111.3031310714
 20
-71.6255843641
 10
123.1636669112
 20
-71.8934181994
 10
133.7457667031
 20
-71.7858712146
 10
144.2779488723
 20
-71.3518321498
 10
154.6891473693
 20
-70.5923856959
 10
164.8779723994
 20
-69.5131794208
 10
174.7338066145
 20
-68.1213005895
 10
183.9884807235
 20
-66.4617038498
 10
192.734928349
 20
-64.5330983388
 10
200.888706875
 20
-62.3572934594
 10
208.3859892575
 20
-59.9529965466
 10
215.3083305064
 20
-57.2851626333
 10
221.477458948
 20
-54.4104266392
 10
226.8499068911
 20
-51.3449380033
 10
231.375066535
 20
-48.1059205515
 10
235.2311318315
 20
-44.7470601338
 10
250.2233377487
 20
-31.5251773132
 10
254.993585086
 20
-27.3182145975
 10
259.7638324233
 20
-23.1112518818
 10
264.5340797605
 20
-18.9042891662
 10
269.2377715853
 20
-14.6915776568
 10
272.1566988284
 20
-11.3215979557
 10
274.1307062956
 20
-7.8982097281
 10
275.1633527743
 20
-4.444206593
 10
275.2550313836
 20
-0.980044587
 10
274.3787020454
 20
2.5388282068
 10
272.521979324
 20
6.029657455
 10
269.6966511148
 20
9.4624529564
 10
265.9239273114
 20
12.8002671481
 10
261.2295934547
 20
16.006678804
 10
255.7764108843
 20
18.9971195902
 10
249.5538437453
 20
21.8020101904
 10
242.6229530651
 20
24.3964278663
 10
235.031829297
 20
26.7650275691
 10
225.626355977
 20
29.1742402943
 10
215.4863000078
 20
31.2543554501
 10
204.6785089903
 20
32.9859166901
 10
193.4014484479
 20
34.4311810364
 10
182.0931326655
 20
35.8558949075
 10
137.6676063775
 20
41.4529851152
 10
58.3363094345
 20
51.4477890576
 10
-42.6307957656
 20
64.1684486206
 10
-53.963838186
 20
65.5962777553
 10
-65.2968806064
 20
67.0241068899
 10
-76.6299230269
 20
68.4519360245
 10
-87.9796301574
 20
69.8583409657
 10
-99.5453290603
 20
70.9471783561
 10
-111.3031310714
 20
71.6255843641
 10
-123.1636669112
 20
71.8934181994
 10
-133.7457667031
 20
71.7858712146
 10
-144.2779488723
 20
71.3518321498
 10
-154.6891473693
 20
70.5923856959
 10
-164.8779723994
 20
69.5131794208
 10
-174.7338066145
 20
68.1213005895
 10
-183.9884807235
 20
66.4617038498
 10
-192.734928349
 20
64.5330983388
 10
-200.888706875
 20
62.3572934594
 10
-208.3859892575
 20
59.9529965466
 10
-215.3083305064
 20
57.2851626333
 10
-221.477458948
 20
54.4104266392
 10
-226.8499068911
 20
51.3449380033
 10
-231.375066535
 20
48.1059205515
 10
-235.2311318315
 20
44.7470601338
 10
-250.2233377487
 20
31.5251773132
 10
-254.993585086
 20
27.3182145975
 10
-259.7638324233
 20
23.1112518818
 10
-264.5340797605
 20
18.9042891662
 10
-269.2377715853
 20
14.6915776568
 10
-272.1566988284
 20
11.3215979557
 10
-274.1307062956
 20
7.8982097281
 10
-275.1633527743
 20
4.444206593
 10
-275.2550313836
 20
0.980044587
 10
-274.3787020454
 20
-2.5388282068
 10
-272.521979324
 20
-6.029657455
 10
-269.6966511148
 20
-9.4624529564
 10
-265.9239273114
 20
-12.8002671481
 10
-261.2295934547
 20
-16.006678804
 10
-255.7764108843
 20
-18.9971195902
 10
-249.5538437453
 20
-21.8020101904
 10
-242.6229530651
 20
-24.3964278663
 10
-235.031829297
 20
-26.7650275691
 10
-225.626355977
 20
-29.1742402943
 10
-215.4863000078
 20
-31.2543554501
 10
-204.6785089903
 20
-32.9859166901
 10
-193.4014484479
 20
-34.4311810364
 10
-182.0931326655
 20
-35.8558949075
 10
-137.6676063775
 20
-41.4529851152
 10
-58.3363094345
 20
-51.4477890576
  0
LWPOLYLINE
  5
174
330
168
100
AcDbEntity
  8
0
  6
Continuous
 62
     7
370
    25
100
AcDbPolyline
 90
        9
 70
   128
 43
0.0
 10
35.5378864968
 20
-153.4491022224
 10
34.6684008049
 20
-154.0347584118
 10
33.472854473
 20
-154.5526186339
 10
31.9971916762
 20
-154.9827818107
 10
30.298121308
 20
-155.3087170127
 10
28.44093769
 20
-155.5178987327
 10
26.497011347
 20
-155.6022882347
 10
24.5410462782
 20
-155.5586424774
 10
22.6482091244
 20
-155.3886387426
  0
LWPOLYLINE
  5
177
330
168
100
AcDbEntity
  8
0
  6
Continuous
 62
     7
370
    25
100
AcDbPolyline
 90
        8
 70
   128
 43
0.0
 10
-61.5390820808
 20
-144.7820370298
 10
-63.2960506494
 20
-144.4922084659
 10
-64.849631316
 20
-144.0936930221
 10
-66.1401208468
 20
-143.6018054232
 10
-67.1179264529
 20
-143.035448634
 10
-67.7454716133
 20
-142.4163874281
 10
-67.9986401192
 20
-141.7684119806
 10
-68.0035481756
 20
-141.6639892081
  0
LINE
  5
17B
330
168
100
AcDbEntity
  8
0
  6
Continuous
 62
     7
370
    25
100
AcDbLine
 10
-240.6942413814
 20
-25.0399549196
 30
0.0
 11
-242.0471334729
 21
-24.576096405
 31
0.0
  0
LINE
  5
17C
330
168
100
AcDbEntity
  8
0
  6
Continuous
 62
     7
370
    25
100
AcDbLine
 10
-68.0035481756
 20
-133.05892859
 30
0.0
 11
-68.0035481756
 21
-141.6639892081
 31
0.0
  0
LINE
  5
17D
330
168
100
AcDbEntity
  8
0
  6
Continuous
 62
     7
370
    25
100
AcDbLine
 10
22.6482091244
 20
-155.3886387426
 30
0.0
 11
-61.5390820808
 21
-144.7820370298
 31
0.0
  0
LINE
  5
17E
330
168
100
AcDbEntity
  8
0
  6
Continuous
 62
     7
370
    25
100
AcDbLine
 10
42.6072199882
 20
-147.2145361045
 30
0.0
 11
35.5378864968
 21
-153.4491022224
 31
0.0
  0
LINE
  5
17F
330
168
100
AcDbEntity
  8
0
  6
Continuous
 62
    60
370
    25
100
AcDbLine
 10
22.6482091244
 20
-155.3886387426
 30
0.0
 11
22.6482091244
 21
-144.5469270484
 31
0.0
  0
LINE
  5
180
330
168
100
AcDbEntity
  8
0
  6
Continuous
 62
    60
370
    25
100
AcDbLine
 10
35.5378864968
 20
-153.4491022224
 30
0.0
 11
35.5378864968
 21
-146.2627392912
 31
0.0
  0
LINE
  5
181
330
168
100
AcDbEntity
  8
0
  6
Continuous
 62
    60
370
    25
100
AcDbLine
 10
-61.5390820808
 20
-144.7820370298
 30
0.0
 11
-61.5390820808
 21
-133.8437247206
 31
0.0
  0
VIEWPORT
  5
192
330
168
100
AcDbEntity
  8
0
100
AcDbViewport
 10
0.0
 20
0.0
 30
0.0
 40
205.6
 41
156.0
 68
     1
 69
     1
 12
0.0
 22
0.0
 13
0.0
 23
0.0
 14
10.0
 24
10.0
 15
10.0
 25
10.0
 16
0.0
 26
0.0
 36
1.0
 17
0.0
 27
0.0
 37
0.0
 42
50.0
 43
0.0
 44
0.0
 45
414.0525291829
 50
0.0
 51
0.0
 72
   100
 90
   557152
  1

281
     0
 71
     1
 74
     0
110
0.0
120
0.0
130
0.0
111
1.0
121
0.0
131
0.0
112
0.0
122
1.0
132
0.0
 79
     0
146
0.0
  0
ENDBLK
  5
16B
330
168
100
AcDbEntity
  8
0
100
AcDbBlockEnd
  0
ENDSEC
  0
SECTION
  2
ENTITIES
  0
SPLINE
  5
73
330
1F
100
AcDbEntity
  8
0
  6
Continuous
 62
     7
370
    25
100
AcDbSpline
210
0.0
220
0.0
230
1.0
 70
     8
 71
     3
 72
    27
 73
    23
 74
     0
 42
0.000000001
 43
0.00000001
 40
0.0
 40
0.0
 40
0.0
 40
0.0
 40
0.1249999999999997
 40
0.1249999999999997
 40
0.1874999999999998
 40
0.1874999999999998
 40
0.2499999999999998
 40
0.2499999999999998
 40
0.3749999999999999
 40
0.3749999999999999
 40
0.5000000000000001
 40
0.5000000000000001
 40
0.6250000000000002
 40
0.6250000000000002
 40
0.6875
 40
0.6875
 40
0.7499999999999997
 40
0.8124999999999994
 40
0.8124999999999994
 40
0.8749999999999992
 40
0.8749999999999992
 40
1.0
 40
1.0
 40
1.0
 40
1.0
 10
-39.99999999999999
 20
-29.99999999999993
 30
0.0
 10
-39.99999999999999
 20
-30.66008535179248
 30
0.0
 10
-39.93528319251389
 20
-31.30910338880879
 30
0.0
 10
-39.74515502644247
 20
-32.26668358182445
 30
0.0
 10
-39.66615514918087
 20
-32.58319956316784
 30
0.0
 10
-39.47620952334563
 20
-33.21075200238818
 30
0.0
 10
-39.36471005909667
 20
-33.52269702845009
 30
0.0
 10
-38.98900278993694
 20
-34.43019008884387
 30
0.0
 10
-38.68247350591457
 20
-35.00405967212784
 30
0.0
 10
-37.95840457172169
 20
-36.09013596366486
 30
0.0
 10
-37.53690606140914
 20
-36.60453225768273
 30
0.0
 10
-36.61586287285508
 20
-37.52696205443173
 30
0.0
 10
-36.11325181622755
 20
-37.94102056338357
 30
0.0
 10
-35.2946099205258
 20
-38.48970079735695
 30
0.0
 10
-35.0106878694274
 20
-38.66026269588514
 30
0.0
 10
-34.43362160947253
 20
-38.96940033171586
 30
0.0
 10
-33.84429061891299
 20
-39.24873253874419
 30
0.0
 10
-33.23079623548106
 20
-39.46936927374702
 30
0.0
 10
-32.6050532246954
 20
-39.66026378802811
 30
0.0
 10
-32.28469881943126
 20
-39.74109277600672
 30
0.0
 10
-31.31465374375587
 20
-39.93512124733017
 30
0.0
 10
-30.66088471547118
 20
-39.99999999999999
 30
0.0
 10
-29.99999999999992
 20
-39.99999999999999
 30
0.0
  0
SPLINE
  5
74
330
1F
100
AcDbEntity
  8
0
  6
Continuous
 62
     7
370
    25
100
AcDbSpline
210
0.0
220
0.0
230
1.0
 70
    24
 71
     3
 72
    10
 73
     6
 74
     0
 42
0.000000001
 43
0.00000001
 40
0.0
 40
0.0
 40
0.0
 40
0.0
 40
0.5
 40
0.5
 40
1.0
 40
1.0
 40
1.0
 40
1.0
 10
-29.99999999999992
 20
-40.0
 30
0.0
 10
-20.00078616169725
 20
-39.99999999999999
 30
0.0
 10
-10.00060968354008
 20
-40.00000000000004
 30
0.0
 10
10.0005347266438
 20
-40.00000000000001
 30
0.0
 10
20.00077079640015
 20
-40.00000000000003
 30
0.0
 10
29.99999999999996
 20
-40.00000000000003
 30
0.0
  0
SPLINE
  5
75
330
1F
100
AcDbEntity
  8
0
  6
Continuous
 62
     7
370
    25
100
AcDbSpline
210
0.0
220
0.0
230
1.0
 70
     8
 71
     3
 72
    29
 73
    25
 74
     0
 42
0.000000001
 43
0.00000001
 40
0.0
 40
0.0
 40
0.0
 40
0.0
 40
0.1250000000000015
 40
0.1250000000000015
 40
0.1875000000000016
 40
0.1875000000000016
 40
0.2500000000000017
 40
0.2500000000000017
 40
0.3750000000000024
 40
0.3750000000000024
 40
0.4375000000000026
 40
0.4375000000000026
 40
0.5000000000000028
 40
0.5000000000000028
 40
0.625000000000003
 40
0.625000000000003
 40
0.6875000000000026
 40
0.6875000000000026
 40
0.750000000000002
 40
0.8125000000000016
 40
0.8125000000000016
 40
0.8750000000000011
 40
0.8750000000000011
 40
1.0
 40
1.0
 40
1.0
 40
1.0
 10
29.99999999999994
 20
-40.00000000000001
 30
0.0
 10
30.6608476214896
 20
-40.00000000000001
 30
0.0
 10
31.31068904243825
 20
-39.93513610405891
 30
0.0
 10
32.26961183278343
 20
-39.74448925914154
 30
0.0
 10
32.58659325465283
 20
-39.66526612841601
 30
0.0
 10
33.21511474784553
 20
-39.47474913421498
 30
0.0
 10
33.52737824160925
 20
-39.36295852517759
 30
0.0
 10
34.43552124588695
 20
-38.98641806792791
 30
0.0
 10
35.00978280901694
 20
-38.67922961713836
 30
0.0
 10
35.82488897038384
 20
-38.13494966904123
 30
0.0
 10
36.08986216965895
 20
-37.93863770029211
 30
0.0
 10
36.5988301659451
 20
-37.52089291394016
 30
0.0
 10
36.84106714781975
 20
-37.30109264672861
 30
0.0
 10
37.53218280340009
 20
-36.60990442022714
 30
0.0
 10
37.94581667615212
 20
-36.10703068517392
 30
0.0
 10
38.49395303642644
 20
-35.28778955946153
 30
0.0
 10
38.66389112370521
 20
-35.00437454616377
 30
0.0
 10
38.97210926184883
 20
-34.42809545912871
 30
0.0
 10
39.25069780487956
 20
-33.8394597741777
 30
0.0
 10
39.47084031520549
 20
-33.22645697481232
 30
0.0
 10
39.66132267066119
 20
-32.60109306634827
 30
0.0
 10
39.7419981527445
 20
-32.28073220251392
 30
0.0
 10
39.93528237410914
 20
-31.31271996151557
 30
0.0
 10
40.00000000000005
 20
-30.66004725089202
 30
0.0
 10
40.00000000000004
 20
-29.99999999999992
 30
0.0
  0
SPLINE
  5
76
330
1F
100
AcDbEntity
  8
0
  6
Continuous
 62
     7
370
    25
100
AcDbSpline
210
0.0
220
0.0
230
1.0
 70
    24
 71
     3
 72
    18
 73
    14
 74
     0
 42
0.000000001
 43
0.00000001
 40
0.0
 40
0.0
 40
0.0
 40
0.0
 40
0.125
 40
0.125
 40
0.2500000000000001
 40
0.2500000000000001
 40
0.5000000000000001
 40
0.5000000000000001
 40
0.75
 40
0.75
 40
0.8750000000000001
 40
0.8750000000000001
 40
1.0
 40
1.0
 40
1.0
 40
1.0
 10
40.00000000000001
 20
-29.99999999999993
 30
0.0
 10
40.00000000000001
 20
-27.50221138432761
 30
0.0
 10
39.99999999999999
 20
-25.00330809257329
 30
0.0
 10
39.99999999999999
 20
-20.00428311486505
 30
0.0
 10
39.99999999999999
 20
-17.50410612678957
 30
0.0
 10
40.0
 20
-10.00280074058897
 30
0.0
 10
39.99999999999999
 20
-5.001446599565417
 30
0.0
 10
40.0
 20
5.001091176069164
 30
0.0
 10
40.00000000000001
 20
10.0024839811838
 30
0.0
 10
40.00000000000001
 20
17.50373867201893
 30
0.0
 10
40.00000000000002
 20
20.00410592692952
 30
0.0
 10
40.00000000000004
 20
25.00341429201322
 30
0.0
 10
39.99999999999999
 20
27.50235742474399
 30
0.0
 10
39.99999999999998
 20
29.99999999999992
 30
0.0
  0
SPLINE
  5
77
330
1F
100
AcDbEntity
  8
0
  6
Continuous
 62
     7
370
    25
100
AcDbSpline
210
0.0
220
0.0
230
1.0
 70
     8
 71
     3
 72
    27
 73
    23
 74
     0
 42
0.000000001
 43
0.00000001
 40
0.0
 40
0.0
 40
0.0
 40
0.0
 40
0.1249999999999986
 40
0.1249999999999986
 40
0.1874999999999986
 40
0.1874999999999986
 40
0.2499999999999986
 40
0.2499999999999986
 40
0.3749999999999987
 40
0.3749999999999987
 40
0.4999999999999988
 40
0.4999999999999988
 40
0.6249999999999989
 40
0.6249999999999989
 40
0.6874999999999994
 40
0.6874999999999994
 40
0.7499999999999998
 40
0.8125000000000002
 40
0.8125000000000002
 40
0.8750000000000007
 40
0.8750000000000007
 40
1.0
 40
1.0
 40
1.0
 40
1.0
 10
40.0
 20
29.99999999999993
 30
0.0
 10
40.00000000000001
 20
30.66008534391327
 30
0.0
 10
39.93528319404425
 20
31.30910337331209
 30
0.0
 10
39.74515503248581
 20
32.26668355528193
 30
0.0
 10
39.66615515710334
 20
32.58319953300764
 30
0.0
 10
39.47620953582904
 20
33.21075196513053
 30
0.0
 10
39.36471007418931
 20
33.52269698798098
 30
0.0
 10
38.98900281356776
 20
34.43019003979296
 30
0.0
 10
38.68247353647291
 20
35.00405961804211
 30
0.0
 10
37.95840461895003
 20
36.09013590107373
 30
0.0
 10
37.53690611957251
 20
36.6045321909403
 30
0.0
 10
36.61586294477981
 20
37.52696199089021
 30
0.0
 10
36.11325188956013
 20
37.94102050856903
 30
0.0
 10
35.29460997310012
 20
38.4897007649522
 30
0.0
 10
35.01068790964523
 20
38.66026267311678
 30
0.0
 10
34.43362162733789
 20
38.9694003233687
 30
0.0
 10
33.84429061439241
 20
39.248732541865
 30
0.0
 10
33.23079621024149
 20
39.46936928268291
 30
0.0
 10
32.60505318079217
 20
39.66026380018548
 30
0.0
 10
32.28469876467114
 20
39.74109278883722
 30
0.0
 10
31.31465368904604
 20
39.93512125451841
 30
0.0
 10
30.66088467861825
 20
39.99999999999997
 30
0.0
 10
29.99999999999994
 20
39.99999999999997
 30
0.0
  0
SPLINE
  5
78
330
1F
100
AcDbEntity
  8
0
  6
Continuous
 62
     7
370
    25
100
AcDbSpline
210
0.0
220
0.0
230
1.0
 70
    24
 71
     3
 72
    10
 73
     6
 74
     0
 42
0.000000001
 43
0.00000001
 40
0.0
 40
0.0
 40
0.0
 40
0.0
 40
0.5
 40
0.5
 40
1.0
 40
1.0
 40
1.0
 40
1.0
 10
29.99999999999994
 20
39.99999999999999
 30
0.0
 10
20.00077027897445
 20
39.99999999999999
 30
0.0
 10
10.00102411817077
 20
40.00000000000002
 30
0.0
 10
-10.00037227957847
 20
40.00000000000001
 30
0.0
 10
-20.0006695120225
 20
39.99999999999999
 30
0.0
 10
-29.99999999999993
 20
39.99999999999999
 30
0.0
  0
SPLINE
  5
79
330
1F
100
AcDbEntity
  8
0
  6
Continuous
 62
     7
370
    25
100
AcDbSpline
210
0.0
220
0.0
230
1.0
 70
     8
 71
     3
 72
    29
 73
    25
 74
     0
 42
0.000000001
 43
0.00000001
 40
0.0
 40
0.0
 40
0.0
 40
0.0
 40
0.1250000000000006
 40
0.1250000000000006
 40
0.1875000000000017
 40
0.1875000000000017
 40
0.2500000000000028
 40
0.2500000000000028
 40
0.3750000000000042
 40
0.3750000000000042
 40
0.437500000000004
 40
0.437500000000004
 40
0.5000000000000038
 40
0.5000000000000038
 40
0.6250000000000023
 40
0.6250000000000023
 40
0.687500000000002
 40
0.687500000000002
 40
0.7500000000000017
 40
0.8125000000000013
 40
0.8125000000000013
 40
0.8750000000000009
 40
0.8750000000000009
 40
1.0
 40
1.0
 40
1.0
 40
1.0
 10
-29.99999999999992
 20
39.99999999999999
 30
0.0
 10
-30.66084757341082
 20
39.99999999999999
 30
0.0
 10
-31.31068897429855
 20
39.93513611321817
 30
0.0
 10
-32.26961176971389
 20
39.74448927387456
 30
0.0
 10
-32.58659319917218
 20
39.66526614371326
 30
0.0
 10
-33.21511471854129
 20
39.47474914461766
 30
0.0
 10
-33.52737822373793
 20
39.36295853226243
 30
0.0
 10
-34.43552125623725
 20
38.98641806428647
 30
0.0
 10
-35.00978284411049
 20
38.67922959942085
 30
0.0
 10
-35.82488904358887
 20
38.1349496173013
 30
0.0
 10
-36.08986226438364
 20
37.93863762756681
 30
0.0
 10
-36.59883025349406
 20
37.52089283706096
 30
0.0
 10
-36.84106723146089
 20
37.30109256829643
 30
0.0
 10
-37.53218287630944
 20
36.60990433687475
 30
0.0
 10
-37.94581674542821
 20
36.1070305976904
 30
0.0
 10
-38.49395311512323
 20
35.28778943381369
 30
0.0
 10
-38.6638911806936
 20
35.00437444636129
 30
0.0
 10
-38.97210929674719
 20
34.42809538712942
 30
0.0
 10
-39.25069782674592
 20
33.83945972031183
 30
0.0
 10
-39.47084033511207
 20
33.22645691717329
 30
0.0
 10
-39.66132269083375
 20
32.60109299240562
 30
0.0
 10
-39.74199817424572
 20
32.2807321078237
 30
0.0
 10
-39.93528237652554
 20
31.31271992342729
 30
0.0
 10
-39.99999999999999
 20
30.66004723841844
 30
0.0
 10
-39.99999999999999
 20
29.99999999999992
 30
0.0
  0
SPLINE
  5
7A
330
1F
100
AcDbEntity
  8
0
  6
Continuous
 62
     7
370
    25
100
AcDbSpline
210
0.0
220
0.0
230
1.0
 70
    24
 71
     3
 72
    18
 73
    14
 74
     0
 42
0.000000001
 43
0.00000001
 40
0.0
 40
0.0
 40
0.0
 40
0.0
 40
0.125
 40
0.125
 40
0.25
 40
0.25
 40
0.5
 40
0.5
 40
0.75
 40
0.75
 40
0.875
 40
0.875
 40
1.0
 40
1.0
 40
1.0
 40
1.0
 10
-39.99999999999999
 20
29.99999999999993
 30
0.0
 10
-39.99999999999999
 20
27.50236898597542
 30
0.0
 10
-40.00000000000002
 20
25.00341566810365
 30
0.0
 10
-40.00000000000001
 20
20.00406309317901
 30
0.0
 10
-40.00000000000001
 20
17.50370805320874
 30
0.0
 10
-40.00000000000003
 20
10.0025581313449
 30
0.0
 10
-39.99999999999999
 20
5.001181086949095
 30
0.0
 10
-39.99999999999999
 20
-5.001296731990794
 30
0.0
 10
-39.99999999999995
 20
-10.00264713695587
 30
0.0
 10
-39.99999999999995
 20
-17.50377890063649
 30
0.0
 10
-39.99999999999995
 20
-20.00415026000002
 30
0.0
 10
-39.99999999999995
 20
-25.00340971683858
 30
0.0
 10
-39.99999999999997
 20
-27.50234237976573
 30
0.0
 10
-39.99999999999996
 20
-29.99999999999993
 30
0.0
  0
LWPOLYLINE
  5
7B
330
1F
100
AcDbEntity
  8
0
  6
Continuous
 62
     7
370
    25
100
AcDbPolyline
 90
       95
 70
   128
 43
0.0
 10
0.0
 20
-165.0
 10
107.9383757088
 20
-165.0
 10
120.0539076761
 20
-165.0
 10
132.1694396434
 20
-165.0
 10
144.2849716107
 20
-165.0
 10
156.3933681983
 20
-164.9339866415
 10
168.3669753355
 20
-163.9004369302
 10
180.0849502556
 20
-161.6471983029
 10
191.4635463218
 20
-158.20547248
 10
201.2481234822
 20
-154.1623322421
 10
210.6397098365
 20
-149.2206244215
 10
219.5729796709
 20
-143.4085185675
 10
227.9590816673
 20
-136.7777098338
 10
235.7020599507
 20
-129.3871959467
 10
242.5987467235
 20
-121.4579427359
 10
248.7347042627
 20
-112.9534707292
 10
254.0540760987
 20
-103.964837385
 10
258.5169996242
 20
-94.5671062993
 10
262.1625917644
 20
-84.633098727
 10
264.8841650422
 20
-74.3847745723
 10
266.658188222
 20
-63.8828212355
 10
267.4555906673
 20
-53.1934655174
 10
267.5
 20
-42.4043618856
 10
267.5
 20
0.0
 10
267.5
 20
13.4922969636
 10
267.5
 20
26.9845939272
 10
267.5
 20
40.4768908908
 10
267.4316455022
 20
53.9617894395
 10
266.5876486738
 20
64.4507681469
 10
264.8031120335
 20
74.7555445697
 10
262.1055408062
 20
84.8134124943
 10
258.5169996242
 20
94.5671062993
 10
253.9649403668
 20
104.1320893798
 10
248.5255517453
 20
113.2717540508
 10
242.241669738
 20
121.9061081696
 10
235.172323192
 20
129.9389667246
 10
227.3802628164
 20
137.2772394688
 10
219.1074361668
 20
143.741151927
 10
210.3117218457
 20
149.4123469445
 10
201.0766717699
 20
154.2424735934
 10
191.4635463218
 20
158.20547248
 10
180.1101756577
 20
161.6409719422
 10
168.418726529
 20
163.8932294544
 10
156.4723657125
 20
164.9312799757
 10
144.3907071625
 20
165.0
 10
132.3016090831
 20
165.0
 10
84.8087237712
 20
165.0
 10
0.0
 20
165.0
 10
-107.9383757088
 20
165.0
 10
-120.0539076761
 20
165.0
 10
-132.1694396434
 20
165.0
 10
-144.2849716107
 20
165.0
 10
-156.3933681983
 20
164.9339866415
 10
-168.3669753355
 20
163.9004369302
 10
-180.0849502556
 20
161.6471983029
 10
-191.4635463218
 20
158.20547248
 10
-201.2481234822
 20
154.1623322421
 10
-210.6397098365
 20
149.2206244215
 10
-219.5729796709
 20
143.4085185675
 10
-227.9590816673
 20
136.7777098338
 10
-235.7020599507
 20
129.3871959467
 10
-242.5987467235
 20
121.4579427359
 10
-248.7347042627
 20
112.9534707292
 10
-254.0540760987
 20
103.964837385
 10
-258.5169996242
 20
94.5671062993
 10
-262.1625917644
 20
84.633098727
 10
-264.8841650422
 20
74.3847745723
 10
-266.658188222
 20
63.8828212355
 10
-267.4555906673
 20
53.1934655174
 10
-267.5
 20
42.4043618856
 10
-267.5
 20
0.0
 10
-267.5
 20
-13.4922969636
 10
-267.5
 20
-26.9845939272
 10
-267.5
 20
-40.4768908908
 10
-267.4316455022
 20
-53.9617894395
 10
-266.5876486738
 20
-64.4507681469
 10
-264.8031120335
 20
-74.7555445697
 10
-262.1055408062
 20
-84.8134124943
 10
-258.5169996242
 20
-94.5671062993
 10
-253.9649403668
 20
-104.1320893798
 10
-248.5255517453
 20
-113.2717540508
 10
-242.241669738
 20
-121.9061081696
 10
-235.172323192
 20
-129.9389667246
 10
-227.3802628164
 20
-137.2772394688
 10
-219.1074361668
 20
-143.741151927
 10
-210.3117218457
 20
-149.4123469445
 10
-201.0766717699
 20
-154.2424735934
 10
-191.4635463218
 20
-158.20547248
 10
-180.1101756577
 20
-161.6409719422
 10
-168.418726529
 20
-163.8932294544
 10
-156.4723657125
 20
-164.9312799757
 10
-144.3907071625
 20
-165.0
 10
-132.3016090831
 20
-165.0
 10
-84.8087237712
 20
-165.0
 10
0.0
 20
-165.0
  0
LINE
  5
84
330
1F
100
AcDbEntity
  8
0
  6
Continuous
 62
     7
370
    25
100
AcDbLine
 10
-35.0
 20
30.0
 30
0.0
 11
-35.0
 21
-30.0
 31
0.0
  0
LINE
  5
85
330
1F
100
AcDbEntity
  8
0
  6
Continuous
 62
     7
370
    25
100
AcDbLine
 10
30.0
 20
35.0
 30
0.0
 11
-30.0
 21
35.0
 31
0.0
  0
LINE
  5
86
330
1F
100
AcDbEntity
  8
0
  6
Continuous
 62
     7
370
    25
100
AcDbLine
 10
-30.0
 20
-35.0
 30
0.0
 11
30.0
 21
-35.0
 31
0.0
  0
LINE
  5
87
330
1F
100
AcDbEntity
  8
0
  6
Continuous
 62
     7
370
    25
100
AcDbLine
 10
35.0
 20
-30.0
 30
0.0
 11
35.0
 21
30.0
 31
0.0
  0
ARC
  5
88
330
1F
100
AcDbEntity
  8
0
  6
Continuous
 62
     7
370
    25
100
AcDbCircle
 10
-30.0
 20
30.0
 30
0.0
 40
4.999999999999972
100
AcDbArc
 50
90.0
 51
180.0
  0
ARC
  5
89
330
1F
100
AcDbEntity
  8
0
  6
Continuous
 62
     7
370
    25
100
AcDbCircle
 10
-30.0
 20
-30.0
 30
0.0
 40
5.0
100
AcDbArc
 50
180.0
 51
270.0
  0
ARC
  5
8A
330
1F
100
AcDbEntity
  8
0
  6
Continuous
 62
     7
370
    25
100
AcDbCircle
 10
30.0
 20
-30.0
 30
0.0
 40
4.999999999999986
100
AcDbArc
 50
270.0
 51
0.0
  0
ARC
  5
8B
330
1F
100
AcDbEntity
  8
0
  6
Continuous
 62
     7
370
    25
100
AcDbCircle
 10
30.0
 20
30.0
 30
0.0
 40
4.999999999999986
100
AcDbArc
 50
0.0
 51
90.0
  0
SPLINE
  5
8C
330
1B
100
AcDbEntity
 67
     1
  8
0
  6
Continuous
 62
     7
370
    25
100
AcDbSpline
210
0.0
220
0.0
230
1.0
 70
     8
 71
     3
 72
    38
 73
    34
 74
     0
 42
0.000000001
 43
0.00000001
 40
0.0
 40
0.0
 40
0.0
 40
0.0
 40
0.0414916141477543
 40
0.0906280874359357
 40
0.14049097619009
 40
0.1890473211196999
 40
0.2345282451719919
 40
0.2759276426945245
 40
0.3110003895871438
 40
0.3424294011558058
 40
0.3705769931387669
 40
0.3958362221282547
 40
0.4189200929638249
 40
0.4492861705951867
 40
0.4771047383152324
 40
0.5026132771705354
 40
0.5259906159910722
 40
0.5473746743081302
 40
0.5674741255803142
 40
0.5881657618884504
 40
0.6095739568821669
 40
0.6392307192592166
 40
0.6701708551104568
 40
0.7024184916169973
 40
0.7360112101515911
 40
0.7708447449940894
 40
0.80524338458311
 40
0.8388145668902331
 40
0.8716405186991409
 40
0.9037925937552218
 40
0.9354239645720135
 40
0.9674004195692463
 40
0.9999999999999999
 40
0.9999999999999999
 40
0.9999999999999999
 40
0.9999999999999999
 10
55.00445978663868
 20
-129.4071874142234
 30
0.0
 10
58.89464987225693
 20
-129.2569327247737
 30
0.0
 10
67.39180030767584
 20
-128.9287388134786
 30
0.0
 10
80.5526554519516
 20
-128.1713221285936
 30
0.0
 10
94.36240073649049
 20
-127.1825216600052
 30
0.0
 10
107.8134377773853
 20
-126.0074430513369
 30
0.0
 10
120.4558658980352
 20
-124.7181635301842
 30
0.0
 10
131.8229109162799
 20
-123.4036189252151
 30
0.0
 10
141.865453029721
 20
-122.1202536680907
 30
0.0
 10
150.6629347864374
 20
-120.906617621128
 30
0.0
 10
158.5365048860126
 20
-119.7365827321816
 30
0.0
 10
165.6307778807343
 20
-118.6523321029448
 30
0.0
 10
172.9067265219558
 20
-117.3733979291517
 30
0.0
 10
180.311872075806
 20
-115.5208098270023
 30
0.0
 10
187.792446214187
 20
-113.116371676938
 30
0.0
 10
194.4962529252525
 20
-110.4858634738543
 30
0.0
 10
200.4891321295135
 20
-107.7292709940786
 30
0.0
 10
205.8784104125853
 20
-104.8968196240865
 30
0.0
 10
210.9061006888969
 20
-101.9338930819651
 30
0.0
 10
215.78906045084
 20
-98.73352438069026
 30
0.0
 10
221.2329610759168
 20
-94.76753527861906
 30
0.0
 10
227.1740268825019
 20
-89.86801808435372
 30
0.0
 10
233.4904010127227
 20
-83.85783487759454
 30
0.0
 10
239.5921392616679
 20
-77.12104032994964
 30
0.0
 10
245.3808043571982
 20
-69.64434623836966
 30
0.0
 10
250.6618449239388
 20
-61.55740772540049
 30
0.0
 10
255.268470730061
 20
-53.07092444777346
 30
0.0
 10
259.1078220774507
 20
-44.41715402127967
 30
0.0
 10
262.1908192344894
 20
-35.69027831268873
 30
0.0
 10
264.5563114656916
 20
-26.93014034812562
 30
0.0
 10
266.2320876952111
 20
-18.09654117906148
 30
0.0
 10
267.2992124665944
 20
-9.119944553842435
 30
0.0
 10
267.4326416479392
 20
-3.059474986391461
 30
0.0
 10
267.5000000000001
 20
0.0
 30
0.0
  0
SPLINE
  5
8D
330
1B
100
AcDbEntity
 67
     1
  8
0
  6
Continuous
 62
     7
370
    25
100
AcDbSpline
210
0.0
220
0.0
230
1.0
 70
     8
 71
     3
 72
    38
 73
    34
 74
     0
 42
0.000000001
 43
0.00000001
 40
0.0
 40
0.0
 40
0.0
 40
0.0
 40
0.0325995800227361
 40
0.0645760346197508
 40
0.096207405040643
 40
0.1283594796943074
 40
0.1611854310923651
 40
0.194756612979311
 40
0.2291552521377971
 40
0.2639887865443167
 40
0.2975815046584623
 40
0.3298291407613914
 40
0.3607692762253848
 40
0.3904260382312503
 40
0.4118342329570204
 40
0.4325258690061791
 40
0.4526253200267973
 40
0.4740093780762116
 40
0.4973867166041573
 40
0.5228952551401951
 40
0.5507138225120638
 40
0.5810798997633624
 40
0.6056191275467694
 40
0.6326728342418632
 40
0.6630288732682521
 40
0.6971567793781509
 40
0.7354569814823698
 40
0.7780737740975617
 40
0.8218347722743594
 40
0.8680214953522265
 40
0.915058089963846
 40
0.9612574564228545
 40
1.0
 40
1.0
 40
1.0
 40
1.0
 10
-267.4999999999999
 20
0.0
 30
0.0
 10
-267.432641647939
 20
-3.059474986391433
 30
0.0
 10
-267.2992124665942
 20
-9.119944553842393
 30
0.0
 10
-266.232087695211
 20
-18.09654117906144
 30
0.0
 10
-264.5563114656917
 20
-26.93014034812541
 30
0.0
 10
-262.1908192344899
 20
-35.6902783126896
 30
0.0
 10
-259.1078220774505
 20
-44.41715402127679
 30
0.0
 10
-255.2684707300621
 20
-53.07092444778479
 30
0.0
 10
-250.6618449239326
 20
-61.55740772535632
 30
0.0
 10
-245.3808043572199
 20
-69.6443462385334
 30
0.0
 10
-239.592139261593
 20
-77.12104032937336
 30
0.0
 10
-233.4904010129885
 20
-83.85783487961812
 30
0.0
 10
-227.1740268815705
 20
-89.86801807725789
 30
0.0
 10
-221.2329610788485
 20
-94.76753530095705
 30
0.0
 10
-215.789060443318
 20
-98.73352432338467
 30
0.0
 10
-210.9061007158857
 20
-101.9338932875853
 30
0.0
 10
-205.8784103122515
 20
-104.8968188596712
 30
0.0
 10
-200.4891325470841
 20
-107.7292741754299
 30
0.0
 10
-194.4962511411438
 20
-110.4858498812321
 30
0.0
 10
-187.7924538101442
 20
-113.1164295483898
 30
0.0
 10
-180.3118397426888
 20
-115.5205634901185
 30
0.0
 10
-172.7742368579122
 20
-117.407501620052
 30
0.0
 10
-165.194427096948
 20
-118.7208644759228
 30
0.0
 10
-157.5939063937382
 20
-119.8814901656232
 30
0.0
 10
-149.0963687727582
 20
-121.1310665880705
 30
0.0
 10
-139.5400634252496
 20
-122.4292797277089
 30
0.0
 10
-128.8284593916386
 20
-123.7648832260203
 30
0.0
 10
-117.2025079482266
 20
-125.065699553311
 30
0.0
 10
-104.8236889358092
 20
-126.2824637455283
 30
0.0
 10
-92.01583200314722
 20
-127.3622901019311
 30
0.0
 10
-78.96529001361286
 20
-128.2680593166686
 30
0.0
 10
-66.60099374313376
 20
-128.9628111277635
 30
0.0
 10
-58.63690955522027
 20
-129.2684353850851
 30
0.0
 10
-55.00444027626288
 20
-129.4078325460681
 30
0.0
  0
SPLINE
  5
8E
330
1B
100
AcDbEntity
 67
     1
  8
0
  6
Continuous
 62
     7
370
    25
100
AcDbSpline
210
0.0
220
0.0
230
1.0
 70
     8
 71
     3
 72
    29
 73
    25
 74
     0
 42
0.000000001
 43
0.00000001
 40
0.0
 40
0.0
 40
0.0
 40
0.0
 40
0.1249999999999975
 40
0.1249999999999975
 40
0.1874999999999969
 40
0.1874999999999969
 40
0.2499999999999963
 40
0.2499999999999963
 40
0.3749999999999966
 40
0.3749999999999966
 40
0.4374999999999966
 40
0.4374999999999966
 40
0.4999999999999966
 40
0.4999999999999966
 40
0.6249999999999981
 40
0.6249999999999981
 40
0.6874999999999987
 40
0.6874999999999987
 40
0.7499999999999991
 40
0.8124999999999997
 40
0.8124999999999997
 40
0.8750000000000002
 40
0.8750000000000002
 40
1.0
 40
1.0
 40
1.0
 40
1.0
 10
44.99999999999978
 20
-127.9056404642267
 30
0.0
 10
45.6604518551145
 20
-127.9247624879706
 30
0.0
 10
46.30979556789963
 20
-127.9459434363768
 30
0.0
 10
47.26788531146748
 20
-127.9792826459663
 30
0.0
 10
47.58457355638659
 20
-127.9906855024965
 30
0.0
 10
48.21248074407463
 20
-128.0140389011469
 30
0.0
 10
48.52457315121121
 20
-128.0260292429625
 30
0.0
 10
49.43244226506594
 20
-128.0620784002735
 30
0.0
 10
50.00655639957588
 20
-128.086440068449
 30
0.0
 10
50.82145663408129
 20
-128.1237811405795
 30
0.0
 10
51.08616393035022
 20
-128.1364060139
 30
0.0
 10
51.59570052788158
 20
-128.1618204360398
 30
0.0
 10
51.83818384361131
 20
-128.1744894035691
 30
0.0
 10
52.52993356441126
 20
-128.2124894685059
 30
0.0
 10
52.94383660742544
 20
-128.2378115101991
 30
0.0
 10
53.4921343301646
 20
-128.2762069830532
 30
0.0
 10
53.66245184877094
 20
-128.2890697065171
 30
0.0
 10
53.97115637482312
 20
-128.3144389374452
 30
0.0
 10
54.25008233003388
 20
-128.3395961436087
 30
0.0
 10
54.47036695791629
 20
-128.3644786676655
 30
0.0
 10
54.66094089001368
 20
-128.3892967121742
 30
0.0
 10
54.74162705307219
 20
-128.4017256468078
 30
0.0
 10
54.93523466401692
 20
-128.4386363213407
 30
0.0
 10
54.99999999999991
 20
-128.4622570373666
 30
0.0
 10
54.99999999999979
 20
-128.4862998609616
 30
0.0
  0
SPLINE
  5
8F
330
1B
100
AcDbEntity
 67
     1
  8
0
  6
Continuous
 62
     7
370
    25
100
AcDbSpline
210
0.0
220
0.0
230
1.0
 70
     8
 71
     3
 72
    30
 73
    26
 74
     0
 42
0.000000001
 43
0.00000001
 40
0.0
 40
0.0
 40
0.0
 40
0.0
 40
0.015625
 40
0.015625
 40
0.03125
 40
0.03125
 40
0.0625000000000002
 40
0.0625000000000002
 40
0.1250000000000003
 40
0.1250000000000003
 40
0.2500000000000003
 40
0.2500000000000003
 40
0.5000000000000004
 40
0.5000000000000004
 40
0.7500000000000006
 40
0.7500000000000006
 40
0.8750000000000006
 40
0.8750000000000006
 40
0.9375000000000004
 40
0.9375000000000004
 40
0.9687500000000003
 40
0.9687500000000003
 40
0.9843750000000001
 40
0.9843750000000001
 40
1.0
 40
1.0
 40
1.0
 40
1.0
 10
-45.00000001434031
 20
-127.9056404646902
 30
0.0
 10
-44.53128418059432
 20
-127.8920697628248
 30
0.0
 10
-44.06277052728723
 20
-127.8723163745506
 30
0.0
 10
-43.12562307063049
 20
-127.8364844087657
 30
0.0
 10
-42.657055925246
 20
-127.8183671334702
 30
0.0
 10
-41.25137447019657
 20
-127.7634043279732
 30
0.0
 10
-40.31424351705977
 20
-127.727067719696
 30
0.0
 10
-37.50277405380421
 20
-127.620400277307
 30
0.0
 10
-35.62837478159184
 20
-127.5519274186106
 30
0.0
 10
-30.00484398213514
 20
-127.3566907479901
 30
0.0
 10
-26.25537847414981
 20
-127.240139355843
 30
0.0
 10
-15.00510682108094
 20
-126.9478226341905
 30
0.0
 10
-7.503297841454906
 20
-126.8290550835371
 30
0.0
 10
7.501288945519533
 20
-126.8290337929036
 30
0.0
 10
15.0041063136149
 20
-126.9478026001564
 30
0.0
 10
26.25456108386539
 20
-127.2401151369315
 30
0.0
 10
30.00430403650978
 20
-127.356672939962
 30
0.0
 10
35.62806204350723
 20
-127.551916092251
 30
0.0
 10
37.50252914742551
 20
-127.6203911574069
 30
0.0
 10
40.31409114404246
 20
-127.7270618527238
 30
0.0
 10
41.25125112696804
 20
-127.7633994499707
 30
0.0
 10
42.65697505143356
 20
-127.8183639988741
 30
0.0
 10
43.12555682728436
 20
-127.8364818612554
 30
0.0
 10
44.06273448190981
 20
-127.8723150110356
 30
0.0
 10
44.53125894019657
 20
-127.8920690318005
 30
0.0
 10
44.99999998565932
 20
-127.9056404638605
 30
0.0
  0
SPLINE
  5
90
330
1B
100
AcDbEntity
 67
     1
  8
0
  6
Continuous
 62
     7
370
    25
100
AcDbSpline
210
0.0
220
0.0
230
1.0
 70
     8
 71
     3
 72
    29
 73
    25
 74
     0
 42
0.000000001
 43
0.00000001
 40
0.0
 40
0.0
 40
0.0
 40
0.0
 40
0.1249999999999999
 40
0.1249999999999999
 40
0.1875000000000005
 40
0.1875000000000005
 40
0.250000000000001
 40
0.250000000000001
 40
0.3750000000000008
 40
0.3750000000000008
 40
0.437500000000001
 40
0.437500000000001
 40
0.5000000000000012
 40
0.5000000000000012
 40
0.6250000000000016
 40
0.6250000000000016
 40
0.6875000000000013
 40
0.6875000000000013
 40
0.7500000000000011
 40
0.8125000000000009
 40
0.8125000000000009
 40
0.8750000000000006
 40
0.8750000000000006
 40
1.0
 40
1.0
 40
1.0
 40
1.0
 10
-55.00000000000016
 20
-128.4862998609145
 30
0.0
 10
-55.00000000000042
 20
-128.4622569672743
 30
0.0
 10
-54.93524215702534
 20
-128.4387725503082
 30
0.0
 10
-54.74496075065492
 20
-128.402295558218
 30
0.0
 10
-54.66589431541263
 20
-128.3900132739969
 30
0.0
 10
-54.4757760335205
 20
-128.3651153747069
 30
0.0
 10
-54.36417791270873
 20
-128.3524599504071
 30
0.0
 10
-53.98814884630563
 20
-128.3146900685744
 30
0.0
 10
-53.68134451290939
 20
-128.2895219615352
 30
0.0
 10
-53.13775783062579
 20
-128.2513598378323
 30
0.0
 10
-52.9418827700483
 20
-128.2385291880926
 30
0.0
 10
-52.52406871083029
 20
-128.212837810064
 30
0.0
 10
-52.30423161072306
 20
-128.2001005531567
 30
0.0
 10
-51.61296415975926
 20
-128.1620984093532
 30
0.0
 10
-51.11007720830615
 20
-128.1370420394269
 30
0.0
 10
-50.29123240097967
 20
-128.0994676945283
 30
0.0
 10
-50.00739980090636
 20
-128.0869493657599
 30
0.0
 10
-49.43053349670997
 20
-128.0624082335942
 30
0.0
 10
-48.84143969383346
 20
-128.0382206501668
 30
0.0
 10
-48.22827167444797
 20
-128.0146402780279
 30
0.0
 10
-47.60290772291955
 20
-127.9913540685545
 30
0.0
 10
-47.282754510095
 20
-127.9798093689081
 30
0.0
 10
-46.31366419795411
 20
-127.9460599100159
 30
0.0
 10
-45.66045061777507
 20
-127.9247624521945
 30
0.0
 10
-44.99999999999844
 20
-127.9056404642757
 30
0.0
  0
SPLINE
  5
91
330
1B
100
AcDbEntity
 67
     1
  8
0
  6
Continuous
 62
     7
370
    25
100
AcDbSpline
210
0.0
220
0.0
230
1.0
 70
    24
 71
     3
 72
    34
 73
    30
 74
     0
 42
0.000000001
 43
0.00000001
 40
0.0
 40
0.0
 40
0.0
 40
0.0
 40
0.2502841748862739
 40
0.2783772965571819
 40
0.3064704182280901
 40
0.3345635398989979
 40
0.3626405335262389
 40
0.3905078067834839
 40
0.4181768561715135
 40
0.445741738215626
 40
0.470290587009894
 40
0.4948982201907179
 40
0.5196106740058968
 40
0.5444002933216792
 40
0.56922015908955
 40
0.59358791247808
 40
0.6179047173414591
 40
0.6421235085752429
 40
0.6662470711615051
 40
0.6907838616165667
 40
0.7153710282786833
 40
0.7400676267819191
 40
0.7649226446718991
 40
0.7899402971769812
 40
0.88826622302516
 40
0.9195517448859443
 40
0.9508372667467285
 40
0.9821227886075129
 40
1.0
 40
1.0
 40
1.0
 40
1.0
 10
0.0
 20
0.0
 30
0.0
 10
35.97955031021576
 20
0.0
 30
0.0
 10
75.99762157361896
 20
0.0
 30
0.0
 10
120.0538389566237
 20
0.0
 30
0.0
 10
132.1697110538944
 20
0.0
 30
0.0
 10
144.2816364572081
 20
0.0
 30
0.0
 10
156.3671808728504
 20
0.0
 30
0.0
 10
168.3681647053352
 20
0.0
 30
0.0
 10
180.1194968882618
 20
0.0
 30
0.0
 10
191.1179292250081
 20
0.0
 30
0.0
 10
201.3251586176667
 20
0.0
 30
0.0
 10
210.7358543021946
 20
0.0
 30
0.0
 10
219.6774878396222
 20
0.0
 30
0.0
 10
228.0712249801292
 20
0.0
 30
0.0
 10
235.7767077856524
 20
0.0
 30
0.0
 10
242.7184400324478
 20
0.0
 30
0.0
 10
248.8591994565313
 20
0.0
 30
0.0
 10
254.1876630326285
 20
0.0
 30
0.0
 10
258.6879133247315
 20
0.0
 30
0.0
 10
262.3203961057811
 20
0.0
 30
0.0
 10
265.0458402454441
 20
0.0
 30
0.0
 10
266.8302700362629
 20
0.0
 30
0.0
 10
267.6056551454645
 20
0.0
 30
0.0
 10
267.3715038586693
 20
0.0
 30
0.0
 10
267.5132941606447
 20
0.0
 30
0.0
 10
267.4995549998077
 20
0.0
 30
0.0
 10
267.4942104904735
 20
0.0
 30
0.0
 10
267.5194040309702
 20
0.0
 30
0.0
 10
267.4765155463381
 20
0.0
 30
0.0
 10
267.4609198612463
 20
0.0
 30
0.0
  0
SPLINE
  5
92
330
1B
100
AcDbEntity
 67
     1
  8
0
  6
Continuous
 62
     7
370
    25
100
AcDbSpline
210
0.0
220
0.0
230
1.0
 70
    24
 71
     3
 72
    33
 73
    29
 74
     0
 42
0.000000001
 43
0.00000001
 40
0.0
 40
0.0
 40
0.0
 40
0.0
 40
0.0134079472524701
 40
0.1117337267027771
 40
0.1430192019824204
 40
0.1743046772620636
 40
0.2055901525417068
 40
0.2368588743389261
 40
0.2612589676063435
 40
0.2855089766221028
 40
0.3096550663169405
 40
0.3337537439739288
 40
0.358316264298071
 40
0.3829782117446218
 40
0.4077401154682386
 40
0.4325522602589054
 40
0.4573713355795596
 40
0.4817152641207495
 40
0.5059823455665547
 40
0.5301483201637497
 40
0.5542587495903896
 40
0.5817634241226621
 40
0.6093716037520462
 40
0.6371767937668471
 40
0.6651917822644828
 40
0.693223568115043
 40
0.8033484410993872
 40
0.9999999999999999
 40
0.9999999999999999
 40
0.9999999999999999
 40
0.9999999999999999
 10
-267.4761992506334
 20
0.0
 30
0.0
 10
-267.4846957096817
 20
0.0
 30
0.0
 10
-267.5555000629039
 20
0.0
 30
0.0
 10
-267.4960271369278
 20
0.0
 30
0.0
 10
-267.4978230489096
 20
0.0
 30
0.0
 10
-267.5119323707741
 20
0.0
 30
0.0
 10
-267.4544577291167
 20
0.0
 30
0.0
 10
-267.6543482118414
 20
0.0
 30
0.0
 10
-266.7528520750497
 20
0.0
 30
0.0
 10
-264.9590540592682
 20
0.0
 30
0.0
 10
-262.2575893424787
 20
0.0
 30
0.0
 10
-258.6390848823745
 20
0.0
 30
0.0
 10
-254.1032420026864
 20
0.0
 30
0.0
 10
-248.6543815969243
 20
0.0
 30
0.0
 10
-242.365564836086
 20
0.0
 30
0.0
 10
-235.2926369309246
 20
0.0
 30
0.0
 10
-227.5380093642547
 20
0.0
 30
0.0
 10
-219.2079385098287
 20
0.0
 30
0.0
 10
-210.4040365598178
 20
0.0
 30
0.0
 10
-201.1505775970604
 20
0.0
 30
0.0
 10
-191.0655411923126
 20
0.0
 30
0.0
 10
-180.1446355045365
 20
0.0
 30
0.0
 10
-168.4200558705031
 20
0.0
 30
0.0
 10
-156.4462927767171
 20
0.0
 30
0.0
 10
-144.3872885262714
 20
0.0
 30
0.0
 10
-120.5015437529333
 20
0.0
 30
0.0
 10
-72.36928390073119
 20
0.0
 30
0.0
 10
-28.26925152372306
 20
0.0
 30
0.0
 10
0.0
 20
0.0
 30
0.0
  0
LINE
  5
9A
330
1B
100
AcDbEntity
 67
     1
  8
0
  6
Continuous
 62
     7
370
    25
100
AcDbLine
 10
45.0
 20
-141.0
 30
0.0
 11
45.0
 21
-127.9056404636
 31
0.0
  0
LINE
  5
9B
330
1B
100
AcDbEntity
 67
     1
  8
0
  6
Continuous
 62
     7
370
    25
100
AcDbLine
 10
55.0
 20
-141.0
 30
0.0
 11
55.0
 21
-128.4862998607
 31
0.0
  0
LINE
  5
9C
330
1B
100
AcDbEntity
 67
     1
  8
0
  6
Continuous
 62
     7
370
    25
100
AcDbLine
 10
-55.0
 20
-141.0
 30
0.0
 11
-55.0
 21
-128.4862998608
 31
0.0
  0
LINE
  5
9D
330
1B
100
AcDbEntity
 67
     1
  8
0
  6
Continuous
 62
     7
370
    25
100
AcDbLine
 10
-45.0
 20
-141.0
 30
0.0
 11
-45.0
 21
-127.905640464
 31
0.0
  0
LINE
  5
9E
330
1B
100
AcDbEntity
 67
     1
  8
0
  6
Continuous
 62
     7
370
    25
100
AcDbLine
 10
55.0
 20
-141.0
 30
0.0
 11
-55.0
 21
-141.0
 31
0.0
  0
VIEWPORT
  5
182
330
1B
100
AcDbEntity
 67
     1
  8
0
100
AcDbViewport
 10
0.0
 20
0.0
 30
0.0
 40
205.6
 41
156.0
 68
     1
 69
     1
 12
0.0
 22
0.0
 13
0.0
 23
0.0
 14
10.0
 24
10.0
 15
10.0
 25
10.0
 16
0.0
 26
0.0
 36
1.0
 17
0.0
 27
0.0
 37
0.0
 42
50.0
 43
0.0
 44
0.0
 45
414.0525291829
 50
0.0
 51
0.0
 72
   100
 90
   557152
  1

281
     0
 71
     1
 74
     0
110
0.0
120
0.0
130
0.0
111
1.0
121
0.0
131
0.0
112
0.0
122
1.0
132
0.0
 79
     0
146
0.0
  0
ENDSEC
  0
SECTION
  2
OBJECTS
  0
DICTIONARY
  5
C
330
0
100
AcDbDictionary
281
     1
  3
ACAD_GROUP
350
D
  3
ACAD_LAYOUT
350
1A
  3
ACAD_MLINESTYLE
350
17
  3
ACAD_PLOTSETTINGS
350
19
  3
ACAD_PLOTSTYLENAME
350
E
  3
ACAD_SCALELIST
350
47
  0
DICTIONARY
  5
D
102
{ACAD_REACTORS
330
C
102
}
330
C
100
AcDbDictionary
281
     1
  0
DICTIONARY
  5
1A
102
{ACAD_REACTORS
330
C
102
}
330
C
100
AcDbDictionary
281
     1
  3
_Dimetrisch
350
169
  3
_Isometrisch
350
114
  3
_Links
350
26
  3
_Normal auf
350
B7
  3
_Rechts
350
E4
  3
_Rückseite
350
CE
  3
_Trimetrisch
350
148
  3
_Unten
350
FE
  3
_Vorderseite
350
1E
  3
Model
350
22
  0
DICTIONARY
  5
17
102
{ACAD_REACTORS
330
C
102
}
330
C
100
AcDbDictionary
281
     1
  3
Standard
350
18
  0
DICTIONARY
  5
19
102
{ACAD_REACTORS
330
C
102
}
330
C
100
AcDbDictionary
281
     1
  0
ACDBDICTIONARYWDFLT
  5
E
102
{ACAD_REACTORS
330
C
102
}
330
C
100
AcDbDictionary
281
     1
  3
Normal
350
F
100
AcDbDictionaryWithDefault
340
F
  0
DICTIONARY
  5
47
102
{ACAD_REACTORS
330
C
102
}
330
C
100
AcDbDictionary
281
     1
  3
A0
350
48
  3
A1
350
49
  3
A2
350
4A
  3
A3
350
4B
  3
A4
350
4C
  3
A5
350
4D
  3
A6
350
4E
  3
A7
350
4F
  3
A8
350
50
  3
A9
350
51
  3
B0
350
52
  3
B1
350
53
  3
B2
350
54
  3
B3
350
55
  3
B4
350
56
  3
B5
350
57
  3
B6
350
58
  3
B7
350
59
  3
B8
350
5A
  3
B9
350
5B
  3
C0
350
5C
  3
C1
350
5D
  3
C2
350
5E
  3
C3
350
5F
  3
C4
350
60
  3
C5
350
61
  3
C6
350
62
  3
C7
350
63
  3
C8
350
64
  3
C9
350
65
  3
D0
350
66
  3
D1
350
67
  3
D2
350
68
  0
LAYOUT
  5
169
102
{ACAD_REACTORS
330
1A
102
}
330
1A
100
AcDbPlotSettings
  1

  2
none_device
  4
ISO_A4_(210.00_x_297.00_MM)
  6

 40
7.5
 41
20.0
 42
7.5
 43
20.0
 44
210.0
 45
297.0
 46
0.0
 47
0.0
 48
0.0
 49
0.0
140
0.0
141
0.0
142
1.0
143
2.0818533541
 70
   688
 72
     1
 73
     1
 74
     1
  7

 75
     0
147
0.4803412296
148
267.5363119948
149
141.0
100
AcDbLayout
  1
_Dimetrisch
 70
     1
 71
     9
 10
0.0
 20
0.0
 11
0.0
 21
0.0
 12
0.0
 22
0.0
 32
0.0
 14
0.0
 24
0.0
 34
0.0
 15
0.0
 25
0.0
 35
0.0
146
0.0
 13
0.0
 23
0.0
 33
0.0
 16
1.0
 26
0.0
 36
0.0
 17
0.0
 27
1.0
 37
0.0
 76
     0
330
168
331
192
  0
LAYOUT
  5
114
102
{ACAD_REACTORS
330
1A
102
}
330
1A
100
AcDbPlotSettings
  1

  2
none_device
  4
ISO_A4_(210.00_x_297.00_MM)
  6

 40
7.5
 41
20.0
 42
7.5
 43
20.0
 44
210.0
 45
297.0
 46
0.0
 47
0.0
 48
0.0
 49
0.0
140
0.0
141
0.0
142
1.0
143
2.0818533541
 70
   688
 72
     1
 73
     1
 74
     1
  7

 75
     0
147
0.4803412296
148
267.5363119948
149
141.0
100
AcDbLayout
  1
_Isometrisch
 70
     1
 71
     7
 10
0.0
 20
0.0
 11
0.0
 21
0.0
 12
0.0
 22
0.0
 32
0.0
 14
0.0
 24
0.0
 34
0.0
 15
0.0
 25
0.0
 35
0.0
146
0.0
 13
0.0
 23
0.0
 33
0.0
 16
1.0
 26
0.0
 36
0.0
 17
0.0
 27
1.0
 37
0.0
 76
     0
330
113
331
18E
  0
LAYOUT
  5
26
102
{ACAD_REACTORS
330
1A
102
}
330
1A
100
AcDbPlotSettings
  1

  2
none_device
  4
ISO_A4_(210.00_x_297.00_MM)
  6

 40
7.5
 41
20.0
 42
7.5
 43
20.0
 44
210.0
 45
297.0
 46
0.0
 47
0.0
 48
0.0
 49
0.0
140
0.0
141
0.0
142
1.0
143
2.0818533541
 70
   688
 72
     1
 73
     1
 74
     1
  7

 75
     0
147
0.4803412296
148
267.5363119948
149
141.0
100
AcDbLayout
  1
_Links
 70
     1
 71
     2
 10
0.0
 20
0.0
 11
0.0
 21
0.0
 12
0.0
 22
0.0
 32
0.0
 14
0.0
 24
0.0
 34
0.0
 15
0.0
 25
0.0
 35
0.0
146
0.0
 13
0.0
 23
0.0
 33
0.0
 16
1.0
 26
0.0
 36
0.0
 17
0.0
 27
1.0
 37
0.0
 76
     0
330
23
331
184
  0
LAYOUT
  5
B7
102
{ACAD_REACTORS
330
1A
102
}
330
1A
100
AcDbPlotSettings
  1

  2
none_device
  4
ISO_A4_(210.00_x_297.00_MM)
  6

 40
7.5
 41
20.0
 42
7.5
 43
20.0
 44
210.0
 45
297.0
 46
0.0
 47
0.0
 48
0.0
 49
0.0
140
0.0
141
0.0
142
1.0
143
2.0818533541
 70
   688
 72
     1
 73
     1
 74
     1
  7

 75
     0
147
0.4803412296
148
267.5363119948
149
141.0
100
AcDbLayout
  1
_Normal auf
 70
     1
 71
     3
 10
0.0
 20
0.0
 11
0.0
 21
0.0
 12
0.0
 22
0.0
 32
0.0
 14
0.0
 24
0.0
 34
0.0
 15
0.0
 25
0.0
 35
0.0
146
0.0
 13
0.0
 23
0.0
 33
0.0
 16
1.0
 26
0.0
 36
0.0
 17
0.0
 27
1.0
 37
0.0
 76
     0
330
B6
331
186
  0
LAYOUT
  5
E4
102
{ACAD_REACTORS
330
1A
102
}
330
1A
100
AcDbPlotSettings
  1

  2
none_device
  4
ISO_A4_(210.00_x_297.00_MM)
  6

 40
7.5
 41
20.0
 42
7.5
 43
20.0
 44
210.0
 45
297.0
 46
0.0
 47
0.0
 48
0.0
 49
0.0
140
0.0
141
0.0
142
1.0
143
2.0818533541
 70
   688
 72
     1
 73
     1
 74
     1
  7

 75
     0
147
0.4803412296
148
267.5363119948
149
141.0
100
AcDbLayout
  1
_Rechts
 70
     1
 71
     5
 10
0.0
 20
0.0
 11
0.0
 21
0.0
 12
0.0
 22
0.0
 32
0.0
 14
0.0
 24
0.0
 34
0.0
 15
0.0
 25
0.0
 35
0.0
146
0.0
 13
0.0
 23
0.0
 33
0.0
 16
1.0
 26
0.0
 36
0.0
 17
0.0
 27
1.0
 37
0.0
 76
     0
330
E3
331
18A
  0
LAYOUT
  5
CE
102
{ACAD_REACTORS
330
1A
102
}
330
1A
100
AcDbPlotSettings
  1

  2
none_device
  4
ISO_A4_(210.00_x_297.00_MM)
  6

 40
7.5
 41
20.0
 42
7.5
 43
20.0
 44
210.0
 45
297.0
 46
0.0
 47
0.0
 48
0.0
 49
0.0
140
0.0
141
0.0
142
1.0
143
2.0818533541
 70
   688
 72
     1
 73
     1
 74
     1
  7

 75
     0
147
0.4803412296
148
267.5363119948
149
141.0
100
AcDbLayout
  1
_Rückseite
 70
     1
 71
     4
 10
0.0
 20
0.0
 11
0.0
 21
0.0
 12
0.0
 22
0.0
 32
0.0
 14
0.0
 24
0.0
 34
0.0
 15
0.0
 25
0.0
 35
0.0
146
0.0
 13
0.0
 23
0.0
 33
0.0
 16
1.0
 26
0.0
 36
0.0
 17
0.0
 27
1.0
 37
0.0
 76
     0
330
CD
331
188
  0
LAYOUT
  5
148
102
{ACAD_REACTORS
330
1A
102
}
330
1A
100
AcDbPlotSettings
  1

  2
none_device
  4
ISO_A4_(210.00_x_297.00_MM)
  6

 40
7.5
 41
20.0
 42
7.5
 43
20.0
 44
210.0
 45
297.0
 46
0.0
 47
0.0
 48
0.0
 49
0.0
140
0.0
141
0.0
142
1.0
143
2.0818533541
 70
   688
 72
     1
 73
     1
 74
     1
  7

 75
     0
147
0.4803412296
148
267.5363119948
149
141.0
100
AcDbLayout
  1
_Trimetrisch
 70
     1
 71
     8
 10
0.0
 20
0.0
 11
0.0
 21
0.0
 12
0.0
 22
0.0
 32
0.0
 14
0.0
 24
0.0
 34
0.0
 15
0.0
 25
0.0
 35
0.0
146
0.0
 13
0.0
 23
0.0
 33
0.0
 16
1.0
 26
0.0
 36
0.0
 17
0.0
 27
1.0
 37
0.0
 76
     0
330
147
331
190
  0
LAYOUT
  5
FE
102
{ACAD_REACTORS
330
1A
102
}
330
1A
100
AcDbPlotSettings
  1

  2
none_device
  4
ISO_A4_(210.00_x_297.00_MM)
  6

 40
7.5
 41
20.0
 42
7.5
 43
20.0
 44
210.0
 45
297.0
 46
0.0
 47
0.0
 48
0.0
 49
0.0
140
0.0
141
0.0
142
1.0
143
2.0818533541
 70
   688
 72
     1
 73
     1
 74
     1
  7

 75
     0
147
0.4803412296
148
267.5363119948
149
141.0
100
AcDbLayout
  1
_Unten
 70
     1
 71
     6
 10
0.0
 20
0.0
 11
0.0
 21
0.0
 12
0.0
 22
0.0
 32
0.0
 14
0.0
 24
0.0
 34
0.0
 15
0.0
 25
0.0
 35
0.0
146
0.0
 13
0.0
 23
0.0
 33
0.0
 16
1.0
 26
0.0
 36
0.0
 17
0.0
 27
1.0
 37
0.0
 76
     0
330
FD
331
18C
  0
LAYOUT
  5
1E
102
{ACAD_REACTORS
330
1A
102
}
330
1A
100
AcDbPlotSettings
  1

  2
none_device
  4
ISO_A4_(210.00_x_297.00_MM)
  6

 40
7.5
 41
20.0
 42
7.5
 43
20.0
 44
210.0
 45
297.0
 46
0.0
 47
0.0
 48
0.0
 49
0.0
140
0.0
141
0.0
142
1.0
143
2.0818533541
 70
   688
 72
     1
 73
     1
 74
     1
  7

 75
     0
147
0.4803412296
148
267.5363119948
149
141.0
100
AcDbLayout
  1
_Vorderseite
 70
     1
 71
     1
 10
-309.1733790761
 20
-156.6139001555
 11
309.1370670813
 21
280.5753041983
 12
0.0
 22
0.0
 32
0.0
 14
-267.5363119948
 24
-141.0
 34
0.0
 15
267.5
 25
0.0
 35
0.0
146
0.0
 13
0.0
 23
0.0
 33
0.0
 16
1.0
 26
0.0
 36
0.0
 17
0.0
 27
1.0
 37
0.0
 76
     0
330
1B
331
182
  0
LAYOUT
  5
22
102
{ACAD_REACTORS
330
1A
102
}
330
1A
100
AcDbPlotSettings
  1

  2
none_device
  4
ANSI_A_(11.00_x_8.50_Inches)
  6

 40
6.35
 41
19.05
 42
6.35000508
 43
19.05000254
 44
279.4
 45
215.9
 46
133.34999746
 47
88.89999873
 48
0.0
 49
0.0
140
0.0
141
0.0
142
0.0203551402
143
1.0
 70
  1696
 72
     0
 73
     0
 74
     0
  7

 75
     0
147
0.0179189148
148
-1300.4909072572
149
0.0
100
AcDbLayout
  1
Model
 70
     1
 71
     0
 10
0.0
 20
0.0
 11
420.0
 21
297.0
 12
0.0
 22
0.0
 32
0.0
 14
-267.5
 24
-165.0
 34
0.0
 15
267.5
 25
165.0
 35
0.0
146
0.0
 13
0.0
 23
0.0
 33
0.0
 16
1.0
 26
0.0
 36
0.0
 17
0.0
 27
1.0
 37
0.0
 76
     0
330
1F
331
29
  0
MLINESTYLE
  5
18
102
{ACAD_REACTORS
330
17
102
}
330
17
100
AcDbMlineStyle
  2
Standard
 70
     0
  3

 62
   256
 51
90.0
 52
90.0
 71
     2
 49
0.5
 62
   256
  6
BYLAYER
 49
-0.5
 62
   256
  6
BYLAYER
  0
ACDBPLACEHOLDER
  5
F
102
{ACAD_REACTORS
330
E
102
}
330
E
  0
SCALE
  5
48
102
{ACAD_REACTORS
330
47
102
}
330
47
100
AcDbScale
 70
     0
300
1:1
140
1.0
141
1.0
290
     1
  0
SCALE
  5
49
102
{ACAD_REACTORS
330
47
102
}
330
47
100
AcDbScale
 70
     0
300
1:2
140
1.0
141
2.0
290
     0
  0
SCALE
  5
4A
102
{ACAD_REACTORS
330
47
102
}
330
47
100
AcDbScale
 70
     0
300
1:4
140
1.0
141
4.0
290
     0
  0
SCALE
  5
4B
102
{ACAD_REACTORS
330
47
102
}
330
47
100
AcDbScale
 70
     0
300
1:5
140
1.0
141
5.0
290
     0
  0
SCALE
  5
4C
102
{ACAD_REACTORS
330
47
102
}
330
47
100
AcDbScale
 70
     0
300
1:8
140
1.0
141
8.0
290
     0
  0
SCALE
  5
4D
102
{ACAD_REACTORS
330
47
102
}
330
47
100
AcDbScale
 70
     0
300
1:10
140
1.0
141
10.0
290
     0
  0
SCALE
  5
4E
102
{ACAD_REACTORS
330
47
102
}
330
47
100
AcDbScale
 70
     0
300
1:16
140
1.0
141
16.0
290
     0
  0
SCALE
  5
4F
102
{ACAD_REACTORS
330
47
102
}
330
47
100
AcDbScale
 70
     0
300
1:20
140
1.0
141
20.0
290
     0
  0
SCALE
  5
50
102
{ACAD_REACTORS
330
47
102
}
330
47
100
AcDbScale
 70
     0
300
1:30
140
1.0
141
30.0
290
     0
  0
SCALE
  5
51
102
{ACAD_REACTORS
330
47
102
}
330
47
100
AcDbScale
 70
     0
300
1:40
140
1.0
141
40.0
290
     0
  0
SCALE
  5
52
102
{ACAD_REACTORS
330
47
102
}
330
47
100
AcDbScale
 70
     0
300
1:50
140
1.0
141
50.0
290
     0
  0
SCALE
  5
53
102
{ACAD_REACTORS
330
47
102
}
330
47
100
AcDbScale
 70
     0
300
1:100
140
1.0
141
100.0
290
     0
  0
SCALE
  5
54
102
{ACAD_REACTORS
330
47
102
}
330
47
100
AcDbScale
 70
     0
300
2:1
140
2.0
141
1.0
290
     0
  0
SCALE
  5
55
102
{ACAD_REACTORS
330
47
102
}
330
47
100
AcDbScale
 70
     0
300
4:1
140
4.0
141
1.0
290
     0
  0
SCALE
  5
56
102
{ACAD_REACTORS
330
47
102
}
330
47
100
AcDbScale
 70
     0
300
8:1
140
8.0
141
1.0
290
     0
  0
SCALE
  5
57
102
{ACAD_REACTORS
330
47
102
}
330
47
100
AcDbScale
 70
     0
300
10:1
140
10.0
141
1.0
290
     0
  0
SCALE
  5
58
102
{ACAD_REACTORS
330
47
102
}
330
47
100
AcDbScale
 70
     0
300
100:1
140
100.0
141
1.0
290
     0
  0
SCALE
  5
59
102
{ACAD_REACTORS
330
47
102
}
330
47
100
AcDbScale
 70
     0
300
1/128" = 1'-0"
140
0.0078125
141
12.0
290
     0
  0
SCALE
  5
5A
102
{ACAD_REACTORS
330
47
102
}
330
47
100
AcDbScale
 70
     0
300
1/64" = 1'-0"
140
0.015625
141
12.0
290
     0
  0
SCALE
  5
5B
102
{ACAD_REACTORS
330
47
102
}
330
47
100
AcDbScale
 70
     0
300
1/32" = 1'-0"
140
0.03125
141
12.0
290
     0
  0
SCALE
  5
5C
102
{ACAD_REACTORS
330
47
102
}
330
47
100
AcDbScale
 70
     0
300
1/16" = 1'-0"
140
0.0625
141
12.0
290
     0
  0
SCALE
  5
5D
102
{ACAD_REACTORS
330
47
102
}
330
47
100
AcDbScale
 70
     0
300
3/32" = 1'-0"
140
0.09375
141
12.0
290
     0
  0
SCALE
  5
5E
102
{ACAD_REACTORS
330
47
102
}
330
47
100
AcDbScale
 70
     0
300
1/8" = 1'-0"
140
0.125
141
12.0
290
     0
  0
SCALE
  5
5F
102
{ACAD_REACTORS
330
47
102
}
330
47
100
AcDbScale
 70
     0
300
3/16" = 1'-0"
140
0.1875
141
12.0
290
     0
  0
SCALE
  5
60
102
{ACAD_REACTORS
330
47
102
}
330
47
100
AcDbScale
 70
     0
300
1/4" = 1'-0"
140
0.25
141
12.0
290
     0
  0
SCALE
  5
61
102
{ACAD_REACTORS
330
47
102
}
330
47
100
AcDbScale
 70
     0
300
3/8" = 1'-0"
140
0.375
141
12.0
290
     0
  0
SCALE
  5
62
102
{ACAD_REACTORS
330
47
102
}
330
47
100
AcDbScale
 70
     0
300
1/2" = 1'-0"
140
0.5
141
12.0
290
     0
  0
SCALE
  5
63
102
{ACAD_REACTORS
330
47
102
}
330
47
100
AcDbScale
 70
     0
300
3/4" = 1'-0"
140
0.75
141
12.0
290
     0
  0
SCALE
  5
64
102
{ACAD_REACTORS
330
47
102
}
330
47
100
AcDbScale
 70
     0
300
1" = 1'-0"
140
1.0
141
12.0
290
     0
  0
SCALE
  5
65
102
{ACAD_REACTORS
330
47
102
}
330
47
100
AcDbScale
 70
     0
300
1-1/2" = 1'-0"
140
1.5
141
12.0
290
     0
  0
SCALE
  5
66
102
{ACAD_REACTORS
330
47
102
}
330
47
100
AcDbScale
 70
     0
300
3" = 1'-0"
140
3.0
141
12.0
290
     0
  0
SCALE
  5
67
102
{ACAD_REACTORS
330
47
102
}
330
47
100
AcDbScale
 70
     0
300
6" = 1'-0"
140
6.0
141
12.0
290
     0
  0
SCALE
  5
68
102
{ACAD_REACTORS
330
47
102
}
330
47
100
AcDbScale
 70
     0
300
1'-0" = 1'-0"
140
12.0
141
12.0
290
     0
  0
ENDSEC
  0
EOF
