  0
SECTION
  2
HEADER
  9
$ACADVER
  1
AC1021
  9
$ACADMAINTVER
 70
    25
  9
$DWGCODEPAGE
  3
ANSI_1252
  9
$INSBASE
 10
0.0
 20
0.0
 30
0.0
  9
$EXTMIN
 10
-258.1726689878
 20
-194.4231219786
 30
0.0
  9
$EXTMAX
 10
258.1726689878
 20
149.030915027
 30
0.0
  9
$LIMMIN
 10
0.0
 20
0.0
  9
$LIMMAX
 10
420.0
 20
297.0
  9
$ORTHOMODE
 70
     0
  9
$REGENMODE
 70
     1
  9
$FILLMODE
 70
     1
  9
$QTEXTMODE
 70
     0
  9
$MIRRTEXT
 70
     1
  9
$LTSCALE
 40
1.0
  9
$ATTMODE
 70
     1
  9
$TEXTSIZE
 40
3.5
  9
$TRACEWID
 40
1.0
  9
$TEXTSTYLE
  7
Standard
  9
$CLAYER
  8
0
  9
$CELTYPE
  6
ByLayer
  9
$CECOLOR
 62
   256
  9
$CELTSCALE
 40
1.0
  9
$DISPSILH
 70
     0
  9
$DIMSCALE
 40
1.0
  9
$DIMASZ
 40
8.0
  9
$DIMEXO
 40
1.0
  9
$DIMDLI
 40
3.75
  9
$DIMRND
 40
0.0
  9
$DIMDLE
 40
0.0
  9
$DIMEXE
 40
1.0
  9
$DIMTP
 40
0.0
  9
$DIMTM
 40
0.0
  9
$DIMTXT
 40
16.9333333333
  9
$DIMCEN
 40
2.5
  9
$DIMTSZ
 40
0.0
  9
$DIMTOL
 70
     0
  9
$DIMLIM
 70
     0
  9
$DIMTIH
 70
     1
  9
$DIMTOH
 70
     1
  9
$DIMSE1
 70
     0
  9
$DIMSE2
 70
     0
  9
$DIMTAD
 70
     1
  9
$DIMZIN
 70
     0
  9
$DIMBLK
  1

  9
$DIMASO
 70
     1
  9
$DIMSHO
 70
     1
  9
$DIMPOST
  1

  9
$DIMAPOST
  1

  9
$DIMALT
 70
     0
  9
$DIMALTD
 70
     3
  9
$DIMALTF
 40
0.0393700787
  9
$DIMLFAC
 40
1.0
  9
$DIMTOFL
 70
     1
  9
$DIMTVP
 40
0.0
  9
$DIMTIX
 70
     0
  9
$DIMSOXD
 70
     0
  9
$DIMSAH
 70
     0
  9
$DIMBLK1
  1

  9
$DIMBLK2
  1

  9
$DIMSTYLE
  2
ISO-25
  9
$DIMCLRD
 70
     0
  9
$DIMCLRE
 70
     0
  9
$DIMCLRT
 70
     0
  9
$DIMTFAC
 40
1.0
  9
$DIMGAP
 40
1.524
  9
$DIMJUST
 70
     0
  9
$DIMSD1
 70
     0
  9
$DIMSD2
 70
     0
  9
$DIMTOLJ
 70
     0
  9
$DIMTZIN
 70
     0
  9
$DIMALTZ
 70
     0
  9
$DIMALTTZ
 70
     0
  9
$DIMUPT
 70
     0
  9
$DIMDEC
 70
     2
  9
$DIMTDEC
 70
     2
  9
$DIMALTU
 70
     2
  9
$DIMALTTD
 70
     3
  9
$DIMTXSTY
  7
Standard
  9
$DIMAUNIT
 70
     0
  9
$DIMADEC
 70
     2
  9
$DIMALTRND
 40
0.0
  9
$DIMAZIN
 70
     0
  9
$DIMDSEP
 70
    44
  9
$DIMATFIT
 70
     3
  9
$DIMFRAC
 70
     0
  9
$DIMLDRBLK
  1

  9
$DIMLUNIT
 70
     2
  9
$DIMLWD
 70
    -2
  9
$DIMLWE
 70
    -2
  9
$DIMTMOVE
 70
     0
  9
$DIMFXL
 40
1.0
  9
$DIMFXLON
 70
     0
  9
$DIMJOGANG
 40
0.7853981634
  9
$DIMTFILL
 70
     0
  9
$DIMTFILLCLR
 70
     0
  9
$DIMARCSYM
 70
     0
  9
$DIMLTYPE
  6

  9
$DIMLTEX1
  6

  9
$DIMLTEX2
  6

  9
$LUNITS
 70
     2
  9
$LUPREC
 70
     2
  9
$SKETCHINC
 40
1.0
  9
$FILLETRAD
 40
10.0
  9
$AUNITS
 70
     0
  9
$AUPREC
 70
     2
  9
$MENU
  1
.
  9
$ELEVATION
 40
0.0
  9
$PELEVATION
 40
0.0
  9
$THICKNESS
 40
0.0
  9
$LIMCHECK
 70
     0
  9
$CHAMFERA
 40
0.0
  9
$CHAMFERB
 40
0.0
  9
$CHAMFERC
 40
0.0
  9
$CHAMFERD
 40
0.0
  9
$SKPOLY
 70
     0
  9
$TDCREATE
 40
2458571.488533796
  9
$TDUCREATE
 40
2458571.44686713
  9
$TDUPDATE
 40
2458571.488585833
  9
$TDUUPDATE
 40
2458571.446919166
  9
$TDINDWG
 40
0.0000000116
  9
$TDUSRTIMER
 40
0.0000000116
  9
$USRTIMER
 70
     1
  9
$ANGBASE
 50
0.0
  9
$ANGDIR
 70
     0
  9
$PDMODE
 70
     0
  9
$PDSIZE
 40
-1.0
  9
$PLINEWID
 40
0.0
  9
$SPLFRAME
 70
     0
  9
$SPLINETYPE
 70
     6
  9
$SPLINESEGS
 70
     8
  9
$HANDSEED
  5
19F
  9
$SURFTAB1
 70
     6
  9
$SURFTAB2
 70
     6
  9
$SURFTYPE
 70
     6
  9
$SURFU
 70
     6
  9
$SURFV
 70
     6
  9
$UCSBASE
  2

  9
$UCSNAME
  2

  9
$UCSORG
 10
0.0
 20
0.0
 30
0.0
  9
$UCSXDIR
 10
1.0
 20
0.0
 30
0.0
  9
$UCSYDIR
 10
0.0
 20
1.0
 30
0.0
  9
$UCSORTHOREF
  2

  9
$UCSORTHOVIEW
 70
     0
  9
$UCSORGTOP
 10
0.0
 20
0.0
 30
0.0
  9
$UCSORGBOTTOM
 10
0.0
 20
0.0
 30
0.0
  9
$UCSORGLEFT
 10
0.0
 20
0.0
 30
0.0
  9
$UCSORGRIGHT
 10
0.0
 20
0.0
 30
0.0
  9
$UCSORGFRONT
 10
0.0
 20
0.0
 30
0.0
  9
$UCSORGBACK
 10
0.0
 20
0.0
 30
0.0
  9
$PUCSBASE
  2

  9
$PUCSNAME
  2

  9
$PUCSORG
 10
0.0
 20
0.0
 30
0.0
  9
$PUCSXDIR
 10
1.0
 20
0.0
 30
0.0
  9
$PUCSYDIR
 10
0.0
 20
1.0
 30
0.0
  9
$PUCSORTHOREF
  2

  9
$PUCSORTHOVIEW
 70
     0
  9
$PUCSORGTOP
 10
0.0
 20
0.0
 30
0.0
  9
$PUCSORGBOTTOM
 10
0.0
 20
0.0
 30
0.0
  9
$PUCSORGLEFT
 10
0.0
 20
0.0
 30
0.0
  9
$PUCSORGRIGHT
 10
0.0
 20
0.0
 30
0.0
  9
$PUCSORGFRONT
 10
0.0
 20
0.0
 30
0.0
  9
$PUCSORGBACK
 10
0.0
 20
0.0
 30
0.0
  9
$USERI1
 70
     0
  9
$USERI2
 70
     0
  9
$USERI3
 70
     0
  9
$USERI4
 70
     0
  9
$USERI5
 70
     0
  9
$USERR1
 40
0.0
  9
$USERR2
 40
0.0
  9
$USERR3
 40
0.0
  9
$USERR4
 40
0.0
  9
$USERR5
 40
0.0
  9
$WORLDVIEW
 70
     1
  9
$SHADEDGE
 70
     3
  9
$SHADEDIF
 70
    70
  9
$TILEMODE
 70
     1
  9
$MAXACTVP
 70
    64
  9
$PINSBASE
 10
0.0
 20
0.0
 30
0.0
  9
$PLIMCHECK
 70
     0
  9
$PEXTMIN
 10
-267.5
 20
-165.0
 30
0.0
  9
$PEXTMAX
 10
267.5
 20
165.0
 30
0.0
  9
$PLIMMIN
 10
-309.1342412451
 20
-180.6128404669
  9
$PLIMMAX
 10
309.1342412451
 20
256.546692607
  9
$UNITMODE
 70
     0
  9
$VISRETAIN
 70
     1
  9
$PLINEGEN
 70
     0
  9
$PSLTSCALE
 70
     1
  9
$TREEDEPTH
 70
  3020
  9
$CMLSTYLE
  2
Standard
  9
$CMLJUST
 70
     0
  9
$CMLSCALE
 40
20.0
  9
$PROXYGRAPHICS
 70
     1
  9
$MEASUREMENT
 70
     1
  9
$CELWEIGHT
370
    -1
  9
$ENDCAPS
280
     0
  9
$JOINSTYLE
280
     0
  9
$LWDISPLAY
290
     1
  9
$INSUNITS
 70
     4
  9
$HYPERLINKBASE
  1

  9
$STYLESHEET
  1

  9
$XEDIT
290
     1
  9
$CEPSNTYPE
380
     0
  9
$PSTYLEMODE
290
     1
  9
$FINGERPRINTGUID
  2
{d8ed8a69-0944-4fdf-a015-bdf1d6327447}
  9
$VERSIONGUID
  2
{FAEB1C32-E019-11D5-929B-00C0DF256EC4}
  9
$EXTNAMES
290
     1
  9
$PSVPSCALE
 40
0.0
  9
$OLESTARTUP
290
     0
  9
$SORTENTS
280
   127
  9
$INDEXCTL
280
     0
  9
$HIDETEXT
280
     1
  9
$XCLIPFRAME
290
     0
  9
$HALOGAP
280
     0
  9
$OBSCOLOR
 70
   257
  9
$OBSLTYPE
280
     0
  9
$INTERSECTIONDISPLAY
280
     0
  9
$INTERSECTIONCOLOR
 70
   257
  9
$DIMASSOC
280
     2
  9
$PROJECTNAME
  1

  9
$CAMERADISPLAY
290
     0
  9
$LENSLENGTH
 40
50.0
  9
$CAMERAHEIGHT
 40
0.0
  9
$STEPSPERSEC
 40
2.0
  9
$STEPSIZE
 40
6.0
  9
$3DDWFPREC
 40
2.0
  9
$PSOLWIDTH
 40
5.0
  9
$PSOLHEIGHT
 40
80.0
  9
$LOFTANG1
 40
1.5707963268
  9
$LOFTANG2
 40
1.5707963268
  9
$LOFTMAG1
 40
0.0
  9
$LOFTMAG2
 40
0.0
  9
$LOFTPARAM
 70
     7
  9
$LOFTNORMALS
280
     1
  9
$LATITUDE
 40
37.795
  9
$LONGITUDE
 40
-122.394
  9
$NORTHDIRECTION
 40
0.0
  9
$TIMEZONE
 70
 -8000
  9
$LIGHTGLYPHDISPLAY
280
     1
  9
$TILEMODELIGHTSYNCH
280
     1
  9
$CMATERIAL
347
44
  9
$SOLIDHIST
280
     0
  9
$SHOWHIST
280
     1
  9
$DWFFRAME
280
     2
  9
$DGNFRAME
280
     2
  9
$REALWORLDSCALE
290
     1
  9
$INTERFERECOLOR
 62
   256
  9
$CSHADOW
280
     0
  9
$SHADOWPLANELOCATION
 40
0.0
  0
ENDSEC
  0
SECTION
  2
CLASSES
  0
CLASS
  1
ACDBDICTIONARYWDFLT
  2
AcDbDictionaryWithDefault
  3
ObjectDBX Classes
 90
        0
 91
        3
280
     0
281
     0
  0
CLASS
  1
VISUALSTYLE
  2
AcDbVisualStyle
  3
ObjectDBX Classes
 90
     4095
 91
        3
280
     0
281
     0
  0
CLASS
  1
MATERIAL
  2
AcDbMaterial
  3
ObjectDBX Classes
 90
     1153
 91
        3
280
     0
281
     0
  0
CLASS
  1
SCALE
  2
AcDbScale
  3
ObjectDBX Classes
 90
     1153
 91
        3
280
     0
281
     0
  0
CLASS
  1
TABLESTYLE
  2
AcDbTableStyle
  3
ObjectDBX Classes
 90
     4095
 91
        3
280
     0
281
     0
  0
CLASS
  1
MLEADERSTYLE
  2
AcDbMLeaderStyle
  3
ACDB_MLEADERSTYLE_CLASS
 90
     4095
 91
        3
280
     0
281
     0
  0
CLASS
  1
SUN
  2
AcDbSun
  3
SCENEOE
 90
     1153
 91
        3
280
     0
281
     0
  0
CLASS
  1
DICTIONARYVAR
  2
AcDbDictionaryVar
  3
ObjectDBX Classes
 90
        0
 91
        3
280
     0
281
     0
  0
CLASS
  1
CELLSTYLEMAP
  2
AcDbCellStyleMap
  3
ObjectDBX Classes
 90
     1152
 91
        3
280
     0
281
     0
  0
ENDSEC
  0
SECTION
  2
TABLES
  0
TABLE
  2
VPORT
  5
8
330
0
100
AcDbSymbolTable
 70
     1
  0
VPORT
  5
29
330
8
100
AcDbSymbolTableRecord
100
AcDbViewportTableRecord
  2
*Active
 70
     0
 10
0.0
 20
0.0
 11
1.0
 21
1.0
 12
0.0
 22
-22.6961034758
 13
0.0
 23
0.0
 14
10.0
 24
10.0
 15
10.0
 25
10.0
 16
0.0
 26
0.0
 36
1.0
 17
0.0
 27
0.0
 37
0.0
 40
350.3231177457
 41
1.5033899222
 42
50.0
 43
0.0
 44
0.0
 50
0.0
 51
0.0
 71
     0
 72
   100
 73
     1
 74
     3
 75
     0
 76
     0
 77
     0
 78
     0
281
     0
 65
     1
110
0.0
120
0.0
130
0.0
111
1.0
121
0.0
131
0.0
112
0.0
122
1.0
132
0.0
 79
     0
146
0.0
348
2F
 60
     3
 61
     5
292
     1
282
     1
141
0.0
142
0.0
 63
   250
361
6D
  0
ENDTAB
  0
TABLE
  2
LTYPE
  5
5
330
0
100
AcDbSymbolTable
 70
     6
  0
LTYPE
  5
14
330
5
100
AcDbSymbolTableRecord
100
AcDbLinetypeTableRecord
  2
ByBlock
 70
     0
  3

 72
    65
 73
     0
 40
0.0
  0
LTYPE
  5
15
330
5
100
AcDbSymbolTableRecord
100
AcDbLinetypeTableRecord
  2
ByLayer
 70
     0
  3

 72
    65
 73
     0
 40
0.0
  0
LTYPE
  5
16
330
5
100
AcDbSymbolTableRecord
100
AcDbLinetypeTableRecord
  2
Continuous
 70
     0
  3
Solid line
 72
    65
 73
     0
 40
0.0
  0
LTYPE
  5
6E
330
5
100
AcDbSymbolTableRecord
100
AcDbLinetypeTableRecord
  2
HIDDEN
 70
     0
  3
Hidden __ __ __ __ __ __ __ __ __ __ __ __ __ __
 72
    65
 73
     2
 40
1.905
 49
1.27
 74
     0
 49
-0.635
 74
     0
  0
LTYPE
  5
6F
330
5
100
AcDbSymbolTableRecord
100
AcDbLinetypeTableRecord
  2
PHANTOM
 70
     0
  3
Phantom ______  __  __  ______  __  __  ______
 72
    65
 73
     6
 40
12.7
 49
6.35
 74
     0
 49
-1.27
 74
     0
 49
1.27
 74
     0
 49
-1.27
 74
     0
 49
1.27
 74
     0
 49
-1.27
 74
     0
  0
LTYPE
  5
70
330
5
100
AcDbSymbolTableRecord
100
AcDbLinetypeTableRecord
  2
CENTER
 70
     0
  3
Center ____ _ ____ _ ____ _ ____ _ ____ _ ____
 72
    65
 73
     4
 40
10.16
 49
6.35
 74
     0
 49
-1.27
 74
     0
 49
1.27
 74
     0
 49
-1.27
 74
     0
  0
LTYPE
  5
71
330
5
100
AcDbSymbolTableRecord
100
AcDbLinetypeTableRecord
  2
CENTERX2
 70
     0
  3
Center (2x) ________  __  ________  __  _____
 72
    65
 73
     4
 40
20.32
 49
12.7
 74
     0
 49
-2.54
 74
     0
 49
2.54
 74
     0
 49
-2.54
 74
     0
  0
LTYPE
  5
72
330
5
100
AcDbSymbolTableRecord
100
AcDbLinetypeTableRecord
  2
DOT2
 70
     0
  3
Dot (.5x) ........................................
 72
    65
 73
     2
 40
0.635
 49
0.0
 74
     0
 49
-0.635
 74
     0
  0
ENDTAB
  0
TABLE
  2
LAYER
  5
2
330
0
100
AcDbSymbolTable
 70
     1
  0
LAYER
  5
10
330
2
100
AcDbSymbolTableRecord
100
AcDbLayerTableRecord
  2
0
 70
     0
 62
     7
  6
Continuous
370
    -3
390
F
347
46
  0
ENDTAB
  0
TABLE
  2
STYLE
  5
3
330
0
100
AcDbSymbolTable
 70
     1
  0
STYLE
  5
11
330
3
100
AcDbSymbolTableRecord
100
AcDbTextStyleTableRecord
  2
Standard
 70
     0
 40
0.0
 41
1.0
 50
0.0
 71
     0
 42
3.5
  3
txt
  4

  0
ENDTAB
  0
TABLE
  2
VIEW
  5
6
330
0
100
AcDbSymbolTable
 70
     0
  0
ENDTAB
  0
TABLE
  2
UCS
  5
7
330
0
100
AcDbSymbolTable
 70
     0
  0
ENDTAB
  0
TABLE
  2
APPID
  5
9
330
0
100
AcDbSymbolTable
 70
     2
  0
APPID
  5
12
330
9
100
AcDbSymbolTableRecord
100
AcDbRegAppTableRecord
  2
ACAD
 70
     0
  0
APPID
  5
197
330
9
100
AcDbSymbolTableRecord
100
AcDbRegAppTableRecord
  2
ACAD_MLEADERVER
 70
     0
  0
ENDTAB
  0
TABLE
  2
DIMSTYLE
  5
A
330
0
100
AcDbSymbolTable
 70
     1
100
AcDbDimStyleTable
  0
DIMSTYLE
105
27
330
A
100
AcDbSymbolTableRecord
100
AcDbDimStyleTableRecord
  2
ISO-25
 70
     0
 41
2.5
 42
0.625
 43
3.75
 44
1.25
 73
     0
 74
     0
 77
     1
 78
     8
140
2.5
141
2.5
143
0.0393700787
147
0.625
171
     3
172
     1
178
     0
271
     2
272
     2
274
     3
278
    44
283
     0
284
     8
340
11
  0
ENDTAB
  0
TABLE
  2
BLOCK_RECORD
  5
1
330
0
100
AcDbSymbolTable
 70
     9
  0
BLOCK_RECORD
  5
1F
330
1
100
AcDbSymbolTableRecord
100
AcDbBlockTableRecord
  2
*Model_Space
340
22
 70
     0
280
     1
281
     0
  0
BLOCK_RECORD
  5
1B
330
1
100
AcDbSymbolTableRecord
100
AcDbBlockTableRecord
  2
*Paper_Space
340
1E
 70
     0
280
     1
281
     0
  0
BLOCK_RECORD
  5
23
330
1
100
AcDbSymbolTableRecord
100
AcDbBlockTableRecord
  2
*Paper_Space0
340
26
 70
     0
280
     1
281
     0
  0
BLOCK_RECORD
  5
AF
330
1
100
AcDbSymbolTableRecord
100
AcDbBlockTableRecord
  2
*Paper_Space1
340
B0
 70
     0
280
     1
281
     0
  0
BLOCK_RECORD
  5
CA
330
1
100
AcDbSymbolTableRecord
100
AcDbBlockTableRecord
  2
*Paper_Space2
340
CB
 70
     0
280
     1
281
     0
  0
BLOCK_RECORD
  5
E1
330
1
100
AcDbSymbolTableRecord
100
AcDbBlockTableRecord
  2
*Paper_Space3
340
E2
 70
     0
280
     1
281
     0
  0
BLOCK_RECORD
  5
F7
330
1
100
AcDbSymbolTableRecord
100
AcDbBlockTableRecord
  2
*Paper_Space4
340
F8
 70
     0
280
     1
281
     0
  0
BLOCK_RECORD
  5
111
330
1
100
AcDbSymbolTableRecord
100
AcDbBlockTableRecord
  2
*Paper_Space5
340
112
 70
     0
280
     1
281
     0
  0
BLOCK_RECORD
  5
127
330
1
100
AcDbSymbolTableRecord
100
AcDbBlockTableRecord
  2
*Paper_Space6
340
128
 70
     0
280
     1
281
     0
  0
BLOCK_RECORD
  5
149
330
1
100
AcDbSymbolTableRecord
100
AcDbBlockTableRecord
  2
*Paper_Space7
340
14A
 70
     0
280
     1
281
     0
  0
BLOCK_RECORD
  5
165
330
1
100
AcDbSymbolTableRecord
100
AcDbBlockTableRecord
  2
*Paper_Space8
340
166
 70
     0
280
     1
281
     0
  0
ENDTAB
  0
ENDSEC
  0
SECTION
  2
BLOCKS
  0
BLOCK
  5
20
330
1F
100
AcDbEntity
  8
0
100
AcDbBlockBegin
  2
*Model_Space
 70
     0
 10
0.0
 20
0.0
 30
0.0
  3
*Model_Space
  1

  0
ENDBLK
  5
21
330
1F
100
AcDbEntity
  8
0
100
AcDbBlockEnd
  0
BLOCK
  5
1C
330
1B
100
AcDbEntity
 67
     1
  8
0
100
AcDbBlockBegin
  2
*Paper_Space
 70
     0
 10
0.0
 20
0.0
 30
0.0
  3
*Paper_Space
  1

  0
ENDBLK
  5
1D
330
1B
100
AcDbEntity
 67
     1
  8
0
100
AcDbBlockEnd
  0
BLOCK
  5
24
330
23
100
AcDbEntity
  8
0
100
AcDbBlockBegin
  2
*Paper_Space0
 70
     0
 10
0.0
 20
0.0
 30
0.0
  3
*Paper_Space0
  1

  0
SPLINE
  5
9C
330
23
100
AcDbEntity
  8
0
  6
Continuous
 62
     7
370
    25
100
AcDbSpline
210
0.0
220
0.0
230
1.0
 70
     8
 71
     3
 72
    38
 73
    34
 74
     0
 42
0.000000001
 43
0.00000001
 40
0.0
 40
0.0
 40
0.0
 40
0.0
 40
0.0414916141477542
 40
0.0906280874359357
 40
0.14049097619009
 40
0.1890473211197
 40
0.2345282451719918
 40
0.2759276426945247
 40
0.3110003895871438
 40
0.3424294011558059
 40
0.3705769931387669
 40
0.3958362221282549
 40
0.418920092963825
 40
0.4492861705951869
 40
0.4771047383152325
 40
0.5026132771705355
 40
0.5259906159910723
 40
0.5473746743081302
 40
0.5674741255803141
 40
0.5881657618884505
 40
0.6095739568821668
 40
0.6392307192592168
 40
0.6701708551104567
 40
0.7024184916169973
 40
0.7360112101515909
 40
0.7708447449940894
 40
0.8052433845831101
 40
0.8388145668902333
 40
0.8716405186991412
 40
0.9037925937552223
 40
0.9354239645720135
 40
0.9674004195692463
 40
0.9999999999999999
 40
0.9999999999999999
 40
0.9999999999999999
 40
0.9999999999999999
 10
55.00445978663868
 20
-129.4071874142233
 30
0.0
 10
58.89464987225694
 20
-129.2569327247737
 30
0.0
 10
67.39180030767582
 20
-128.9287388134784
 30
0.0
 10
80.55265545195158
 20
-128.1713221285937
 30
0.0
 10
94.3624007364905
 20
-127.1825216600051
 30
0.0
 10
107.8134377773852
 20
-126.0074430513368
 30
0.0
 10
120.4558658980353
 20
-124.7181635301841
 30
0.0
 10
131.8229109162799
 20
-123.403618925215
 30
0.0
 10
141.8654530297211
 20
-122.1202536680906
 30
0.0
 10
150.6629347864373
 20
-120.906617621128
 30
0.0
 10
158.5365048860127
 20
-119.7365827321816
 30
0.0
 10
165.6307778807342
 20
-118.6523321029446
 30
0.0
 10
172.9067265219558
 20
-117.3733979291516
 30
0.0
 10
180.3118720758061
 20
-115.5208098270023
 30
0.0
 10
187.792446214187
 20
-113.116371676938
 30
0.0
 10
194.4962529252525
 20
-110.4858634738542
 30
0.0
 10
200.4891321295136
 20
-107.7292709940786
 30
0.0
 10
205.8784104125852
 20
-104.8968196240865
 30
0.0
 10
210.9061006888968
 20
-101.933893081965
 30
0.0
 10
215.7890604508399
 20
-98.73352438069024
 30
0.0
 10
221.2329610759166
 20
-94.76753527861892
 30
0.0
 10
227.1740268825021
 20
-89.86801808435379
 30
0.0
 10
233.4904010127226
 20
-83.8578348775945
 30
0.0
 10
239.5921392616679
 20
-77.12104032994971
 30
0.0
 10
245.3808043571982
 20
-69.64434623836965
 30
0.0
 10
250.6618449239388
 20
-61.55740772540043
 30
0.0
 10
255.268470730061
 20
-53.07092444777344
 30
0.0
 10
259.1078220774507
 20
-44.41715402127961
 30
0.0
 10
262.1908192344895
 20
-35.6902783126887
 30
0.0
 10
264.5563114656916
 20
-26.93014034812562
 30
0.0
 10
266.2320876952112
 20
-18.09654117906141
 30
0.0
 10
267.2992124665943
 20
-9.119944553842393
 30
0.0
 10
267.4326416479391
 20
-3.059474986391447
 30
0.0
 10
267.5000000000001
 20
0.0
 30
0.0
  0
SPLINE
  5
9D
330
23
100
AcDbEntity
  8
0
  6
Continuous
 62
     7
370
    25
100
AcDbSpline
210
0.0
220
0.0
230
1.0
 70
     8
 71
     3
 72
    38
 73
    34
 74
     0
 42
0.000000001
 43
0.00000001
 40
0.0
 40
0.0
 40
0.0
 40
0.0
 40
0.0325995800227361
 40
0.0645760346197508
 40
0.0962074050406429
 40
0.1283594796943073
 40
0.1611854310923649
 40
0.1947566129793109
 40
0.2291552521377971
 40
0.2639887865443168
 40
0.2975815046584623
 40
0.3298291407613916
 40
0.3607692762253851
 40
0.3904260382312504
 40
0.4118342329570204
 40
0.432525869006179
 40
0.4526253200267973
 40
0.4740093780762116
 40
0.4973867166041573
 40
0.5228952551401947
 40
0.5507138225120635
 40
0.581079899763362
 40
0.6056191275467695
 40
0.6326728342418629
 40
0.6630288732682523
 40
0.6971567793781508
 40
0.7354569814823699
 40
0.7780737740975615
 40
0.8218347722743592
 40
0.8680214953522264
 40
0.9150580899638456
 40
0.9612574564228543
 40
1.0
 40
1.0
 40
1.0
 40
1.0
 10
-267.5
 20
0.0
 30
0.0
 10
-267.432641647939
 20
-3.059474986391433
 30
0.0
 10
-267.2992124665942
 20
-9.119944553842393
 30
0.0
 10
-266.2320876952109
 20
-18.09654117906139
 30
0.0
 10
-264.5563114656916
 20
-26.93014034812535
 30
0.0
 10
-262.1908192344899
 20
-35.69027831268956
 30
0.0
 10
-259.1078220774504
 20
-44.41715402127673
 30
0.0
 10
-255.268470730062
 20
-53.07092444778471
 30
0.0
 10
-250.6618449239324
 20
-61.55740772535625
 30
0.0
 10
-245.3808043572199
 20
-69.64434623853337
 30
0.0
 10
-239.5921392615927
 20
-77.12104032937327
 30
0.0
 10
-233.4904010129885
 20
-83.85783487961815
 30
0.0
 10
-227.1740268815703
 20
-89.86801807725783
 30
0.0
 10
-221.2329610788484
 20
-94.76753530095708
 30
0.0
 10
-215.7890604433179
 20
-98.73352432338466
 30
0.0
 10
-210.9061007158857
 20
-101.9338932875853
 30
0.0
 10
-205.8784103122513
 20
-104.896818859671
 30
0.0
 10
-200.4891325470841
 20
-107.7292741754299
 30
0.0
 10
-194.4962511411437
 20
-110.4858498812319
 30
0.0
 10
-187.7924538101442
 20
-113.1164295483899
 30
0.0
 10
-180.3118397426888
 20
-115.5205634901184
 30
0.0
 10
-172.7742368579121
 20
-117.4075016200521
 30
0.0
 10
-165.1944270969479
 20
-118.7208644759227
 30
0.0
 10
-157.5939063937381
 20
-119.8814901656232
 30
0.0
 10
-149.0963687727582
 20
-121.1310665880704
 30
0.0
 10
-139.5400634252495
 20
-122.4292797277089
 30
0.0
 10
-128.8284593916386
 20
-123.7648832260203
 30
0.0
 10
-117.2025079482266
 20
-125.065699553311
 30
0.0
 10
-104.8236889358091
 20
-126.2824637455283
 30
0.0
 10
-92.0158320031472
 20
-127.3622901019311
 30
0.0
 10
-78.96529001361284
 20
-128.2680593166687
 30
0.0
 10
-66.60099374313373
 20
-128.9628111277633
 30
0.0
 10
-58.63690955522024
 20
-129.268435385085
 30
0.0
 10
-55.00444027626282
 20
-129.407832546068
 30
0.0
  0
SPLINE
  5
9E
330
23
100
AcDbEntity
  8
0
  6
Continuous
 62
     7
370
    25
100
AcDbSpline
210
0.0
220
0.0
230
1.0
 70
     8
 71
     3
 72
    29
 73
    25
 74
     0
 42
0.000000001
 43
0.00000001
 40
0.0
 40
0.0
 40
0.0
 40
0.0
 40
0.1249999999999985
 40
0.1249999999999985
 40
0.1874999999999979
 40
0.1874999999999979
 40
0.2499999999999973
 40
0.2499999999999973
 40
0.3749999999999955
 40
0.3749999999999955
 40
0.4374999999999956
 40
0.4374999999999956
 40
0.4999999999999957
 40
0.4999999999999957
 40
0.6249999999999969
 40
0.6249999999999969
 40
0.6874999999999971
 40
0.6874999999999971
 40
0.7499999999999973
 40
0.8124999999999977
 40
0.8124999999999977
 40
0.8749999999999979
 40
0.8749999999999979
 40
1.0
 40
1.0
 40
1.0
 40
1.0
 10
44.99999999999979
 20
-127.9056404642267
 30
0.0
 10
45.66045185511452
 20
-127.9247624879703
 30
0.0
 10
46.30979556789966
 20
-127.9459434363769
 30
0.0
 10
47.26788531146752
 20
-127.9792826459663
 30
0.0
 10
47.58457355638662
 20
-127.9906855024964
 30
0.0
 10
48.21248074407468
 20
-128.0140389011468
 30
0.0
 10
48.5245731512112
 20
-128.0260292429624
 30
0.0
 10
49.43244226506592
 20
-128.0620784002735
 30
0.0
 10
50.00655639957592
 20
-128.0864400684491
 30
0.0
 10
50.82145663408131
 20
-128.1237811405794
 30
0.0
 10
51.08616393035027
 20
-128.1364060139
 30
0.0
 10
51.59570052788163
 20
-128.1618204360398
 30
0.0
 10
51.83818384361131
 20
-128.1744894035691
 30
0.0
 10
52.52993356441127
 20
-128.2124894685058
 30
0.0
 10
52.94383660742547
 20
-128.2378115101991
 30
0.0
 10
53.4921343301646
 20
-128.2762069830532
 30
0.0
 10
53.66245184877092
 20
-128.2890697065171
 30
0.0
 10
53.97115637482309
 20
-128.3144389374452
 30
0.0
 10
54.2500824946879
 20
-128.3395964145239
 30
0.0
 10
54.4703669579163
 20
-128.3644786676655
 30
0.0
 10
54.66094089001366
 20
-128.3892967121741
 30
0.0
 10
54.74162705307221
 20
-128.4017256468078
 30
0.0
 10
54.93523466401695
 20
-128.4386363213407
 30
0.0
 10
54.99999999999992
 20
-128.4622570373666
 30
0.0
 10
54.9999999999998
 20
-128.4862998609616
 30
0.0
  0
SPLINE
  5
9F
330
23
100
AcDbEntity
  8
0
  6
Continuous
 62
     7
370
    25
100
AcDbSpline
210
0.0
220
0.0
230
1.0
 70
     8
 71
     3
 72
    30
 73
    26
 74
     0
 42
0.000000001
 43
0.00000001
 40
0.0
 40
0.0
 40
0.0
 40
0.0
 40
0.015625
 40
0.015625
 40
0.0312499999999999
 40
0.0312499999999999
 40
0.0625000000000001
 40
0.0625000000000001
 40
0.1250000000000002
 40
0.1250000000000002
 40
0.2500000000000001
 40
0.2500000000000001
 40
0.5
 40
0.5
 40
0.7499999999999999
 40
0.7499999999999999
 40
0.8749999999999998
 40
0.8749999999999998
 40
0.9374999999999999
 40
0.9374999999999999
 40
0.96875
 40
0.96875
 40
0.9843749999999999
 40
0.9843749999999999
 40
1.0
 40
1.0
 40
1.0
 40
1.0
 10
-45.00000001434031
 20
-127.9056404646902
 30
0.0
 10
-44.53128418059433
 20
-127.8920697628248
 30
0.0
 10
-44.06277052728726
 20
-127.8723163745507
 30
0.0
 10
-43.12562307063052
 20
-127.8364844087658
 30
0.0
 10
-42.65705592524599
 20
-127.8183671334702
 30
0.0
 10
-41.25137447019657
 20
-127.7634043279731
 30
0.0
 10
-40.31424351705977
 20
-127.7270677196961
 30
0.0
 10
-37.5027740538042
 20
-127.6204002773071
 30
0.0
 10
-35.62837478159187
 20
-127.5519274186106
 30
0.0
 10
-30.00484398213516
 20
-127.35669074799
 30
0.0
 10
-26.25537847414982
 20
-127.2401393558429
 30
0.0
 10
-15.00510682108098
 20
-126.9478226341905
 30
0.0
 10
-7.503297841455
 20
-126.8290550835364
 30
0.0
 10
7.501288945519444
 20
-126.8290337929041
 30
0.0
 10
15.00410631361484
 20
-126.9478026001565
 30
0.0
 10
26.25456108386533
 20
-127.2401151369316
 30
0.0
 10
30.00430403650972
 20
-127.356672939962
 30
0.0
 10
35.6280620435072
 20
-127.551916092251
 30
0.0
 10
37.50252914742552
 20
-127.620391157407
 30
0.0
 10
40.31409114404249
 20
-127.7270618527238
 30
0.0
 10
41.25125112696802
 20
-127.7633994499707
 30
0.0
 10
42.65697505143355
 20
-127.818363998874
 30
0.0
 10
43.12555682728431
 20
-127.8364818612554
 30
0.0
 10
44.06273448190981
 20
-127.8723150110356
 30
0.0
 10
44.53125894019656
 20
-127.8920690318005
 30
0.0
 10
44.99999998565928
 20
-127.9056404638604
 30
0.0
  0
SPLINE
  5
A0
330
23
100
AcDbEntity
  8
0
  6
Continuous
 62
     7
370
    25
100
AcDbSpline
210
0.0
220
0.0
230
1.0
 70
     8
 71
     3
 72
    29
 73
    25
 74
     0
 42
0.000000001
 43
0.00000001
 40
0.0
 40
0.0
 40
0.0
 40
0.0
 40
0.1250000000000021
 40
0.1250000000000021
 40
0.1875000000000024
 40
0.1875000000000024
 40
0.2500000000000028
 40
0.2500000000000028
 40
0.3750000000000033
 40
0.3750000000000033
 40
0.4375000000000036
 40
0.4375000000000036
 40
0.500000000000004
 40
0.500000000000004
 40
0.6250000000000034
 40
0.6250000000000034
 40
0.687500000000003
 40
0.687500000000003
 40
0.7500000000000024
 40
0.8125000000000019
 40
0.8125000000000019
 40
0.8750000000000013
 40
0.8750000000000013
 40
1.0
 40
1.0
 40
1.0
 40
1.0
 10
-55.00000000000016
 20
-128.4862998609145
 30
0.0
 10
-55.00000000000045
 20
-128.4622569672744
 30
0.0
 10
-54.93524215702536
 20
-128.4387725503082
 30
0.0
 10
-54.74496075065492
 20
-128.402295558218
 30
0.0
 10
-54.66589431541264
 20
-128.390013273997
 30
0.0
 10
-54.47577603352053
 20
-128.3651153747069
 30
0.0
 10
-54.36417791270873
 20
-128.3524599504071
 30
0.0
 10
-53.98814884630563
 20
-128.3146900685744
 30
0.0
 10
-53.68134451290938
 20
-128.2895219615351
 30
0.0
 10
-53.1377578306258
 20
-128.2513598378322
 30
0.0
 10
-52.94188277004832
 20
-128.2385291880927
 30
0.0
 10
-52.52406871083029
 20
-128.212837810064
 30
0.0
 10
-52.30423161072308
 20
-128.2001005531568
 30
0.0
 10
-51.61296415975928
 20
-128.1620984093532
 30
0.0
 10
-51.11007720830611
 20
-128.1370420394269
 30
0.0
 10
-50.29123240097962
 20
-128.0994676945282
 30
0.0
 10
-50.00739980090635
 20
-128.08694936576
 30
0.0
 10
-49.43053349670996
 20
-128.0624082335943
 30
0.0
 10
-48.84143969383353
 20
-128.038220650167
 30
0.0
 10
-48.22827167444795
 20
-128.0146402780278
 30
0.0
 10
-47.60290772291955
 20
-127.9913540685545
 30
0.0
 10
-47.28275451009498
 20
-127.9798093689081
 30
0.0
 10
-46.31366419795413
 20
-127.9460599100159
 30
0.0
 10
-45.66045061777506
 20
-127.9247624521946
 30
0.0
 10
-44.99999999999844
 20
-127.9056404642756
 30
0.0
  0
SPLINE
  5
A1
330
23
100
AcDbEntity
  8
0
  6
Continuous
 62
     7
370
    25
100
AcDbSpline
210
0.0
220
0.0
230
1.0
 70
    24
 71
     3
 72
    34
 73
    30
 74
     0
 42
0.000000001
 43
0.00000001
 40
0.0
 40
0.0
 40
0.0
 40
0.0
 40
0.250284174886273
 40
0.2783772965571812
 40
0.3064704182280898
 40
0.3345635398989981
 40
0.3626405335262395
 40
0.3905078067834844
 40
0.4181768561715138
 40
0.4457417382156262
 40
0.4702905870098943
 40
0.4948982201907182
 40
0.5196106740058971
 40
0.5444002933216795
 40
0.5692201590895501
 40
0.5935879124780798
 40
0.6179047173414591
 40
0.6421235085752429
 40
0.6662470711615051
 40
0.6907838616165668
 40
0.7153710282786832
 40
0.7400676267819188
 40
0.764922644671899
 40
0.7899402971769809
 40
0.8882662230251598
 40
0.9195517448859442
 40
0.9508372667467285
 40
0.9821227886075128
 40
1.0
 40
1.0
 40
1.0
 40
1.0
 10
-0.0000000000000039
 20
0.0
 30
0.0
 10
35.9795503102157
 20
0.0
 30
0.0
 10
75.99762157361887
 20
0.0
 30
0.0
 10
120.0538389566234
 20
0.0
 30
0.0
 10
132.1697110538943
 20
0.0
 30
0.0
 10
144.2816364572082
 20
0.0
 30
0.0
 10
156.3671808728507
 20
0.0
 30
0.0
 10
168.3681647053354
 20
0.0
 30
0.0
 10
180.1194968882621
 20
0.0
 30
0.0
 10
191.1179292250083
 20
0.0
 30
0.0
 10
201.3251586176671
 20
0.0
 30
0.0
 10
210.7358543021948
 20
0.0
 30
0.0
 10
219.6774878396226
 20
0.0
 30
0.0
 10
228.0712249801293
 20
0.0
 30
0.0
 10
235.7767077856525
 20
0.0
 30
0.0
 10
242.718440032448
 20
0.0
 30
0.0
 10
248.8591994565315
 20
0.0
 30
0.0
 10
254.1876630326284
 20
0.0
 30
0.0
 10
258.6879133247317
 20
0.0
 30
0.0
 10
262.3203961057811
 20
0.0
 30
0.0
 10
265.0458402454442
 20
0.0
 30
0.0
 10
266.8302700362628
 20
0.0
 30
0.0
 10
267.6056551454645
 20
0.0
 30
0.0
 10
267.3715038586693
 20
0.0
 30
0.0
 10
267.5132941606448
 20
0.0
 30
0.0
 10
267.4995549998077
 20
0.0
 30
0.0
 10
267.4942104904735
 20
0.0
 30
0.0
 10
267.5194040309702
 20
0.0
 30
0.0
 10
267.4765155463381
 20
0.0
 30
0.0
 10
267.4609198612463
 20
0.0
 30
0.0
  0
SPLINE
  5
A2
330
23
100
AcDbEntity
  8
0
  6
Continuous
 62
     7
370
    25
100
AcDbSpline
210
0.0
220
0.0
230
1.0
 70
    24
 71
     3
 72
    33
 73
    29
 74
     0
 42
0.000000001
 43
0.00000001
 40
0.0
 40
0.0
 40
0.0
 40
0.0
 40
0.0134079472524696
 40
0.1117337267027765
 40
0.1430192019824198
 40
0.174304677262063
 40
0.2055901525417062
 40
0.2368588743389255
 40
0.2612589676063429
 40
0.2855089766221021
 40
0.3096550663169397
 40
0.3337537439739279
 40
0.3583162642980702
 40
0.382978211744621
 40
0.4077401154682377
 40
0.4325522602589045
 40
0.4573713355795589
 40
0.4817152641207488
 40
0.505982345566554
 40
0.5301483201637488
 40
0.5542587495903886
 40
0.5817634241226611
 40
0.6093716037520457
 40
0.6371767937668465
 40
0.6651917822644814
 40
0.6932235681150408
 40
0.8033484410993849
 40
1.0
 40
1.0
 40
1.0
 40
1.0
 10
-267.4761992506334
 20
0.0
 30
0.0
 10
-267.4846957096817
 20
0.0
 30
0.0
 10
-267.5555000629039
 20
0.0
 30
0.0
 10
-267.4960271369279
 20
0.0
 30
0.0
 10
-267.4978230489096
 20
0.0
 30
0.0
 10
-267.5119323707741
 20
0.0
 30
0.0
 10
-267.4544577291167
 20
0.0
 30
0.0
 10
-267.6543482118416
 20
0.0
 30
0.0
 10
-266.7528520750498
 20
0.0
 30
0.0
 10
-264.9590540592682
 20
0.0
 30
0.0
 10
-262.2575893424787
 20
0.0
 30
0.0
 10
-258.6390848823748
 20
0.0
 30
0.0
 10
-254.1032420026864
 20
0.0
 30
0.0
 10
-248.6543815969246
 20
0.0
 30
0.0
 10
-242.3655648360862
 20
0.0
 30
0.0
 10
-235.2926369309249
 20
0.0
 30
0.0
 10
-227.5380093642549
 20
0.0
 30
0.0
 10
-219.2079385098289
 20
0.0
 30
0.0
 10
-210.4040365598181
 20
0.0
 30
0.0
 10
-201.1505775970608
 20
0.0
 30
0.0
 10
-191.065541192313
 20
0.0
 30
0.0
 10
-180.1446355045369
 20
0.0
 30
0.0
 10
-168.4200558705036
 20
0.0
 30
0.0
 10
-156.4462927767176
 20
0.0
 30
0.0
 10
-144.387288526272
 20
0.0
 30
0.0
 10
-120.5015437529343
 20
0.0
 30
0.0
 10
-72.3692839007318
 20
0.0
 30
0.0
 10
-28.26925152372338
 20
0.0
 30
0.0
 10
-0.0000000000000039
 20
0.0
 30
0.0
  0
LINE
  5
AA
330
23
100
AcDbEntity
  8
0
  6
Continuous
 62
     7
370
    25
100
AcDbLine
 10
45.0
 20
-141.0
 30
0.0
 11
45.0
 21
-127.9056404636
 31
0.0
  0
LINE
  5
AB
330
23
100
AcDbEntity
  8
0
  6
Continuous
 62
     7
370
    25
100
AcDbLine
 10
55.0
 20
-141.0
 30
0.0
 11
55.0
 21
-128.4862998607
 31
0.0
  0
LINE
  5
AC
330
23
100
AcDbEntity
  8
0
  6
Continuous
 62
     7
370
    25
100
AcDbLine
 10
55.0
 20
-141.0
 30
0.0
 11
-55.0
 21
-141.0
 31
0.0
  0
LINE
  5
AD
330
23
100
AcDbEntity
  8
0
  6
Continuous
 62
     7
370
    25
100
AcDbLine
 10
-45.0
 20
-141.0
 30
0.0
 11
-45.0
 21
-127.905640464
 31
0.0
  0
LINE
  5
AE
330
23
100
AcDbEntity
  8
0
  6
Continuous
 62
     7
370
    25
100
AcDbLine
 10
-55.0
 20
-141.0
 30
0.0
 11
-55.0
 21
-128.4862998608
 31
0.0
  0
VIEWPORT
  5
181
330
23
100
AcDbEntity
  8
0
100
AcDbViewport
 10
0.0
 20
0.0
 30
0.0
 40
205.6
 41
156.0
 68
     1
 69
     1
 12
0.0
 22
-22.6961034758
 13
0.0
 23
0.0
 14
10.0
 24
10.0
 15
10.0
 25
10.0
 16
0.0
 26
0.0
 36
1.0
 17
0.0
 27
0.0
 37
0.0
 42
50.0
 43
0.0
 44
0.0
 45
399.6151273282
 50
0.0
 51
0.0
 72
   100
 90
   557152
  1

281
     0
 71
     1
 74
     0
110
0.0
120
0.0
130
0.0
111
1.0
121
0.0
131
0.0
112
0.0
122
1.0
132
0.0
 79
     0
146
0.0
170
     0
 61
     5
348
2F
292
     1
282
     1
141
0.0
142
0.0
 63
   256
361
182
  0
ENDBLK
  5
25
330
23
100
AcDbEntity
  8
0
100
AcDbBlockEnd
  0
BLOCK
  5
B1
330
AF
100
AcDbEntity
  8
0
100
AcDbBlockBegin
  2
*Paper_Space1
 70
     0
 10
0.0
 20
0.0
 30
0.0
  3
*Paper_Space1
  1

  0
SPLINE
  5
B3
330
AF
100
AcDbEntity
  8
0
  6
Continuous
 62
     7
370
    25
100
AcDbSpline
210
0.0
220
0.0
230
1.0
 70
     8
 71
     3
 72
    40
 73
    36
 74
     0
 42
0.000000001
 43
0.00000001
 40
0.0
 40
0.0
 40
0.0
 40
0.0
 40
0.0404887860511723
 40
0.0868516434959107
 40
0.1298157075918439
 40
0.168381760261218
 40
0.2028126976329794
 40
0.2341803442648813
 40
0.2636881805820274
 40
0.288801035032516
 40
0.3138621470412667
 40
0.3390228878601582
 40
0.3617974690959676
 40
0.3871234493889278
 40
0.4066018428121745
 40
0.4203292848638088
 40
0.424112407910484
 40
0.4273322982443996
 40
0.4303791480084843
 40
0.4336844893465345
 40
0.4376061617271453
 40
0.4423740203697338
 40
0.4549286897721704
 40
0.4719673063119257
 40
0.4937770026729192
 40
0.520542187490808
 40
0.5524012012978554
 40
0.5894658895689276
 40
0.6318285357668642
 40
0.6795636355075442
 40
0.7327271961255427
 40
0.7913546586702471
 40
0.85545794102805
 40
0.9250218504570823
 40
1.0
 40
1.0
 40
1.0
 40
1.0
 10
54.98754652381471
 20
-127.6767249948718
 30
0.0
 10
56.48230181804381
 20
-127.394317316904
 30
0.0
 10
59.68866996560779
 20
-126.7885305458121
 30
0.0
 10
63.7112910942833
 20
-125.7466362570279
 30
0.0
 10
67.6025868403633
 20
-124.5995905581537
 30
0.0
 10
71.18346415354635
 20
-123.4237220379639
 30
0.0
 10
74.55238168587816
 20
-122.2523049030105
 30
0.0
 10
77.72998235123163
 20
-121.1064645412664
 30
0.0
 10
80.62977483814271
 20
-120.0348597700356
 30
0.0
 10
83.28196161899493
 20
-119.0379278896238
 30
0.0
 10
85.76789440746477
 20
-118.0935806336755
 30
0.0
 10
88.05408845398065
 20
-117.2152767813411
 30
0.0
 10
90.29320333269318
 20
-116.2734425715607
 30
0.0
 10
92.48464845182622
 20
-115.2785933790862
 30
0.0
 10
94.54235329783043
 20
-114.2675566150256
 30
0.0
 10
96.04429674692676
 20
-113.4816697279723
 30
0.0
 10
97.03324876817902
 20
-112.9416837526376
 30
0.0
 10
97.57735694019304
 20
-112.6387430126449
 30
0.0
 10
98.12738382785543
 20
-112.326116145758
 30
0.0
 10
98.6524569067718
 20
-112.02190015843
 30
0.0
 10
99.15265308559
 20
-111.7270986016808
 30
0.0
 10
99.86683340342698
 20
-111.2994968378131
 30
0.0
 10
100.6943555126133
 20
-110.791367793785
 30
0.0
 10
101.6022939640559
 20
-110.221082395262
 30
0.0
 10
102.4938067918462
 20
-109.6496317302788
 30
0.0
 10
103.3689784319229
 20
-109.0794195394376
 30
0.0
 10
104.2248559149361
 20
-108.5142437284639
 30
0.0
 10
105.0592411446854
 20
-107.9574008999016
 30
0.0
 10
105.8689661320105
 20
-107.4125379010302
 30
0.0
 10
106.6501514274464
 20
-106.883559941076
 30
0.0
 10
107.3976852658136
 20
-106.3749657372468
 30
0.0
 10
108.1058056997026
 20
-105.8914873157648
 30
0.0
 10
108.7649776913029
 20
-105.44027962317
 30
0.0
 10
109.3744090858789
 20
-105.022373911664
 30
0.0
 10
109.705054279876
 20
-104.795473148821
 30
0.0
 10
109.876569512034
 20
-104.6777731558304
 30
0.0
  0
SPLINE
  5
B4
330
AF
100
AcDbEntity
  8
0
  6
Continuous
 62
     7
370
    25
100
AcDbSpline
210
0.0
220
0.0
230
1.0
 70
     8
 71
     3
 72
    22
 73
    18
 74
     0
 42
0.000000001
 43
0.00000001
 40
0.0
 40
0.0
 40
0.0
 40
0.0
 40
0.042314551898254
 40
0.0828673514828977
 40
0.1215706435048698
 40
0.1585822262757191
 40
0.2015464830001368
 40
0.254277212564485
 40
0.3168255435924657
 40
0.3795824312211415
 40
0.4496975738417647
 40
0.5269117488598922
 40
0.6108307548230345
 40
0.7008777829188744
 40
0.7963430775344044
 40
0.8963597037520984
 40
0.9999999999999999
 40
0.9999999999999999
 40
0.9999999999999999
 40
0.9999999999999999
 10
-164.9999999999999
 20
0.0
 30
0.0
 10
-164.9794217010654
 20
-1.73555583263342
 30
0.0
 10
-164.9391218738375
 20
-5.134408207269139
 30
0.0
 10
-164.6252422092122
 20
-10.11243783705665
 30
0.0
 10
-164.1568324300784
 20
-14.85866774475535
 30
0.0
 10
-163.4975781461374
 20
-19.68230231950517
 30
0.0
 10
-162.5516562082791
 20
-25.04368558589441
 30
0.0
 10
-161.1288008702832
 20
-31.37862625728341
 30
0.0
 10
-159.1337376493308
 20
-38.40731628733122
 30
0.0
 10
-156.4765394880812
 20
-45.97386195050085
 30
0.0
 10
-153.1048033935544
 20
-53.91012832155084
 30
0.0
 10
-148.776911108803
 20
-62.35929593999957
 30
0.0
 10
-143.3741346245703
 20
-71.14326845036209
 30
0.0
 10
-136.806302964412
 20
-80.04887726019795
 30
0.0
 10
-129.0148549382288
 20
-88.80784199771036
 30
0.0
 10
-120.0661123834297
 20
-97.24280165206449
 30
0.0
 10
-113.3131357336474
 20
-102.1702247553796
 30
0.0
 10
-109.8765695120556
 20
-104.6777731558157
 30
0.0
  0
SPLINE
  5
B5
330
AF
100
AcDbEntity
  8
0
  6
Continuous
 62
     7
370
    25
100
AcDbSpline
210
0.0
220
0.0
230
1.0
 70
     8
 71
     3
 72
    21
 73
    17
 74
     0
 42
0.000000001
 43
0.00000001
 40
0.0
 40
0.0
 40
0.0
 40
0.0
 40
0.0848616109180858
 40
0.1674817119273684
 40
0.2473399106210401
 40
0.3239512245712484
 40
0.3968705886370755
 40
0.4657242569254022
 40
0.5301936216295148
 40
0.5900486305207405
 40
0.6623848524201237
 40
0.7294462099789844
 40
0.7968861628525936
 40
0.8645896642783937
 40
0.9323553048628443
 40
0.9999999999999999
 40
0.9999999999999999
 40
0.9999999999999999
 40
0.9999999999999999
 10
109.8765695120556
 20
-104.6777731558155
 30
0.0
 10
112.7005184838114
 20
-102.6398821034761
 30
0.0
 10
118.2738254605281
 20
-98.61792826033337
 30
0.0
 10
125.8573280695799
 20
-91.85492918511228
 30
0.0
 10
132.6851004878865
 20
-84.80614504596004
 30
0.0
 10
138.6958353906828
 20
-77.55613478915427
 30
0.0
 10
143.9048312712983
 20
-70.2608714254445
 30
0.0
 10
148.3380019182314
 20
-63.04939724007416
 30
0.0
 10
152.0472011305168
 20
-56.04233639083916
 30
0.0
 10
155.383363663585
 20
-48.69408608285466
 30
0.0
 10
158.2841792049282
 20
-41.04657190343865
 30
0.0
 10
160.7490725908604
 20
-32.92337095986798
 30
0.0
 10
162.6397257105342
 20
-24.84195007398372
 30
0.0
 10
163.9927669191949
 20
-16.62585309099005
 30
0.0
 10
164.8415790680657
 20
-8.329551222390805
 30
0.0
 10
164.9472244760511
 20
-2.774863300283675
 30
0.0
 10
165.0
 20
0.0
 30
0.0
  0
SPLINE
  5
B6
330
AF
100
AcDbEntity
  8
0
  6
Continuous
 62
     7
370
    25
100
AcDbSpline
210
0.0
220
0.0
230
1.0
 70
     8
 71
     3
 72
    40
 73
    36
 74
     0
 42
0.000000001
 43
0.00000001
 40
0.0
 40
0.0
 40
0.0
 40
0.0
 40
0.0758863831036537
 40
0.1461008660310175
 40
0.2105820165700329
 40
0.2693029828104899
 40
0.3222661322740662
 40
0.3694982647637025
 40
0.4110465107105694
 40
0.4427889224785981
 40
0.4702812949936626
 40
0.4935853917897093
 40
0.512774349134325
 40
0.5279399883688316
 40
0.5392146732264849
 40
0.5475221066707925
 40
0.5512183151387704
 40
0.5547970699036389
 40
0.5584255925043585
 40
0.5622658683635187
 40
0.5710800075217994
 40
0.5820304327507168
 40
0.5956251827108828
 40
0.6122517253152284
 40
0.6319634022861143
 40
0.6548025380906893
 40
0.6796236358466956
 40
0.7102472928672505
 40
0.7454592099569428
 40
0.7864812840486243
 40
0.8339647600283591
 40
0.8754560681251867
 40
0.9194330219478942
 40
0.9643368798065195
 40
1.0
 40
1.0
 40
1.0
 40
1.0
 10
-109.8765695120618
 20
-104.6777731558115
 30
0.0
 10
-109.7809660415462
 20
-104.7436347990523
 30
0.0
 10
-109.5969046952725
 20
-104.8704354544815
 30
0.0
 10
-109.2175772871532
 20
-105.1338638984579
 30
0.0
 10
-108.7866985858645
 20
-105.433255277433
 30
0.0
 10
-108.3064048932959
 20
-105.7667845034145
 30
0.0
 10
-107.7863176782727
 20
-106.1273782914552
 30
0.0
 10
-107.2325807341467
 20
-106.5104383164542
 30
0.0
 10
-106.6704437483357
 20
-106.8981191493326
 30
0.0
 10
-106.1095783223912
 20
-107.2833424745661
 30
0.0
 10
-105.5636347932556
 20
-107.6564826006279
 30
0.0
 10
-105.0023637176884
 20
-108.0375805852837
 30
0.0
 10
-104.4326325712299
 20
-108.4213287031685
 30
0.0
 10
-103.8436333570998
 20
-108.8136989370477
 30
0.0
 10
-103.2606964238261
 20
-109.1974608183847
 30
0.0
 10
-102.627531911164
 20
-109.6074653027582
 30
0.0
 10
-101.9845436906159
 20
-110.0155647532926
 30
0.0
 10
-101.4535698445195
 20
-110.3481778807326
 30
0.0
 10
-100.8562477371218
 20
-110.7169209762953
 30
0.0
 10
-99.93524545387125
 20
-111.2762404570602
 30
0.0
 10
-98.59158612090243
 20
-112.0686119327982
 30
0.0
 10
-96.82833316979543
 20
-113.0614748575163
 30
0.0
 10
-94.78343619786837
 20
-114.1525448709171
 30
0.0
 10
-92.34048865741175
 20
-115.3708015475271
 30
0.0
 10
-89.51928075426005
 20
-116.667750952457
 30
0.0
 10
-86.29639093612195
 20
-117.9725623494723
 30
0.0
 10
-82.88869207534653
 20
-119.2681785814328
 30
0.0
 10
-79.52495950730736
 20
-120.5494719549062
 30
0.0
 10
-76.03682502899727
 20
-121.8433987728015
 30
0.0
 10
-72.44979903427614
 20
-123.1314310757489
 30
0.0
 10
-69.01315689600843
 20
-124.2893951935893
 30
0.0
 10
-65.6343099720197
 20
-125.3250006535961
 30
0.0
 10
-62.25040978849197
 20
-126.2288149820078
 30
0.0
 10
-58.85542625403609
 20
-127.0155325011239
 30
0.0
 10
-56.17805165914114
 20
-127.4832704103231
 30
0.0
 10
-54.99290689773582
 20
-127.6903154513328
 30
0.0
  0
SPLINE
  5
B8
330
AF
100
AcDbEntity
  8
0
  6
Continuous
 62
     7
370
    25
100
AcDbSpline
210
0.0
220
0.0
230
1.0
 70
     8
 71
     3
 72
    29
 73
    25
 74
     0
 42
0.000000001
 43
0.00000001
 40
0.0
 40
0.0
 40
0.0
 40
0.0
 40
0.1250000000000021
 40
0.1250000000000021
 40
0.1875000000000024
 40
0.1875000000000024
 40
0.2500000000000028
 40
0.2500000000000028
 40
0.3750000000000033
 40
0.3750000000000033
 40
0.4375000000000036
 40
0.4375000000000036
 40
0.500000000000004
 40
0.500000000000004
 40
0.6250000000000034
 40
0.6250000000000034
 40
0.687500000000003
 40
0.687500000000003
 40
0.7500000000000024
 40
0.8125000000000019
 40
0.8125000000000019
 40
0.8750000000000013
 40
0.8750000000000013
 40
1.0
 40
1.0
 40
1.0
 40
1.0
 10
44.99999999999974
 20
-128.4862998609145
 30
0.0
 10
45.66028560471717
 20
-128.4622569672744
 30
0.0
 10
46.3095557173924
 20
-128.4387725503082
 30
0.0
 10
47.26753901667051
 20
-128.402295558218
 30
0.0
 10
47.58419672610344
 20
-128.390013273997
 30
0.0
 10
48.21204828707375
 20
-128.3651153747069
 30
0.0
 10
48.52412512939767
 20
-128.3524599504071
 30
0.0
 10
49.43196614954638
 20
-128.3146900685744
 30
0.0
 10
50.00606770793544
 20
-128.2895219615351
 30
0.0
 10
50.82095452672131
 20
-128.2513598378322
 30
0.0
 10
51.08564357223774
 20
-128.2385291880927
 30
0.0
 10
51.59522172911711
 20
-128.212837810064
 30
0.0
 10
51.83772418525162
 20
-128.2001005531568
 30
0.0
 10
52.52952792998367
 20
-128.1620984093532
 30
0.0
 10
52.94346243142157
 20
-128.1370420394269
 30
0.0
 10
53.49180601530337
 20
-128.0994676945282
 30
0.0
 10
53.66215760785322
 20
-128.08694936576
 30
0.0
 10
53.97091969220229
 20
-128.0624082335943
 30
0.0
 10
54.24989671215344
 20
-128.038220650167
 30
0.0
 10
54.47022255542034
 20
-128.0146402780278
 30
0.0
 10
54.66083457260324
 20
-127.9913540685545
 30
0.0
 10
54.74153724389656
 20
-127.9798093689081
 30
0.0
 10
54.93520762165404
 20
-127.9460599100159
 30
0.0
 10
54.99999999999959
 20
-127.9247624521946
 30
0.0
 10
54.99999999999969
 20
-127.9056404642756
 30
0.0
  0
SPLINE
  5
B9
330
AF
100
AcDbEntity
  8
0
  6
Continuous
 62
     7
370
    25
100
AcDbSpline
210
0.0
220
0.0
230
1.0
 70
     8
 71
     3
 72
    10
 73
     6
 74
     0
 42
0.000000001
 43
0.00000001
 40
0.0
 40
0.0
 40
0.0
 40
0.0
 40
0.5
 40
0.5
 40
1.0
 40
1.0
 40
1.0
 40
1.0
 10
-45.00000000045539
 20
-128.4862998609347
 30
0.0
 10
-30.00549388111942
 20
-129.032292857359
 30
0.0
 10
-15.00280537813201
 20
-129.4170560667585
 30
0.0
 10
15.00287459582641
 20
-129.4170548465036
 30
0.0
 10
30.00548999474611
 20
-129.0322929988768
 30
0.0
 10
44.99999999954458
 20
-128.4862998609782
 30
0.0
  0
SPLINE
  5
BA
330
AF
100
AcDbEntity
  8
0
  6
Continuous
 62
     7
370
    25
100
AcDbSpline
210
0.0
220
0.0
230
1.0
 70
     8
 71
     3
 72
    29
 73
    25
 74
     0
 42
0.000000001
 43
0.00000001
 40
0.0
 40
0.0
 40
0.0
 40
0.0
 40
0.1250000000000007
 40
0.1250000000000007
 40
0.1875000000000011
 40
0.1875000000000011
 40
0.2500000000000014
 40
0.2500000000000014
 40
0.3750000000000009
 40
0.3750000000000009
 40
0.4375000000000007
 40
0.4375000000000007
 40
0.5000000000000004
 40
0.5000000000000004
 40
0.6249999999999999
 40
0.6249999999999999
 40
0.6874999999999998
 40
0.6874999999999998
 40
0.7499999999999996
 40
0.8124999999999993
 40
0.8124999999999993
 40
0.8749999999999991
 40
0.8749999999999991
 40
1.0
 40
1.0
 40
1.0
 40
1.0
 10
-55.00000000000022
 20
-127.9056404642268
 30
0.0
 10
-55.00000000000001
 20
-127.9247624879704
 30
0.0
 10
-54.93521555014286
 20
-127.9459434363766
 30
0.0
 10
-54.74488144250314
 20
-127.9792826459661
 30
0.0
 10
-54.66579468992424
 20
-127.9906855024961
 30
0.0
 10
-54.47563058192399
 20
-128.0140389011466
 30
0.0
 10
-54.36400988098589
 20
-128.026029242962
 30
0.0
 10
-53.98791651966146
 20
-128.0620784002732
 30
0.0
 10
-53.6810654615605
 20
-128.0864400684488
 30
0.0
 10
-53.13739938740079
 20
-128.1237811405791
 30
0.0
 10
-52.94148361632386
 20
-128.1364060138998
 30
0.0
 10
-52.52364858043813
 20
-128.1618204360396
 30
0.0
 10
-52.30380105426769
 20
-128.1744894035689
 30
0.0
 10
-51.6125012659898
 20
-128.2124894685056
 30
0.0
 10
-51.10959133314493
 20
-128.2378115101989
 30
0.0
 10
-50.29070563293225
 20
-128.276206983053
 30
0.0
 10
-50.00688902929182
 20
-128.289069706517
 30
0.0
 10
-49.43005226632538
 20
-128.314438937445
 30
0.0
 10
-48.84098691159679
 20
-128.3395964145238
 30
0.0
 10
-48.22784609040398
 20
-128.3644786676654
 30
0.0
 10
-47.60251067636223
 20
-128.3892967121742
 30
0.0
 10
-47.28236417393316
 20
-128.4017256468079
 30
0.0
 10
-46.31341068416735
 20
-128.4386363213407
 30
0.0
 10
-45.66028368108182
 20
-128.4622570373667
 30
0.0
 10
-45.00000000000205
 20
-128.4862998609616
 30
0.0
  0
LINE
  5
C4
330
AF
100
AcDbEntity
  8
0
  6
Continuous
 62
     7
370
    25
100
AcDbLine
 10
55.0
 20
-141.0
 30
0.0
 11
55.0
 21
-127.7272609508
 31
0.0
  0
LINE
  5
C5
330
AF
100
AcDbEntity
  8
0
  6
Continuous
 62
     7
370
    25
100
AcDbLine
 10
-55.0
 20
-141.0
 30
0.0
 11
-55.0
 21
-127.7192029128
 31
0.0
  0
LINE
  5
C6
330
AF
100
AcDbEntity
  8
0
  6
Continuous
 62
     7
370
    25
100
AcDbLine
 10
-165.0
 20
0.0
 30
0.0
 11
165.0
 21
0.0
 31
0.0
  0
LINE
  5
C7
330
AF
100
AcDbEntity
  8
0
  6
Continuous
 62
     7
370
    25
100
AcDbLine
 10
55.0
 20
-141.0
 30
0.0
 11
-55.0
 21
-141.0
 31
0.0
  0
LINE
  5
C8
330
AF
100
AcDbEntity
  8
0
  6
Continuous
 62
     7
370
    25
100
AcDbLine
 10
-45.0
 20
-141.0
 30
0.0
 11
-45.0
 21
-128.4862998607
 31
0.0
  0
LINE
  5
C9
330
AF
100
AcDbEntity
  8
0
  6
Continuous
 62
     7
370
    25
100
AcDbLine
 10
45.0
 20
-141.0
 30
0.0
 11
45.0
 21
-128.4862998608
 31
0.0
  0
VIEWPORT
  5
183
330
AF
100
AcDbEntity
  8
0
100
AcDbViewport
 10
0.0
 20
0.0
 30
0.0
 40
205.6
 41
156.0
 68
     1
 69
     1
 12
0.0
 22
-22.6961034758
 13
0.0
 23
0.0
 14
10.0
 24
10.0
 15
10.0
 25
10.0
 16
0.0
 26
0.0
 36
1.0
 17
0.0
 27
0.0
 37
0.0
 42
50.0
 43
0.0
 44
0.0
 45
399.6151273282
 50
0.0
 51
0.0
 72
   100
 90
   557152
  1

281
     0
 71
     1
 74
     0
110
0.0
120
0.0
130
0.0
111
1.0
121
0.0
131
0.0
112
0.0
122
1.0
132
0.0
 79
     0
146
0.0
170
     0
 61
     5
348
2F
292
     1
282
     1
141
0.0
142
0.0
 63
   256
361
184
  0
ENDBLK
  5
B2
330
AF
100
AcDbEntity
  8
0
100
AcDbBlockEnd
  0
BLOCK
  5
CC
330
CA
100
AcDbEntity
  8
0
100
AcDbBlockBegin
  2
*Paper_Space2
 70
     0
 10
0.0
 20
0.0
 30
0.0
  3
*Paper_Space2
  1

  0
SPLINE
  5
CE
330
CA
100
AcDbEntity
  8
0
  6
Continuous
 62
     7
370
    25
100
AcDbSpline
210
0.0
220
0.0
230
1.0
 70
     8
 71
     3
 72
    38
 73
    34
 74
     0
 42
0.000000001
 43
0.00000001
 40
0.0
 40
0.0
 40
0.0
 40
0.0
 40
0.0414916141477542
 40
0.0906280874359357
 40
0.14049097619009
 40
0.1890473211197
 40
0.2345282451719918
 40
0.2759276426945247
 40
0.3110003895871438
 40
0.3424294011558059
 40
0.3705769931387669
 40
0.3958362221282549
 40
0.418920092963825
 40
0.4492861705951869
 40
0.4771047383152325
 40
0.5026132771705355
 40
0.5259906159910723
 40
0.5473746743081302
 40
0.5674741255803141
 40
0.5881657618884505
 40
0.6095739568821668
 40
0.6392307192592168
 40
0.6701708551104567
 40
0.7024184916169973
 40
0.7360112101515909
 40
0.7708447449940894
 40
0.8052433845831101
 40
0.8388145668902333
 40
0.8716405186991412
 40
0.9037925937552223
 40
0.9354239645720135
 40
0.9674004195692463
 40
0.9999999999999999
 40
0.9999999999999999
 40
0.9999999999999999
 40
0.9999999999999999
 10
55.00445978663868
 20
-129.4071874142233
 30
0.0
 10
58.89464987225694
 20
-129.2569327247737
 30
0.0
 10
67.39180030767582
 20
-128.9287388134784
 30
0.0
 10
80.55265545195158
 20
-128.1713221285937
 30
0.0
 10
94.3624007364905
 20
-127.1825216600051
 30
0.0
 10
107.8134377773852
 20
-126.0074430513368
 30
0.0
 10
120.4558658980353
 20
-124.7181635301841
 30
0.0
 10
131.8229109162799
 20
-123.403618925215
 30
0.0
 10
141.8654530297211
 20
-122.1202536680906
 30
0.0
 10
150.6629347864373
 20
-120.906617621128
 30
0.0
 10
158.5365048860127
 20
-119.7365827321816
 30
0.0
 10
165.6307778807342
 20
-118.6523321029446
 30
0.0
 10
172.9067265219558
 20
-117.3733979291516
 30
0.0
 10
180.3118720758061
 20
-115.5208098270023
 30
0.0
 10
187.792446214187
 20
-113.116371676938
 30
0.0
 10
194.4962529252525
 20
-110.4858634738542
 30
0.0
 10
200.4891321295136
 20
-107.7292709940786
 30
0.0
 10
205.8784104125852
 20
-104.8968196240865
 30
0.0
 10
210.9061006888968
 20
-101.933893081965
 30
0.0
 10
215.7890604508399
 20
-98.73352438069024
 30
0.0
 10
221.2329610759166
 20
-94.76753527861892
 30
0.0
 10
227.1740268825021
 20
-89.86801808435379
 30
0.0
 10
233.4904010127226
 20
-83.8578348775945
 30
0.0
 10
239.5921392616679
 20
-77.12104032994971
 30
0.0
 10
245.3808043571982
 20
-69.64434623836965
 30
0.0
 10
250.6618449239388
 20
-61.55740772540043
 30
0.0
 10
255.268470730061
 20
-53.07092444777344
 30
0.0
 10
259.1078220774507
 20
-44.41715402127961
 30
0.0
 10
262.1908192344895
 20
-35.6902783126887
 30
0.0
 10
264.5563114656916
 20
-26.93014034812562
 30
0.0
 10
266.2320876952112
 20
-18.09654117906141
 30
0.0
 10
267.2992124665943
 20
-9.119944553842393
 30
0.0
 10
267.4326416479391
 20
-3.059474986391447
 30
0.0
 10
267.5000000000001
 20
0.0
 30
0.0
  0
SPLINE
  5
CF
330
CA
100
AcDbEntity
  8
0
  6
Continuous
 62
     7
370
    25
100
AcDbSpline
210
0.0
220
0.0
230
1.0
 70
     8
 71
     3
 72
    38
 73
    34
 74
     0
 42
0.000000001
 43
0.00000001
 40
0.0
 40
0.0
 40
0.0
 40
0.0
 40
0.0325995800227361
 40
0.0645760346197508
 40
0.0962074050406429
 40
0.1283594796943073
 40
0.1611854310923649
 40
0.1947566129793109
 40
0.2291552521377971
 40
0.2639887865443168
 40
0.2975815046584623
 40
0.3298291407613916
 40
0.3607692762253851
 40
0.3904260382312504
 40
0.4118342329570204
 40
0.432525869006179
 40
0.4526253200267973
 40
0.4740093780762116
 40
0.4973867166041573
 40
0.5228952551401947
 40
0.5507138225120635
 40
0.581079899763362
 40
0.6056191275467695
 40
0.6326728342418629
 40
0.6630288732682523
 40
0.6971567793781508
 40
0.7354569814823699
 40
0.7780737740975615
 40
0.8218347722743592
 40
0.8680214953522264
 40
0.9150580899638456
 40
0.9612574564228543
 40
1.0
 40
1.0
 40
1.0
 40
1.0
 10
-267.5
 20
0.0
 30
0.0
 10
-267.432641647939
 20
-3.059474986391433
 30
0.0
 10
-267.2992124665942
 20
-9.119944553842393
 30
0.0
 10
-266.2320876952109
 20
-18.09654117906139
 30
0.0
 10
-264.5563114656916
 20
-26.93014034812535
 30
0.0
 10
-262.1908192344899
 20
-35.69027831268956
 30
0.0
 10
-259.1078220774504
 20
-44.41715402127673
 30
0.0
 10
-255.268470730062
 20
-53.07092444778471
 30
0.0
 10
-250.6618449239324
 20
-61.55740772535625
 30
0.0
 10
-245.3808043572199
 20
-69.64434623853337
 30
0.0
 10
-239.5921392615927
 20
-77.12104032937327
 30
0.0
 10
-233.4904010129885
 20
-83.85783487961815
 30
0.0
 10
-227.1740268815703
 20
-89.86801807725783
 30
0.0
 10
-221.2329610788484
 20
-94.76753530095708
 30
0.0
 10
-215.7890604433179
 20
-98.73352432338466
 30
0.0
 10
-210.9061007158857
 20
-101.9338932875853
 30
0.0
 10
-205.8784103122513
 20
-104.896818859671
 30
0.0
 10
-200.4891325470841
 20
-107.7292741754299
 30
0.0
 10
-194.4962511411437
 20
-110.4858498812319
 30
0.0
 10
-187.7924538101442
 20
-113.1164295483899
 30
0.0
 10
-180.3118397426888
 20
-115.5205634901184
 30
0.0
 10
-172.7742368579121
 20
-117.4075016200521
 30
0.0
 10
-165.1944270969479
 20
-118.7208644759227
 30
0.0
 10
-157.5939063937381
 20
-119.8814901656232
 30
0.0
 10
-149.0963687727582
 20
-121.1310665880704
 30
0.0
 10
-139.5400634252495
 20
-122.4292797277089
 30
0.0
 10
-128.8284593916386
 20
-123.7648832260203
 30
0.0
 10
-117.2025079482266
 20
-125.065699553311
 30
0.0
 10
-104.8236889358091
 20
-126.2824637455283
 30
0.0
 10
-92.0158320031472
 20
-127.3622901019311
 30
0.0
 10
-78.96529001361284
 20
-128.2680593166687
 30
0.0
 10
-66.60099374313373
 20
-128.9628111277633
 30
0.0
 10
-58.63690955522024
 20
-129.268435385085
 30
0.0
 10
-55.00444027626282
 20
-129.407832546068
 30
0.0
  0
SPLINE
  5
D0
330
CA
100
AcDbEntity
  8
0
  6
Continuous
 62
     7
370
    25
100
AcDbSpline
210
0.0
220
0.0
230
1.0
 70
     8
 71
     3
 72
    29
 73
    25
 74
     0
 42
0.000000001
 43
0.00000001
 40
0.0
 40
0.0
 40
0.0
 40
0.0
 40
0.1249999999999985
 40
0.1249999999999985
 40
0.1874999999999979
 40
0.1874999999999979
 40
0.2499999999999973
 40
0.2499999999999973
 40
0.3749999999999955
 40
0.3749999999999955
 40
0.4374999999999956
 40
0.4374999999999956
 40
0.4999999999999957
 40
0.4999999999999957
 40
0.6249999999999969
 40
0.6249999999999969
 40
0.6874999999999971
 40
0.6874999999999971
 40
0.7499999999999973
 40
0.8124999999999977
 40
0.8124999999999977
 40
0.8749999999999979
 40
0.8749999999999979
 40
1.0
 40
1.0
 40
1.0
 40
1.0
 10
44.99999999999979
 20
-127.9056404642267
 30
0.0
 10
45.66045185511452
 20
-127.9247624879703
 30
0.0
 10
46.30979556789966
 20
-127.9459434363769
 30
0.0
 10
47.26788531146752
 20
-127.9792826459663
 30
0.0
 10
47.58457355638662
 20
-127.9906855024964
 30
0.0
 10
48.21248074407468
 20
-128.0140389011468
 30
0.0
 10
48.5245731512112
 20
-128.0260292429624
 30
0.0
 10
49.43244226506592
 20
-128.0620784002735
 30
0.0
 10
50.00655639957592
 20
-128.0864400684491
 30
0.0
 10
50.82145663408131
 20
-128.1237811405794
 30
0.0
 10
51.08616393035027
 20
-128.1364060139
 30
0.0
 10
51.59570052788163
 20
-128.1618204360398
 30
0.0
 10
51.83818384361131
 20
-128.1744894035691
 30
0.0
 10
52.52993356441127
 20
-128.2124894685058
 30
0.0
 10
52.94383660742547
 20
-128.2378115101991
 30
0.0
 10
53.4921343301646
 20
-128.2762069830532
 30
0.0
 10
53.66245184877092
 20
-128.2890697065171
 30
0.0
 10
53.97115637482309
 20
-128.3144389374452
 30
0.0
 10
54.2500824946879
 20
-128.3395964145239
 30
0.0
 10
54.4703669579163
 20
-128.3644786676655
 30
0.0
 10
54.66094089001366
 20
-128.3892967121741
 30
0.0
 10
54.74162705307221
 20
-128.4017256468078
 30
0.0
 10
54.93523466401695
 20
-128.4386363213407
 30
0.0
 10
54.99999999999992
 20
-128.4622570373666
 30
0.0
 10
54.9999999999998
 20
-128.4862998609616
 30
0.0
  0
SPLINE
  5
D1
330
CA
100
AcDbEntity
  8
0
  6
Continuous
 62
     7
370
    25
100
AcDbSpline
210
0.0
220
0.0
230
1.0
 70
     8
 71
     3
 72
    30
 73
    26
 74
     0
 42
0.000000001
 43
0.00000001
 40
0.0
 40
0.0
 40
0.0
 40
0.0
 40
0.015625
 40
0.015625
 40
0.0312499999999999
 40
0.0312499999999999
 40
0.0625000000000001
 40
0.0625000000000001
 40
0.1250000000000002
 40
0.1250000000000002
 40
0.2500000000000001
 40
0.2500000000000001
 40
0.5
 40
0.5
 40
0.7499999999999999
 40
0.7499999999999999
 40
0.8749999999999998
 40
0.8749999999999998
 40
0.9374999999999999
 40
0.9374999999999999
 40
0.96875
 40
0.96875
 40
0.9843749999999999
 40
0.9843749999999999
 40
1.0
 40
1.0
 40
1.0
 40
1.0
 10
-45.00000001434031
 20
-127.9056404646902
 30
0.0
 10
-44.53128418059433
 20
-127.8920697628248
 30
0.0
 10
-44.06277052728726
 20
-127.8723163745507
 30
0.0
 10
-43.12562307063052
 20
-127.8364844087658
 30
0.0
 10
-42.65705592524599
 20
-127.8183671334702
 30
0.0
 10
-41.25137447019657
 20
-127.7634043279731
 30
0.0
 10
-40.31424351705977
 20
-127.7270677196961
 30
0.0
 10
-37.5027740538042
 20
-127.6204002773071
 30
0.0
 10
-35.62837478159187
 20
-127.5519274186106
 30
0.0
 10
-30.00484398213516
 20
-127.35669074799
 30
0.0
 10
-26.25537847414982
 20
-127.2401393558429
 30
0.0
 10
-15.00510682108098
 20
-126.9478226341905
 30
0.0
 10
-7.503297841455
 20
-126.8290550835364
 30
0.0
 10
7.501288945519444
 20
-126.8290337929041
 30
0.0
 10
15.00410631361484
 20
-126.9478026001565
 30
0.0
 10
26.25456108386533
 20
-127.2401151369316
 30
0.0
 10
30.00430403650972
 20
-127.356672939962
 30
0.0
 10
35.6280620435072
 20
-127.551916092251
 30
0.0
 10
37.50252914742552
 20
-127.620391157407
 30
0.0
 10
40.31409114404249
 20
-127.7270618527238
 30
0.0
 10
41.25125112696802
 20
-127.7633994499707
 30
0.0
 10
42.65697505143355
 20
-127.818363998874
 30
0.0
 10
43.12555682728431
 20
-127.8364818612554
 30
0.0
 10
44.06273448190981
 20
-127.8723150110356
 30
0.0
 10
44.53125894019656
 20
-127.8920690318005
 30
0.0
 10
44.99999998565928
 20
-127.9056404638604
 30
0.0
  0
SPLINE
  5
D2
330
CA
100
AcDbEntity
  8
0
  6
Continuous
 62
     7
370
    25
100
AcDbSpline
210
0.0
220
0.0
230
1.0
 70
     8
 71
     3
 72
    29
 73
    25
 74
     0
 42
0.000000001
 43
0.00000001
 40
0.0
 40
0.0
 40
0.0
 40
0.0
 40
0.1250000000000021
 40
0.1250000000000021
 40
0.1875000000000024
 40
0.1875000000000024
 40
0.2500000000000028
 40
0.2500000000000028
 40
0.3750000000000033
 40
0.3750000000000033
 40
0.4375000000000036
 40
0.4375000000000036
 40
0.500000000000004
 40
0.500000000000004
 40
0.6250000000000034
 40
0.6250000000000034
 40
0.687500000000003
 40
0.687500000000003
 40
0.7500000000000024
 40
0.8125000000000019
 40
0.8125000000000019
 40
0.8750000000000013
 40
0.8750000000000013
 40
1.0
 40
1.0
 40
1.0
 40
1.0
 10
-55.00000000000016
 20
-128.4862998609145
 30
0.0
 10
-55.00000000000045
 20
-128.4622569672744
 30
0.0
 10
-54.93524215702536
 20
-128.4387725503082
 30
0.0
 10
-54.74496075065492
 20
-128.402295558218
 30
0.0
 10
-54.66589431541264
 20
-128.390013273997
 30
0.0
 10
-54.47577603352053
 20
-128.3651153747069
 30
0.0
 10
-54.36417791270873
 20
-128.3524599504071
 30
0.0
 10
-53.98814884630563
 20
-128.3146900685744
 30
0.0
 10
-53.68134451290938
 20
-128.2895219615351
 30
0.0
 10
-53.1377578306258
 20
-128.2513598378322
 30
0.0
 10
-52.94188277004832
 20
-128.2385291880927
 30
0.0
 10
-52.52406871083029
 20
-128.212837810064
 30
0.0
 10
-52.30423161072308
 20
-128.2001005531568
 30
0.0
 10
-51.61296415975928
 20
-128.1620984093532
 30
0.0
 10
-51.11007720830611
 20
-128.1370420394269
 30
0.0
 10
-50.29123240097962
 20
-128.0994676945282
 30
0.0
 10
-50.00739980090635
 20
-128.08694936576
 30
0.0
 10
-49.43053349670996
 20
-128.0624082335943
 30
0.0
 10
-48.84143969383353
 20
-128.038220650167
 30
0.0
 10
-48.22827167444795
 20
-128.0146402780278
 30
0.0
 10
-47.60290772291955
 20
-127.9913540685545
 30
0.0
 10
-47.28275451009498
 20
-127.9798093689081
 30
0.0
 10
-46.31366419795413
 20
-127.9460599100159
 30
0.0
 10
-45.66045061777506
 20
-127.9247624521946
 30
0.0
 10
-44.99999999999844
 20
-127.9056404642756
 30
0.0
  0
SPLINE
  5
D3
330
CA
100
AcDbEntity
  8
0
  6
Continuous
 62
     7
370
    25
100
AcDbSpline
210
0.0
220
0.0
230
1.0
 70
    24
 71
     3
 72
    34
 73
    30
 74
     0
 42
0.000000001
 43
0.00000001
 40
0.0
 40
0.0
 40
0.0
 40
0.0
 40
0.250284174886273
 40
0.2783772965571812
 40
0.3064704182280898
 40
0.3345635398989981
 40
0.3626405335262395
 40
0.3905078067834844
 40
0.4181768561715138
 40
0.4457417382156262
 40
0.4702905870098943
 40
0.4948982201907182
 40
0.5196106740058971
 40
0.5444002933216795
 40
0.5692201590895501
 40
0.5935879124780798
 40
0.6179047173414591
 40
0.6421235085752429
 40
0.6662470711615051
 40
0.6907838616165668
 40
0.7153710282786832
 40
0.7400676267819188
 40
0.764922644671899
 40
0.7899402971769809
 40
0.8882662230251598
 40
0.9195517448859442
 40
0.9508372667467285
 40
0.9821227886075128
 40
1.0
 40
1.0
 40
1.0
 40
1.0
 10
-0.0000000000000039
 20
0.0
 30
0.0
 10
35.9795503102157
 20
0.0
 30
0.0
 10
75.99762157361887
 20
0.0
 30
0.0
 10
120.0538389566234
 20
0.0
 30
0.0
 10
132.1697110538943
 20
0.0
 30
0.0
 10
144.2816364572082
 20
0.0
 30
0.0
 10
156.3671808728507
 20
0.0
 30
0.0
 10
168.3681647053354
 20
0.0
 30
0.0
 10
180.1194968882621
 20
0.0
 30
0.0
 10
191.1179292250083
 20
0.0
 30
0.0
 10
201.3251586176671
 20
0.0
 30
0.0
 10
210.7358543021948
 20
0.0
 30
0.0
 10
219.6774878396226
 20
0.0
 30
0.0
 10
228.0712249801293
 20
0.0
 30
0.0
 10
235.7767077856525
 20
0.0
 30
0.0
 10
242.718440032448
 20
0.0
 30
0.0
 10
248.8591994565315
 20
0.0
 30
0.0
 10
254.1876630326284
 20
0.0
 30
0.0
 10
258.6879133247317
 20
0.0
 30
0.0
 10
262.3203961057811
 20
0.0
 30
0.0
 10
265.0458402454442
 20
0.0
 30
0.0
 10
266.8302700362628
 20
0.0
 30
0.0
 10
267.6056551454645
 20
0.0
 30
0.0
 10
267.3715038586693
 20
0.0
 30
0.0
 10
267.5132941606448
 20
0.0
 30
0.0
 10
267.4995549998077
 20
0.0
 30
0.0
 10
267.4942104904735
 20
0.0
 30
0.0
 10
267.5194040309702
 20
0.0
 30
0.0
 10
267.4765155463381
 20
0.0
 30
0.0
 10
267.4609198612463
 20
0.0
 30
0.0
  0
SPLINE
  5
D4
330
CA
100
AcDbEntity
  8
0
  6
Continuous
 62
     7
370
    25
100
AcDbSpline
210
0.0
220
0.0
230
1.0
 70
    24
 71
     3
 72
    33
 73
    29
 74
     0
 42
0.000000001
 43
0.00000001
 40
0.0
 40
0.0
 40
0.0
 40
0.0
 40
0.0134079472524696
 40
0.1117337267027765
 40
0.1430192019824198
 40
0.174304677262063
 40
0.2055901525417062
 40
0.2368588743389255
 40
0.2612589676063429
 40
0.2855089766221021
 40
0.3096550663169397
 40
0.3337537439739279
 40
0.3583162642980702
 40
0.382978211744621
 40
0.4077401154682377
 40
0.4325522602589045
 40
0.4573713355795589
 40
0.4817152641207488
 40
0.505982345566554
 40
0.5301483201637488
 40
0.5542587495903886
 40
0.5817634241226611
 40
0.6093716037520457
 40
0.6371767937668465
 40
0.6651917822644814
 40
0.6932235681150408
 40
0.8033484410993849
 40
1.0
 40
1.0
 40
1.0
 40
1.0
 10
-267.4761992506334
 20
0.0
 30
0.0
 10
-267.4846957096817
 20
0.0
 30
0.0
 10
-267.5555000629039
 20
0.0
 30
0.0
 10
-267.4960271369279
 20
0.0
 30
0.0
 10
-267.4978230489096
 20
0.0
 30
0.0
 10
-267.5119323707741
 20
0.0
 30
0.0
 10
-267.4544577291167
 20
0.0
 30
0.0
 10
-267.6543482118416
 20
0.0
 30
0.0
 10
-266.7528520750498
 20
0.0
 30
0.0
 10
-264.9590540592682
 20
0.0
 30
0.0
 10
-262.2575893424787
 20
0.0
 30
0.0
 10
-258.6390848823748
 20
0.0
 30
0.0
 10
-254.1032420026864
 20
0.0
 30
0.0
 10
-248.6543815969246
 20
0.0
 30
0.0
 10
-242.3655648360862
 20
0.0
 30
0.0
 10
-235.2926369309249
 20
0.0
 30
0.0
 10
-227.5380093642549
 20
0.0
 30
0.0
 10
-219.2079385098289
 20
0.0
 30
0.0
 10
-210.4040365598181
 20
0.0
 30
0.0
 10
-201.1505775970608
 20
0.0
 30
0.0
 10
-191.065541192313
 20
0.0
 30
0.0
 10
-180.1446355045369
 20
0.0
 30
0.0
 10
-168.4200558705036
 20
0.0
 30
0.0
 10
-156.4462927767176
 20
0.0
 30
0.0
 10
-144.387288526272
 20
0.0
 30
0.0
 10
-120.5015437529343
 20
0.0
 30
0.0
 10
-72.3692839007318
 20
0.0
 30
0.0
 10
-28.26925152372338
 20
0.0
 30
0.0
 10
-0.0000000000000039
 20
0.0
 30
0.0
  0
LINE
  5
DC
330
CA
100
AcDbEntity
  8
0
  6
Continuous
 62
     7
370
    25
100
AcDbLine
 10
45.0
 20
-141.0
 30
0.0
 11
45.0
 21
-127.9056404636
 31
0.0
  0
LINE
  5
DD
330
CA
100
AcDbEntity
  8
0
  6
Continuous
 62
     7
370
    25
100
AcDbLine
 10
55.0
 20
-141.0
 30
0.0
 11
55.0
 21
-128.4862998607
 31
0.0
  0
LINE
  5
DE
330
CA
100
AcDbEntity
  8
0
  6
Continuous
 62
     7
370
    25
100
AcDbLine
 10
55.0
 20
-141.0
 30
0.0
 11
-55.0
 21
-141.0
 31
0.0
  0
LINE
  5
DF
330
CA
100
AcDbEntity
  8
0
  6
Continuous
 62
     7
370
    25
100
AcDbLine
 10
-45.0
 20
-141.0
 30
0.0
 11
-45.0
 21
-127.905640464
 31
0.0
  0
LINE
  5
E0
330
CA
100
AcDbEntity
  8
0
  6
Continuous
 62
     7
370
    25
100
AcDbLine
 10
-55.0
 20
-141.0
 30
0.0
 11
-55.0
 21
-128.4862998608
 31
0.0
  0
VIEWPORT
  5
185
330
CA
100
AcDbEntity
  8
0
100
AcDbViewport
 10
0.0
 20
0.0
 30
0.0
 40
205.6
 41
156.0
 68
     1
 69
     1
 12
0.0
 22
-22.6961034758
 13
0.0
 23
0.0
 14
10.0
 24
10.0
 15
10.0
 25
10.0
 16
0.0
 26
0.0
 36
1.0
 17
0.0
 27
0.0
 37
0.0
 42
50.0
 43
0.0
 44
0.0
 45
399.6151273282
 50
0.0
 51
0.0
 72
   100
 90
   557152
  1

281
     0
 71
     1
 74
     0
110
0.0
120
0.0
130
0.0
111
1.0
121
0.0
131
0.0
112
0.0
122
1.0
132
0.0
 79
     0
146
0.0
170
     0
 61
     5
348
2F
292
     1
282
     1
141
0.0
142
0.0
 63
   256
361
186
  0
ENDBLK
  5
CD
330
CA
100
AcDbEntity
  8
0
100
AcDbBlockEnd
  0
BLOCK
  5
E3
330
E1
100
AcDbEntity
  8
0
100
AcDbBlockBegin
  2
*Paper_Space3
 70
     0
 10
0.0
 20
0.0
 30
0.0
  3
*Paper_Space3
  1

  0
SPLINE
  5
E5
330
E1
100
AcDbEntity
  8
0
  6
Continuous
 62
     7
370
    25
100
AcDbSpline
210
0.0
220
0.0
230
1.0
 70
     8
 71
     3
 72
    38
 73
    34
 74
     0
 42
0.000000001
 43
0.00000001
 40
0.0
 40
0.0
 40
0.0
 40
0.0
 40
0.0414916141477552
 40
0.0906280874359361
 40
0.1404909761900912
 40
0.1890473211197008
 40
0.2345282451719929
 40
0.2759276426945262
 40
0.3110003895871448
 40
0.3424294011558071
 40
0.3705769931387682
 40
0.3958362221282557
 40
0.4189200929638241
 40
0.4492861705951855
 40
0.4771047383152321
 40
0.5026132771705354
 40
0.5259906159910726
 40
0.5473746743081302
 40
0.567474125580314
 40
0.5881657618884498
 40
0.6095739568821655
 40
0.6392307192592158
 40
0.6701708551104569
 40
0.7024184916169987
 40
0.7360112101515919
 40
0.770844744994089
 40
0.8052433845831095
 40
0.8388145668902335
 40
0.8716405186991416
 40
0.9037925937552224
 40
0.9354239645720138
 40
0.9674004195692465
 40
1.0
 40
1.0
 40
1.0
 40
1.0
 10
55.00445978663898
 20
-129.4071874142233
 30
0.0
 10
58.89464987225732
 20
-129.2569327247736
 30
0.0
 10
67.39180030767623
 20
-128.9287388134784
 30
0.0
 10
80.55265545195208
 20
-128.1713221285938
 30
0.0
 10
94.36240073649097
 20
-127.1825216600052
 30
0.0
 10
107.8134377773858
 20
-126.0074430513369
 30
0.0
 10
120.4558658980358
 20
-124.7181635301841
 30
0.0
 10
131.8229109162804
 20
-123.403618925215
 30
0.0
 10
141.8654530297216
 20
-122.1202536680906
 30
0.0
 10
150.6629347864379
 20
-120.9066176211279
 30
0.0
 10
158.536504886013
 20
-119.7365827321814
 30
0.0
 10
165.6307778807345
 20
-118.6523321029446
 30
0.0
 10
172.9067265219558
 20
-117.3733979291517
 30
0.0
 10
180.3118720758057
 20
-115.520809827002
 30
0.0
 10
187.792446214187
 20
-113.1163716769383
 30
0.0
 10
194.4962529252527
 20
-110.4858634738544
 30
0.0
 10
200.4891321295136
 20
-107.7292709940788
 30
0.0
 10
205.8784104125853
 20
-104.8968196240865
 30
0.0
 10
210.9061006888967
 20
-101.933893081965
 30
0.0
 10
215.7890604508397
 20
-98.73352438069016
 30
0.0
 10
221.2329610759164
 20
-94.76753527861892
 30
0.0
 10
227.1740268825016
 20
-89.86801808435372
 30
0.0
 10
233.490401012723
 20
-83.85783487759468
 30
0.0
 10
239.5921392616684
 20
-77.12104032994984
 30
0.0
 10
245.3808043571984
 20
-69.64434623836968
 30
0.0
 10
250.6618449239383
 20
-61.55740772540024
 30
0.0
 10
255.2684707300604
 20
-53.07092444777331
 30
0.0
 10
259.1078220774507
 20
-44.41715402127967
 30
0.0
 10
262.1908192344899
 20
-35.69027831268887
 30
0.0
 10
264.5563114656915
 20
-26.93014034812554
 30
0.0
 10
266.232087695211
 20
-18.0965411790614
 30
0.0
 10
267.2992124665939
 20
-9.119944553842393
 30
0.0
 10
267.432641647939
 20
-3.059474986391447
 30
0.0
 10
267.4999999999999
 20
0.0
 30
0.0
  0
SPLINE
  5
E6
330
E1
100
AcDbEntity
  8
0
  6
Continuous
 62
     7
370
    25
100
AcDbSpline
210
0.0
220
0.0
230
1.0
 70
     8
 71
     3
 72
    38
 73
    34
 74
     0
 42
0.000000001
 43
0.00000001
 40
0.0
 40
0.0
 40
0.0
 40
0.0
 40
0.0325995800227361
 40
0.0645760346197508
 40
0.096207405040643
 40
0.1283594796943074
 40
0.1611854310923648
 40
0.1947566129793103
 40
0.2291552521377964
 40
0.2639887865443173
 40
0.2975815046584633
 40
0.3298291407613917
 40
0.3607692762253838
 40
0.390426038231249
 40
0.4118342329570198
 40
0.4325258690061789
 40
0.4526253200267972
 40
0.4740093780762117
 40
0.497386716604157
 40
0.5228952551401944
 40
0.550713822512062
 40
0.5810798997633612
 40
0.6056191275467702
 40
0.6326728342418642
 40
0.6630288732682532
 40
0.6971567793781519
 40
0.7354569814823713
 40
0.7780737740975622
 40
0.8218347722743602
 40
0.8680214953522272
 40
0.9150580899638462
 40
0.9612574564228552
 40
1.0
 40
1.0
 40
1.0
 40
1.0
 10
-267.5000000000001
 20
0.0
 30
0.0
 10
-267.4326416479391
 20
-3.059474986391433
 30
0.0
 10
-267.2992124665943
 20
-9.1199445538424
 30
0.0
 10
-266.2320876952112
 20
-18.09654117906148
 30
0.0
 10
-264.5563114656916
 20
-26.93014034812537
 30
0.0
 10
-262.1908192344897
 20
-35.69027831268952
 30
0.0
 10
-259.1078220774504
 20
-44.41715402127664
 30
0.0
 10
-255.2684707300626
 20
-53.07092444778484
 30
0.0
 10
-250.661844923933
 20
-61.55740772535647
 30
0.0
 10
-245.3808043572196
 20
-69.64434623853332
 30
0.0
 10
-239.5921392615923
 20
-77.12104032937314
 30
0.0
 10
-233.4904010129882
 20
-83.857834879618
 30
0.0
 10
-227.1740268815705
 20
-89.86801807725787
 30
0.0
 10
-221.2329610788488
 20
-94.76753530095714
 30
0.0
 10
-215.7890604433182
 20
-98.73352432338478
 30
0.0
 10
-210.9061007158856
 20
-101.9338932875852
 30
0.0
 10
-205.8784103122514
 20
-104.8968188596712
 30
0.0
 10
-200.4891325470839
 20
-107.7292741754297
 30
0.0
 10
-194.4962511411434
 20
-110.4858498812317
 30
0.0
 10
-187.7924538101443
 20
-113.1164295483896
 30
0.0
 10
-180.3118397426889
 20
-115.5205634901187
 30
0.0
 10
-172.7742368579121
 20
-117.407501620052
 30
0.0
 10
-165.1944270969477
 20
-118.7208644759227
 30
0.0
 10
-157.5939063937377
 20
-119.8814901656233
 30
0.0
 10
-149.0963687727576
 20
-121.1310665880705
 30
0.0
 10
-139.540063425249
 20
-122.429279727709
 30
0.0
 10
-128.828459391638
 20
-123.7648832260204
 30
0.0
 10
-117.2025079482261
 20
-125.065699553311
 30
0.0
 10
-104.8236889358087
 20
-126.2824637455283
 30
0.0
 10
-92.01583200314667
 20
-127.362290101931
 30
0.0
 10
-78.96529001361235
 20
-128.2680593166685
 30
0.0
 10
-66.6009937431333
 20
-128.9628111277635
 30
0.0
 10
-58.63690955521984
 20
-129.268435385085
 30
0.0
 10
-55.00444027626249
 20
-129.407832546068
 30
0.0
  0
SPLINE
  5
E7
330
E1
100
AcDbEntity
  8
0
  6
Continuous
 62
     7
370
    25
100
AcDbSpline
210
0.0
220
0.0
230
1.0
 70
     8
 71
     3
 72
    29
 73
    25
 74
     0
 42
0.000000001
 43
0.00000001
 40
0.0
 40
0.0
 40
0.0
 40
0.0
 40
0.1250000000000007
 40
0.1250000000000007
 40
0.1875000000000011
 40
0.1875000000000011
 40
0.2500000000000014
 40
0.2500000000000014
 40
0.3750000000000009
 40
0.3750000000000009
 40
0.4375000000000007
 40
0.4375000000000007
 40
0.5000000000000004
 40
0.5000000000000004
 40
0.6249999999999999
 40
0.6249999999999999
 40
0.6874999999999998
 40
0.6874999999999998
 40
0.7499999999999996
 40
0.8124999999999993
 40
0.8124999999999993
 40
0.8749999999999991
 40
0.8749999999999991
 40
1.0
 40
1.0
 40
1.0
 40
1.0
 10
45.00000000000015
 20
-127.9056404642268
 30
0.0
 10
45.66045185511543
 20
-127.9247624879704
 30
0.0
 10
46.30979556788841
 20
-127.9459434363766
 30
0.0
 10
47.26788531145724
 20
-127.9792826459661
 30
0.0
 10
47.58457355637668
 20
-127.9906855024961
 30
0.0
 10
48.21248074406537
 20
-128.0140389011466
 30
0.0
 10
48.52457315120224
 20
-128.026029242962
 30
0.0
 10
49.43244226505819
 20
-128.0620784002732
 30
0.0
 10
50.00655639956893
 20
-128.0864400684488
 30
0.0
 10
50.82145663407536
 20
-128.1237811405791
 30
0.0
 10
51.08616393034458
 20
-128.1364060138998
 30
0.0
 10
51.59570052787674
 20
-128.1618204360396
 30
0.0
 10
51.83818384360676
 20
-128.1744894035689
 30
0.0
 10
52.52993356440775
 20
-128.2124894685056
 30
0.0
 10
52.94383660742255
 20
-128.2378115101989
 30
0.0
 10
53.49213433016251
 20
-128.276206983053
 30
0.0
 10
53.66245184876916
 20
-128.289069706517
 30
0.0
 10
53.97115637482181
 20
-128.314438937445
 30
0.0
 10
54.25008249468707
 20
-128.3395964145238
 30
0.0
 10
54.47036695791582
 20
-128.3644786676654
 30
0.0
 10
54.66094089001351
 20
-128.3892967121742
 30
0.0
 10
54.74162705307218
 20
-128.4017256468079
 30
0.0
 10
54.93523466401722
 20
-128.4386363213407
 30
0.0
 10
55.00000000000033
 20
-128.4622570373667
 30
0.0
 10
55.00000000000016
 20
-128.4862998609616
 30
0.0
  0
SPLINE
  5
E8
330
E1
100
AcDbEntity
  8
0
  6
Continuous
 62
     7
370
    25
100
AcDbSpline
210
0.0
220
0.0
230
1.0
 70
     8
 71
     3
 72
    30
 73
    26
 74
     0
 42
0.000000001
 43
0.00000001
 40
0.0
 40
0.0
 40
0.0
 40
0.0
 40
0.015625
 40
0.015625
 40
0.0312500000000001
 40
0.0312500000000001
 40
0.0625000000000001
 40
0.0625000000000001
 40
0.1250000000000001
 40
0.1250000000000001
 40
0.2500000000000001
 40
0.2500000000000001
 40
0.5
 40
0.5
 40
0.75
 40
0.75
 40
0.875
 40
0.875
 40
0.9375
 40
0.9375
 40
0.9687499999999999
 40
0.9687499999999999
 40
0.984375
 40
0.984375
 40
1.0
 40
1.0
 40
1.0
 40
1.0
 10
-44.99999998565968
 20
-127.9056404638486
 30
0.0
 10
-44.53126764341038
 20
-127.8920692837723
 30
0.0
 10
-44.06273750548329
 20
-127.8723151261773
 30
0.0
 10
-43.12555704274407
 20
-127.8364818699584
 30
0.0
 10
-42.65697339478226
 20
-127.8183639352609
 30
0.0
 10
-41.25124243343448
 20
-127.7633991077232
 30
0.0
 10
-40.31407846911797
 20
-127.7270613648763
 30
0.0
 10
-37.5025099747712
 20
-127.6203904439177
 30
0.0
 10
-35.62804467483843
 20
-127.5519154799967
 30
0.0
 10
-30.00431576370497
 20
-127.3566733656147
 30
0.0
 10
-26.25471814316732
 20
-127.2401195093042
 30
0.0
 10
-15.00404998374532
 20
-126.9478005533618
 30
0.0
 10
-7.50211562894856
 20
-126.8290470321345
 30
0.0
 10
7.50162597611211
 20
-126.8290418429657
 30
0.0
 10
15.00478949124319
 20
-126.9478167802611
 30
0.0
 10
26.25500863746555
 20
-127.2401285507913
 30
0.0
 10
30.00450568617815
 20
-127.3566796593104
 30
0.0
 10
35.62813612469068
 20
-127.5519188048934
 30
0.0
 10
37.50257731226556
 20
-127.6203929518048
 30
0.0
 10
40.31411979481965
 20
-127.7270629562235
 30
0.0
 10
41.25127709109795
 20
-127.763400479577
 30
0.0
 10
42.65699922839168
 20
-127.8183649370081
 30
0.0
 10
43.12557941246655
 20
-127.836482730549
 30
0.0
 10
44.06275191443423
 20
-127.8723156718256
 30
0.0
 10
44.53128280388166
 20
-127.8920697229656
 30
0.0
 10
45.00000001434025
 20
-127.9056404646909
 30
0.0
  0
SPLINE
  5
E9
330
E1
100
AcDbEntity
  8
0
  6
Continuous
 62
     7
370
    25
100
AcDbSpline
210
0.0
220
0.0
230
1.0
 70
     8
 71
     3
 72
    29
 73
    25
 74
     0
 42
0.000000001
 43
0.00000001
 40
0.0
 40
0.0
 40
0.0
 40
0.0
 40
0.1249999999999991
 40
0.1249999999999991
 40
0.1874999999999987
 40
0.1874999999999987
 40
0.2499999999999984
 40
0.2499999999999984
 40
0.3749999999999977
 40
0.3749999999999977
 40
0.4374999999999978
 40
0.4374999999999978
 40
0.499999999999998
 40
0.499999999999998
 40
0.6249999999999983
 40
0.6249999999999983
 40
0.6874999999999984
 40
0.6874999999999984
 40
0.7499999999999984
 40
0.8124999999999986
 40
0.8124999999999986
 40
0.8749999999999987
 40
0.8749999999999987
 40
1.0
 40
1.0
 40
1.0
 40
1.0
 10
-54.99999999999979
 20
-128.4862998609145
 30
0.0
 10
-55.00000000000006
 20
-128.4622569672743
 30
0.0
 10
-54.93524215702462
 20
-128.4387725503082
 30
0.0
 10
-54.7449607506537
 20
-128.4022955582179
 30
0.0
 10
-54.66589431541124
 20
-128.3900132739969
 30
0.0
 10
-54.47577603351875
 20
-128.3651153747068
 30
0.0
 10
-54.36417791270676
 20
-128.3524599504069
 30
0.0
 10
-53.988148846303
 20
-128.3146900685742
 30
0.0
 10
-53.68134451290619
 20
-128.2895219615349
 30
0.0
 10
-53.1377578306217
 20
-128.251359837832
 30
0.0
 10
-52.94188277004392
 20
-128.2385291880924
 30
0.0
 10
-52.52406871082534
 20
-128.2128378100637
 30
0.0
 10
-52.30423161071776
 20
-128.2001005531565
 30
0.0
 10
-51.61296415975303
 20
-128.1620984093529
 30
0.0
 10
-51.11007720829917
 20
-128.1370420394265
 30
0.0
 10
-50.29123240097154
 20
-128.0994676945279
 30
0.0
 10
-50.00739980089795
 20
-128.0869493657596
 30
0.0
 10
-49.43053349670093
 20
-128.0624082335937
 30
0.0
 10
-48.84143969382386
 20
-128.0382206501666
 30
0.0
 10
-48.22827167443762
 20
-128.0146402780274
 30
0.0
 10
-47.60290772290853
 20
-127.9913540685541
 30
0.0
 10
-47.28275451008356
 20
-127.9798093689076
 30
0.0
 10
-46.31366419794191
 20
-127.9460599100154
 30
0.0
 10
-45.66045061777513
 20
-127.9247624521945
 30
0.0
 10
-44.99999999999806
 20
-127.9056404642755
 30
0.0
  0
SPLINE
  5
EA
330
E1
100
AcDbEntity
  8
0
  6
Continuous
 62
     7
370
    25
100
AcDbSpline
210
0.0
220
0.0
230
1.0
 70
    24
 71
     3
 72
    60
 73
    56
 74
     0
 42
0.000000001
 43
0.00000001
 40
0.0
 40
0.0
 40
0.0
 40
0.0
 40
0.0067039786170255
 40
0.0558669049416198
 40
0.0715096542267181
 40
0.0871524035118164
 40
0.1027951527969147
 40
0.1184295253345647
 40
0.1306295810506297
 40
0.1427545945850004
 40
0.1548276484202289
 40
0.1668769962188847
 40
0.1791582655237718
 40
0.1914892484268725
 40
0.2038702095057127
 40
0.2162762911367788
 40
0.2286858380354186
 40
0.2408578113674639
 40
0.2529913611232123
 40
0.2650743574170209
 40
0.2771295811048767
 40
0.2908819286089761
 40
0.3046860287001586
 40
0.3185886340573817
 40
0.3325961387341146
 40
0.3466120420935627
 40
0.4016745195771083
 40
0.5000003722262968
 40
0.6251423665070824
 40
0.639188916885538
 40
0.6532354672639935
 40
0.667282017642449
 40
0.6813205040050742
 40
0.6952541302607647
 40
0.7090886446556319
 40
0.7228710754173134
 40
0.7351454906767204
 40
0.747449298107524
 40
0.7598055158164883
 40
0.7722003162470312
 40
0.7846102398923599
 40
0.7967941075163062
 40
0.8089525008966415
 40
0.8210618874986623
 40
0.8331236598123691
 40
0.8453920459066614
 40
0.8576856200857297
 40
0.8700339101446241
 40
0.882461409837923
 40
0.8949702267782358
 40
0.9441331531028301
 40
0.9597759023879282
 40
0.9754186516730264
 40
0.9910614009581246
 40
1.0
 40
1.0
 40
1.0
 40
1.0
 10
-267.4761992506336
 20
0.0
 30
0.0
 10
-267.4846957096819
 20
0.0
 30
0.0
 10
-267.5555000629041
 20
0.0
 30
0.0
 10
-267.496027136928
 20
0.0
 30
0.0
 10
-267.4978230489097
 20
0.0
 30
0.0
 10
-267.5119323707743
 20
0.0
 30
0.0
 10
-267.4544577291168
 20
0.0
 30
0.0
 10
-267.6543482118417
 20
0.0
 30
0.0
 10
-266.7528520750497
 20
0.0
 30
0.0
 10
-264.9590540592683
 20
0.0
 30
0.0
 10
-262.2575893424784
 20
0.0
 30
0.0
 10
-258.6390848823746
 20
0.0
 30
0.0
 10
-254.103242002686
 20
0.0
 30
0.0
 10
-248.6543815969243
 20
0.0
 30
0.0
 10
-242.3655648360852
 20
0.0
 30
0.0
 10
-235.2926369309259
 20
0.0
 30
0.0
 10
-227.5380093642487
 20
0.0
 30
0.0
 10
-219.2079385098483
 20
0.0
 30
0.0
 10
-210.4040365597423
 20
0.0
 30
0.0
 10
-201.1505775973384
 20
0.0
 30
0.0
 10
-191.0655411912137
 20
0.0
 30
0.0
 10
-180.1446355092912
 20
0.0
 30
0.0
 10
-168.420055852706
 20
0.0
 30
0.0
 10
-156.446292843847
 20
0.0
 30
0.0
 10
-144.3872882736364
 20
0.0
 30
0.0
 10
-120.5015458637699
 20
0.0
 30
0.0
 10
-72.36923524970402
 20
0.0
 30
0.0
 10
7.709428280717582
 20
0.0
 30
0.0
 10
75.99763480130922
 20
0.0
 30
0.0
 10
120.0538381404739
 20
0.0
 30
0.0
 10
132.1697112725902
 20
0.0
 30
0.0
 10
144.2816363986312
 20
0.0
 30
0.0
 10
156.3671808884169
 20
0.0
 30
0.0
 10
168.3681647012095
 20
0.0
 30
0.0
 10
180.1194968893642
 20
0.0
 30
0.0
 10
191.1179292247494
 20
0.0
 30
0.0
 10
201.325158617733
 20
0.0
 30
0.0
 10
210.7358543021769
 20
0.0
 30
0.0
 10
219.6774878396268
 20
0.0
 30
0.0
 10
228.0712249801277
 20
0.0
 30
0.0
 10
235.7767077856523
 20
0.0
 30
0.0
 10
242.7184400324474
 20
0.0
 30
0.0
 10
248.8591994565311
 20
0.0
 30
0.0
 10
254.1876630326282
 20
0.0
 30
0.0
 10
258.687913324731
 20
0.0
 30
0.0
 10
262.3203961057811
 20
0.0
 30
0.0
 10
265.0458402454439
 20
0.0
 30
0.0
 10
266.8302700362626
 20
0.0
 30
0.0
 10
267.6056551454645
 20
0.0
 30
0.0
 10
267.371503858669
 20
0.0
 30
0.0
 10
267.5132941606447
 20
0.0
 30
0.0
 10
267.4995549998076
 20
0.0
 30
0.0
 10
267.4942104904734
 20
0.0
 30
0.0
 10
267.5194040309701
 20
0.0
 30
0.0
 10
267.4765155463381
 20
0.0
 30
0.0
 10
267.4609198612462
 20
0.0
 30
0.0
  0
LINE
  5
F2
330
E1
100
AcDbEntity
  8
0
  6
Continuous
 62
     7
370
    25
100
AcDbLine
 10
-55.0
 20
-141.0
 30
0.0
 11
-55.0
 21
-128.4862998607
 31
0.0
  0
LINE
  5
F3
330
E1
100
AcDbEntity
  8
0
  6
Continuous
 62
     7
370
    25
100
AcDbLine
 10
-45.0
 20
-141.0
 30
0.0
 11
-45.0
 21
-127.9056404636
 31
0.0
  0
LINE
  5
F4
330
E1
100
AcDbEntity
  8
0
  6
Continuous
 62
     7
370
    25
100
AcDbLine
 10
55.0
 20
-141.0
 30
0.0
 11
-55.0
 21
-141.0
 31
0.0
  0
LINE
  5
F5
330
E1
100
AcDbEntity
  8
0
  6
Continuous
 62
     7
370
    25
100
AcDbLine
 10
45.0
 20
-141.0
 30
0.0
 11
45.0
 21
-127.9056404645
 31
0.0
  0
LINE
  5
F6
330
E1
100
AcDbEntity
  8
0
  6
Continuous
 62
     7
370
    25
100
AcDbLine
 10
55.0
 20
-141.0
 30
0.0
 11
55.0
 21
-128.4862998607
 31
0.0
  0
VIEWPORT
  5
187
330
E1
100
AcDbEntity
  8
0
100
AcDbViewport
 10
0.0
 20
0.0
 30
0.0
 40
205.6
 41
156.0
 68
     1
 69
     1
 12
0.0
 22
-22.6961034758
 13
0.0
 23
0.0
 14
10.0
 24
10.0
 15
10.0
 25
10.0
 16
0.0
 26
0.0
 36
1.0
 17
0.0
 27
0.0
 37
0.0
 42
50.0
 43
0.0
 44
0.0
 45
399.6151273282
 50
0.0
 51
0.0
 72
   100
 90
   557152
  1

281
     0
 71
     1
 74
     0
110
0.0
120
0.0
130
0.0
111
1.0
121
0.0
131
0.0
112
0.0
122
1.0
132
0.0
 79
     0
146
0.0
170
     0
 61
     5
348
2F
292
     1
282
     1
141
0.0
142
0.0
 63
   256
361
188
  0
ENDBLK
  5
E4
330
E1
100
AcDbEntity
  8
0
100
AcDbBlockEnd
  0
BLOCK
  5
F9
330
F7
100
AcDbEntity
  8
0
100
AcDbBlockBegin
  2
*Paper_Space4
 70
     0
 10
0.0
 20
0.0
 30
0.0
  3
*Paper_Space4
  1

  0
SPLINE
  5
FB
330
F7
100
AcDbEntity
  8
0
  6
Continuous
 62
     7
370
    25
100
AcDbSpline
210
0.0
220
0.0
230
1.0
 70
     8
 71
     3
 72
    40
 73
    36
 74
     0
 42
0.000000001
 43
0.00000001
 40
0.0
 40
0.0
 40
0.0
 40
0.0
 40
0.0404887860495033
 40
0.0868516434943184
 40
0.1298157075903237
 40
0.168381760259763
 40
0.2028126976315841
 40
0.2341803442635405
 40
0.2636881805807383
 40
0.2888010350312707
 40
0.3138621470400655
 40
0.3390228878590024
 40
0.3617974690948533
 40
0.3871234493878586
 40
0.40660184281114
 40
0.4203292848628001
 40
0.4241124079094817
 40
0.4273322982434032
 40
0.430379148007493
 40
0.4336844893455491
 40
0.4376061617261667
 40
0.4423740203687634
 40
0.4549286897712204
 40
0.4719673063110045
 40
0.4937770026720345
 40
0.520542187489968
 40
0.5524012012970683
 40
0.5894658895682034
 40
0.6318285357662125
 40
0.6795636355069742
 40
0.7327271961250649
 40
0.7913546586698721
 40
0.8554579410277892
 40
0.9250218504569457
 40
1.0
 40
1.0
 40
1.0
 40
1.0
 10
54.98754652400195
 20
-127.6767249948345
 30
0.0
 10
56.48230181816613
 20
-127.3943173168786
 30
0.0
 10
59.68866996566421
 20
-126.7885305457986
 30
0.0
 10
63.71129109428196
 20
-125.7466362570276
 30
0.0
 10
67.60258684036279
 20
-124.5995905581539
 30
0.0
 10
71.18346415354547
 20
-123.4237220379637
 30
0.0
 10
74.55238168587725
 20
-122.2523049030107
 30
0.0
 10
77.72998235123055
 20
-121.1064645412665
 30
0.0
 10
80.62977483814166
 20
-120.034859770036
 30
0.0
 10
83.28196161899389
 20
-119.037927889624
 30
0.0
 10
85.76789440746367
 20
-118.0935806336757
 30
0.0
 10
88.05408845397983
 20
-117.2152767813414
 30
0.0
 10
90.29320333269257
 20
-116.273442571561
 30
0.0
 10
92.48464845182586
 20
-115.2785933790863
 30
0.0
 10
94.54235329783025
 20
-114.2675566150255
 30
0.0
 10
96.04429674692662
 20
-113.4816697279725
 30
0.0
 10
97.03324876817894
 20
-112.9416837526376
 30
0.0
 10
97.57735694019293
 20
-112.6387430126449
 30
0.0
 10
98.1273838278554
 20
-112.3261161457579
 30
0.0
 10
98.65245690677177
 20
-112.0219001584298
 30
0.0
 10
99.15265308559013
 20
-111.7270986016804
 30
0.0
 10
99.86683340342734
 20
-111.2994968378128
 30
0.0
 10
100.694355512614
 20
-110.7913677937843
 30
0.0
 10
101.6022939640571
 20
-110.221082395261
 30
0.0
 10
102.493806791848
 20
-109.6496317302774
 30
0.0
 10
103.3689784319255
 20
-109.0794195394357
 30
0.0
 10
104.2248559149395
 20
-108.5142437284614
 30
0.0
 10
105.0592411446899
 20
-107.9574008998984
 30
0.0
 10
105.8689661320162
 20
-107.4125379010264
 30
0.0
 10
106.6501514274533
 20
-106.8835599410711
 30
0.0
 10
107.397685265822
 20
-106.3749657372412
 30
0.0
 10
108.1058056997126
 20
-105.8914873157581
 30
0.0
 10
108.7649776913146
 20
-105.4402796231621
 30
0.0
 10
109.3744090858925
 20
-105.022373911655
 30
0.0
 10
109.7050542798909
 20
-104.795473148811
 30
0.0
 10
109.8765695120495
 20
-104.6777731558199
 30
0.0
  0
SPLINE
  5
FC
330
F7
100
AcDbEntity
  8
0
  6
Continuous
 62
     7
370
    25
100
AcDbSpline
210
0.0
220
0.0
230
1.0
 70
     8
 71
     3
 72
    22
 73
    18
 74
     0
 42
0.000000001
 43
0.00000001
 40
0.0
 40
0.0
 40
0.0
 40
0.0
 40
0.0423145518982544
 40
0.0828673514828976
 40
0.12157064350487
 40
0.1585822262757187
 40
0.2015464830001363
 40
0.2542772125644847
 40
0.3168255435924652
 40
0.3795824312211412
 40
0.4496975738417646
 40
0.5269117488598927
 40
0.6108307548230361
 40
0.7008777829188759
 40
0.7963430775344047
 40
0.8963597037520978
 40
0.9999999999999999
 40
0.9999999999999999
 40
0.9999999999999999
 40
0.9999999999999999
 10
-165.0
 20
0.0
 30
0.0
 10
-164.9794217010655
 20
-1.735555832633434
 30
0.0
 10
-164.9391218738375
 20
-5.134408207269153
 30
0.0
 10
-164.6252422092124
 20
-10.11243783705668
 30
0.0
 10
-164.1568324300787
 20
-14.85866774475534
 30
0.0
 10
-163.4975781461376
 20
-19.68230231950516
 30
0.0
 10
-162.5516562082793
 20
-25.04368558589436
 30
0.0
 10
-161.1288008702833
 20
-31.37862625728338
 30
0.0
 10
-159.1337376493309
 20
-38.40731628733114
 30
0.0
 10
-156.4765394880815
 20
-45.9738619505009
 30
0.0
 10
-153.1048033935546
 20
-53.91012832155088
 30
0.0
 10
-148.7769111088031
 20
-62.35929593999963
 30
0.0
 10
-143.3741346245699
 20
-71.14326845036189
 30
0.0
 10
-136.806302964412
 20
-80.04887726019797
 30
0.0
 10
-129.0148549382292
 20
-88.8078419977106
 30
0.0
 10
-120.0661123834297
 20
-97.24280165206434
 30
0.0
 10
-113.3131357336474
 20
-102.1702247553794
 30
0.0
 10
-109.8765695120556
 20
-104.6777731558155
 30
0.0
  0
SPLINE
  5
FD
330
F7
100
AcDbEntity
  8
0
  6
Continuous
 62
     7
370
    25
100
AcDbSpline
210
0.0
220
0.0
230
1.0
 70
     8
 71
     3
 72
    40
 73
    36
 74
     0
 42
0.000000001
 43
0.00000001
 40
0.0
 40
0.0
 40
0.0
 40
0.0
 40
0.0758855250104811
 40
0.1460992139802716
 40
0.2105796353919634
 40
0.2692999376389796
 40
0.3222624882162252
 40
0.3694940866236021
 40
0.4110418627593487
 40
0.4427839155967492
 40
0.4702759772389465
 40
0.4935798105214911
 40
0.5127685508849731
 40
0.5279340186324342
 40
0.5392085760004143
 40
0.5475159155075524
 40
0.551212082180268
 40
0.5547907964779929
 40
0.5584192780488146
 40
0.5622595104836542
 40
0.5710735499751373
 40
0.5820238513809801
 40
0.5956184476170957
 40
0.6122448022150796
 40
0.6319562562941253
 40
0.6547951338427938
 40
0.6796159509316523
 40
0.7102392616720159
 40
0.745450780599288
 40
0.7864723908295942
 40
0.8339553298849782
 40
0.875446168814519
 40
0.9194226253632412
 40
0.9643259754668179
 40
1.0
 40
1.0
 40
1.0
 40
1.0
 10
-109.8765695120774
 20
-104.6777731558006
 30
0.0
 10
-109.7809660415605
 20
-104.7436347990422
 30
0.0
 10
-109.5969046952844
 20
-104.8704354544732
 30
0.0
 10
-109.2175772871618
 20
-105.133863898452
 30
0.0
 10
-108.78669858587
 20
-105.433255277429
 30
0.0
 10
-108.3064048932991
 20
-105.7667845034124
 30
0.0
 10
-107.7863176782737
 20
-106.1273782914545
 30
0.0
 10
-107.2325807341461
 20
-106.5104383164547
 30
0.0
 10
-106.6704437483337
 20
-106.898119149334
 30
0.0
 10
-106.1095783223885
 20
-107.283342474568
 30
0.0
 10
-105.5636347932523
 20
-107.6564826006301
 30
0.0
 10
-105.0023637176849
 20
-108.037580585286
 30
0.0
 10
-104.4326325712265
 20
-108.4213287031708
 30
0.0
 10
-103.8436333570967
 20
-108.8136989370496
 30
0.0
 10
-103.2606964238237
 20
-109.1974608183862
 30
0.0
 10
-102.6275319111623
 20
-109.6074653027591
 30
0.0
 10
-101.9845436906149
 20
-110.0155647532932
 30
0.0
 10
-101.4535698445187
 20
-110.348177880733
 30
0.0
 10
-100.8562477371212
 20
-110.7169209762956
 30
0.0
 10
-99.93524545387102
 20
-111.2762404570605
 30
0.0
 10
-98.59158612090245
 20
-112.0686119327981
 30
0.0
 10
-96.82833316979512
 20
-113.0614748575163
 30
0.0
 10
-94.78343619787054
 20
-114.1525448709172
 30
0.0
 10
-92.34048865740156
 20
-115.370801547526
 30
0.0
 10
-89.51928075430955
 20
-116.6677509524611
 30
0.0
 10
-86.29639093589832
 20
-117.9725623494531
 30
0.0
 10
-82.88869207634839
 20
-119.2681785815187
 30
0.0
 10
-79.52495950229668
 20
-120.5494719544771
 30
0.0
 10
-76.0368250522051
 20
-121.8433987747881
 30
0.0
 10
-72.44979892528951
 20
-123.13143106642
 30
0.0
 10
-69.01315734606031
 20
-124.2893952321121
 30
0.0
 10
-65.63430849738879
 20
-125.3250005273732
 30
0.0
 10
-62.25041573823776
 20
-126.2288154912832
 30
0.0
 10
-58.85509729999197
 20
-127.0156021567173
 30
0.0
 10
-56.17733519787416
 20
-127.4834047095857
 30
0.0
 10
-54.9918094674119
 20
-127.6905149539061
 30
0.0
  0
SPLINE
  5
FE
330
F7
100
AcDbEntity
  8
0
  6
Continuous
 62
     7
370
    25
100
AcDbSpline
210
0.0
220
0.0
230
1.0
 70
     8
 71
     3
 72
    21
 73
    17
 74
     0
 42
0.000000001
 43
0.00000001
 40
0.0
 40
0.0
 40
0.0
 40
0.0
 40
0.0848616109180849
 40
0.1674817119273675
 40
0.2473399106210407
 40
0.3239512245712499
 40
0.3968705886370766
 40
0.4657242569254027
 40
0.5301936216295147
 40
0.5900486305207406
 40
0.6623848524201235
 40
0.7294462099789844
 40
0.7968861628525934
 40
0.8645896642783937
 40
0.9323553048628447
 40
1.0
 40
1.0
 40
1.0
 40
1.0
 10
109.8765695120556
 20
-104.6777731558157
 30
0.0
 10
112.7005184838114
 20
-102.6398821034763
 30
0.0
 10
118.2738254605281
 20
-98.61792826033358
 30
0.0
 10
125.8573280695796
 20
-91.8549291851122
 30
0.0
 10
132.6851004878864
 20
-84.80614504595997
 30
0.0
 10
138.6958353906831
 20
-77.55613478915438
 30
0.0
 10
143.9048312712986
 20
-70.26087142544466
 30
0.0
 10
148.3380019182314
 20
-63.04939724007415
 30
0.0
 10
152.0472011305166
 20
-56.04233639083913
 30
0.0
 10
155.3833636635847
 20
-48.69408608285467
 30
0.0
 10
158.2841792049279
 20
-41.04657190343865
 30
0.0
 10
160.7490725908603
 20
-32.92337095986804
 30
0.0
 10
162.6397257105341
 20
-24.84195007398376
 30
0.0
 10
163.9927669191947
 20
-16.62585309099007
 30
0.0
 10
164.8415790680655
 20
-8.329551222390812
 30
0.0
 10
164.9472244760509
 20
-2.774863300283675
 30
0.0
 10
164.9999999999999
 20
0.0
 30
0.0
  0
SPLINE
  5
FF
330
F7
100
AcDbEntity
  8
0
  6
Continuous
 62
     7
370
    25
100
AcDbSpline
210
0.0
220
0.0
230
1.0
 70
     8
 71
     3
 72
    29
 73
    25
 74
     0
 42
0.000000001
 43
0.00000001
 40
0.0
 40
0.0
 40
0.0
 40
0.0
 40
0.1249999999999985
 40
0.1249999999999985
 40
0.1874999999999979
 40
0.1874999999999979
 40
0.2499999999999973
 40
0.2499999999999973
 40
0.3749999999999955
 40
0.3749999999999955
 40
0.4374999999999956
 40
0.4374999999999956
 40
0.4999999999999957
 40
0.4999999999999957
 40
0.6249999999999969
 40
0.6249999999999969
 40
0.6874999999999971
 40
0.6874999999999971
 40
0.7499999999999973
 40
0.8124999999999977
 40
0.8124999999999977
 40
0.8749999999999979
 40
0.8749999999999979
 40
1.0
 40
1.0
 40
1.0
 40
1.0
 10
-54.99999999999974
 20
-127.9056404642267
 30
0.0
 10
-54.99999999999955
 20
-127.9247624879703
 30
0.0
 10
-54.93521555014082
 20
-127.9459434363769
 30
0.0
 10
-54.74488144250017
 20
-127.9792826459663
 30
0.0
 10
-54.66579468992099
 20
-127.9906855024964
 30
0.0
 10
-54.47563058192021
 20
-128.0140389011468
 30
0.0
 10
-54.36400988098189
 20
-128.0260292429624
 30
0.0
 10
-53.98791651965693
 20
-128.0620784002735
 30
0.0
 10
-53.68106546155576
 20
-128.0864400684491
 30
0.0
 10
-53.1373993873958
 20
-128.1237811405794
 30
0.0
 10
-52.94148361631873
 20
-128.1364060139
 30
0.0
 10
-52.52364858043304
 20
-128.1618204360398
 30
0.0
 10
-52.30380105426266
 20
-128.1744894035691
 30
0.0
 10
-51.6125012659849
 20
-128.2124894685058
 30
0.0
 10
-51.10959133314019
 20
-128.2378115101991
 30
0.0
 10
-50.29070563292786
 20
-128.2762069830532
 30
0.0
 10
-50.0068890292876
 20
-128.2890697065171
 30
0.0
 10
-49.43005226632154
 20
-128.3144389374452
 30
0.0
 10
-48.84098691159331
 20
-128.3395964145239
 30
0.0
 10
-48.22784609040098
 20
-128.3644786676655
 30
0.0
 10
-47.60251067635964
 20
-128.3892967121741
 30
0.0
 10
-47.2823641739308
 20
-128.4017256468078
 30
0.0
 10
-46.3134106841658
 20
-128.4386363213407
 30
0.0
 10
-45.66028368108081
 20
-128.4622570373666
 30
0.0
 10
-45.00000000000161
 20
-128.4862998609616
 30
0.0
  0
SPLINE
  5
102
330
F7
100
AcDbEntity
  8
0
  6
Continuous
 62
     7
370
    25
100
AcDbSpline
210
0.0
220
0.0
230
1.0
 70
     8
 71
     3
 72
    29
 73
    25
 74
     0
 42
0.000000001
 43
0.00000001
 40
0.0
 40
0.0
 40
0.0
 40
0.0
 40
0.1249999999999991
 40
0.1249999999999991
 40
0.1874999999999987
 40
0.1874999999999987
 40
0.2499999999999984
 40
0.2499999999999984
 40
0.3749999999999977
 40
0.3749999999999977
 40
0.4374999999999978
 40
0.4374999999999978
 40
0.499999999999998
 40
0.499999999999998
 40
0.6249999999999983
 40
0.6249999999999983
 40
0.6874999999999984
 40
0.6874999999999984
 40
0.7499999999999984
 40
0.8124999999999986
 40
0.8124999999999986
 40
0.8749999999999987
 40
0.8749999999999987
 40
1.0
 40
1.0
 40
1.0
 40
1.0
 10
45.00000000000023
 20
-128.4862998609145
 30
0.0
 10
45.66028560471811
 20
-128.4622569672743
 30
0.0
 10
46.30955571739592
 20
-128.4387725503082
 30
0.0
 10
47.2675390166746
 20
-128.4022955582179
 30
0.0
 10
47.58419672610773
 20
-128.3900132739969
 30
0.0
 10
48.21204828707843
 20
-128.3651153747068
 30
0.0
 10
48.52412512940245
 20
-128.3524599504069
 30
0.0
 10
49.43196614955156
 20
-128.3146900685742
 30
0.0
 10
50.00606770794081
 20
-128.2895219615349
 30
0.0
 10
50.82095452672693
 20
-128.251359837832
 30
0.0
 10
51.08564357224354
 20
-128.2385291880924
 30
0.0
 10
51.59522172912291
 20
-128.2128378100637
 30
0.0
 10
51.83772418525742
 20
-128.2001005531565
 30
0.0
 10
52.5295279299894
 20
-128.1620984093529
 30
0.0
 10
52.94346243142715
 20
-128.1370420394265
 30
0.0
 10
53.4918060153087
 20
-128.0994676945279
 30
0.0
 10
53.66215760785837
 20
-128.0869493657596
 30
0.0
 10
53.97091969220705
 20
-128.0624082335937
 30
0.0
 10
54.24989671215783
 20
-128.0382206501666
 30
0.0
 10
54.47022255542425
 20
-128.0146402780274
 30
0.0
 10
54.66083457260662
 20
-127.9913540685541
 30
0.0
 10
54.74153724389964
 20
-127.9798093689076
 30
0.0
 10
54.93520762165612
 20
-127.9460599100154
 30
0.0
 10
55.00000000000014
 20
-127.9247624521945
 30
0.0
 10
55.00000000000024
 20
-127.9056404642755
 30
0.0
  0
SPLINE
  5
103
330
F7
100
AcDbEntity
  8
0
  6
Continuous
 62
     7
370
    25
100
AcDbSpline
210
0.0
220
0.0
230
1.0
 70
     8
 71
     3
 72
    10
 73
     6
 74
     0
 42
0.000000001
 43
0.00000001
 40
0.0
 40
0.0
 40
0.0
 40
0.0
 40
0.5
 40
0.5
 40
1.0
 40
1.0
 40
1.0
 40
1.0
 10
-44.99999999954463
 20
-128.4862998609796
 30
0.0
 10
-30.00549388020833
 20
-129.0322928573972
 30
0.0
 10
-15.00280537766745
 20
-129.4170560667668
 30
0.0
 10
15.00287459629097
 20
-129.4170548464951
 30
0.0
 10
30.00548999565741
 20
-129.03229299885
 30
0.0
 10
45.00000000045565
 20
-128.4862998609451
 30
0.0
  0
SPLINE
  5
104
330
F7
100
AcDbEntity
  8
0
  6
Continuous
 62
     7
370
    25
100
AcDbSpline
210
0.0
220
0.0
230
1.0
 70
    24
 71
     3
 72
    59
 73
    55
 74
     0
 42
0.000000001
 43
0.00000001
 40
0.0
 40
0.0
 40
0.0
 40
0.0
 40
0.1185205892762309
 40
0.1318239207256038
 40
0.1451272521749768
 40
0.1584305836243498
 40
0.171726277734126
 40
0.1849226600042843
 40
0.1980251745347076
 40
0.2110783612361141
 40
0.2227033232476828
 40
0.2343561222574876
 40
0.2460585584581285
 40
0.2577975359247422
 40
0.2695508364196762
 40
0.2810900417739849
 40
0.2926051207558358
 40
0.3040737859636556
 40
0.3154973562092174
 40
0.3271166080656432
 40
0.3387597152766807
 40
0.350454643288218
 40
0.3622245898624681
 40
0.3740715510958645
 40
0.4206332111686696
 40
0.4354482848281986
 40
0.4502633584877276
 40
0.4650784321472565
 40
0.4798855722825557
 40
0.4914401091986491
 40
0.502923574500085
 40
0.5143578293490556
 40
0.5257696324747648
 40
0.537401085876485
 40
0.5490796224734924
 40
0.5608054928442151
 40
0.5725551546102235
 40
0.5843080982925637
 40
0.5958360386954609
 40
0.6073275885571092
 40
0.6187712597978879
 40
0.6301886279128279
 40
0.643213323095967
 40
0.6562870325780464
 40
0.6694540353006966
 40
0.6827203870007578
 40
0.6959946929996957
 40
0.7481437522812372
 40
0.8412670724268472
 40
0.9597876617030784
 40
0.9730909931524513
 40
0.9863943246018242
 40
0.9996976560511969
 40
0.9999999999999999
 40
0.9999999999999999
 40
0.9999999999999999
 40
0.9999999999999999
 10
-165.0
 20
0.0
 30
0.0
 10
-165.0032589656118
 20
0.0
 30
0.0
 10
-165.0068837334863
 20
0.0
 30
0.0
 10
-164.9975588298004
 20
0.0
 30
0.0
 10
-165.0096415024909
 20
0.0
 30
0.0
 10
-164.9638839182752
 20
0.0
 30
0.0
 10
-165.1343136638208
 20
0.0
 30
0.0
 10
-164.1126675811758
 20
0.0
 30
0.0
 10
-161.8504156601007
 20
0.0
 30
0.0
 10
-158.5250885251109
 20
0.0
 30
0.0
 10
-154.307001346048
 20
0.0
 30
0.0
 10
-149.3545871316311
 20
0.0
 30
0.0
 10
-143.5349942575541
 20
0.0
 30
0.0
 10
-136.9002995440494
 20
0.0
 30
0.0
 10
-129.5481397106844
 20
0.0
 30
0.0
 10
-121.5620917022388
 20
0.0
 30
0.0
 10
-113.0519023150498
 20
0.0
 30
0.0
 10
-104.0514082158148
 20
0.0
 30
0.0
 10
-94.57452549629538
 20
0.0
 30
0.0
 10
-84.67519344460904
 20
0.0
 30
0.0
 10
-74.40385817426932
 20
0.0
 30
0.0
 10
-63.88087238998494
 20
0.0
 30
0.0
 10
-53.17237013839726
 20
0.0
 30
0.0
 10
-31.86331021896198
 20
0.0
 30
0.0
 10
-9.637577752026559
 20
0.0
 30
0.0
 10
13.49225075570929
 20
0.0
 30
0.0
 10
26.98492796590384
 20
0.0
 30
0.0
 10
40.47319284288314
 20
0.0
 30
0.0
 10
52.97893981644598
 20
0.0
 30
0.0
 10
64.45011866618144
 20
0.0
 30
0.0
 10
74.77466570612933
 20
0.0
 30
0.0
 10
84.85445120434726
 20
0.0
 30
0.0
 10
94.69072918204738
 20
0.0
 30
0.0
 10
104.2221876735055
 20
0.0
 30
0.0
 10
113.3740008342317
 20
0.0
 30
0.0
 10
122.0144759281495
 20
0.0
 30
0.0
 10
130.0566044828073
 20
0.0
 30
0.0
 10
137.3564661781683
 20
0.0
 30
0.0
 10
143.8634378639399
 20
0.0
 30
0.0
 10
149.5418818218752
 20
0.0
 30
0.0
 10
154.3821953236121
 20
0.0
 30
0.0
 10
158.5400252848227
 20
0.0
 30
0.0
 10
161.8433705214134
 20
0.0
 30
0.0
 10
164.1042117474767
 20
0.0
 30
0.0
 10
165.1318759051492
 20
0.0
 30
0.0
 10
164.9659670356562
 20
0.0
 30
0.0
 10
165.0406425669682
 20
0.0
 30
0.0
 10
164.9702984267435
 20
0.0
 30
0.0
 10
165.0156203771415
 20
0.0
 30
0.0
 10
164.9924682907989
 20
0.0
 30
0.0
 10
165.0025377826703
 20
0.0
 30
0.0
 10
164.9900801969133
 20
0.0
 30
0.0
 10
165.0218108712813
 20
0.0
 30
0.0
 10
164.9990056326177
 20
0.0
 30
0.0
 10
164.9984988569002
 20
0.0
 30
0.0
  0
LINE
  5
10C
330
F7
100
AcDbEntity
  8
0
  6
Continuous
 62
     7
370
    25
100
AcDbLine
 10
-55.0
 20
-141.0
 30
0.0
 11
-55.0
 21
-127.7241045197
 31
0.0
  0
LINE
  5
10D
330
F7
100
AcDbEntity
  8
0
  6
Continuous
 62
     7
370
    25
100
AcDbLine
 10
55.0
 20
-141.0
 30
0.0
 11
55.0
 21
-127.72726095
 31
0.0
  0
LINE
  5
10E
330
F7
100
AcDbEntity
  8
0
  6
Continuous
 62
     7
370
    25
100
AcDbLine
 10
55.0
 20
-141.0
 30
0.0
 11
-55.0
 21
-141.0
 31
0.0
  0
LINE
  5
10F
330
F7
100
AcDbEntity
  8
0
  6
Continuous
 62
     7
370
    25
100
AcDbLine
 10
-45.0
 20
-141.0
 30
0.0
 11
-45.0
 21
-128.4862998607
 31
0.0
  0
LINE
  5
110
330
F7
100
AcDbEntity
  8
0
  6
Continuous
 62
     7
370
    25
100
AcDbLine
 10
45.0
 20
-141.0
 30
0.0
 11
45.0
 21
-128.4862998607
 31
0.0
  0
VIEWPORT
  5
189
330
F7
100
AcDbEntity
  8
0
100
AcDbViewport
 10
0.0
 20
0.0
 30
0.0
 40
205.6
 41
156.0
 68
     1
 69
     1
 12
0.0
 22
-22.6961034758
 13
0.0
 23
0.0
 14
10.0
 24
10.0
 15
10.0
 25
10.0
 16
0.0
 26
0.0
 36
1.0
 17
0.0
 27
0.0
 37
0.0
 42
50.0
 43
0.0
 44
0.0
 45
399.6151273282
 50
0.0
 51
0.0
 72
   100
 90
   557152
  1

281
     0
 71
     1
 74
     0
110
0.0
120
0.0
130
0.0
111
1.0
121
0.0
131
0.0
112
0.0
122
1.0
132
0.0
 79
     0
146
0.0
170
     0
 61
     5
348
2F
292
     1
282
     1
141
0.0
142
0.0
 63
   256
361
18A
  0
ENDBLK
  5
FA
330
F7
100
AcDbEntity
  8
0
100
AcDbBlockEnd
  0
BLOCK
  5
113
330
111
100
AcDbEntity
  8
0
100
AcDbBlockBegin
  2
*Paper_Space5
 70
     0
 10
0.0
 20
0.0
 30
0.0
  3
*Paper_Space5
  1

  0
CIRCLE
  5
115
330
111
100
AcDbEntity
  8
0
  6
Continuous
 62
     7
370
    25
100
AcDbCircle
 10
0.0
 20
0.0
 30
0.0
 40
22.9999999999964
  0
LWPOLYLINE
  5
11E
330
111
100
AcDbEntity
  8
0
  6
Continuous
 62
     7
370
    25
100
AcDbPolyline
 90
       95
 70
   128
 43
0.0
 10
0.0
 20
165.0
 10
107.9383757088
 20
165.0
 10
120.0539076761
 20
165.0
 10
132.1694396434
 20
165.0
 10
144.2849716107
 20
165.0
 10
156.3933681983
 20
164.9339866415
 10
168.3669753355
 20
163.9004369302
 10
180.0849502556
 20
161.6471983029
 10
191.4635463218
 20
158.20547248
 10
201.2481234822
 20
154.1623322421
 10
210.6397098365
 20
149.2206244215
 10
219.5729796709
 20
143.4085185675
 10
227.9590816673
 20
136.7777098338
 10
235.7020599507
 20
129.3871959467
 10
242.5987467235
 20
121.4579427359
 10
248.7347042627
 20
112.9534707292
 10
254.0540760987
 20
103.964837385
 10
258.5169996242
 20
94.5671062993
 10
262.1625917644
 20
84.633098727
 10
264.8841650422
 20
74.3847745723
 10
266.658188222
 20
63.8828212355
 10
267.4555906673
 20
53.1934655174
 10
267.5
 20
42.4043618856
 10
267.5
 20
0.0
 10
267.5
 20
-13.4922969636
 10
267.5
 20
-26.9845939272
 10
267.5
 20
-40.4768908908
 10
267.4316455022
 20
-53.9617894395
 10
266.5876486738
 20
-64.4507681469
 10
264.8031120335
 20
-74.7555445697
 10
262.1055408062
 20
-84.8134124943
 10
258.5169996242
 20
-94.5671062993
 10
253.9649403668
 20
-104.1320893798
 10
248.5255517453
 20
-113.2717540508
 10
242.241669738
 20
-121.9061081696
 10
235.172323192
 20
-129.9389667246
 10
227.3802628164
 20
-137.2772394688
 10
219.1074361668
 20
-143.741151927
 10
210.3117218457
 20
-149.4123469445
 10
201.0766717699
 20
-154.2424735934
 10
191.4635463218
 20
-158.20547248
 10
180.1101756577
 20
-161.6409719422
 10
168.418726529
 20
-163.8932294544
 10
156.4723657125
 20
-164.9312799757
 10
144.3907071625
 20
-165.0
 10
132.3016090831
 20
-165.0
 10
84.8087237712
 20
-165.0
 10
0.0
 20
-165.0
 10
-107.9383757088
 20
-165.0
 10
-120.0539076761
 20
-165.0
 10
-132.1694396434
 20
-165.0
 10
-144.2849716107
 20
-165.0
 10
-156.3933681983
 20
-164.9339866415
 10
-168.3669753355
 20
-163.9004369302
 10
-180.0849502556
 20
-161.6471983029
 10
-191.4635463218
 20
-158.20547248
 10
-201.2481234822
 20
-154.1623322421
 10
-210.6397098365
 20
-149.2206244215
 10
-219.5729796709
 20
-143.4085185675
 10
-227.9590816673
 20
-136.7777098338
 10
-235.7020599507
 20
-129.3871959467
 10
-242.5987467235
 20
-121.4579427359
 10
-248.7347042627
 20
-112.9534707292
 10
-254.0540760987
 20
-103.964837385
 10
-258.5169996242
 20
-94.5671062993
 10
-262.1625917644
 20
-84.633098727
 10
-264.8841650422
 20
-74.3847745723
 10
-266.658188222
 20
-63.8828212355
 10
-267.4555906673
 20
-53.1934655174
 10
-267.5
 20
-42.4043618856
 10
-267.5
 20
0.0
 10
-267.5
 20
13.4922969636
 10
-267.5
 20
26.9845939272
 10
-267.5
 20
40.4768908908
 10
-267.4316455022
 20
53.9617894395
 10
-266.5876486738
 20
64.4507681469
 10
-264.8031120335
 20
74.7555445697
 10
-262.1055408062
 20
84.8134124943
 10
-258.5169996242
 20
94.5671062993
 10
-253.9649403668
 20
104.1320893798
 10
-248.5255517453
 20
113.2717540508
 10
-242.241669738
 20
121.9061081696
 10
-235.172323192
 20
129.9389667246
 10
-227.3802628164
 20
137.2772394688
 10
-219.1074361668
 20
143.741151927
 10
-210.3117218457
 20
149.4123469445
 10
-201.0766717699
 20
154.2424735934
 10
-191.4635463218
 20
158.20547248
 10
-180.1101756577
 20
161.6409719422
 10
-168.418726529
 20
163.8932294544
 10
-156.4723657125
 20
164.9312799757
 10
-144.3907071625
 20
165.0
 10
-132.3016090831
 20
165.0
 10
-84.8087237712
 20
165.0
 10
0.0
 20
165.0
  0
LINE
  5
11F
330
111
100
AcDbEntity
  8
0
  6
Continuous
 62
     7
370
    25
100
AcDbLine
 10
-45.0
 20
-55.0
 30
0.0
 11
45.0
 21
-55.0
 31
0.0
  0
LINE
  5
120
330
111
100
AcDbEntity
  8
0
  6
Continuous
 62
     7
370
    25
100
AcDbLine
 10
-55.0
 20
45.0
 30
0.0
 11
-55.0
 21
-45.0
 31
0.0
  0
LINE
  5
121
330
111
100
AcDbEntity
  8
0
  6
Continuous
 62
     7
370
    25
100
AcDbLine
 10
45.0
 20
55.0
 30
0.0
 11
-45.0
 21
55.0
 31
0.0
  0
LINE
  5
122
330
111
100
AcDbEntity
  8
0
  6
Continuous
 62
     7
370
    25
100
AcDbLine
 10
55.0
 20
-45.0
 30
0.0
 11
55.0
 21
45.0
 31
0.0
  0
ARC
  5
123
330
111
100
AcDbEntity
  8
0
  6
Continuous
 62
     7
370
    25
100
AcDbCircle
 10
-45.0
 20
-45.0
 30
0.0
 40
10.00000000000002
100
AcDbArc
 50
180.0
 51
270.0
  0
ARC
  5
124
330
111
100
AcDbEntity
  8
0
  6
Continuous
 62
     7
370
    25
100
AcDbCircle
 10
-45.0
 20
45.0
 30
0.0
 40
10.00000000000004
100
AcDbArc
 50
90.0
 51
180.0
  0
ARC
  5
125
330
111
100
AcDbEntity
  8
0
  6
Continuous
 62
     7
370
    25
100
AcDbCircle
 10
45.0
 20
45.0
 30
0.0
 40
9.999999999999964
100
AcDbArc
 50
0.0
 51
90.0
  0
ARC
  5
126
330
111
100
AcDbEntity
  8
0
  6
Continuous
 62
     7
370
    25
100
AcDbCircle
 10
45.0
 20
-45.0
 30
0.0
 40
10.00000000000007
100
AcDbArc
 50
270.0
 51
0.0
  0
VIEWPORT
  5
18B
330
111
100
AcDbEntity
  8
0
100
AcDbViewport
 10
0.0
 20
0.0
 30
0.0
 40
205.6
 41
156.0
 68
     1
 69
     1
 12
0.0
 22
-22.6961034758
 13
0.0
 23
0.0
 14
10.0
 24
10.0
 15
10.0
 25
10.0
 16
0.0
 26
0.0
 36
1.0
 17
0.0
 27
0.0
 37
0.0
 42
50.0
 43
0.0
 44
0.0
 45
399.6151273282
 50
0.0
 51
0.0
 72
   100
 90
   557152
  1

281
     0
 71
     1
 74
     0
110
0.0
120
0.0
130
0.0
111
1.0
121
0.0
131
0.0
112
0.0
122
1.0
132
0.0
 79
     0
146
0.0
170
     0
 61
     5
348
2F
292
     1
282
     1
141
0.0
142
0.0
 63
   256
361
18C
  0
ENDBLK
  5
114
330
111
100
AcDbEntity
  8
0
100
AcDbBlockEnd
  0
BLOCK
  5
129
330
127
100
AcDbEntity
  8
0
100
AcDbBlockBegin
  2
*Paper_Space6
 70
     0
 10
0.0
 20
0.0
 30
0.0
  3
*Paper_Space6
  1

  0
SPLINE
  5
12B
330
127
100
AcDbEntity
  8
0
  6
Continuous
 62
     7
370
    25
100
AcDbSpline
210
0.0
220
0.0
230
1.0
 70
     8
 71
     3
 72
   161
 73
   157
 74
     0
 42
0.000000001
 43
0.00000001
 40
0.0
 40
0.0
 40
0.0
 40
0.0
 40
0.0069512840658595
 40
0.0123824350457695
 40
0.0162815863079047
 40
0.0187156950448205
 40
0.0210856943107195
 40
0.0269613951704982
 40
0.0327269836391742
 40
0.0369508558770568
 40
0.0423318872809666
 40
0.0485442357718098
 40
0.0541780174928008
 40
0.0586606156457357
 40
0.0635074210076399
 40
0.0702451938740614
 40
0.0756359658685012
 40
0.079390525379022
 40
0.0838518395076633
 40
0.0893589675834559
 40
0.0963414903086005
 40
0.1015249224673305
 40
0.1058378575735346
 40
0.1092411702261854
 40
0.1123874734035557
 40
0.115469388321638
 40
0.1191737513637468
 40
0.1239567471631563
 40
0.1296157850186274
 40
0.1338235450243568
 40
0.1372206208531729
 40
0.1411878293161374
 40
0.1457162276396819
 40
0.1506587447184839
 40
0.1556721522759571
 40
0.1592885917570065
 40
0.1622190229505907
 40
0.1654155240376158
 40
0.1691359714806778
 40
0.1741333518626466
 40
0.1784140984197196
 40
0.1827735034276761
 40
0.187687635525761
 40
0.1933034045110682
 40
0.199279907846046
 40
0.2048611901412133
 40
0.2100310305452716
 40
0.2147915288762017
 40
0.2215448945411999
 40
0.2282582805272781
 40
0.2351411311009169
 40
0.2446239045631509
 40
0.2545313765431485
 40
0.2655451199015242
 40
0.2777767066492824
 40
0.2897324417626408
 40
0.3026682109538425
 40
0.3165863710334339
 40
0.3314875332482472
 40
0.3461562706888416
 40
0.35924805286276
 40
0.370748960898328
 40
0.3806505550892754
 40
0.3881601361791215
 40
0.3943811160003607
 40
0.399314587981963
 40
0.4029900428018793
 40
0.4069653026525674
 40
0.4120480403276567
 40
0.4182937907712719
 40
0.4256961919048615
 40
0.434247193991704
 40
0.4441462966437087
 40
0.4552177558016434
 40
0.4669556572322008
 40
0.4779903583627644
 40
0.4882468401313316
 40
0.4977313319242399
 40
0.5064505871805115
 40
0.5159579839564125
 40
0.525813031196474
 40
0.5370777029552748
 40
0.5487808414591796
 40
0.5603227469651082
 40
0.5716752302611977
 40
0.5828228069121388
 40
0.5935364230921957
 40
0.6036900962069368
 40
0.6132838625830522
 40
0.6223579567254808
 40
0.6310873820613522
 40
0.6385504270869573
 40
0.646604049274826
 40
0.6552641438669475
 40
0.6645127163303145
 40
0.67417197556254
 40
0.6841275396766103
 40
0.6934632446998874
 40
0.7003980321525012
 40
0.7065350874575274
 40
0.7127121648754541
 40
0.7189705659289891
 40
0.7251601514800639
 40
0.731208868843238
 40
0.7376133671122423
 40
0.745232326775209
 40
0.7531198144107062
 40
0.7620197555305656
 40
0.7714123689589409
 40
0.7797867421796396
 40
0.7870392915588752
 40
0.7930608452630277
 40
0.7983212015485145
 40
0.8039054343994437
 40
0.8099905210927053
 40
0.8152496854395863
 40
0.8211236493246526
 40
0.8269797572689346
 40
0.8317076327984891
 40
0.8355657428222678
 40
0.8401265931928654
 40
0.8482165828813922
 40
0.8568342479504959
 40
0.8655046868588832
 40
0.8732938006885839
 40
0.8776084388602613
 40
0.8816682727391263
 40
0.8857202976295572
 40
0.8902759200622672
 40
0.8955369891362098
 40
0.9016024026488958
 40
0.9076585961230387
 40
0.911294618339696
 40
0.9142183323692121
 40
0.9171022305525344
 40
0.9200759679782532
 40
0.9239558546990037
 40
0.9288885376575053
 40
0.9336071852886367
 40
0.9374104301990613
 40
0.940605465767298
 40
0.9435068825959944
 40
0.9463804407850446
 40
0.9501295207328723
 40
0.9548052491753084
 40
0.9591746801082033
 40
0.9625642679421357
 40
0.9653441142554767
 40
0.9687589389383857
 40
0.9728500068159021
 40
0.9767528383840386
 40
0.9795363452546383
 40
0.9826260054334951
 40
0.987052103886875
 40
0.9928395136725797
 40
1.0
 40
1.0
 40
1.0
 40
1.0
 10
-257.7862802102549
 20
36.3102157900608
 30
0.0
 10
-257.5225547904224
 20
34.63260316107064
 30
0.0
 10
-257.0527764228495
 20
31.64424457672545
 30
0.0
 10
-256.2548896756267
 20
27.74270708733254
 30
0.0
 10
-255.6109507321106
 20
24.92955350008302
 30
0.0
 10
-255.0999703212247
 20
22.87198800239848
 30
0.0
 10
-254.4360954717433
 20
20.3366610264282
 30
0.0
 10
-253.5062640339957
 20
17.06822235511542
 30
0.0
 10
-252.3455192947968
 20
13.42275789853309
 30
0.0
 10
-251.1114877536543
 20
9.875228400745408
 30
0.0
 10
-249.7500941479334
 20
6.259704003102232
 30
0.0
 10
-248.1485215700599
 20
2.367258536286228
 30
0.0
 10
-246.518558806673
 20
-1.273460066347654
 30
0.0
 10
-244.938776812445
 20
-4.570566797366476
 30
0.0
 10
-243.1585783507774
 20
-8.070529590113555
 30
0.0
 10
-241.170410610246
 20
-11.71169566440009
 30
0.0
 10
-239.2079388756642
 20
-15.06084016224695
 30
0.0
 10
-237.4615613458244
 20
-17.89282389805163
 30
0.0
 10
-235.6433982147789
 20
-20.71266363606126
 30
0.0
 10
-233.3138671494
 20
-24.14067256069463
 30
0.0
 10
-230.7782302501375
 20
-27.64128537952002
 30
0.0
 10
-228.3209159385424
 20
-30.83533059115423
 30
0.0
 10
-226.3419408525211
 20
-33.29189465302871
 30
0.0
 10
-224.6384329604772
 20
-35.33030803975116
 30
0.0
 10
-223.100696370428
 20
-37.11467496014799
 30
0.0
 10
-221.4886897580414
 20
-38.9319528726042
 30
0.0
 10
-219.5783316046365
 20
-41.01949236837466
 30
0.0
 10
-217.1937109536069
 20
-43.52669908212788
 30
0.0
 10
-214.6640845604452
 20
-46.06448534168184
 30
0.0
 10
-212.3241059789853
 20
-48.31127451232167
 30
0.0
 10
-210.2498435261271
 20
-50.23708868638151
 30
0.0
 10
-208.086458257103
 20
-52.18147746703144
 30
0.0
 10
-205.6018160167747
 20
-54.33288120300565
 30
0.0
 10
-202.8770541135289
 20
-56.59654364580149
 30
0.0
 10
-200.2796473671044
 20
-58.66274004333206
 30
0.0
 10
-198.0363426516444
 20
-60.38143303953205
 30
0.0
 10
-196.1279587420596
 20
-61.80232939830244
 30
0.0
 10
-194.1752761463575
 20
-63.21807048167508
 30
0.0
 10
-191.7881993318428
 20
-64.89537394464602
 30
0.0
 10
-189.1584099334509
 20
-66.67724157791338
 30
0.0
 10
-186.374252337582
 20
-68.5018522524014
 30
0.0
 10
-183.6715035136267
 20
-70.21757722323156
 30
0.0
 10
-180.8345532876277
 20
-71.94607796687447
 30
0.0
 10
-177.8792371894279
 20
-73.74088092760125
 30
0.0
 10
-174.9360438789325
 20
-75.52094718347496
 30
0.0
 10
-172.0619876158601
 20
-77.25657428152346
 30
0.0
 10
-169.4274433973376
 20
-78.84460580836387
 30
0.0
 10
-166.6194005920017
 20
-80.53485417611986
 30
0.0
 10
-163.620702506637
 20
-82.33716840801219
 30
0.0
 10
-160.2623857166315
 20
-84.35224002555006
 30
0.0
 10
-156.4401957208437
 20
-86.64165515340275
 30
0.0
 10
-152.0722310417496
 20
-89.25247117849426
 30
0.0
 10
-146.9946911834913
 20
-92.27973080910002
 30
0.0
 10
-141.4431391919011
 20
-95.58046981270493
 30
0.0
 10
-135.5310501238558
 20
-99.08468681714412
 30
0.0
 10
-129.2780638974214
 20
-102.7788726253902
 30
0.0
 10
-122.721982696051
 20
-106.6389652614924
 30
0.0
 10
-115.645944079028
 20
-110.7897172276486
 30
0.0
 10
-108.2534133093906
 20
-115.1085505711503
 30
0.0
 10
-100.9699983464497
 20
-119.3456560617856
 30
0.0
 10
-94.22578696472479
 20
-123.2534019252438
 30
0.0
 10
-88.26374018419232
 20
-126.6956439796838
 30
0.0
 10
-83.23144404807545
 20
-129.5922555509069
 30
0.0
 10
-79.08741997329986
 20
-131.9719386074021
 30
0.0
 10
-75.78252249491398
 20
-133.8664441946814
 30
0.0
 10
-73.13258941030378
 20
-135.3834232867382
 30
0.0
 10
-70.82341337510216
 20
-136.7043728499704
 30
0.0
 10
-68.4859088926454
 20
-138.0397426369599
 30
0.0
 10
-65.70568736446583
 20
-139.6255416495572
 30
0.0
 10
-62.31174417715353
 20
-141.5581817577515
 30
0.0
 10
-58.2995261022841
 20
-143.8385114563691
 30
0.0
 10
-53.63178018156444
 20
-146.4857447954024
 30
0.0
 10
-48.30366481442373
 20
-149.5002830311757
 30
0.0
 10
-42.39949393208981
 20
-152.8319679549945
 30
0.0
 10
-36.28531614132691
 20
-156.2725869499875
 30
0.0
 10
-30.2989014652787
 20
-159.6321787529604
 30
0.0
 10
-24.70504534100336
 20
-162.76372192078
 30
0.0
 10
-19.51842209034553
 20
-165.6607656130537
 30
0.0
 10
-14.44849878981441
 20
-168.4870405480777
 30
0.0
 10
-9.312981007869926
 20
-171.3437432202548
 30
0.0
 10
-3.604197628990044
 20
-174.5150055854969
 30
0.0
 10
2.683548500257094
 20
-177.9900349904385
 30
0.0
 10
9.248624457876705
 20
-181.6422613875478
 30
0.0
 10
16.12481369614083
 20
-184.9822914797268
 30
0.0
 10
23.33352875897707
 20
-187.790454937783
 30
0.0
 10
30.68355599828169
 20
-190.082944958671
 30
0.0
 10
38.0332877609515
 20
-191.8598610194651
 30
0.0
 10
45.21737480435581
 20
-193.1408318237148
 30
0.0
 10
52.14427374150614
 20
-193.9667212947697
 30
0.0
 10
58.8050668261936
 20
-194.3775309120864
 30
0.0
 10
64.96457549922854
 20
-194.5553222335348
 30
0.0
 10
70.88571400716509
 20
-194.5295130723064
 30
0.0
 10
76.7939113153409
 20
-194.3172662057918
 30
0.0
 10
83.13456984691433
 20
-193.8718670083321
 30
0.0
 10
89.84817621612974
 20
-193.1480963188625
 30
0.0
 10
96.83672403306237
 20
-192.1047508492554
 30
0.0
 10
103.7895305203221
 20
-190.7496908959404
 30
0.0
 10
110.0125807277529
 20
-189.2388779128583
 30
0.0
 10
115.2531103392255
 20
-187.7402170259724
 30
0.0
 10
119.7006535845431
 20
-186.3041571702267
 30
0.0
 10
123.9351256860952
 20
-184.780978005602
 30
0.0
 10
128.125986057856
 20
-183.1042569973809
 30
0.0
 10
132.1818603454853
 20
-181.3135496902481
 30
0.0
 10
136.0067748153886
 20
-179.4232425449156
 30
0.0
 10
139.9276081283767
 20
-177.4205722040394
 30
0.0
 10
144.1754415454629
 20
-175.217506166966
 30
0.0
 10
148.8305404140174
 20
-172.748926322396
 30
0.0
 10
153.759295142977
 20
-170.0769594490062
 30
0.0
 10
158.7125076276767
 20
-167.3256033889467
 30
0.0
 10
163.334273647966
 20
-164.6970667209017
 30
0.0
 10
167.3140647594898
 20
-162.3857646365407
 30
0.0
 10
170.7159141388158
 20
-160.3757510236218
 30
0.0
 10
173.8200996623266
 20
-158.5152858551469
 30
0.0
 10
176.926756182917
 20
-156.628316127396
 30
0.0
 10
180.0233744545259
 20
-154.721106075943
 30
0.0
 10
183.1659581948026
 20
-152.7601820067613
 30
0.0
 10
186.2501529006701
 20
-150.8113787078067
 30
0.0
 10
189.2437688323648
 20
-148.8968599374089
 30
0.0
 10
191.9547920190349
 20
-147.1406148279061
 30
0.0
 10
194.5517519532125
 20
-145.4483849127563
 30
0.0
 10
197.8956546787305
 20
-143.1873537709544
 30
0.0
 10
202.1119174232867
 20
-140.1348376427626
 30
0.0
 10
206.9981204210902
 20
-136.2919376742327
 30
0.0
 10
211.6608252690635
 20
-132.2952553922999
 30
0.0
 10
215.3869404609729
 20
-128.8315018816824
 30
0.0
 10
218.2036984817519
 20
-126.0516983099678
 30
0.0
 10
220.3244870238897
 20
-123.8700946174788
 30
0.0
 10
222.4410908146391
 20
-121.6030877236793
 30
0.0
 10
224.7047041322232
 20
-119.0717487201603
 30
0.0
 10
227.2248242943611
 20
-116.1099396077146
 30
0.0
 10
229.8894751051454
 20
-112.7905390311278
 30
0.0
 10
232.2111392837184
 20
-109.708534028938
 30
0.0
 10
234.0079108389213
 20
-107.1960070458295
 30
0.0
 10
235.3210409997934
 20
-105.2927815295266
 30
0.0
 10
236.5154347824516
 20
-103.504967838671
 30
0.0
 10
237.8097141217146
 20
-101.5026241432142
 30
0.0
 10
239.332978586479
 20
-99.05148154083405
 30
0.0
 10
241.0167739006037
 20
-96.19787335211227
 30
0.0
 10
242.6187285439568
 20
-93.3190231161122
 30
0.0
 10
243.9571140746915
 20
-90.7813780197409
 30
0.0
 10
245.0480101577195
 20
-88.61681345936093
 30
0.0
 10
246.0046046079847
 20
-86.63978848230957
 30
0.0
 10
246.9878997349275
 20
-84.52529450346633
 30
0.0
 10
248.1098155714244
 20
-81.99677573087267
 30
0.0
 10
249.3154648129679
 20
-79.10541997755877
 30
0.0
 10
250.4186661823253
 20
-76.26759270880815
 30
0.0
 10
251.3031517442051
 20
-73.84347020153359
 30
0.0
 10
252.0706019029779
 20
-71.62598006239838
 30
0.0
 10
252.8541651082236
 20
-69.23277109966114
 30
0.0
 10
253.6690331786951
 20
-66.56094446150792
 30
0.0
 10
254.3836855438449
 20
-64.02081998780123
 30
0.0
 10
254.9896312668476
 20
-61.70537113328199
 30
0.0
 10
255.5889569060724
 20
-59.25641013548539
 30
0.0
 10
256.2958269010059
 20
-56.07776234243297
 30
0.0
 10
257.1130095226104
 20
-51.90286605107864
 30
0.0
 10
257.5773507106034
 20
-48.76667158052655
 30
0.0
 10
257.8341421382479
 20
-47.03228342739984
 30
0.0
  0
SPLINE
  5
12C
330
127
100
AcDbEntity
  8
0
  6
Continuous
 62
     7
370
    25
100
AcDbSpline
210
0.0
220
0.0
230
1.0
 70
     8
 71
     3
 72
    73
 73
    69
 74
     0
 42
0.000000001
 43
0.00000001
 40
0.0
 40
0.0
 40
0.0
 40
0.0
 40
0.0193572246559126
 40
0.0391954408211906
 40
0.0593206909579488
 40
0.0789357343921764
 40
0.0978471997891341
 40
0.1160465698923965
 40
0.1335258498632695
 40
0.1502802016669032
 40
0.1664047278596185
 40
0.181864366776929
 40
0.1966806747439211
 40
0.2108878363780839
 40
0.2245180227084637
 40
0.2377065468833846
 40
0.2511675553471575
 40
0.2650585302673553
 40
0.2793774689016921
 40
0.2941063694958156
 40
0.3092259350450371
 40
0.3242666421820204
 40
0.3386093628484847
 40
0.3522362852239513
 40
0.365153075091224
 40
0.3773828326577542
 40
0.3905406196710697
 40
0.4028426097229208
 40
0.4144556103102321
 40
0.4272942935997399
 40
0.4419608726306458
 40
0.4584346472649719
 40
0.4766536217696876
 40
0.4940867982511234
 40
0.5128586366039727
 40
0.532965297399682
 40
0.5544025665885135
 40
0.5767688958994143
 40
0.6196519829616648
 40
0.6609287429217179
 40
0.6964515322979575
 40
0.7307395297837992
 40
0.7641144958243943
 40
0.7969216738007573
 40
0.8175007669246354
 40
0.8378461559700657
 40
0.857866273077769
 40
0.8764738847079699
 40
0.8872817912971533
 40
0.8974023431565149
 40
0.9068345781403908
 40
0.9155852594853537
 40
0.9237621312308967
 40
0.9294145568259372
 40
0.9374932266244393
 40
0.9462426948855622
 40
0.9537614382196935
 40
0.9574856666269685
 40
0.960795002052035
 40
0.9646096563885166
 40
0.9695983673569893
 40
0.9757368168242131
 40
0.9815572654016351
 40
0.9862189089635405
 40
0.9904837730504671
 40
0.9946192780147568
 40
0.998723062725215
 40
1.0
 40
1.0
 40
1.0
 40
1.0
 10
216.9950675029175
 20
-90.99017142097046
 30
0.0
 10
214.4814626286028
 20
-92.43883712109749
 30
0.0
 10
209.3917944116787
 20
-95.37216520548657
 30
0.0
 10
201.2379296429233
 20
-100.1097076591452
 30
0.0
 10
192.7210564822492
 20
-105.0517980827474
 30
0.0
 10
184.3216414599436
 20
-109.9110785545684
 30
0.0
 10
176.188003358076
 20
-114.6058544274063
 30
0.0
 10
168.348031157639
 20
-119.1186987415216
 30
0.0
 10
160.8116310682828
 20
-123.4559942224776
 30
0.0
 10
153.5457959625515
 20
-127.6028617252143
 30
0.0
 10
146.6150859794205
 20
-131.646910216449
 30
0.0
 10
139.3174325585354
 20
-135.1829530635655
 30
0.0
 10
131.8171932407414
 20
-138.2334191727018
 30
0.0
 10
124.2049017411261
 20
-140.8223636905459
 30
0.0
 10
116.5488473020784
 20
-142.983994798449
 30
0.0
 10
108.76120983988
 20
-144.7827212373923
 30
0.0
 10
100.7531637762089
 20
-146.2363232974079
 30
0.0
 10
92.37479046294523
 20
-147.3512984928754
 30
0.0
 10
83.63300367027445
 20
-148.0969793546894
 30
0.0
 10
74.57442164822872
 20
-148.4360147963327
 30
0.0
 10
65.351924993089
 20
-148.3253281878861
 30
0.0
 10
56.2512579317818
 20
-147.765910562537
 30
0.0
 10
47.5568908019995
 20
-146.8156728759589
 30
0.0
 10
39.43272185779771
 20
-145.5453476770025
 30
0.0
 10
31.89872775487587
 20
-144.0149886835141
 30
0.0
 10
24.65217250670718
 20
-142.2062410689142
 30
0.0
 10
17.74966727984385
 20
-140.1396755892717
 30
0.0
 10
11.2185923827432
 20
-137.8364127956496
 30
0.0
 10
5.01386383201112
 20
-135.3071797769624
 30
0.0
 10
-1.273280177954236
 20
-132.3818069215505
 30
0.0
 10
-7.805630989658003
 20
-128.755573118484
 30
0.0
 10
-14.86500500792706
 20
-124.5490148575618
 30
0.0
 10
-22.38879714947713
 20
-120.1570049300482
 30
0.0
 10
-30.21342994510069
 20
-115.5656316831078
 30
0.0
 10
-38.30905882156858
 20
-110.8255565562363
 30
0.0
 10
-46.97245493296802
 20
-105.75565985726
 30
0.0
 10
-56.1467580731181
 20
-100.393879505631
 30
0.0
 10
-68.58563677704012
 20
-93.13517725915918
 30
0.0
 10
-83.91279121342107
 20
-84.2158528375431
 30
0.0
 10
-101.19085738713
 20
-74.20011363148261
 30
0.0
 10
-117.2830160712464
 20
-64.908891452553
 30
0.0
 10
-132.2902234711318
 20
-56.27504824236651
 30
0.0
 10
-146.9308526612666
 20
-47.87776639795357
 30
0.0
 10
-159.560898811834
 20
-40.65293020678148
 30
0.0
 10
-170.2925436251402
 20
-34.52516257658635
 30
0.0
 10
-179.1587930569276
 20
-29.46882501441884
 30
0.0
 10
-187.740681414053
 20
-24.57993937754781
 30
0.0
 10
-194.9088093015001
 20
-20.50007493099009
 30
0.0
 10
-200.6171230654774
 20
-17.25311084661823
 30
0.0
 10
-204.9895168900805
 20
-14.76737819810463
 30
0.0
 10
-209.0360373942855
 20
-12.46768652140072
 30
0.0
 10
-212.8319973896947
 20
-10.31321703372665
 30
0.0
 10
-215.8326442314934
 20
-8.60975902209745
 30
0.0
 10
-218.2010770897288
 20
-7.122542990034369
 30
0.0
 10
-220.3815075142402
 20
-5.645065854039247
 30
0.0
 10
-222.5421975413355
 20
-4.027255682626761
 30
0.0
 10
-224.1276146749261
 20
-2.720438410238835
 30
0.0
 10
-225.2132931148861
 20
-1.764116776256347
 30
0.0
 10
-225.9933194927929
 20
-1.046392057902412
 30
0.0
 10
-226.8110452479588
 20
-0.2591404397359401
 30
0.0
 10
-227.7494581517418
 20
0.6967716289299208
 30
0.0
 10
-228.7341072976052
 20
1.776494263922061
 30
0.0
 10
-229.6138448828031
 20
2.825647679957591
 30
0.0
 10
-230.3132651752016
 20
3.724481116090403
 30
0.0
 10
-230.8691431183488
 20
4.494666021847553
 30
0.0
 10
-231.3089924152405
 20
5.12732983898484
 30
0.0
 10
-231.7649354247378
 20
5.868595948132646
 30
0.0
 10
-231.7329315672515
 20
5.797477821187308
 30
0.0
 10
-231.7253365049768
 20
5.780600274371384
 30
0.0
  0
SPLINE
  5
12D
330
127
100
AcDbEntity
  8
0
  6
Continuous
 62
     7
370
    25
100
AcDbSpline
210
0.0
220
0.0
230
1.0
 70
     8
 71
     3
 72
    22
 73
    18
 74
     0
 42
0.000000001
 43
0.00000001
 40
0.0
 40
0.0
 40
0.0
 40
0.0
 40
0.0341364263834151
 40
0.0694489708076592
 40
0.1040027800092982
 40
0.1845300390248323
 40
0.2868847367564336
 40
0.4001546221418724
 40
0.4805026945159896
 40
0.5521701325207288
 40
0.6068092688960516
 40
0.6364508558556659
 40
0.6802203187673438
 40
0.7382764010925226
 40
0.8107806005648605
 40
0.8979344904322096
 40
1.0
 40
1.0
 40
1.0
 40
1.0
 10
233.0140066129348
 20
-76.45810208856358
 30
0.0
 10
232.975709629457
 20
-76.52718136711448
 30
0.0
 10
232.8977961988682
 20
-76.6677199444574
 30
0.0
 10
232.6391420793263
 20
-77.10987586884474
 30
0.0
 10
232.295461035212
 20
-77.66250449384923
 30
0.0
 10
231.7365791227886
 20
-78.49785225632635
 30
0.0
 10
230.8277349772434
 20
-79.70617654841638
 30
0.0
 10
229.7163263079847
 20
-81.00665947780408
 30
0.0
 10
228.547156269138
 20
-82.23423361734754
 30
0.0
 10
227.5217938498662
 20
-83.22671086079131
 30
0.0
 10
226.7054940431766
 20
-83.96978345333022
 30
0.0
 10
225.9093611623159
 20
-84.66414035225557
 30
0.0
 10
224.988043039348
 20
-85.43722374761481
 30
0.0
 10
223.6848473360444
 20
-86.47466906750489
 30
0.0
 10
221.9375496721607
 20
-87.77488481356525
 30
0.0
 10
219.7033129714799
 20
-89.32210659836318
 30
0.0
 10
217.944029997163
 20
-90.40568564484738
 30
0.0
 10
216.9950675029175
 20
-90.99017142097046
 30
0.0
  0
LWPOLYLINE
  5
12E
330
127
100
AcDbEntity
  8
0
  6
Continuous
 62
     7
370
    25
100
AcDbPolyline
 90
       95
 70
   128
 43
0.0
 10
-116.6726188958
 20
-67.3536692254
 10
-40.3486614818
 20
-111.4145519782
 10
-31.7816866701
 20
-116.3601612668
 10
-23.2147118583
 20
-121.3057705554
 10
-14.6477370465
 20
-126.2513798439
 10
-6.0391292168
 20
-131.1671295209
 10
3.1583195948
 20
-135.632905334
 10
13.0374594356
 20
-139.4964490769
 10
23.5170095428
 20
-142.7363117015
 10
33.2946822834
 20
-145.07998954
 10
43.4298517912
 20
-146.8964480057
 10
53.8564069316
 20
-148.1705198017
 10
64.4749663414
 20
-148.8870376308
 10
75.1759612782
 20
-149.030915027
 10
85.659483978
 20
-148.609417219
 10
96.0118309894
 20
-147.6425800069
 10
106.1291184776
 20
-146.144772577
 10
115.9300813449
 20
-144.1303641158
 10
125.5323083874
 20
-141.5634074312
 10
134.7034108132
 20
-138.4909571954
 10
143.3838370538
 20
-134.9281807056
 10
151.5062016449
 20
-130.8902452588
 10
159.1666521262
 20
-126.5042174663
 10
189.1510639674
 20
-109.1945849563
 10
198.6915586441
 20
-103.6869746122
 10
208.2320533209
 20
-98.1793642681
 10
217.7725479976
 20
-92.671753924
 10
227.2594772762
 20
-87.1392610596
 10
234.0795093672
 20
-82.5130944804
 10
240.1042286947
 20
-77.5781878548
 10
245.3087444009
 20
-72.3713658581
 10
249.6681656277
 20
-66.9250114215
 10
253.2128380566
 20
-61.1623774817
 10
255.8293283434
 20
-55.2111487963
 10
257.4913631125
 20
-49.1214643026
 10
258.1726689878
 20
-42.9566829272
 10
257.8517926764
 20
-36.7804195804
 10
256.5726971851
 20
-30.7648229056
 10
254.3633283976
 20
-24.8593718371
 10
251.2485771718
 20
-19.117909651
 10
247.2533343656
 20
-13.576080634
 10
241.6545539461
 20
-7.5392038661
 10
234.9800375452
 20
-1.8473262609
 10
227.2666973642
 20
3.4529631108
 10
218.7722670707
 20
8.4127969257
 10
210.2239838403
 20
13.3476157941
 10
176.6414425782
 20
32.7344042053
 10
116.6726188958
 20
67.3536692254
 10
40.3486614818
 20
111.4145519782
 10
31.7816866701
 20
116.3601612668
 10
23.2147118583
 20
121.3057705554
 10
14.6477370465
 20
126.2513798439
 10
6.0391292168
 20
131.1671295209
 10
-3.1583195948
 20
135.632905334
 10
-13.0374594356
 20
139.4964490769
 10
-23.5170095428
 20
142.7363117015
 10
-33.2946822834
 20
145.07998954
 10
-43.4298517912
 20
146.8964480057
 10
-53.8564069316
 20
148.1705198017
 10
-64.4749663414
 20
148.8870376308
 10
-75.1759612782
 20
149.030915027
 10
-85.659483978
 20
148.609417219
 10
-96.0118309894
 20
147.6425800069
 10
-106.1291184776
 20
146.144772577
 10
-115.9300813449
 20
144.1303641158
 10
-125.5323083874
 20
141.5634074312
 10
-134.7034108132
 20
138.4909571954
 10
-143.3838370538
 20
134.9281807056
 10
-151.5062016449
 20
130.8902452588
 10
-159.1666521262
 20
126.5042174663
 10
-189.1510639674
 20
109.1945849563
 10
-198.6915586441
 20
103.6869746122
 10
-208.2320533209
 20
98.1793642681
 10
-217.7725479976
 20
92.671753924
 10
-227.2594772762
 20
87.1392610596
 10
-234.0795093672
 20
82.5130944804
 10
-240.1042286947
 20
77.5781878548
 10
-245.3087444009
 20
72.3713658581
 10
-249.6681656277
 20
66.9250114215
 10
-253.2128380566
 20
61.1623774817
 10
-255.8293283434
 20
55.2111487963
 10
-257.4913631125
 20
49.1214643026
 10
-258.1726689878
 20
42.9566829272
 10
-257.8517926764
 20
36.7804195804
 10
-256.5726971851
 20
30.7648229056
 10
-254.3633283976
 20
24.8593718371
 10
-251.2485771718
 20
19.117909651
 10
-247.2533343656
 20
13.576080634
 10
-241.6545539461
 20
7.5392038661
 10
-234.9800375452
 20
1.8473262609
 10
-227.2666973642
 20
-3.4529631108
 10
-218.7722670707
 20
-8.4127969257
 10
-210.2239838403
 20
-13.3476157941
 10
-176.6414425782
 20
-32.7344042053
 10
-116.6726188958
 20
-67.3536692254
  0
SPLINE
  5
12F
330
127
100
AcDbEntity
  8
0
  6
Continuous
 62
     7
370
    25
100
AcDbSpline
210
0.0
220
0.0
230
1.0
 70
     8
 71
     3
 72
    27
 73
    23
 74
     0
 42
0.000000001
 43
0.00000001
 40
0.0
 40
0.0
 40
0.0
 40
0.0
 40
0.1250000000000003
 40
0.1250000000000003
 40
0.1875000000000005
 40
0.1875000000000005
 40
0.2500000000000007
 40
0.2500000000000007
 40
0.3750000000000011
 40
0.3750000000000011
 40
0.5000000000000014
 40
0.5000000000000014
 40
0.6250000000000019
 40
0.6250000000000019
 40
0.6875000000000018
 40
0.6875000000000018
 40
0.7500000000000017
 40
0.8125000000000016
 40
0.8125000000000016
 40
0.8750000000000014
 40
0.8750000000000014
 40
1.0
 40
1.0
 40
1.0
 40
1.0
 10
-49.49747468305826
 20
-89.27476275005382
 30
0.0
 10
-49.96422551147267
 20
-89.51711126290205
 30
0.0
 10
-50.37738887312915
 20
-89.78090921459396
 30
0.0
 10
-50.9200594056168
 20
-90.20692170149182
 30
0.0
 10
-51.088008653454
 20
-90.35401750112165
 30
0.0
 10
-51.39744339869205
 20
-90.65854147269987
 30
0.0
 10
-51.53917981470869
 20
-90.81651788270983
 30
0.0
 10
-51.91520915382895
 20
-91.29584375606274
 30
0.0
 10
-52.10424729232134
 20
-91.62546757748117
 30
0.0
 10
-52.36022514953881
 20
-92.30433629843897
 30
0.0
 10
-52.42591380235404
 20
-92.65527000557755
 30
0.0
 10
-52.42689428241152
 20
-93.35125216201934
 30
0.0
 10
-52.36427817545862
 20
-93.69982932779227
 30
0.0
 10
-52.17338645379009
 20
-94.22484309627806
 30
0.0
 10
-52.09322872119137
 20
-94.4002221514872
 30
0.0
 10
-51.90377457419921
 20
-94.74411164651463
 30
0.0
 10
-51.68457233220484
 20
-95.08313150164832
 30
0.0
 10
-51.40678002495949
 20
-95.41290123756679
 30
0.0
 10
-51.09929570429231
 20
-95.73812884731336
 30
0.0
 10
-50.92992565746322
 20
-95.89912529563274
 30
0.0
 10
-50.38119905421264
 20
-96.37026946914
 30
0.0
 10
-49.96479074695059
 20
-96.66657457755787
 30
0.0
 10
-49.4974746830583
 20
-96.94517138285653
 30
0.0
  0
SPLINE
  5
130
330
127
100
AcDbEntity
  8
0
  6
Continuous
 62
     7
370
    25
100
AcDbSpline
210
0.0
220
0.0
230
1.0
 70
     8
 71
     3
 72
    10
 73
     6
 74
     0
 42
0.000000001
 43
0.00000001
 40
0.0
 40
0.0
 40
0.0
 40
0.0
 40
0.5
 40
0.5
 40
1.0
 40
1.0
 40
1.0
 40
1.0
 10
-49.49747468305829
 20
-96.94517138285653
 30
0.0
 10
-42.42696277146011
 20
-101.1603528897601
 30
0.0
 10
-35.35577017069298
 20
-105.3289365232574
 30
0.0
 10
-21.21282532676057
 20
-113.4934852193416
 30
0.0
 10
-14.14159058836958
 20
-117.4891508879088
 30
0.0
 10
-7.071067811865617
 20
-121.4374147375378
 30
0.0
  0
SPLINE
  5
131
330
127
100
AcDbEntity
  8
0
  6
Continuous
 62
     7
370
    25
100
AcDbSpline
210
0.0
220
0.0
230
1.0
 70
     8
 71
     3
 72
    29
 73
    25
 74
     0
 42
0.000000001
 43
0.00000001
 40
0.0
 40
0.0
 40
0.0
 40
0.0
 40
0.1249999999999996
 40
0.1249999999999996
 40
0.1875
 40
0.1875
 40
0.2500000000000004
 40
0.2500000000000004
 40
0.3750000000000013
 40
0.3750000000000013
 40
0.4375000000000016
 40
0.4375000000000016
 40
0.5000000000000018
 40
0.5000000000000018
 40
0.6250000000000012
 40
0.6250000000000012
 40
0.687500000000001
 40
0.687500000000001
 40
0.7500000000000008
 40
0.8125000000000006
 40
0.8125000000000006
 40
0.8750000000000003
 40
0.8750000000000003
 40
1.0
 40
1.0
 40
1.0
 40
1.0
 10
-7.071067811865613
 20
-121.4374147375378
 30
0.0
 10
-6.603777977379276
 20
-121.6983549281178
 30
0.0
 10
-6.098405001256458
 20
-121.934244607288
 30
0.0
 10
-5.28553651671616
 20
-122.2517479896336
 30
0.0
 10
-5.005377590839299
 20
-122.3514773799796
 30
0.0
 10
-4.426229922350436
 20
-122.5383349395127
 30
0.0
 10
-4.126378390669788
 20
-122.6255870878363
 30
0.0
 10
-3.217970003345571
 20
-122.8623709573447
 30
0.0
 10
-2.594690721226086
 20
-122.9893137395337
 30
0.0
 10
-1.633459584973254
 20
-123.1327169742277
 30
0.0
 10
-1.307281714602537
 20
-123.1727488357756
 30
0.0
 10
-0.6519968217868697
 20
-123.2356217050034
 30
0.0
 10
-0.3252871497972723
 20
-123.25830966663
 30
0.0
 10
0.65214929888327
 20
-123.3006419019674
 30
0.0
 10
1.300218043371403
 20
-123.2946756988071
 30
0.0
 10
2.26709993615443
 20
-123.2293490109516
 30
0.0
 10
2.587668987844044
 20
-123.1982050862786
 30
0.0
 10
3.213102973708557
 20
-123.1187155114387
 30
0.0
 10
3.826323084575152
 20
-123.0218267918157
 30
0.0
 10
4.415445804320239
 20
-122.8907146461789
 30
0.0
 10
4.992336229943623
 20
-122.7423004281279
 30
0.0
 10
5.27591174964425
 20
-122.6590043094861
 30
0.0
 10
6.097072353149064
 20
-122.3857277115217
 30
0.0
 10
6.604343924856097
 20
-122.1734217471702
 30
0.0
 10
7.071067811865422
 20
-121.9310872229623
 30
0.0
  0
SPLINE
  5
132
330
127
100
AcDbEntity
  8
0
  6
Continuous
 62
     7
370
    25
100
AcDbSpline
210
0.0
220
0.0
230
1.0
 70
     8
 71
     3
 72
    18
 73
    14
 74
     0
 42
0.000000001
 43
0.00000001
 40
0.0
 40
0.0
 40
0.0
 40
0.0
 40
0.1249999999999999
 40
0.1249999999999999
 40
0.2499999999999999
 40
0.2499999999999999
 40
0.4999999999999998
 40
0.4999999999999998
 40
0.7499999999999998
 40
0.7499999999999998
 40
0.8749999999999998
 40
0.8749999999999998
 40
1.0
 40
1.0
 40
1.0
 40
1.0
 10
7.071067811865444
 20
-121.9310872229623
 30
0.0
 10
8.837271079977903
 20
-121.0140310350413
 30
0.0
 10
10.60426254310678
 20
-120.0648264183258
 30
0.0
 10
14.13910700416522
 20
-118.1312774166686
 30
0.0
 10
15.90699910659994
 20
-117.1465648298556
 30
0.0
 10
21.21122301293357
 20
-114.1620811307992
 30
0.0
 10
24.74771444116672
 20
-112.1315433067142
 30
0.0
 10
31.82057673139256
 20
-108.0484676129528
 30
0.0
 10
35.35709549926677
 20
-105.9958440865984
 30
0.0
 10
40.6612835585637
 20
-102.8562253729758
 30
0.0
 10
42.42931019996774
 20
-101.799694363048
 30
0.0
 10
45.96435504616106
 20
-99.65187741487325
 30
0.0
 10
47.73137468111459
 20
-98.5609369575682
 30
0.0
 10
49.49747468305829
 20
-97.43884386828114
 30
0.0
  0
SPLINE
  5
133
330
127
100
AcDbEntity
  8
0
  6
Continuous
 62
     7
370
    25
100
AcDbSpline
210
0.0
220
0.0
230
1.0
 70
     8
 71
     3
 72
    27
 73
    23
 74
     0
 42
0.000000001
 43
0.00000001
 40
0.0
 40
0.0
 40
0.0
 40
0.0
 40
0.1249999999999996
 40
0.1249999999999996
 40
0.1875000000000001
 40
0.1875000000000001
 40
0.2500000000000007
 40
0.2500000000000007
 40
0.3750000000000012
 40
0.3750000000000012
 40
0.5000000000000017
 40
0.5000000000000017
 40
0.6250000000000021
 40
0.6250000000000021
 40
0.6875000000000018
 40
0.6875000000000018
 40
0.7500000000000014
 40
0.8125000000000012
 40
0.8125000000000012
 40
0.8750000000000009
 40
0.8750000000000009
 40
1.0
 40
1.0
 40
1.0
 40
1.0
 10
49.49747468305828
 20
-97.43884386828113
 30
0.0
 10
49.96422550411016
 20
-97.14229335010835
 30
0.0
 10
50.37738886007863
 20
-96.82339239043428
 30
0.0
 10
50.92005938646177
 20
-96.3124064720664
 30
0.0
 10
51.08800863267449
 20
-96.13659991958475
 30
0.0
 10
51.39744337554232
 20
-95.77371184624617
 30
0.0
 10
51.53917979099634
 20
-95.58598474284547
 30
0.0
 10
51.91520913007582
 20
-95.01769546800296
 30
0.0
 10
52.10424727033664
 20
-94.62855451944952
 30
0.0
 10
52.36022513518332
 20
-93.8296060091203
 30
0.0
 10
52.42591379439779
 20
-93.41646753839208
 30
0.0
 10
52.42689429018614
 20
-92.60742368535388
 30
0.0
 10
52.36427819200804
 20
-92.20762477585149
 30
0.0
 10
52.17338647129693
 20
-91.61634674989533
 30
0.0
 10
52.09322873613377
 20
-91.4206818635952
 30
0.0
 10
51.90377458180612
 20
-91.04106833737974
 30
0.0
 10
51.684572329886
 20
-90.6709056855116
 30
0.0
 10
51.40678000956619
 20
-90.31968543560247
 30
0.0
 10
51.09929567563996
 20
-89.97820507150422
 30
0.0
 10
50.92992562018672
 20
-89.81167295862429
 30
0.0
 10
50.38119901374293
 20
-89.33246058690763
 30
0.0
 10
49.96479071611967
 20
-89.0420576061011
 30
0.0
 10
49.49747468305831
 20
-88.78110449812438
 30
0.0
  0
SPLINE
  5
134
330
127
100
AcDbEntity
  8
0
  6
Continuous
 62
     7
370
    25
100
AcDbSpline
210
0.0
220
0.0
230
1.0
 70
     8
 71
     3
 72
    10
 73
     6
 74
     0
 42
0.000000001
 43
0.00000001
 40
0.0
 40
0.0
 40
0.0
 40
0.0
 40
0.5
 40
0.5
 40
1.0
 40
1.0
 40
1.0
 40
1.0
 10
49.49747468305829
 20
-88.78110449812439
 30
0.0
 10
42.42695158991215
 20
-84.83286637735897
 30
0.0
 10
35.35606330416446
 20
-80.83752076566905
 30
0.0
 10
21.21294025346563
 20
-72.67286702973067
 30
0.0
 10
14.14166226511717
 20
-68.50411219100027
 30
0.0
 10
7.071067811865606
 20
-64.28885868140841
 30
0.0
  0
SPLINE
  5
135
330
127
100
AcDbEntity
  8
0
  6
Continuous
 62
     7
370
    25
100
AcDbSpline
210
0.0
220
0.0
230
1.0
 70
     8
 71
     3
 72
    29
 73
    25
 74
     0
 42
0.000000001
 43
0.00000001
 40
0.0
 40
0.0
 40
0.0
 40
0.0
 40
0.124999999999999
 40
0.124999999999999
 40
0.1874999999999977
 40
0.1874999999999977
 40
0.2499999999999964
 40
0.2499999999999964
 40
0.3749999999999951
 40
0.3749999999999951
 40
0.4374999999999944
 40
0.4374999999999944
 40
0.4999999999999937
 40
0.4999999999999937
 40
0.6249999999999941
 40
0.6249999999999941
 40
0.6874999999999949
 40
0.6874999999999949
 40
0.7499999999999958
 40
0.8124999999999966
 40
0.8124999999999966
 40
0.8749999999999974
 40
0.8749999999999974
 40
1.0
 40
1.0
 40
1.0
 40
1.0
 10
7.071067811865613
 20
-64.2888586814084
 30
0.0
 10
6.603778006422558
 20
-64.0102760239793
 30
0.0
 10
6.098405047541233
 20
-63.76858377008288
 30
0.0
 10
5.285536561866064
 20
-63.45885828006019
 30
0.0
 10
5.005377631128412
 20
-63.36447917746676
 30
0.0
 10
4.426229942311833
 20
-63.19374500141841
 30
0.0
 10
4.126378401753193
 20
-63.11732884751643
 30
0.0
 10
3.217969992695146
 20
-62.92010644900895
 30
0.0
 10
2.594690688863678
 20
-62.82900774201118
 30
0.0
 10
1.633459511079936
 20
-62.7513054272607
 30
0.0
 10
1.307281614133245
 20
-62.73528149399868
 30
0.0
 10
0.6519967293482192
 20
-62.72367870312186
 30
0.0
 10
0.3252870610786808
 20
-62.72804906555067
 30
0.0
 10
-0.6521493809073069
 20
-62.77044042442476
 30
0.0
 10
-1.300218129089675
 20
-62.83733041892034
 30
0.0
 10
-2.267100056766343
 20
-62.9933358728949
 30
0.0
 10
-2.587669077955369
 20
-63.05483542800508
 30
0.0
 10
-3.213103032593988
 20
-63.19419298246608
 30
0.0
 10
-3.826323146063647
 20
-63.35042927418225
 30
0.0
 10
-4.415445846937001
 20
-63.54005144507664
 30
0.0
 10
-4.992336284909152
 20
-63.74667806142433
 30
0.0
 10
-5.275911819812181
 20
-63.85906304098997
 30
0.0
 10
-6.097072376702696
 20
-64.21828066693483
 30
0.0
 10
-6.604343931686904
 20
-64.48598599410596
 30
0.0
 10
-7.071067811865444
 20
-64.78251939537269
 30
0.0
  0
SPLINE
  5
136
330
127
100
AcDbEntity
  8
0
  6
Continuous
 62
     7
370
    25
100
AcDbSpline
210
0.0
220
0.0
230
1.0
 70
     8
 71
     3
 72
    18
 73
    14
 74
     0
 42
0.000000001
 43
0.00000001
 40
0.0
 40
0.0
 40
0.0
 40
0.0
 40
0.125
 40
0.125
 40
0.2500000000000001
 40
0.2500000000000001
 40
0.5000000000000001
 40
0.5000000000000001
 40
0.75
 40
0.75
 40
0.8750000000000001
 40
0.8750000000000001
 40
1.0
 40
1.0
 40
1.0
 40
1.0
 10
-7.071067811865426
 20
-64.7825193953727
 30
0.0
 10
-8.837159638783989
 20
-65.90460729065084
 30
0.0
 10
-10.60418647571974
 20
-66.99555245088592
 30
0.0
 10
-14.13926258299138
 20
-69.14338819237449
 30
0.0
 10
-15.90728058712835
 20
-70.19991370342815
 30
0.0
 10
-21.21139456357523
 20
-73.33948860247874
 30
0.0
 10
-24.74790218693822
 20
-75.39210616967746
 30
0.0
 10
-31.82072208137864
 20
-79.47515792564775
 30
0.0
 10
-35.35721086781955
 20
-81.5056940411523
 30
0.0
 10
-40.66131200449193
 20
-84.49011091791539
 30
0.0
 10
-42.42934154818251
 20
-85.47490148203947
 30
0.0
 10
-45.96435181102407
 20
-87.40854132760306
 30
0.0
 10
-47.73136404270841
 20
-88.357754656746
 30
0.0
 10
-49.49747468305825
 20
-89.27476275005384
 30
0.0
  0
LWPOLYLINE
  5
13A
330
127
100
AcDbEntity
  8
0
  6
Continuous
 62
     7
370
    25
100
AcDbPolyline
 90
       10
 70
   128
 43
0.0
 10
24.6904264356
 20
-90.263744134
 10
27.0616368538
 20
-91.7788747619
 10
29.1551582578
 20
-93.4247180899
 10
30.9495082847
 20
-95.1843855383
 10
32.4262744753
 20
-97.0398205379
 10
33.57030321
 20
-98.9719838147
 10
34.3698552059
 20
-100.9610487589
 10
34.8167259775
 20
-102.9866048726
 10
34.9063300261
 20
-105.027867209
 10
34.7590664243
 20
-106.4354890939
  0
LWPOLYLINE
  5
13B
330
127
100
AcDbEntity
  8
0
  6
Continuous
 62
     7
370
    25
100
AcDbPolyline
 90
       25
 70
   128
 43
0.0
 10
-34.8591624914
 20
-105.6823023057
 10
-34.9063300261
 20
-104.0065806338
 10
-34.6377478927
 20
-101.9705581886
 10
-34.0137355937
 20
-99.9606679799
 10
-33.0406963395
 20
-97.9975342013
 10
-31.7286148296
 20
-96.1013012617
 10
-30.0909547959
 20
-94.2914270772
 10
-28.1445208465
 20
-92.586483406
 10
-25.9092860275
 20
-91.0039652774
 10
-23.408186873
 20
-89.5601114688
 10
-20.6668880449
 20
-88.2697378742
 10
-17.7135189787
 20
-87.1460854728
 10
-14.5783852375
 20
-86.2006844587
 10
-11.2936575361
 20
-85.4432359259
 10
-7.8930416256
 20
-84.881512321
 10
-4.411432427
 20
-84.5212776886
 10
-0.8845559621
 20
-84.3662285233
 10
2.6513972439
 20
-84.4179558395
 10
6.1601435264
 20
-84.6759288449
 10
9.6056784002
 20
-85.1375003873
 10
12.9526460151
 20
-85.7979341181
 10
16.1667019541
 20
-86.6504530935
 10
19.2148656541
 20
-87.6863093153
 10
22.0658588306
 20
-88.8948734967
 10
24.6904264356
 20
-90.263744134
  0
LWPOLYLINE
  5
13C
330
127
100
AcDbEntity
  8
0
  6
Continuous
 62
     7
370
    25
100
AcDbPolyline
 90
       28
 70
   128
 43
0.0
 10
22.9858378715
 20
-113.1485062082
 10
22.9886508884
 20
-113.0996920808
 10
22.8979251859
 20
-111.4330978639
 10
22.4460855246
 20
-109.7862095474
 10
21.6402576859
 20
-108.1849995438
 10
20.4931500563
 20
-106.6547198915
 10
19.0228532083
 20
-105.2195040146
 10
17.2525546015
 20
-103.901986125
 10
15.2101729024
 20
-102.7229442667
 10
12.9279176906
 20
-101.7009726343
 10
10.441781494
 20
-100.8521883308
 10
7.7909721656
 20
-100.1899771918
 10
5.0172945521
 20
-99.7247826825
 10
2.1644912063
 20
-99.4639411982
 10
-0.7224474588
 20
-99.4115663649
 10
-3.5979926959
 20
-99.5684841651
 10
-6.4167954389
 20
-99.9322199113
 10
-9.1344014846
 20
-100.4970372735
 10
-11.7079525623
 20
-101.2540287445
 10
-14.096862234
 20
-102.1912561166
 10
-16.2634559673
 20
-103.2939387543
 10
-18.1735652846
 20
-104.5446866936
 10
-19.7970666211
 20
-105.9237748924
 10
-21.1083563907
 20
-107.4094543059
 10
-22.0867547706
 20
-108.9782948824
 10
-22.7168318337
 20
-110.6055550687
 10
-22.9886508884
 20
-112.2655719996
 10
-23.0
 20
-112.6826320402
  0
LWPOLYLINE
  5
13D
330
127
100
AcDbEntity
  8
0
  6
Continuous
 62
     7
370
    25
100
AcDbPolyline
 90
       24
 70
   128
 43
0.0
 10
-22.6154679411
 20
-112.7144862979
 10
-22.0867547706
 20
-111.427917318
 10
-21.1083563907
 20
-109.8590767416
 10
-19.7970666211
 20
-108.373397328
 10
-18.1735652846
 20
-106.9943091292
 10
-16.2634559673
 20
-105.7435611899
 10
-14.096862234
 20
-104.6408785523
 10
-11.7079525623
 20
-103.7036511802
 10
-9.1344014846
 20
-102.9466597092
 10
-6.4167954389
 20
-102.381842347
 10
-3.5979926959
 20
-102.0181066008
 10
-0.7224474588
 20
-101.8611888006
 10
2.1644912063
 20
-101.9135636338
 10
5.0172945521
 20
-102.1744051181
 10
7.7909721656
 20
-102.6395996274
 10
10.441781494
 20
-103.3018107664
 10
12.9279176906
 20
-104.1505950699
 10
15.2101729024
 20
-105.1725667024
 10
17.2525546015
 20
-106.3516085606
 10
19.0228532083
 20
-107.6691264503
 10
20.4931500563
 20
-109.1043423271
 10
21.6402576859
 20
-110.6346219795
 10
22.4460855246
 20
-112.235831983
 10
22.7840147835
 20
-113.3169007413
  0
LINE
  5
142
330
127
100
AcDbEntity
  8
0
  6
Continuous
 62
     7
370
    25
100
AcDbLine
 10
-7.0710678119
 20
-75.9429400076
 30
0.0
 11
-46.5094424517
 21
-98.7102290718
 31
0.0
  0
LINE
  5
143
330
127
100
AcDbEntity
  8
0
  6
Continuous
 62
     7
370
    25
100
AcDbLine
 10
46.9864642925
 20
-98.9856079189
 30
0.0
 11
7.0710678119
 21
-75.9429400076
 31
0.0
  0
LINE
  5
144
330
127
100
AcDbEntity
  8
0
  6
Continuous
 62
     7
370
    25
100
AcDbLine
 10
7.0710678119
 20
-64.2888586814
 30
0.0
 11
7.0710678119
 21
-75.9429400076
 31
0.0
  0
LINE
  5
145
330
127
100
AcDbEntity
  8
0
  6
Continuous
 62
     7
370
    25
100
AcDbLine
 10
-7.0710678119
 20
-64.7825193954
 30
0.0
 11
-7.0710678119
 21
-75.9429400076
 31
0.0
  0
LINE
  5
146
330
127
100
AcDbEntity
  8
0
  6
Continuous
 62
     8
370
    25
100
AcDbLine
 10
-49.4974746831
 20
-89.2747627501
 30
0.0
 11
-49.4974746831
 21
-96.9451713829
 31
0.0
  0
LINE
  5
147
330
127
100
AcDbEntity
  8
0
  6
Continuous
 62
     8
370
    25
100
AcDbLine
 10
49.4974746831
 20
-88.7811044981
 30
0.0
 11
49.4974746831
 21
-97.4388438683
 31
0.0
  0
ARC
  5
148
330
127
100
AcDbEntity
  8
0
  6
Continuous
 62
     7
370
    25
100
AcDbCircle
 10
0.0
 20
-89.5900508571
 30
0.0
 40
15.37021907911712
100
AcDbArc
 50
62.6096722366
 51
117.3903277634
  0
VIEWPORT
  5
18D
330
127
100
AcDbEntity
  8
0
100
AcDbViewport
 10
0.0
 20
0.0
 30
0.0
 40
205.6
 41
156.0
 68
     1
 69
     1
 12
0.0
 22
-22.6961034758
 13
0.0
 23
0.0
 14
10.0
 24
10.0
 15
10.0
 25
10.0
 16
0.0
 26
0.0
 36
1.0
 17
0.0
 27
0.0
 37
0.0
 42
50.0
 43
0.0
 44
0.0
 45
399.6151273282
 50
0.0
 51
0.0
 72
   100
 90
   557152
  1

281
     0
 71
     1
 74
     0
110
0.0
120
0.0
130
0.0
111
1.0
121
0.0
131
0.0
112
0.0
122
1.0
132
0.0
 79
     0
146
0.0
170
     0
 61
     5
348
2F
292
     1
282
     1
141
0.0
142
0.0
 63
   256
361
18E
  0
ENDBLK
  5
12A
330
127
100
AcDbEntity
  8
0
100
AcDbBlockEnd
  0
BLOCK
  5
14B
330
149
100
AcDbEntity
  8
0
100
AcDbBlockBegin
  2
*Paper_Space7
 70
     0
 10
0.0
 20
0.0
 30
0.0
  3
*Paper_Space7
  1

  0
SPLINE
  5
14D
330
149
100
AcDbEntity
  8
0
  6
Continuous
 62
     7
370
    25
100
AcDbSpline
210
0.0
220
0.0
230
1.0
 70
     8
 71
     3
 72
   149
 73
   145
 74
     0
 42
0.000000001
 43
0.00000001
 40
0.0
 40
0.0
 40
0.0
 40
0.0
 40
0.0063119674084808
 40
0.0114088966069588
 40
0.0152895385073472
 40
0.0183550580604963
 40
0.0209468172283375
 40
0.0250142066762906
 40
0.0310963753816972
 40
0.0379444220237433
 40
0.0433776052536165
 40
0.0477943703786495
 40
0.0509797678888392
 40
0.0544699026310807
 40
0.0591388944739173
 40
0.0640820527017842
 40
0.0678165213515811
 40
0.0712119725543204
 40
0.0756586164584277
 40
0.080686244003037
 40
0.0852360280332379
 40
0.0892690724944955
 40
0.0927732234463581
 40
0.0964098391414116
 40
0.1010961337951752
 40
0.1074769451426997
 40
0.1132037329446263
 40
0.1178812385384969
 40
0.1223987005957448
 40
0.128569053400219
 40
0.1350259161244637
 40
0.140550505267701
 40
0.1452074887370488
 40
0.1506518573734877
 40
0.1572406214317408
 40
0.1639977630915001
 40
0.1694518428086733
 40
0.1738152622833889
 40
0.1781029510862691
 40
0.1831197742438032
 40
0.1896097865070072
 40
0.1972317118074502
 40
0.2041245245648294
 40
0.2095447480360388
 40
0.2146750632582243
 40
0.21998722063436
 40
0.2247042009531569
 40
0.2290328074936046
 40
0.2329394303049098
 40
0.238822915262669
 40
0.2461728971244584
 40
0.2546547280696639
 40
0.2623533326973176
 40
0.2693289362080105
 40
0.2752098161570977
 40
0.2805816326904672
 40
0.2912302632039209
 40
0.30327936216265
 40
0.3158747855022591
 40
0.3316743779391295
 40
0.3461822947780816
 40
0.360583768157294
 40
0.3768122675104225
 40
0.3886503244919319
 40
0.4012931241058124
 40
0.4147284281496768
 40
0.4289407137907161
 40
0.4434683229499971
 40
0.4571664483793419
 40
0.4721660447502693
 40
0.4859236864801469
 40
0.4984400335622956
 40
0.5097195150858718
 40
0.5211003802761083
 40
0.5334783750134301
 40
0.5470683936310327
 40
0.5618869487536879
 40
0.577117582370784
 40
0.5886715855324984
 40
0.5997865497590121
 40
0.6104256576389954
 40
0.6203985590179113
 40
0.6295355479183807
 40
0.6360649498311917
 40
0.6438588696733549
 40
0.6528783945846421
 40
0.66079845475873
 40
0.6686924990809342
 40
0.6776316819071262
 40
0.6857445858347424
 40
0.6922948848953678
 40
0.7014299598012447
 40
0.7104054710706381
 40
0.7168132966882245
 40
0.7246365650640139
 40
0.7339005401424917
 40
0.7424067109109441
 40
0.7498461657500622
 40
0.7535297160972543
 40
0.7572593158731904
 40
0.7610636792733335
 40
0.764598732517205
 40
0.7675100297130174
 40
0.770404168216655
 40
0.7780986522588068
 40
0.7864477664820434
 40
0.7938325761122736
 40
0.8010231146918028
 40
0.8095960749493586
 40
0.8189853755447493
 40
0.8284165409452289
 40
0.834981291555001
 40
0.8405825035296483
 40
0.846681970314606
 40
0.853824530768102
 40
0.8610200943017239
 40
0.8676178938061345
 40
0.873662469280041
 40
0.8771998101928554
 40
0.8810224005480882
 40
0.8861041578886052
 40
0.8913437678260213
 40
0.8954802351921881
 40
0.8988355437547175
 40
0.9019969334895629
 40
0.9054700068150242
 40
0.9101754225624532
 40
0.9172888525591071
 40
0.9220232903255154
 40
0.9264297535456297
 40
0.9318098886572724
 40
0.9374773999087458
 40
0.9440931680947269
 40
0.9495838795123683
 40
0.9536667006083999
 40
0.9580617360227143
 40
0.9630371133209643
 40
0.9683584766289657
 40
0.9729869712479481
 40
0.9767841426720165
 40
0.9808777407288315
 40
0.9860739323540193
 40
0.9924352584565264
 40
1.0
 40
1.0
 40
1.0
 40
1.0
 10
-273.0139758849731
 20
10.4469913408204
 30
0.0
 10
-272.8209403031983
 20
8.912297211748008
 30
0.0
 10
-272.4720280146187
 20
6.138333800852075
 30
0.0
 10
-271.8260202335163
 20
2.445944050914098
 30
0.0
 10
-271.2419222333177
 20
-0.4481759656517967
 30
0.0
 10
-270.7277846546229
 20
-2.729894338285278
 30
0.0
 10
-270.1629112171768
 20
-5.046916948326118
 30
0.0
 10
-269.3598967100436
 20
-8.068400161204803
 30
0.0
 10
-268.1635621874659
 20
-12.06605864947216
 30
0.0
 10
-266.7044650494933
 20
-16.3317200527678
 30
0.0
 10
-265.2383929328714
 20
-20.16073618426989
 30
0.0
 10
-264.0088575046839
 20
-23.11699225598526
 30
0.0
 10
-262.9083245745605
 20
-25.60918856584583
 30
0.0
 10
-261.7345123200993
 20
-28.13712839501302
 30
0.0
 10
-260.3121549520777
 20
-31.02572010780563
 30
0.0
 10
-258.7856776603224
 20
-33.92861651591178
 30
0.0
 10
-257.3432308787355
 20
-36.52098595812929
 30
0.0
 10
-255.9121742342247
 20
-38.98043653023799
 30
0.0
 10
-254.2642736638673
 20
-41.68121697640424
 30
0.0
 10
-252.3960587139846
 20
-44.57885512021848
 30
0.0
 10
-250.5141796097059
 20
-47.3456075524985
 30
0.0
 10
-248.790023800545
 20
-49.76572890999052
 30
0.0
 10
-247.1544102059269
 20
-51.97254785312285
 30
0.0
 10
-245.382584808027
 20
-54.27718531997768
 30
0.0
 10
-243.1222041317513
 20
-57.09726286038169
 30
0.0
 10
-240.4552193783603
 20
-60.24886555863293
 30
0.0
 10
-237.7022734016048
 20
-63.32354886924338
 30
0.0
 10
-235.185393309339
 20
-65.99144411773413
 30
0.0
 10
-232.5372797428273
 20
-68.67329316240634
 30
0.0
 10
-229.5011472357154
 20
-71.59086514015637
 30
0.0
 10
-226.1943945314377
 20
-74.57886207883242
 30
0.0
 10
-223.0853438008532
 20
-77.229991650794
 30
0.0
 10
-220.1060076272843
 20
-79.64900715998543
 30
0.0
 10
-216.8625287167559
 20
-82.1576941436744
 30
0.0
 10
-213.1340595850387
 20
-84.8795317803494
 30
0.0
 10
-209.3224596317993
 20
-87.48901645756169
 30
0.0
 10
-205.9012180503212
 20
-89.6970312653028
 30
0.0
 10
-202.9494783780935
 20
-91.51308247732753
 30
0.0
 10
-200.0566950862384
 20
-93.21876154854372
 30
0.0
 10
-196.6748027276098
 20
-95.12281778796539
 30
0.0
 10
-192.5243005134341
 20
-97.32812133621209
 30
0.0
 10
-187.8979952540369
 20
-99.614510523029
 30
0.0
 10
-183.4460557215985
 20
-101.6528192537376
 30
0.0
 10
-179.5085324618757
 20
-103.3390782615398
 30
0.0
 10
-175.8976068186317
 20
-104.7967559145143
 30
0.0
 10
-172.42010928376
 20
-106.1183690508246
 30
0.0
 10
-169.1051353471679
 20
-107.3045749626177
 30
0.0
 10
-166.0938916527695
 20
-108.3239548044576
 30
0.0
 10
-162.7786832726287
 20
-109.3849989729564
 30
0.0
 10
-158.803826097471
 20
-110.5819638147738
 30
0.0
 10
-153.8796735004953
 20
-111.9556214940473
 30
0.0
 10
-148.6620736022837
 20
-113.3697372240312
 30
0.0
 10
-143.5559030768584
 20
-114.7574384292196
 30
0.0
 10
-139.0719511451072
 20
-115.9714532912126
 30
0.0
 10
-135.1722080437314
 20
-117.027165651662
 30
0.0
 10
-130.5848936833444
 20
-118.2691613196821
 30
0.0
 10
-124.6521390468823
 20
-119.8757807776814
 30
0.0
 10
-117.1831518780302
 20
-121.8989717057104
 30
0.0
 10
-108.597472126059
 20
-124.225313534953
 30
0.0
 10
-99.46492560793286
 20
-126.7006203771199
 30
0.0
 10
-89.9140101804152
 20
-129.2902058888675
 30
0.0
 10
-80.2201846182097
 20
-131.9193879554096
 30
0.0
 10
-71.0456006901191
 20
-134.408642653629
 30
0.0
 10
-62.21906851791001
 20
-136.8045550519903
 30
0.0
 10
-53.97473345985027
 20
-139.0435443086724
 30
0.0
 10
-45.19137776852675
 20
-141.4306681153841
 30
0.0
 10
-35.97473130195156
 20
-143.9374206511087
 30
0.0
 10
-26.68079318894073
 20
-146.4667248678298
 30
0.0
 10
-17.19612631159576
 20
-149.0491859010565
 30
0.0
 10
-7.859776618120338
 20
-151.5922381355342
 30
0.0
 10
1.239419752942068
 20
-154.0714337877051
 30
0.0
 10
9.540703592260446
 20
-156.3337719528575
 30
0.0
 10
17.33986079432592
 20
-158.459631209761
 30
0.0
 10
25.13544086129333
 20
-160.5851528396209
 30
0.0
 10
33.35238159318993
 20
-162.8257370858691
 30
0.0
 10
42.25939944701469
 20
-165.255880637349
 30
0.0
 10
51.74326580796501
 20
-167.8261238403121
 30
0.0
 10
60.68334381719042
 20
-170.2824326052884
 30
0.0
 10
69.15340883753122
 20
-172.071940284842
 30
0.0
 10
76.87072683407904
 20
-173.190092867961
 30
0.0
 10
84.38675875147604
 20
-173.8678710472094
 30
0.0
 10
91.46883785385182
 20
-174.1462541977061
 30
0.0
 10
97.56964403453988
 20
-174.1050403029235
 30
0.0
 10
103.1818251250891
 20
-173.8557785886492
 30
0.0
 10
108.8374355128326
 20
-173.3827249660838
 30
0.0
 10
114.8531749573014
 20
-172.6770718529667
 30
0.0
 10
120.888243097126
 20
-171.7941136146109
 30
0.0
 10
126.8813968598319
 20
-170.7358147130657
 30
0.0
 10
132.8849794524435
 20
-169.4761464190192
 30
0.0
 10
138.5163152889079
 20
-168.0948974442285
 30
0.0
 10
144.1465767873621
 20
-166.5318744552881
 30
0.0
 10
149.9231806875835
 20
-164.7153399307668
 30
0.0
 10
155.5664024076014
 20
-162.6798035029589
 30
0.0
 10
160.8359115332841
 20
-160.553066307955
 30
0.0
 10
166.0904239478797
 20
-158.2073966742849
 30
0.0
 10
171.6888704448368
 20
-155.3936198739343
 30
0.0
 10
177.0599911526142
 20
-152.3425189274829
 30
0.0
 10
181.124883588031
 20
-149.765055355192
 30
0.0
 10
184.131384851068
 20
-147.7052348464112
 30
0.0
 10
186.3629105392194
 20
-146.0955820941736
 30
0.0
 10
188.5165027171169
 20
-144.457815352834
 30
0.0
 10
190.4643825594697
 20
-142.8992231129131
 30
0.0
 10
192.1206611991563
 20
-141.5036983936923
 30
0.0
 10
194.2833305526703
 20
-139.6586670848633
 30
0.0
 10
196.9736370808613
 20
-137.3249777558023
 30
0.0
 10
200.1442613982203
 20
-134.5222652477138
 30
0.0
 10
203.2676013004859
 20
-131.7062320423063
 30
0.0
 10
206.4157320254239
 20
-128.814625665516
 30
0.0
 10
209.82967906939
 20
-125.6145370151499
 30
0.0
 10
213.5194613836878
 20
-122.074515215266
 30
0.0
 10
216.9261493181716
 20
-118.724773820279
 30
0.0
 10
219.7933869782927
 20
-115.8479253689539
 30
0.0
 10
222.2051422219269
 20
-113.3920297592122
 30
0.0
 10
224.6812758167309
 20
-110.835284837535
 30
0.0
 10
227.3404828370788
 20
-108.0475274952139
 30
0.0
 10
230.0522092480924
 20
-105.1593119499728
 30
0.0
 10
232.559361369974
 20
-102.4497103831422
 30
0.0
 10
234.717694547822
 20
-100.0891978509846
 30
0.0
 10
236.7116020319602
 20
-97.87822047302053
 30
0.0
 10
238.6665620815612
 20
-95.68430976132817
 30
0.0
 10
240.8956781650071
 20
-93.05915791856442
 30
0.0
 10
243.1157280569851
 20
-90.30381562202064
 30
0.0
 10
245.0160660903136
 20
-87.82903938323564
 30
0.0
 10
246.5710495397257
 20
-85.72362647918925
 30
0.0
 10
247.9958597830327
 20
-83.72709285728672
 30
0.0
 10
249.5759027272077
 20
-81.43324517722428
 30
0.0
 10
251.6428722083417
 20
-78.29617381921504
 30
0.0
 10
253.7779348007008
 20
-74.83512186507454
 30
0.0
 10
255.7701530099845
 20
-71.3771587901986
 30
0.0
 10
257.4781265181013
 20
-68.24629241027384
 30
0.0
 10
259.2122031324672
 20
-64.86936009705735
 30
0.0
 10
261.0843483174791
 20
-60.95431572563782
 30
0.0
 10
262.8424415628523
 20
-56.95706896484209
 30
0.0
 10
264.3282797206065
 20
-53.2686209978101
 30
0.0
 10
265.5306064538502
 20
-50.05466196339273
 30
0.0
 10
266.6197075222758
 20
-46.93388936307155
 30
0.0
 10
267.7247337858332
 20
-43.4975035453306
 30
0.0
 10
268.7520170625858
 20
-39.97695483911238
 30
0.0
 10
269.6121595673405
 20
-36.7106571275071
 30
0.0
 10
270.3281917404022
 20
-33.71934876981484
 30
0.0
 10
271.0109847334836
 20
-30.57663302290425
 30
0.0
 10
271.7308297238219
 20
-26.79829591707688
 30
0.0
 10
272.4781570733701
 20
-22.15806385586893
 30
0.0
 10
272.8561023875581
 20
-18.75769077745714
 30
0.0
 10
273.0614050395399
 20
-16.91058331370765
 30
0.0
  0
SPLINE
  5
14E
330
149
100
AcDbEntity
  8
0
  6
Continuous
 62
     7
370
    25
100
AcDbSpline
210
0.0
220
0.0
230
1.0
 70
     8
 71
     3
 72
    43
 73
    39
 74
     0
 42
0.000000001
 43
0.00000001
 40
0.0
 40
0.0
 40
0.0
 40
0.0
 40
0.0356174365219632
 40
0.0759074995008625
 40
0.1208221238321422
 40
0.1699047323552181
 40
0.2179937101536047
 40
0.2538798778741285
 40
0.2881213754750794
 40
0.3207395689851529
 40
0.3517538997487141
 40
0.3804638622194619
 40
0.3939892742798299
 40
0.406298680883384
 40
0.4174039319768266
 40
0.4273156652204009
 40
0.437068591823664
 40
0.4495017226332914
 40
0.4678076518714731
 40
0.4900620691063011
 40
0.5150208679517738
 40
0.5373722099556724
 40
0.561190443953196
 40
0.5799178773413795
 40
0.5946034342528693
 40
0.6071683964607197
 40
0.6290157932912197
 40
0.6536423670166552
 40
0.6849963384859068
 40
0.7192779675317745
 40
0.7561647513565045
 40
0.7956194457332146
 40
0.8375755954198698
 40
0.8819464629045045
 40
0.9128764783393718
 40
0.9449249332573305
 40
0.9781414950054373
 40
1.0
 40
1.0
 40
1.0
 40
1.0
 10
245.1980463899952
 20
-51.19441727665613
 30
0.0
 10
244.091672523743
 20
-52.25740425753281
 30
0.0
 10
241.7337803815466
 20
-54.52283073398809
 30
0.0
 10
237.6054957651298
 20
-58.58193042472495
 30
0.0
 10
232.8069313257279
 20
-63.29273522389011
 30
0.0
 10
227.4667482695709
 20
-68.52149079220915
 30
0.0
 10
222.4848302574767
 20
-73.37604767909588
 30
0.0
 10
218.088748602915
 20
-77.64523805284097
 30
0.0
 10
214.2911922772839
 20
-81.32177514300729
 30
0.0
 10
210.7081823787206
 20
-84.7912703258413
 30
0.0
 10
207.3405589247512
 20
-88.02595581070022
 30
0.0
 10
204.7550437171251
 20
-90.5773629167247
 30
0.0
 10
202.7380830390553
 20
-92.39356517719521
 30
0.0
 10
201.3240355030286
 20
-93.57991996532398
 30
0.0
 10
200.0220057504998
 20
-94.61088882629039
 30
0.0
 10
198.8146464608235
 20
-95.51907229413574
 30
0.0
 10
197.5484580254346
 20
-96.42984452629926
 30
0.0
 10
195.8069433042435
 20
-97.6215308631084
 30
0.0
 10
193.3804233408366
 20
-99.1689696199858
 30
0.0
 10
190.1576130807128
 20
-101.0464811760658
 30
0.0
 10
186.4889916078981
 20
-102.9704948628194
 30
0.0
 10
182.6005310179943
 20
-104.8058178359163
 30
0.0
 10
178.9219761040257
 20
-106.3713599271782
 30
0.0
 10
175.732759697137
 20
-107.6104401232019
 30
0.0
 10
172.9886037760283
 20
-108.6098094991672
 30
0.0
 10
169.8002869140564
 20
-109.6991604005883
 30
0.0
 10
165.8614455722256
 20
-110.93691136567
 30
0.0
 10
160.4398102861415
 20
-112.4533533877982
 30
0.0
 10
153.9023981893183
 20
-114.0256331902445
 30
0.0
 10
146.2189770324461
 20
-115.5419250762833
 30
0.0
 10
137.6810614287049
 20
-116.8438509860037
 30
0.0
 10
128.3335435161702
 20
-117.8417548198659
 30
0.0
 10
118.231963180702
 20
-118.4536517912751
 30
0.0
 10
108.7354205140199
 20
-118.5701191435568
 30
0.0
 10
100.0500644147662
 20
-118.3153556186859
 30
0.0
 10
92.3163495553141
 20
-117.8007288864167
 30
0.0
 10
85.36174585677097
 20
-117.1289634053285
 30
0.0
 10
81.07467558901286
 20
-116.4775526736271
 30
0.0
 10
79.37319881554525
 20
-116.219017086209
 30
0.0
  0
SPLINE
  5
14F
330
149
100
AcDbEntity
  8
0
  6
Continuous
 62
     7
370
    25
100
AcDbSpline
210
0.0
220
0.0
230
1.0
 70
     8
 71
     3
 72
    60
 73
    56
 74
     0
 42
0.000000001
 43
0.00000001
 40
0.0
 40
0.0
 40
0.0
 40
0.0
 40
0.0108954957912904
 40
0.0390414928374669
 40
0.0668357669911422
 40
0.1309152477131112
 40
0.1929936210229519
 40
0.2368943573113918
 40
0.2797517097506797
 40
0.3215714711610695
 40
0.3623592224835495
 40
0.4021203590990182
 40
0.4408460624628517
 40
0.4775043445271078
 40
0.5087333616835837
 40
0.5376973192665447
 40
0.564401399655732
 40
0.5888500497466692
 40
0.611046979712382
 40
0.6323932547505461
 40
0.6452988698877058
 40
0.6587919147262875
 40
0.6728721686530873
 40
0.6875392937315925
 40
0.7027161911661128
 40
0.7166164861657472
 40
0.7239822441270742
 40
0.7306273223314438
 40
0.7383696681054918
 40
0.748527715281586
 40
0.7600297516399737
 40
0.7741759760659951
 40
0.7876886997526215
 40
0.7997699675891816
 40
0.8121824510361165
 40
0.8266947055199322
 40
0.8398892471289727
 40
0.8543365353321078
 40
0.8654653400210983
 40
0.8721827466266483
 40
0.8807721338465084
 40
0.8910397734748324
 40
0.9008270064012319
 40
0.9095611647131864
 40
0.9172299970769789
 40
0.9251085208467571
 40
0.9325217348124109
 40
0.9396807778992043
 40
0.9483999446545596
 40
0.9590839407890286
 40
0.9700705292491661
 40
0.979056660518064
 40
0.9865494592955338
 40
0.9942168608649766
 40
1.0
 40
1.0
 40
1.0
 40
1.0
 10
51.31491086537469
 20
-110.0309709705643
 30
0.0
 10
50.08462939338863
 20
-109.6906434402609
 30
0.0
 10
45.67619987382443
 20
-108.4711583345573
 30
0.0
 10
38.13182040786886
 20
-106.3853290986757
 30
0.0
 10
24.57933361014719
 20
-102.6397633395008
 30
0.0
 10
7.190421697849613
 20
-97.83917024159165
 30
0.0
 10
-12.02750675427992
 20
-92.54588336852377
 30
0.0
 10
-28.85483878499083
 20
-87.92326918048713
 30
0.0
 10
-43.3976541325065
 20
-83.93834511811365
 30
0.0
 10
-57.59443914436702
 20
-80.0591823381616
 30
0.0
 10
-71.44696020840227
 20
-76.28552623626595
 30
0.0
 10
-84.95585322950072
 20
-72.61740443968775
 30
0.0
 10
-98.00220781276751
 20
-69.0853203861293
 30
0.0
 10
-110.0921110598809
 20
-65.8204123885027
 30
0.0
 10
-121.0877913228681
 20
-62.85691810091491
 30
0.0
 10
-130.9651939934705
 20
-60.19883659817641
 30
0.0
 10
-140.0848565293381
 20
-57.74753937291479
 30
0.0
 10
-148.4471560258151
 20
-55.50174929282564
 30
0.0
 10
-156.2157049116928
 20
-53.41677366792659
 30
0.0
 10
-162.6740493246633
 20
-51.68408224259816
 30
0.0
 10
-168.1242804942833
 20
-50.22154243335141
 30
0.0
 10
-172.7414244234369
 20
-48.98239977959214
 30
0.0
 10
-177.5550032543271
 20
-47.69030283734833
 30
0.0
 10
-182.5565298044944
 20
-46.34748694919913
 30
0.0
 10
-187.5335482432071
 20
-45.01096357359087
 30
0.0
 10
-191.678124708478
 20
-43.89775232679743
 30
0.0
 10
-194.8507566434108
 20
-43.04547099803379
 30
0.0
 10
-197.3229542258237
 20
-42.381277501892
 30
0.0
 10
-200.1082451844861
 20
-41.63295596741252
 30
0.0
 10
-203.4457614013146
 20
-40.73609165097915
 30
0.0
 10
-207.4893087117945
 20
-39.6501836781105
 30
0.0
 10
-211.7953555660397
 20
-38.49677728369947
 30
0.0
 10
-215.942020045033
 20
-37.21735073899001
 30
0.0
 10
-219.1584731517131
 20
-36.10885948875727
 30
0.0
 10
-222.2307230401545
 20
-34.96396938308753
 30
0.0
 10
-225.5890222669102
 20
-33.58636973192439
 30
0.0
 10
-228.7785790262796
 20
-32.13630963066201
 30
0.0
 10
-231.5539231686595
 20
-30.74969771961785
 30
0.0
 10
-233.7366119285823
 20
-29.55541118631837
 30
0.0
 10
-235.4098471397665
 20
-28.58073501027959
 30
0.0
 10
-236.9424187468913
 20
-27.63887372667784
 30
0.0
 10
-238.5559090703501
 20
-26.57935040516371
 30
0.0
 10
-240.0693241208498
 20
-25.51210094542974
 30
0.0
 10
-241.353969166686
 20
-24.54299650865565
 30
0.0
 10
-242.465159303719
 20
-23.65200141669496
 30
0.0
 10
-243.4457079657175
 20
-22.81810587353016
 30
0.0
 10
-244.3418410055177
 20
-22.00987120514189
 30
0.0
 10
-245.2092858677009
 20
-21.18046399354248
 30
0.0
 10
-246.0877092622679
 20
-20.28416116019164
 30
0.0
 10
-246.9849498772542
 20
-19.29155361921068
 30
0.0
 10
-247.7813832727778
 20
-18.32191782510144
 30
0.0
 10
-248.4039870667491
 20
-17.48409502763742
 30
0.0
 10
-248.8518338238982
 20
-16.83217956253772
 30
0.0
 10
-249.2478140656261
 20
-16.19765990415599
 30
0.0
 10
-249.3767852668238
 20
-15.97388557106073
 30
0.0
 10
-249.4322371938002
 20
-15.87767247958946
 30
0.0
  0
SPLINE
  5
150
330
149
100
AcDbEntity
  8
0
  6
Continuous
 62
     7
370
    25
100
AcDbSpline
210
0.0
220
0.0
230
1.0
 70
     8
 71
     3
 72
    17
 73
    13
 74
     0
 42
0.000000001
 43
0.00000001
 40
0.0
 40
0.0
 40
0.0
 40
0.0
 40
0.0349859563522204
 40
0.0982066437669328
 40
0.2518185323025471
 40
0.3843614471980774
 40
0.4293675338515034
 40
0.4957370649084811
 40
0.5855237624480509
 40
0.6991735544298588
 40
0.837141205025901
 40
1.0
 40
1.0
 40
1.0
 40
1.0
 10
251.0011319180439
 20
-44.40900732405484
 30
0.0
 10
251.0013462675427
 20
-44.41063863368522
 30
0.0
 10
251.0019479531066
 20
-44.41521776944282
 30
0.0
 10
250.8579652108437
 20
-44.74010469855592
 30
0.0
 10
250.72590787121
 20
-44.97847621610039
 30
0.0
 10
250.5362534924678
 20
-45.29635164888484
 30
0.0
 10
250.2995380067045
 20
-45.65072425294452
 30
0.0
 10
249.9062786066606
 20
-46.20514107340808
 30
0.0
 10
249.2731207257743
 20
-47.02041652389025
 30
0.0
 10
248.3073192464358
 20
-48.14949778092633
 30
0.0
 10
246.944946747196
 20
-49.56583419771118
 30
0.0
 10
245.8116050333103
 20
-50.62241486087755
 30
0.0
 10
245.1980463899953
 20
-51.19441727665613
 30
0.0
  0
LWPOLYLINE
  5
151
330
149
100
AcDbEntity
  8
0
  6
Continuous
 62
     7
370
    25
100
AcDbPolyline
 90
       95
 70
   128
 43
0.0
 10
-77.0047391735
 20
-75.1589861227
 10
18.4579163278
 20
-101.1036903707
 10
29.1731123535
 20
-104.0158510516
 10
39.8883083791
 20
-106.9280117325
 10
50.6035044048
 20
-109.8401724134
 10
61.3431979013
 20
-112.720548313
 10
72.4152259198
 20
-115.1278039026
 10
83.830391366
 20
-116.9180349389
 10
95.5000654977
 20
-118.0853242514
 10
106.0406377571
 20
-118.5955161005
 10
116.6529991735
 20
-118.6019407358
 10
127.2662279029
 20
-118.101727567
 10
137.7776163397
 20
-117.0970673756
 10
148.0747654022
 20
-115.5917696377
 10
157.8748660747
 20
-113.6376516695
 10
167.270615987
 20
-111.238662996
 10
176.1701185693
 20
-108.4228551193
 10
184.503086775
 20
-105.2148385724
 10
192.3634700557
 20
-101.566084666
 10
199.5533244092
 20
-97.5520541048
 10
206.0235158548
 20
-93.1947344396
 10
211.7174260519
 20
-88.5173049853
 10
216.7919273862
 20
-83.6134455946
 10
236.5818475487
 20
-64.2978768279
 10
242.8786403277
 20
-58.1520140386
 10
249.1754331067
 20
-52.0061512492
 10
255.4722258857
 20
-45.8602884598
 10
261.7051119021
 20
-39.701365625
 10
265.8538238097
 20
-34.7206732988
 10
269.0847389067
 20
-29.597813079
 10
271.3929186116
 20
-24.3679595285
 10
272.7711516837
 20
-19.0625012389
 10
273.2091614843
 20
-13.6114054998
 10
272.6639069749
 20
-8.1407624104
 10
271.1359411068
 20
-2.6973054206
 10
268.6325809607
 20
2.660963809
 10
265.1658796117
 20
7.8765587019
 10
260.865919944
 20
12.8094344251
 10
255.7335513697
 20
17.506904577
 10
249.8201035631
 20
21.9268618435
 10
243.1675945176
 20
26.0427110294
 10
234.7297995177
 20
30.3365750746
 10
225.4407882353
 20
34.172724287
 10
215.3596636329
 20
37.5170633549
 10
204.7064971898
 20
40.4523846116
 10
194.0146797736
 20
43.3581914873
 10
152.011111353
 20
54.7738613564
 10
77.0047391735
 20
75.1589861227
 10
-18.4579163278
 20
101.1036903707
 10
-29.1731123535
 20
104.0158510516
 10
-39.8883083791
 20
106.9280117325
 10
-50.6035044048
 20
109.8401724134
 10
-61.3431979013
 20
112.720548313
 10
-72.4152259198
 20
115.1278039026
 10
-83.830391366
 20
116.9180349389
 10
-95.5000654977
 20
118.0853242514
 10
-106.0406377571
 20
118.5955161005
 10
-116.6529991735
 20
118.6019407358
 10
-127.2662279029
 20
118.101727567
 10
-137.7776163397
 20
117.0970673756
 10
-148.0747654022
 20
115.5917696377
 10
-157.8748660747
 20
113.6376516695
 10
-167.270615987
 20
111.238662996
 10
-176.1701185693
 20
108.4228551193
 10
-184.503086775
 20
105.2148385724
 10
-192.3634700557
 20
101.566084666
 10
-199.5533244092
 20
97.5520541048
 10
-206.0235158548
 20
93.1947344396
 10
-211.7174260519
 20
88.5173049853
 10
-216.7919273862
 20
83.6134455946
 10
-236.5818475487
 20
64.2978768279
 10
-242.8786403277
 20
58.1520140386
 10
-249.1754331067
 20
52.0061512492
 10
-255.4722258857
 20
45.8602884598
 10
-261.7051119021
 20
39.701365625
 10
-265.8538238097
 20
34.7206732988
 10
-269.0847389067
 20
29.597813079
 10
-271.3929186116
 20
24.3679595285
 10
-272.7711516837
 20
19.0625012389
 10
-273.2091614843
 20
13.6114054998
 10
-272.6639069749
 20
8.1407624104
 10
-271.1359411068
 20
2.6973054206
 10
-268.6325809607
 20
-2.660963809
 10
-265.1658796117
 20
-7.8765587019
 10
-260.865919944
 20
-12.8094344251
 10
-255.7335513698
 20
-17.506904577
 10
-249.8201035631
 20
-21.9268618435
 10
-243.1675945176
 20
-26.0427110294
 10
-234.7297995177
 20
-30.3365750746
 10
-225.4407882353
 20
-34.172724287
 10
-215.3596636329
 20
-37.5170633549
 10
-204.7064971898
 20
-40.4523846116
 10
-194.0146797736
 20
-43.3581914873
 10
-152.011111353
 20
-54.7738613564
 10
-77.0047391735
 20
-75.1589861227
  0
SPLINE
  5
152
330
149
100
AcDbEntity
  8
0
  6
Continuous
 62
     7
370
    25
100
AcDbSpline
210
0.0
220
0.0
230
1.0
 70
     8
 71
     3
 72
    11
 73
     7
 74
     0
 42
0.000000001
 43
0.00000001
 40
0.0
 40
0.0
 40
0.0
 40
0.0
 40
0.0582301560643608
 40
0.3336136715946308
 40
0.6089993487451447
 40
1.0
 40
1.0
 40
1.0
 40
1.0
 10
37.30219810999976
 20
-106.1562090349917
 30
0.0
 10
37.53664197780573
 20
-105.9270544478379
 30
0.0
 10
38.87982366935307
 20
-104.6141762357544
 30
0.0
 10
41.33167611295719
 20
-102.1900104382542
 30
0.0
 10
45.12334118156161
 20
-98.40634214005324
 30
0.0
 10
47.80445131034674
 20
-95.59854695095211
 30
0.0
 10
49.3775865349987
 20
-93.95107955744197
 30
0.0
  0
SPLINE
  5
153
330
149
100
AcDbEntity
  8
0
  6
Continuous
 62
     7
370
    25
100
AcDbSpline
210
0.0
220
0.0
230
1.0
 70
     8
 71
     3
 72
    27
 73
    23
 74
     0
 42
0.000000001
 43
0.00000001
 40
0.0
 40
0.0
 40
0.0
 40
0.0
 40
0.1249999999999996
 40
0.1249999999999996
 40
0.1875000000000001
 40
0.1875000000000001
 40
0.2500000000000007
 40
0.2500000000000007
 40
0.3750000000000012
 40
0.3750000000000012
 40
0.5000000000000017
 40
0.5000000000000017
 40
0.6250000000000021
 40
0.6250000000000021
 40
0.6875000000000018
 40
0.6875000000000018
 40
0.7500000000000014
 40
0.8125000000000012
 40
0.8125000000000012
 40
0.8750000000000009
 40
0.8750000000000009
 40
1.0
 40
1.0
 40
1.0
 40
1.0
 10
49.3775865349987
 20
-93.95107955744197
 30
0.0
 10
49.68564532012124
 20
-93.62195534069856
 30
0.0
 10
49.93130232510202
 20
-93.28184375641425
 30
0.0
 10
50.21004778866052
 20
-92.75535641476645
 30
0.0
 10
50.28789541458082
 20
-92.57712204023258
 30
0.0
 10
50.41277989160804
 20
-92.2149758183375
 30
0.0
 10
50.45975105120072
 20
-92.03046592162586
 30
0.0
 10
50.55099156536797
 20
-91.48009258795008
 30
0.0
 10
50.54771380511087
 20
-91.11377145782865
 30
0.0
 10
50.41420092989099
 20
-90.38198530865215
 30
0.0
 10
50.28148639813096
 20
-90.01370939707854
 30
0.0
 10
49.89739286098873
 20
-89.31280358927752
 30
0.0
 10
49.64611373666298
 20
-88.97650073423146
 30
0.0
 10
49.17815853314439
 20
-88.49501832982894
 30
0.0
 10
49.00665316928361
 20
-88.3384333353546
 30
0.0
 10
48.64055840397984
 20
-88.04016112522912
 30
0.0
 10
48.24970643088763
 20
-87.75492219557515
 30
0.0
 10
47.81009100825635
 20
-87.49569891644015
 30
0.0
 10
47.34576212149563
 20
-87.2498075721967
 30
0.0
 10
47.10015738506325
 20
-87.13308185320395
 30
0.0
 10
46.33278413335554
 20
-86.80730090470166
 30
0.0
 10
45.78485758766556
 20
-86.62370309819931
 30
0.0
 10
45.2003592075251
 20
-86.47411062615605
 30
0.0
  0
SPLINE
  5
154
330
149
100
AcDbEntity
  8
0
  6
Continuous
 62
     7
370
    25
100
AcDbSpline
210
0.0
220
0.0
230
1.0
 70
     8
 71
     3
 72
    10
 73
     6
 74
     0
 42
0.000000001
 43
0.00000001
 40
0.0
 40
0.0
 40
0.0
 40
0.0
 40
0.5
 40
0.5
 40
1.0
 40
1.0
 40
1.0
 40
1.0
 10
45.20035920752507
 20
-86.47411062615606
 30
0.0
 10
36.35685930101318
 20
-84.21076643654172
 30
0.0
 10
27.51290262762634
 20
-81.89806812262817
 30
0.0
 10
9.823305163772051
 20
-77.09041185714288
 30
0.0
 10
0.978861067479117
 20
-74.5957801388216
 30
0.0
 10
-7.8647280931201
 20
-72.05215436058907
 30
0.0
  0
SPLINE
  5
155
330
149
100
AcDbEntity
  8
0
  6
Continuous
 62
     7
370
    25
100
AcDbSpline
210
0.0
220
0.0
230
1.0
 70
     8
 71
     3
 72
    29
 73
    25
 74
     0
 42
0.000000001
 43
0.00000001
 40
0.0
 40
0.0
 40
0.0
 40
0.0
 40
0.124999999999999
 40
0.124999999999999
 40
0.1874999999999977
 40
0.1874999999999977
 40
0.2499999999999964
 40
0.2499999999999964
 40
0.3749999999999951
 40
0.3749999999999951
 40
0.4374999999999944
 40
0.4374999999999944
 40
0.4999999999999937
 40
0.4999999999999937
 40
0.6249999999999941
 40
0.6249999999999941
 40
0.6874999999999949
 40
0.6874999999999949
 40
0.7499999999999958
 40
0.8124999999999966
 40
0.8124999999999966
 40
0.8749999999999974
 40
0.8749999999999974
 40
1.0
 40
1.0
 40
1.0
 40
1.0
 10
-7.86472809312009
 20
-72.05215436058906
 30
0.0
 10
-8.449193668906902
 20
-71.88404821295337
 30
0.0
 10
-9.05419686065589
 20
-71.75434813832271
 30
0.0
 10
-9.991259560373951
 20
-71.61477846526354
 30
0.0
 10
-10.30857675009935
 20
-71.57748167214997
 30
0.0
 10
-10.95336597463237
 20
-71.52165086145143
 30
0.0
 10
-11.28170963887974
 20
-71.5032022432049
 30
0.0
 10
-12.26061748763265
 20
-71.47719726657972
 30
0.0
 10
-12.91186827662749
 20
-71.49790478222644
 30
0.0
 10
-13.88677591920972
 20
-71.58438996343581
 30
0.0
 10
-14.21274093452706
 20
-71.62272242153696
 30
0.0
 10
-14.85784100953649
 20
-71.71758072628914
 30
0.0
 10
-15.17465955277628
 20
-71.7736784713777
 30
0.0
 10
-16.10846911204476
 20
-71.96686971643965
 30
0.0
 10
-16.7089832605835
 20
-72.12848729125858
 30
0.0
 10
-17.57610107454783
 20
-72.41750094209642
 30
0.0
 10
-17.85866585010142
 20
-72.5216846851222
 30
0.0
 10
-18.40020632095385
 20
-72.74152320204547
 30
0.0
 10
-18.92130861979408
 20
-72.97383906358252
 30
0.0
 10
-19.40209222658578
 20
-73.23086318092656
 30
0.0
 10
-19.86241273473773
 20
-73.5004909765137
 30
0.0
 10
-20.08327454173614
 20
-73.64229468587646
 30
0.0
 10
-20.70598542139634
 20
-74.0818825184744
 30
0.0
 10
-21.0678221952361
 20
-74.39270276304589
 30
0.0
 10
-21.37586319919504
 20
-74.72180798272825
 30
0.0
  0
SPLINE
  5
156
330
149
100
AcDbEntity
  8
0
  6
Continuous
 62
     7
370
    25
100
AcDbSpline
210
0.0
220
0.0
230
1.0
 70
     8
 71
     3
 72
    10
 73
     6
 74
     0
 42
0.000000001
 43
0.00000001
 40
0.0
 40
0.0
 40
0.0
 40
0.0
 40
0.3806449813429336
 40
0.7612516558331553
 40
0.9999999999999999
 40
0.9999999999999999
 40
0.9999999999999999
 40
0.9999999999999999
 10
-21.37586319919502
 20
-74.72180798272825
 30
0.0
 10
-22.88129921245957
 20
-76.29829694852799
 30
0.0
 10
-25.89201973688446
 20
-79.45111622748895
 30
0.0
 10
-29.84993479842142
 20
-83.39234900999352
 30
0.0
 10
-32.3011551249468
 20
-85.79541816315492
 30
0.0
 10
-33.2460490492989
 20
-86.721750822055
 30
0.0
  0
LWPOLYLINE
  5
158
330
149
100
AcDbEntity
  8
0
  6
Continuous
 62
     7
370
    25
100
AcDbPolyline
 90
        9
 70
   128
 43
0.0
 10
-7.8647280931
 20
-84.2860773772
 10
-9.679816465
 20
-83.9046715576
 10
-11.6045004294
 20
-83.7129725066
 10
-13.5648154609
 20
-83.7183471112
 10
-15.4854277522
 20
-83.9205888282
 10
-17.2925292501
 20
-84.3119256221
 10
-18.9166740574
 20
-84.8773186391
 10
-20.2954472
 20
-85.5950401429
 10
-21.3758631992
 20
-86.4375084984
  0
LWPOLYLINE
  5
15A
330
149
100
AcDbEntity
  8
0
  6
Continuous
 62
     7
370
    25
100
AcDbPolyline
 90
       10
 70
   128
 43
0.0
 10
16.2958530094
 20
-93.8121623802
 10
19.3364941822
 20
-94.7428712701
 10
22.1787167583
 20
-95.8272392372
 10
24.7933556877
 20
-97.0541391988
 10
27.1535812371
 20
-98.4109815011
 10
29.2351742983
 20
-99.8838431058
 10
31.0167749097
 20
-101.4576104599
 10
32.4801014381
 20
-103.1161345807
 10
33.6101381732
 20
-104.8423967663
 10
33.7725499875
 20
-105.1498315475
  0
LINE
  5
15F
330
149
100
AcDbEntity
  8
0
  6
Continuous
 62
     7
370
    25
100
AcDbLine
 10
-21.3758631992
 20
-86.4375084984
 30
0.0
 11
-24.2077609314
 21
-89.2015275009
 31
0.0
  0
LINE
  5
160
330
149
100
AcDbEntity
  8
0
  6
Continuous
 62
     7
370
    25
100
AcDbLine
 10
44.8775360434
 20
-98.6202946395
 30
0.0
 11
-7.8647280931
 21
-84.2860773772
 31
0.0
  0
LINE
  5
161
330
149
100
AcDbEntity
  8
0
  6
Continuous
 62
     7
370
    25
100
AcDbLine
 10
-21.3758631992
 20
-74.7218079827
 30
0.0
 11
-21.3758631992
 21
-86.4375084984
 31
0.0
  0
LINE
  5
162
330
149
100
AcDbEntity
  8
0
  6
Continuous
 62
     7
370
    25
100
AcDbLine
 10
-7.8647280931
 20
-72.0521543606
 30
0.0
 11
-7.8647280931
 21
-84.2860773772
 31
0.0
  0
LINE
  5
163
330
149
100
AcDbEntity
  8
0
  6
Continuous
 62
     8
370
    25
100
AcDbLine
 10
45.2003592075
 20
-86.4741106262
 30
0.0
 11
45.2003592075
 21
-98.2853360007
 31
0.0
  0
ARC
  5
164
330
149
100
AcDbEntity
  8
0
  6
Continuous
 62
     7
370
    25
100
AcDbCircle
 10
-0.0527755015
 20
-156.6213952688
 30
0.0
 40
64.90205998458504
100
AcDbArc
 50
75.410209882
 51
99.9546245129
  0
VIEWPORT
  5
18F
330
149
100
AcDbEntity
  8
0
100
AcDbViewport
 10
0.0
 20
0.0
 30
0.0
 40
205.6
 41
156.0
 68
     1
 69
     1
 12
0.0
 22
-22.6961034758
 13
0.0
 23
0.0
 14
10.0
 24
10.0
 15
10.0
 25
10.0
 16
0.0
 26
0.0
 36
1.0
 17
0.0
 27
0.0
 37
0.0
 42
50.0
 43
0.0
 44
0.0
 45
399.6151273282
 50
0.0
 51
0.0
 72
   100
 90
   557152
  1

281
     0
 71
     1
 74
     0
110
0.0
120
0.0
130
0.0
111
1.0
121
0.0
131
0.0
112
0.0
122
1.0
132
0.0
 79
     0
146
0.0
170
     0
 61
     5
348
2F
292
     1
282
     1
141
0.0
142
0.0
 63
   256
361
190
  0
ENDBLK
  5
14C
330
149
100
AcDbEntity
  8
0
100
AcDbBlockEnd
  0
BLOCK
  5
167
330
165
100
AcDbEntity
  8
0
100
AcDbBlockBegin
  2
*Paper_Space8
 70
     0
 10
0.0
 20
0.0
 30
0.0
  3
*Paper_Space8
  1

  0
SPLINE
  5
169
330
165
100
AcDbEntity
  8
0
  6
Continuous
 62
     7
370
    25
100
AcDbSpline
210
0.0
220
0.0
230
1.0
 70
     8
 71
     3
 72
    57
 73
    53
 74
     0
 42
0.000000001
 43
0.00000001
 40
0.0
 40
0.0
 40
0.0
 40
0.0
 40
0.0204246057167099
 40
0.0372267822590774
 40
0.0504249125485446
 40
0.0605571822141481
 40
0.0696927964838173
 40
0.0853433876681438
 40
0.0996939012002012
 40
0.115572496317525
 40
0.1343533131791575
 40
0.1542831421633371
 40
0.1742324711489545
 40
0.194055615551639
 40
0.2242046601551788
 40
0.2514737657310752
 40
0.2800120537940611
 40
0.3015629785563291
 40
0.324530883234833
 40
0.3475735815823281
 40
0.3637056823421856
 40
0.3817949947516122
 40
0.3961011087251871
 40
0.4097150490368373
 40
0.4266241968437392
 40
0.4490192311041908
 40
0.4643701601910741
 40
0.4759557893112789
 40
0.4873076038221583
 40
0.4992025348912554
 40
0.5122763396010598
 40
0.5274106451781609
 40
0.5537754865241193
 40
0.574391841405283
 40
0.5920693688121881
 40
0.6112501708880614
 40
0.6342037681165035
 40
0.6670767548860415
 40
0.6980174964560218
 40
0.7264423701015347
 40
0.7565268223725108
 40
0.7871293037515981
 40
0.8166449336919702
 40
0.8428112597681988
 40
0.8720519216116175
 40
0.9070283526715657
 40
0.9319754753210324
 40
0.9585013840365945
 40
0.970855237516737
 40
0.9834913225511955
 40
0.9960765828760318
 40
1.0
 40
1.0
 40
1.0
 40
1.0
 10
-275.2865272232983
 20
1.305283000739538
 30
0.0
 10
-275.1228266769338
 20
-0.3808028125699831
 30
0.0
 10
-274.8244588807705
 20
-3.453936772303712
 30
0.0
 10
-274.1996185510205
 20
-7.590483446809793
 30
0.0
 10
-273.6049145836526
 20
-10.86547097841792
 30
0.0
 10
-273.05552301159
 20
-13.50138798351826
 30
0.0
 10
-272.4065063689487
 20
-16.32444637801876
 30
0.0
 10
-271.5953200889244
 20
-19.46974293626479
 30
0.0
 10
-270.5272886999455
 20
-23.12853713930178
 30
0.0
 10
-269.2622520074022
 20
-27.00242439475073
 30
0.0
 10
-267.6990156321377
 20
-31.26478621258963
 30
0.0
 10
-265.8378260258362
 20
-35.77833982805721
 30
0.0
 10
-263.7582702294673
 20
-40.29601495244079
 30
0.0
 10
-261.1132841062046
 20
-45.48930104742742
 30
0.0
 10
-257.9105125529713
 20
-51.08041279545068
 30
0.0
 10
-254.0058633349751
 20
-57.09989998445896
 30
0.0
 10
-250.2093264700675
 20
-62.32795825396098
 30
0.0
 10
-246.4012573305279
 20
-67.09329317499984
 30
0.0
 10
-242.702777387347
 20
-71.35685178775589
 30
0.0
 10
-239.1544806801331
 20
-75.12665117691628
 30
0.0
 10
-235.7694450291466
 20
-78.48712511449759
 30
0.0
 10
-232.8154320264484
 20
-81.25356367571202
 30
0.0
 10
-229.9473418883431
 20
-83.7971782311884
 30
0.0
 10
-227.1014767811346
 20
-86.20670018365867
 30
0.0
 10
-223.6755733037303
 20
-88.96495545586377
 30
0.0
 10
-220.0585955442147
 20
-91.69590356237863
 30
0.0
 10
-216.7231508715693
 20
-94.06589488781562
 30
0.0
 10
-214.1057120255618
 20
-95.84722821604069
 30
0.0
 10
-211.7032707373285
 20
-97.4236939941528
 30
0.0
 10
-209.1741307057733
 20
-99.02333885742834
 30
0.0
 10
-206.3526477161831
 20
-100.7389776062163
 30
0.0
 10
-202.4483113840274
 20
-103.0102596749096
 30
0.0
 10
-197.9063323684159
 20
-105.4798521469867
 30
0.0
 10
-193.0739330832205
 20
-107.8790690771221
 30
0.0
 10
-188.7218456028401
 20
-109.8875489464554
 30
0.0
 10
-184.1421268818594
 20
-111.8525938610986
 30
0.0
 10
-178.3329544284627
 20
-114.1417405504868
 30
0.0
 10
-171.5199627363382
 20
-116.5300388541064
 30
0.0
 10
-164.1854025425131
 20
-118.7676307045724
 30
0.0
 10
-156.9971770051982
 20
-120.6798020377498
 30
0.0
 10
-149.7669546738962
 20
-122.3429884007219
 30
0.0
 10
-142.389456779371
 20
-123.7802811100142
 30
0.0
 10
-135.2614047393408
 20
-124.9382808647655
 30
0.0
 10
-128.2788891019946
 20
-125.8495651836839
 30
0.0
 10
-121.1438057155109
 20
-126.7742211075898
 30
0.0
 10
-113.8736755859249
 20
-127.6903728165569
 30
0.0
 10
-106.7789549354706
 20
-128.5562149889158
 30
0.0
 10
-101.499624842527
 20
-129.1759591533034
 30
0.0
 10
-97.22698180175904
 20
-129.6583250293237
 30
0.0
 10
-94.11350926410418
 20
-129.9993788011072
 30
0.0
 10
-91.67864137842462
 20
-130.2594111584905
 30
0.0
 10
-90.3298690454304
 20
-130.3977517769291
 30
0.0
 10
-90.00932268525018
 20
-130.4306295136833
 30
0.0
  0
SPLINE
  5
16A
330
165
100
AcDbEntity
  8
0
  6
Continuous
 62
     7
370
    25
100
AcDbSpline
210
0.0
220
0.0
230
1.0
 70
     8
 71
     3
 72
   138
 73
   134
 74
     0
 42
0.000000001
 43
0.00000001
 40
0.0
 40
0.0
 40
0.0
 40
0.0
 40
0.0008461427582775
 40
0.0040737802491086
 40
0.0070027708604929
 40
0.0118373899061446
 40
0.0180200811277548
 40
0.0258414035341432
 40
0.0347319703406575
 40
0.0429839740777497
 40
0.0487602819835176
 40
0.0536994154871333
 40
0.0642601462809654
 40
0.0762004438882796
 40
0.0882163431533912
 40
0.0988474422777936
 40
0.1080356916546682
 40
0.1166072275191917
 40
0.1265081250866503
 40
0.1377945688341943
 40
0.1539063960741984
 40
0.1717131712128526
 40
0.1898299408078052
 40
0.2081168254919274
 40
0.2265488588996768
 40
0.2415127693548804
 40
0.2565212747655379
 40
0.2700887232557468
 40
0.2812479522956474
 40
0.2873393147886661
 40
0.2923557803158429
 40
0.2963397281781335
 40
0.2993210527155714
 40
0.302703608480776
 40
0.3044499034174183
 40
0.3062794128018551
 40
0.308286448628302
 40
0.3104690278929784
 40
0.3109512356130081
 40
0.3113589456753639
 40
0.3117148948810383
 40
0.3120543130009923
 40
0.3124189733146096
 40
0.3137685856678417
 40
0.3159361369253654
 40
0.3195001243057717
 40
0.3241678389167889
 40
0.3290427755181632
 40
0.3334973427647686
 40
0.3404312699985466
 40
0.3462112456344147
 40
0.3526809226379862
 40
0.360304790209275
 40
0.3690490900741847
 40
0.3771475510516833
 40
0.3832543043212515
 40
0.3878947428329139
 40
0.3921031737936688
 40
0.398021440549433
 40
0.4056870498113254
 40
0.414854534775001
 40
0.4225937015353247
 40
0.4288848565255188
 40
0.4343101602933819
 40
0.4391612425343486
 40
0.4455230451954963
 40
0.4542749035032728
 40
0.4611954325746049
 40
0.4662998552462946
 40
0.4709923973819062
 40
0.4762360912244099
 40
0.4821765257214282
 40
0.4889130017938547
 40
0.495158483271381
 40
0.5000864826744644
 40
0.5055821871835284
 40
0.5128404827331633
 40
0.5208356509024545
 40
0.5277272863963713
 40
0.5335133858657225
 40
0.5384958031007854
 40
0.5429430761818075
 40
0.5485424737463072
 40
0.5559808404722716
 40
0.564295340661205
 40
0.5709652293697355
 40
0.5770974585712297
 40
0.5830544405219588
 40
0.5891319767456433
 40
0.5954912937679087
 40
0.6070787445713195
 40
0.6189665893039034
 40
0.6310039049763305
 40
0.6440871508642919
 40
0.649902410662533
 40
0.6545439646695934
 40
0.659744842620581
 40
0.6661807092832868
 40
0.673567484858774
 40
0.6803028733186272
 40
0.6861784502200212
 40
0.6913715787727736
 40
0.6971381159727963
 40
0.7093965383759816
 40
0.721179421200012
 40
0.7320608705535615
 40
0.7501706878207985
 40
0.7685724361084053
 40
0.7884227652187441
 40
0.7949048043173126
 40
0.8017312260076126
 40
0.8090214209009474
 40
0.8159120740550041
 40
0.8212861047967588
 40
0.8251493005299246
 40
0.8284419962037086
 40
0.8326411879111862
 40
0.8412668011202522
 40
0.85165802302734
 40
0.8634333322999416
 40
0.8749512145153272
 40
0.8857778460366942
 40
0.902171944039093
 40
0.9161195875240732
 40
0.9286698392268591
 40
0.9333351232842098
 40
0.9380841662471338
 40
0.9441581904588128
 40
0.9519180508458643
 40
0.9613699982271391
 40
0.9725235403710403
 40
0.9853930926131388
 40
1.0
 40
1.0
 40
1.0
 40
1.0
 10
-92.20066846748705
 20
-130.1745714086261
 30
0.0
 10
-92.22957106502527
 20
-130.1713032977791
 30
0.0
 10
-92.36872350691222
 20
-130.1555688779189
 30
0.0
 10
-91.7847244956623
 20
-130.2228563469874
 30
0.0
 10
-90.61385927441884
 20
-130.3595533064452
 30
0.0
 10
-88.77001531092185
 20
-130.5757620522895
 30
0.0
 10
-86.12683291614657
 20
-130.8876743041258
 30
0.0
 10
-82.83076933564237
 20
-131.278711845866
 30
0.0
 10
-79.11197086379588
 20
-131.722227743633
 30
0.0
 10
-75.67138113613053
 20
-132.1345081894384
 30
0.0
 10
-72.75998182580084
 20
-132.484566700332
 30
0.0
 10
-69.46129314645125
 20
-132.882046763185
 30
0.0
 10
-65.25452362888419
 20
-133.3909477103203
 30
0.0
 10
-60.00456418414001
 20
-134.0298142054661
 30
0.0
 10
-54.75920947063682
 20
-134.6717568361483
 30
0.0
 10
-49.90917147281839
 20
-135.2682748861292
 30
0.0
 10
-45.56724817271333
 20
-135.8047008708174
 30
0.0
 10
-41.30801597926773
 20
-136.3330625692085
 30
0.0
 10
-36.70471798129196
 20
-136.9066067273168
 30
0.0
 10
-30.91734107032635
 20
-137.6313392143954
 30
0.0
 10
-23.88508682186397
 20
-138.5179125824804
 30
0.0
 10
-15.77643511905526
 20
-139.5485155180827
 30
0.0
 10
-7.335971097301906
 20
-140.630358318168
 30
0.0
 10
1.199037601527373
 20
-141.7334011790753
 30
0.0
 10
9.238339787469611
 20
-142.7808976966639
 30
0.0
 10
16.7675446764762
 20
-143.7690788180576
 30
0.0
 10
23.52728506285757
 20
-144.6621286238492
 30
0.0
 10
29.72944868888078
 20
-145.4861591684351
 30
0.0
 10
34.59260799130121
 20
-146.1356862883132
 30
0.0
 10
38.14869277820437
 20
-146.6128503734572
 30
0.0
 10
40.57991635172416
 20
-146.9402536248626
 30
0.0
 10
42.54418147185979
 20
-147.2058345788379
 30
0.0
 10
44.22353350626781
 20
-147.4337092225569
 30
0.0
 10
45.40715387548497
 20
-147.5952515737122
 30
0.0
 10
46.16779128738816
 20
-147.7000491441134
 30
0.0
 10
46.50669540694655
 20
-147.7471587024638
 30
0.0
 10
46.63618099485818
 20
-147.7654837709356
 30
0.0
 10
46.52032329963465
 20
-147.7492208942803
 30
0.0
 10
46.50272831900885
 20
-147.74680932244
 30
0.0
 10
46.5389661613369
 20
-147.752031092262
 30
0.0
 10
46.61876290594776
 20
-147.7635042454222
 30
0.0
 10
46.7469753943312
 20
-147.7819504096761
 30
0.0
 10
47.06196473034002
 20
-147.8273116150112
 30
0.0
 10
47.71819412273589
 20
-147.9220223049127
 30
0.0
 10
48.83308755124044
 20
-148.0832628631183
 30
0.0
 10
50.31390052452568
 20
-148.2947658683607
 30
0.0
 10
51.98489295802326
 20
-148.5273040648008
 30
0.0
 10
53.720957287309
 20
-148.7651051129378
 30
0.0
 10
55.72553601356375
 20
-149.0350753416414
 30
0.0
 10
57.80690278257249
 20
-149.3098194552841
 30
0.0
 10
60.02615077433605
 20
-149.5967532335414
 30
0.0
 10
62.30842766576941
 20
-149.8866431585017
 30
0.0
 10
64.90009660170858
 20
-150.2092367337494
 30
0.0
 10
67.59652177509152
 20
-150.5359516578337
 30
0.0
 10
70.09563926346289
 20
-150.8269540438062
 30
0.0
 10
72.2039161458877
 20
-151.0607221676147
 30
0.0
 10
74.00998831968056
 20
-151.2497880539221
 30
0.0
 10
76.0883027152894
 20
-151.4456297563856
 30
0.0
 10
78.61849387838731
 20
-151.6512455653926
 30
0.0
 10
81.95564404535598
 20
-151.8696489731072
 30
0.0
 10
85.64450236641521
 20
-152.0393691401869
 30
0.0
 10
89.22792694240125
 20
-152.1358856195759
 30
0.0
 10
92.32647350939104
 20
-152.1700350406534
 30
0.0
 10
94.98455122363656
 20
-152.1631552911636
 30
0.0
 10
97.65127032397744
 20
-152.1244949177142
 30
0.0
 10
100.8541788264747
 20
-152.0363017191977
 30
0.0
 10
104.4126820575962
 20
-151.8745724074603
 30
0.0
 10
107.7876876605138
 20
-151.6557225484829
 30
0.0
 10
110.5067786184813
 20
-151.4369393877541
 30
0.0
 10
112.9640203771382
 20
-151.207846567604
 30
0.0
 10
115.5674822165532
 20
-150.9256771379048
 30
0.0
 10
118.5097552741433
 20
-150.5737221255602
 30
0.0
 10
121.608569496099
 20
-150.17132744622
 30
0.0
 10
124.5305452534357
 20
-149.758148818088
 30
0.0
 10
127.2438429963731
 20
-149.3469082473857
 30
0.0
 10
130.1170322233302
 20
-148.8830624599642
 30
0.0
 10
133.4763056862203
 20
-148.2987486890704
 30
0.0
 10
137.041372279088
 20
-147.6233647004514
 30
0.0
 10
140.3502897291221
 20
-146.9440597489349
 30
0.0
 10
143.1649687389478
 20
-146.3264405507173
 30
0.0
 10
145.5811002846031
 20
-145.7660149367312
 30
0.0
 10
147.9615042535378
 20
-145.1867503238006
 30
0.0
 10
150.7265767619678
 20
-144.4789436859128
 30
0.0
 10
154.0795399137493
 20
-143.5629974100432
 30
0.0
 10
157.5700763911882
 20
-142.5327970691467
 30
0.0
 10
160.8434132439614
 20
-141.4932793761227
 30
0.0
 10
163.7353845523535
 20
-140.5160007264882
 30
0.0
 10
166.522281145318
 20
-139.5176663858942
 30
0.0
 10
169.3284383987469
 20
-138.4525667292486
 30
0.0
 10
172.9712984927433
 20
-136.9849910931983
 30
0.0
 10
177.4483397578444
 20
-135.0213253093642
 30
0.0
 10
182.6888310714627
 20
-132.450224728741
 30
0.0
 10
188.040298713119
 20
-129.5051502465319
 30
0.0
 10
192.3795463601343
 20
-126.8125264538985
 30
0.0
 10
195.5738417607478
 20
-124.6383840043366
 30
0.0
 10
197.5303787376493
 20
-123.2357969327015
 30
0.0
 10
199.290412857321
 20
-121.9516438789628
 30
0.0
 10
201.1404769150068
 20
-120.5756978100758
 30
0.0
 10
202.9584567792369
 20
-119.1993512671959
 30
0.0
 10
204.7367710587852
 20
-117.8285499855731
 30
0.0
 10
206.3063264123937
 20
-116.5984953008566
 30
0.0
 10
207.7906830405038
 20
-115.4183533823039
 30
0.0
 10
209.8505957784249
 20
-113.7567897952684
 30
0.0
 10
212.4876025421837
 20
-111.5781067259543
 30
0.0
 10
215.5357706068961
 20
-108.9780553137795
 30
0.0
 10
219.0700880700481
 20
-105.870946500991
 30
0.0
 10
223.073310308166
 20
-102.2165343670938
 30
0.0
 10
227.7397757301197
 20
-97.76001240692992
 30
0.0
 10
231.2141600205231
 20
-94.29770607040035
 30
0.0
 10
233.9415144907961
 20
-91.50360055165199
 30
0.0
 10
235.8611056344698
 20
-89.50503841929641
 30
0.0
 10
237.9292990045482
 20
-87.3005371941784
 30
0.0
 10
239.8976283280457
 20
-85.15504148767572
 30
0.0
 10
241.5140689910252
 20
-83.33062131543096
 30
0.0
 10
242.7964517929848
 20
-81.82892228115057
 30
0.0
 10
243.9884297489472
 20
-80.396550690016
 30
0.0
 10
245.6448327681896
 20
-78.35302133692922
 30
0.0
 10
247.9730428676719
 20
-75.34802133082164
 30
0.0
 10
250.9322752975265
 20
-71.25804842100116
 30
0.0
 10
253.9997810013492
 20
-66.65669819372071
 30
0.0
 10
256.9171350126906
 20
-61.87170484031247
 30
0.0
 10
260.0182908385098
 20
-56.30796297565869
 30
0.0
 10
263.0342296336095
 20
-50.23053020009247
 30
0.0
 10
265.8282641567688
 20
-43.74816500295255
 30
0.0
 10
267.6341936872286
 20
-38.94812031687833
 30
0.0
 10
268.8019870074327
 20
-35.52761235745353
 30
0.0
 10
269.5846370428482
 20
-33.10184891526537
 30
0.0
 10
270.4673490064799
 20
-30.1718723747581
 30
0.0
 10
271.4812711710681
 20
-26.47334592851297
 30
0.0
 10
272.5762637677921
 20
-21.93164709282561
 30
0.0
 10
273.6608674614027
 20
-16.52725062212688
 30
0.0
 10
274.6587653844017
 20
-10.24397701982234
 30
0.0
 10
275.0736688821416
 20
-5.741867291045658
 30
0.0
 10
275.2942379455438
 20
-3.348476703547404
 30
0.0
  0
SPLINE
  5
16C
330
165
100
AcDbEntity
  8
0
  6
Continuous
 62
     7
370
    25
100
AcDbSpline
210
0.0
220
0.0
230
1.0
 70
     8
 71
     3
 72
    20
 73
    16
 74
     0
 42
0.000000001
 43
0.00000001
 40
0.0
 40
0.0
 40
0.0
 40
0.0
 40
0.0200900253156212
 40
0.1445435728701858
 40
0.2424884842896664
 40
0.3128956619248572
 40
0.3748933508366089
 40
0.4422403619723929
 40
0.5223897144394963
 40
0.6286674520762522
 40
0.7411983019365678
 40
0.8349272919296377
 40
0.9192586198464157
 40
0.9967206223522396
 40
1.0
 40
1.0
 40
1.0
 40
1.0
 10
-246.4857664034723
 20
-22.95047356310881
 30
0.0
 10
-246.6209298913573
 20
-22.89892057537403
 30
0.0
 10
-247.5934032035387
 20
-22.5280075017342
 30
0.0
 10
-249.2203855635739
 20
-21.80199032618639
 30
0.0
 10
-250.9396547037422
 20
-20.98741874588679
 30
0.0
 10
-252.0671671111966
 20
-20.40592517066601
 30
0.0
 10
-252.8654757522207
 20
-19.97178598194031
 30
0.0
 10
-253.6352324586164
 20
-19.52895282687065
 30
0.0
 10
-254.4008938318041
 20
-19.05772052509581
 30
0.0
 10
-255.1037606644341
 20
-18.58835666515775
 30
0.0
 10
-255.6690910536776
 20
-18.16818883985724
 30
0.0
 10
-256.0144914644112
 20
-17.87925195719692
 30
0.0
 10
-256.1590734190501
 20
-17.74985776133013
 30
0.0
 10
-256.2281807885035
 20
-17.67721308507449
 30
0.0
 10
-256.2093069347393
 20
-17.69953104009241
 30
0.0
 10
-256.2085403576255
 20
-17.70043750221494
 30
0.0
  0
SPLINE
  5
16D
330
165
100
AcDbEntity
  8
0
  6
Continuous
 62
     7
370
    25
100
AcDbSpline
210
0.0
220
0.0
230
1.0
 70
     8
 71
     3
 72
    31
 73
    27
 74
     0
 42
0.000000001
 43
0.00000001
 40
0.0
 40
0.0
 40
0.0
 40
0.0
 40
0.0057370146152085
 40
0.0227864311539223
 40
0.0541573915453894
 40
0.0891319087330334
 40
0.1276127451527991
 40
0.1695854975411924
 40
0.2425163245034294
 40
0.3209245058617115
 40
0.4377548619119536
 40
0.551725808938773
 40
0.5935270033201385
 40
0.6329428836257296
 40
0.6658436173892791
 40
0.6961744220057122
 40
0.7174293837960412
 40
0.7326690718971872
 40
0.7560064350688819
 40
0.7865164275058396
 40
0.8175694009964183
 40
0.8479987903790034
 40
0.8793488929886948
 40
0.9210391568553548
 40
0.9672988560660207
 40
1.0
 40
1.0
 40
1.0
 40
1.0
 10
258.169040763462
 20
-22.06033861897149
 30
0.0
 10
258.1766832639611
 20
-22.05095833792339
 30
0.0
 10
258.2070379559302
 20
-22.01370148176341
 30
0.0
 10
257.8768968971045
 20
-22.33486727798436
 30
0.0
 10
256.7881228844736
 20
-23.2673412414363
 30
0.0
 10
255.3238398889486
 20
-24.56251337049496
 30
0.0
 10
253.5997317836032
 20
-26.0925524515441
 30
0.0
 10
251.1920192432753
 20
-28.23592003723211
 30
0.0
 10
247.978755924354
 20
-31.09259887388227
 30
0.0
 10
243.3409298469794
 20
-35.19996212505209
 30
0.0
 10
238.0078540554293
 20
-39.89751997162458
 30
0.0
 10
233.2655113627794
 20
-44.05064611014046
 30
0.0
 10
229.8522018070498
 20
-47.02784964756499
 30
0.0
 10
227.8608767523141
 20
-48.76345141534338
 30
0.0
 10
226.1716622331281
 20
-50.22829385235509
 30
0.0
 10
224.9005510694422
 20
-51.3534441836422
 30
0.0
 10
224.0268937532745
 20
-52.04212897137283
 30
0.0
 10
223.460057190698
 20
-52.46246030925408
 30
0.0
 10
222.5469793092078
 20
-53.10441545904669
 30
0.0
 10
221.328958915374
 20
-53.88605528264477
 30
0.0
 10
219.7898022756379
 20
-54.79064260005845
 30
0.0
 10
218.0342774095371
 20
-55.73516379782545
 30
0.0
 10
215.7857957386683
 20
-56.8482588587983
 30
0.0
 10
212.7744320027732
 20
-58.19150256372857
 30
0.0
 10
209.249300476629
 20
-59.61364581822351
 30
0.0
 10
206.8227258903114
 20
-60.43601556867485
 30
0.0
 10
205.8177750608434
 20
-60.77659490528602
 30
0.0
  0
SPLINE
  5
16E
330
165
100
AcDbEntity
  8
0
  6
Continuous
 62
     7
370
    25
100
AcDbSpline
210
0.0
220
0.0
230
1.0
 70
     8
 71
     3
 72
     9
 73
     5
 74
     0
 42
0.000000001
 43
0.00000001
 40
0.0
 40
0.0
 40
0.0
 40
0.0
 40
0.167887933423563
 40
1.0
 40
1.0
 40
1.0
 40
1.0
 10
200.2958294263664
 20
-62.51550055833025
 30
0.0
 10
199.9411273716601
 20
-62.62369076517641
 30
0.0
 10
197.8283962928198
 20
-63.26810995981386
 30
0.0
 10
195.6382059225372
 20
-63.81352310420566
 30
0.0
 10
193.8157220873255
 20
-64.26736796292346
 30
0.0
  0
LWPOLYLINE
  5
170
330
165
100
AcDbEntity
  8
0
  6
Continuous
 62
     7
370
    25
100
AcDbPolyline
 90
       95
 70
   128
 43
0.0
 10
-58.3363094345
 20
-51.4477890576
 10
42.6307957656
 20
-64.1684486206
 10
53.963838186
 20
-65.5962777553
 10
65.2968806064
 20
-67.0241068899
 10
76.6299230269
 20
-68.4519360245
 10
87.9796301574
 20
-69.8583409657
 10
99.5453290603
 20
-70.9471783561
 10
111.3031310714
 20
-71.6255843641
 10
123.1636669112
 20
-71.8934181994
 10
133.7457667031
 20
-71.7858712146
 10
144.2779488723
 20
-71.3518321498
 10
154.6891473693
 20
-70.5923856959
 10
164.8779723994
 20
-69.5131794208
 10
174.7338066145
 20
-68.1213005895
 10
183.9884807235
 20
-66.4617038498
 10
192.734928349
 20
-64.5330983388
 10
200.888706875
 20
-62.3572934594
 10
208.3859892575
 20
-59.9529965466
 10
215.3083305064
 20
-57.2851626333
 10
221.477458948
 20
-54.4104266392
 10
226.8499068911
 20
-51.3449380033
 10
231.375066535
 20
-48.1059205515
 10
235.2311318315
 20
-44.7470601338
 10
250.2233377487
 20
-31.5251773132
 10
254.993585086
 20
-27.3182145975
 10
259.7638324233
 20
-23.1112518818
 10
264.5340797605
 20
-18.9042891662
 10
269.2377715853
 20
-14.6915776568
 10
272.1566988284
 20
-11.3215979557
 10
274.1307062956
 20
-7.8982097281
 10
275.1633527743
 20
-4.444206593
 10
275.2550313836
 20
-0.980044587
 10
274.3787020454
 20
2.5388282068
 10
272.521979324
 20
6.029657455
 10
269.6966511148
 20
9.4624529564
 10
265.9239273114
 20
12.8002671481
 10
261.2295934547
 20
16.006678804
 10
255.7764108843
 20
18.9971195902
 10
249.5538437453
 20
21.8020101904
 10
242.6229530651
 20
24.3964278663
 10
235.031829297
 20
26.7650275691
 10
225.626355977
 20
29.1742402943
 10
215.4863000078
 20
31.2543554501
 10
204.6785089903
 20
32.9859166901
 10
193.4014484479
 20
34.4311810364
 10
182.0931326655
 20
35.8558949075
 10
137.6676063775
 20
41.4529851152
 10
58.3363094345
 20
51.4477890576
 10
-42.6307957656
 20
64.1684486206
 10
-53.963838186
 20
65.5962777553
 10
-65.2968806064
 20
67.0241068899
 10
-76.6299230269
 20
68.4519360245
 10
-87.9796301574
 20
69.8583409657
 10
-99.5453290603
 20
70.9471783561
 10
-111.3031310714
 20
71.6255843641
 10
-123.1636669112
 20
71.8934181994
 10
-133.7457667031
 20
71.7858712146
 10
-144.2779488723
 20
71.3518321498
 10
-154.6891473693
 20
70.5923856959
 10
-164.8779723994
 20
69.5131794208
 10
-174.7338066145
 20
68.1213005895
 10
-183.9884807235
 20
66.4617038498
 10
-192.734928349
 20
64.5330983388
 10
-200.888706875
 20
62.3572934594
 10
-208.3859892575
 20
59.9529965466
 10
-215.3083305064
 20
57.2851626333
 10
-221.477458948
 20
54.4104266392
 10
-226.8499068911
 20
51.3449380033
 10
-231.375066535
 20
48.1059205515
 10
-235.2311318315
 20
44.7470601338
 10
-250.2233377487
 20
31.5251773132
 10
-254.993585086
 20
27.3182145975
 10
-259.7638324233
 20
23.1112518818
 10
-264.5340797605
 20
18.9042891662
 10
-269.2377715853
 20
14.6915776568
 10
-272.1566988284
 20
11.3215979557
 10
-274.1307062956
 20
7.8982097281
 10
-275.1633527743
 20
4.444206593
 10
-275.2550313836
 20
0.980044587
 10
-274.3787020454
 20
-2.5388282068
 10
-272.521979324
 20
-6.029657455
 10
-269.6966511148
 20
-9.4624529564
 10
-265.9239273114
 20
-12.8002671481
 10
-261.2295934547
 20
-16.006678804
 10
-255.7764108843
 20
-18.9971195902
 10
-249.5538437453
 20
-21.8020101904
 10
-242.6229530651
 20
-24.3964278663
 10
-235.031829297
 20
-26.7650275691
 10
-225.626355977
 20
-29.1742402943
 10
-215.4863000078
 20
-31.2543554501
 10
-204.6785089903
 20
-32.9859166901
 10
-193.4014484479
 20
-34.4311810364
 10
-182.0931326655
 20
-35.8558949075
 10
-137.6676063775
 20
-41.4529851152
 10
-58.3363094345
 20
-51.4477890576
  0
LWPOLYLINE
  5
171
330
165
100
AcDbEntity
  8
0
  6
Continuous
 62
     7
370
    25
100
AcDbPolyline
 90
        9
 70
   128
 43
0.0
 10
35.5378864968
 20
-153.4491022224
 10
34.6684008049
 20
-154.0347584118
 10
33.472854473
 20
-154.5526186339
 10
31.9971916762
 20
-154.9827818107
 10
30.298121308
 20
-155.3087170127
 10
28.44093769
 20
-155.5178987327
 10
26.497011347
 20
-155.6022882347
 10
24.5410462782
 20
-155.5586424774
 10
22.6482091244
 20
-155.3886387426
  0
LWPOLYLINE
  5
174
330
165
100
AcDbEntity
  8
0
  6
Continuous
 62
     7
370
    25
100
AcDbPolyline
 90
        8
 70
   128
 43
0.0
 10
-61.5390820808
 20
-144.7820370298
 10
-63.2960506494
 20
-144.4922084659
 10
-64.849631316
 20
-144.0936930221
 10
-66.1401208468
 20
-143.6018054232
 10
-67.1179264529
 20
-143.035448634
 10
-67.7454716133
 20
-142.4163874281
 10
-67.9986401192
 20
-141.7684119806
 10
-68.0035481756
 20
-141.6639892081
  0
LINE
  5
178
330
165
100
AcDbEntity
  8
0
  6
Continuous
 62
     7
370
    25
100
AcDbLine
 10
-240.6942413814
 20
-25.0399549196
 30
0.0
 11
-242.0471334729
 21
-24.576096405
 31
0.0
  0
LINE
  5
179
330
165
100
AcDbEntity
  8
0
  6
Continuous
 62
     7
370
    25
100
AcDbLine
 10
-68.0035481756
 20
-133.05892859
 30
0.0
 11
-68.0035481756
 21
-141.6639892081
 31
0.0
  0
LINE
  5
17A
330
165
100
AcDbEntity
  8
0
  6
Continuous
 62
     7
370
    25
100
AcDbLine
 10
22.6482091244
 20
-155.3886387426
 30
0.0
 11
-61.5390820808
 21
-144.7820370298
 31
0.0
  0
LINE
  5
17B
330
165
100
AcDbEntity
  8
0
  6
Continuous
 62
     7
370
    25
100
AcDbLine
 10
42.6072199882
 20
-147.2145361045
 30
0.0
 11
35.5378864968
 21
-153.4491022224
 31
0.0
  0
LINE
  5
17C
330
165
100
AcDbEntity
  8
0
  6
Continuous
 62
     8
370
    25
100
AcDbLine
 10
22.6482091244
 20
-155.3886387426
 30
0.0
 11
22.6482091244
 21
-144.5469270484
 31
0.0
  0
LINE
  5
17D
330
165
100
AcDbEntity
  8
0
  6
Continuous
 62
     8
370
    25
100
AcDbLine
 10
35.5378864968
 20
-153.4491022224
 30
0.0
 11
35.5378864968
 21
-146.2627392912
 31
0.0
  0
LINE
  5
17E
330
165
100
AcDbEntity
  8
0
  6
Continuous
 62
     8
370
    25
100
AcDbLine
 10
-61.5390820808
 20
-144.7820370298
 30
0.0
 11
-61.5390820808
 21
-133.8437247206
 31
0.0
  0
VIEWPORT
  5
191
330
165
100
AcDbEntity
  8
0
100
AcDbViewport
 10
0.0
 20
0.0
 30
0.0
 40
205.6
 41
156.0
 68
     1
 69
     1
 12
0.0
 22
-22.6961034758
 13
0.0
 23
0.0
 14
10.0
 24
10.0
 15
10.0
 25
10.0
 16
0.0
 26
0.0
 36
1.0
 17
0.0
 27
0.0
 37
0.0
 42
50.0
 43
0.0
 44
0.0
 45
399.6151273282
 50
0.0
 51
0.0
 72
   100
 90
   557152
  1

281
     0
 71
     1
 74
     0
110
0.0
120
0.0
130
0.0
111
1.0
121
0.0
131
0.0
112
0.0
122
1.0
132
0.0
 79
     0
146
0.0
170
     0
 61
     5
348
2F
292
     1
282
     1
141
0.0
142
0.0
 63
   256
361
192
  0
ENDBLK
  5
168
330
165
100
AcDbEntity
  8
0
100
AcDbBlockEnd
  0
ENDSEC
  0
SECTION
  2
ENTITIES
  0
SPLINE
  5
73
330
1F
100
AcDbEntity
  8
0
  6
Continuous
 62
     7
370
    25
100
AcDbSpline
210
0.0
220
0.0
230
1.0
 70
     8
 71
     3
 72
   161
 73
   157
 74
     0
 42
0.000000001
 43
0.00000001
 40
0.0
 40
0.0
 40
0.0
 40
0.0
 40
0.0069512840658595
 40
0.0123824350457695
 40
0.0162815863079047
 40
0.0187156950448205
 40
0.0210856943107195
 40
0.0269613951704982
 40
0.0327269836391742
 40
0.0369508558770568
 40
0.0423318872809666
 40
0.0485442357718098
 40
0.0541780174928008
 40
0.0586606156457357
 40
0.0635074210076399
 40
0.0702451938740614
 40
0.0756359658685012
 40
0.079390525379022
 40
0.0838518395076633
 40
0.0893589675834559
 40
0.0963414903086005
 40
0.1015249224673305
 40
0.1058378575735346
 40
0.1092411702261854
 40
0.1123874734035557
 40
0.115469388321638
 40
0.1191737513637468
 40
0.1239567471631563
 40
0.1296157850186274
 40
0.1338235450243568
 40
0.1372206208531729
 40
0.1411878293161374
 40
0.1457162276396819
 40
0.1506587447184839
 40
0.1556721522759571
 40
0.1592885917570065
 40
0.1622190229505907
 40
0.1654155240376158
 40
0.1691359714806778
 40
0.1741333518626466
 40
0.1784140984197196
 40
0.1827735034276761
 40
0.187687635525761
 40
0.1933034045110682
 40
0.199279907846046
 40
0.2048611901412133
 40
0.2100310305452716
 40
0.2147915288762017
 40
0.2215448945411999
 40
0.2282582805272781
 40
0.2351411311009169
 40
0.2446239045631509
 40
0.2545313765431485
 40
0.2655451199015242
 40
0.2777767066492824
 40
0.2897324417626408
 40
0.3026682109538425
 40
0.3165863710334339
 40
0.3314875332482472
 40
0.3461562706888416
 40
0.35924805286276
 40
0.370748960898328
 40
0.3806505550892754
 40
0.3881601361791215
 40
0.3943811160003607
 40
0.399314587981963
 40
0.4029900428018793
 40
0.4069653026525674
 40
0.4120480403276567
 40
0.4182937907712719
 40
0.4256961919048615
 40
0.434247193991704
 40
0.4441462966437087
 40
0.4552177558016434
 40
0.4669556572322008
 40
0.4779903583627644
 40
0.4882468401313316
 40
0.4977313319242399
 40
0.5064505871805115
 40
0.5159579839564125
 40
0.525813031196474
 40
0.5370777029552748
 40
0.5487808414591796
 40
0.5603227469651082
 40
0.5716752302611977
 40
0.5828228069121388
 40
0.5935364230921957
 40
0.6036900962069368
 40
0.6132838625830522
 40
0.6223579567254808
 40
0.6310873820613522
 40
0.6385504270869573
 40
0.646604049274826
 40
0.6552641438669475
 40
0.6645127163303145
 40
0.67417197556254
 40
0.6841275396766103
 40
0.6934632446998874
 40
0.7003980321525012
 40
0.7065350874575274
 40
0.7127121648754541
 40
0.7189705659289891
 40
0.7251601514800639
 40
0.731208868843238
 40
0.7376133671122423
 40
0.745232326775209
 40
0.7531198144107062
 40
0.7620197555305656
 40
0.7714123689589409
 40
0.7797867421796396
 40
0.7870392915588752
 40
0.7930608452630277
 40
0.7983212015485145
 40
0.8039054343994437
 40
0.8099905210927053
 40
0.8152496854395863
 40
0.8211236493246526
 40
0.8269797572689346
 40
0.8317076327984891
 40
0.8355657428222678
 40
0.8401265931928654
 40
0.8482165828813922
 40
0.8568342479504959
 40
0.8655046868588832
 40
0.8732938006885839
 40
0.8776084388602613
 40
0.8816682727391263
 40
0.8857202976295572
 40
0.8902759200622672
 40
0.8955369891362098
 40
0.9016024026488958
 40
0.9076585961230387
 40
0.911294618339696
 40
0.9142183323692121
 40
0.9171022305525344
 40
0.9200759679782532
 40
0.9239558546990037
 40
0.9288885376575053
 40
0.9336071852886367
 40
0.9374104301990613
 40
0.940605465767298
 40
0.9435068825959944
 40
0.9463804407850446
 40
0.9501295207328723
 40
0.9548052491753084
 40
0.9591746801082033
 40
0.9625642679421357
 40
0.9653441142554767
 40
0.9687589389383857
 40
0.9728500068159021
 40
0.9767528383840386
 40
0.9795363452546383
 40
0.9826260054334951
 40
0.987052103886875
 40
0.9928395136725797
 40
1.0
 40
1.0
 40
1.0
 40
1.0
 10
-257.7862802102549
 20
36.3102157900608
 30
0.0
 10
-257.5225547904224
 20
34.63260316107064
 30
0.0
 10
-257.0527764228495
 20
31.64424457672545
 30
0.0
 10
-256.2548896756267
 20
27.74270708733254
 30
0.0
 10
-255.6109507321106
 20
24.92955350008302
 30
0.0
 10
-255.0999703212247
 20
22.87198800239848
 30
0.0
 10
-254.4360954717433
 20
20.3366610264282
 30
0.0
 10
-253.5062640339957
 20
17.06822235511542
 30
0.0
 10
-252.3455192947968
 20
13.42275789853309
 30
0.0
 10
-251.1114877536543
 20
9.875228400745408
 30
0.0
 10
-249.7500941479334
 20
6.259704003102232
 30
0.0
 10
-248.1485215700599
 20
2.367258536286228
 30
0.0
 10
-246.518558806673
 20
-1.273460066347654
 30
0.0
 10
-244.938776812445
 20
-4.570566797366476
 30
0.0
 10
-243.1585783507774
 20
-8.070529590113555
 30
0.0
 10
-241.170410610246
 20
-11.71169566440009
 30
0.0
 10
-239.2079388756642
 20
-15.06084016224695
 30
0.0
 10
-237.4615613458244
 20
-17.89282389805163
 30
0.0
 10
-235.6433982147789
 20
-20.71266363606126
 30
0.0
 10
-233.3138671494
 20
-24.14067256069463
 30
0.0
 10
-230.7782302501375
 20
-27.64128537952002
 30
0.0
 10
-228.3209159385424
 20
-30.83533059115423
 30
0.0
 10
-226.3419408525211
 20
-33.29189465302871
 30
0.0
 10
-224.6384329604772
 20
-35.33030803975116
 30
0.0
 10
-223.100696370428
 20
-37.11467496014799
 30
0.0
 10
-221.4886897580414
 20
-38.9319528726042
 30
0.0
 10
-219.5783316046365
 20
-41.01949236837466
 30
0.0
 10
-217.1937109536069
 20
-43.52669908212788
 30
0.0
 10
-214.6640845604452
 20
-46.06448534168184
 30
0.0
 10
-212.3241059789853
 20
-48.31127451232167
 30
0.0
 10
-210.2498435261271
 20
-50.23708868638151
 30
0.0
 10
-208.086458257103
 20
-52.18147746703144
 30
0.0
 10
-205.6018160167747
 20
-54.33288120300565
 30
0.0
 10
-202.8770541135289
 20
-56.59654364580149
 30
0.0
 10
-200.2796473671044
 20
-58.66274004333206
 30
0.0
 10
-198.0363426516444
 20
-60.38143303953205
 30
0.0
 10
-196.1279587420596
 20
-61.80232939830244
 30
0.0
 10
-194.1752761463575
 20
-63.21807048167508
 30
0.0
 10
-191.7881993318428
 20
-64.89537394464602
 30
0.0
 10
-189.1584099334509
 20
-66.67724157791338
 30
0.0
 10
-186.374252337582
 20
-68.5018522524014
 30
0.0
 10
-183.6715035136267
 20
-70.21757722323156
 30
0.0
 10
-180.8345532876277
 20
-71.94607796687447
 30
0.0
 10
-177.8792371894279
 20
-73.74088092760125
 30
0.0
 10
-174.9360438789325
 20
-75.52094718347496
 30
0.0
 10
-172.0619876158601
 20
-77.25657428152346
 30
0.0
 10
-169.4274433973376
 20
-78.84460580836387
 30
0.0
 10
-166.6194005920017
 20
-80.53485417611986
 30
0.0
 10
-163.620702506637
 20
-82.33716840801219
 30
0.0
 10
-160.2623857166315
 20
-84.35224002555006
 30
0.0
 10
-156.4401957208437
 20
-86.64165515340275
 30
0.0
 10
-152.0722310417496
 20
-89.25247117849426
 30
0.0
 10
-146.9946911834913
 20
-92.27973080910002
 30
0.0
 10
-141.4431391919011
 20
-95.58046981270493
 30
0.0
 10
-135.5310501238558
 20
-99.08468681714412
 30
0.0
 10
-129.2780638974214
 20
-102.7788726253902
 30
0.0
 10
-122.721982696051
 20
-106.6389652614924
 30
0.0
 10
-115.645944079028
 20
-110.7897172276486
 30
0.0
 10
-108.2534133093906
 20
-115.1085505711503
 30
0.0
 10
-100.9699983464497
 20
-119.3456560617856
 30
0.0
 10
-94.22578696472479
 20
-123.2534019252438
 30
0.0
 10
-88.26374018419232
 20
-126.6956439796838
 30
0.0
 10
-83.23144404807545
 20
-129.5922555509069
 30
0.0
 10
-79.08741997329986
 20
-131.9719386074021
 30
0.0
 10
-75.78252249491398
 20
-133.8664441946814
 30
0.0
 10
-73.13258941030378
 20
-135.3834232867382
 30
0.0
 10
-70.82341337510216
 20
-136.7043728499704
 30
0.0
 10
-68.4859088926454
 20
-138.0397426369599
 30
0.0
 10
-65.70568736446583
 20
-139.6255416495572
 30
0.0
 10
-62.31174417715353
 20
-141.5581817577515
 30
0.0
 10
-58.2995261022841
 20
-143.8385114563691
 30
0.0
 10
-53.63178018156444
 20
-146.4857447954024
 30
0.0
 10
-48.30366481442373
 20
-149.5002830311757
 30
0.0
 10
-42.39949393208981
 20
-152.8319679549945
 30
0.0
 10
-36.28531614132691
 20
-156.2725869499875
 30
0.0
 10
-30.2989014652787
 20
-159.6321787529604
 30
0.0
 10
-24.70504534100336
 20
-162.76372192078
 30
0.0
 10
-19.51842209034553
 20
-165.6607656130537
 30
0.0
 10
-14.44849878981441
 20
-168.4870405480777
 30
0.0
 10
-9.312981007869926
 20
-171.3437432202548
 30
0.0
 10
-3.604197628990044
 20
-174.5150055854969
 30
0.0
 10
2.683548500257094
 20
-177.9900349904385
 30
0.0
 10
9.248624457876705
 20
-181.6422613875478
 30
0.0
 10
16.12481369614083
 20
-184.9822914797268
 30
0.0
 10
23.33352875897707
 20
-187.790454937783
 30
0.0
 10
30.68355599828169
 20
-190.082944958671
 30
0.0
 10
38.0332877609515
 20
-191.8598610194651
 30
0.0
 10
45.21737480435581
 20
-193.1408318237148
 30
0.0
 10
52.14427374150614
 20
-193.9667212947697
 30
0.0
 10
58.8050668261936
 20
-194.3775309120864
 30
0.0
 10
64.96457549922854
 20
-194.5553222335348
 30
0.0
 10
70.88571400716509
 20
-194.5295130723064
 30
0.0
 10
76.7939113153409
 20
-194.3172662057918
 30
0.0
 10
83.13456984691433
 20
-193.8718670083321
 30
0.0
 10
89.84817621612974
 20
-193.1480963188625
 30
0.0
 10
96.83672403306237
 20
-192.1047508492554
 30
0.0
 10
103.7895305203221
 20
-190.7496908959404
 30
0.0
 10
110.0125807277529
 20
-189.2388779128583
 30
0.0
 10
115.2531103392255
 20
-187.7402170259724
 30
0.0
 10
119.7006535845431
 20
-186.3041571702267
 30
0.0
 10
123.9351256860952
 20
-184.780978005602
 30
0.0
 10
128.125986057856
 20
-183.1042569973809
 30
0.0
 10
132.1818603454853
 20
-181.3135496902481
 30
0.0
 10
136.0067748153886
 20
-179.4232425449156
 30
0.0
 10
139.9276081283767
 20
-177.4205722040394
 30
0.0
 10
144.1754415454629
 20
-175.217506166966
 30
0.0
 10
148.8305404140174
 20
-172.748926322396
 30
0.0
 10
153.759295142977
 20
-170.0769594490062
 30
0.0
 10
158.7125076276767
 20
-167.3256033889467
 30
0.0
 10
163.334273647966
 20
-164.6970667209017
 30
0.0
 10
167.3140647594898
 20
-162.3857646365407
 30
0.0
 10
170.7159141388158
 20
-160.3757510236218
 30
0.0
 10
173.8200996623266
 20
-158.5152858551469
 30
0.0
 10
176.926756182917
 20
-156.628316127396
 30
0.0
 10
180.0233744545259
 20
-154.721106075943
 30
0.0
 10
183.1659581948026
 20
-152.7601820067613
 30
0.0
 10
186.2501529006701
 20
-150.8113787078067
 30
0.0
 10
189.2437688323648
 20
-148.8968599374089
 30
0.0
 10
191.9547920190349
 20
-147.1406148279061
 30
0.0
 10
194.5517519532125
 20
-145.4483849127563
 30
0.0
 10
197.8956546787305
 20
-143.1873537709544
 30
0.0
 10
202.1119174232867
 20
-140.1348376427626
 30
0.0
 10
206.9981204210902
 20
-136.2919376742327
 30
0.0
 10
211.6608252690635
 20
-132.2952553922999
 30
0.0
 10
215.3869404609729
 20
-128.8315018816824
 30
0.0
 10
218.2036984817519
 20
-126.0516983099678
 30
0.0
 10
220.3244870238897
 20
-123.8700946174788
 30
0.0
 10
222.4410908146391
 20
-121.6030877236793
 30
0.0
 10
224.7047041322232
 20
-119.0717487201603
 30
0.0
 10
227.2248242943611
 20
-116.1099396077146
 30
0.0
 10
229.8894751051454
 20
-112.7905390311278
 30
0.0
 10
232.2111392837184
 20
-109.708534028938
 30
0.0
 10
234.0079108389213
 20
-107.1960070458295
 30
0.0
 10
235.3210409997934
 20
-105.2927815295266
 30
0.0
 10
236.5154347824516
 20
-103.504967838671
 30
0.0
 10
237.8097141217146
 20
-101.5026241432142
 30
0.0
 10
239.332978586479
 20
-99.05148154083405
 30
0.0
 10
241.0167739006037
 20
-96.19787335211227
 30
0.0
 10
242.6187285439568
 20
-93.3190231161122
 30
0.0
 10
243.9571140746915
 20
-90.7813780197409
 30
0.0
 10
245.0480101577195
 20
-88.61681345936093
 30
0.0
 10
246.0046046079847
 20
-86.63978848230957
 30
0.0
 10
246.9878997349275
 20
-84.52529450346633
 30
0.0
 10
248.1098155714244
 20
-81.99677573087267
 30
0.0
 10
249.3154648129679
 20
-79.10541997755877
 30
0.0
 10
250.4186661823253
 20
-76.26759270880815
 30
0.0
 10
251.3031517442051
 20
-73.84347020153359
 30
0.0
 10
252.0706019029779
 20
-71.62598006239838
 30
0.0
 10
252.8541651082236
 20
-69.23277109966114
 30
0.0
 10
253.6690331786951
 20
-66.56094446150792
 30
0.0
 10
254.3836855438449
 20
-64.02081998780123
 30
0.0
 10
254.9896312668476
 20
-61.70537113328199
 30
0.0
 10
255.5889569060724
 20
-59.25641013548539
 30
0.0
 10
256.2958269010059
 20
-56.07776234243297
 30
0.0
 10
257.1130095226104
 20
-51.90286605107864
 30
0.0
 10
257.5773507106034
 20
-48.76667158052655
 30
0.0
 10
257.8341421382479
 20
-47.03228342739984
 30
0.0
  0
SPLINE
  5
74
330
1F
100
AcDbEntity
  8
0
  6
Continuous
 62
     7
370
    25
100
AcDbSpline
210
0.0
220
0.0
230
1.0
 70
     8
 71
     3
 72
    73
 73
    69
 74
     0
 42
0.000000001
 43
0.00000001
 40
0.0
 40
0.0
 40
0.0
 40
0.0
 40
0.0193572246559126
 40
0.0391954408211906
 40
0.0593206909579488
 40
0.0789357343921764
 40
0.0978471997891341
 40
0.1160465698923965
 40
0.1335258498632695
 40
0.1502802016669032
 40
0.1664047278596185
 40
0.181864366776929
 40
0.1966806747439211
 40
0.2108878363780839
 40
0.2245180227084637
 40
0.2377065468833846
 40
0.2511675553471575
 40
0.2650585302673553
 40
0.2793774689016921
 40
0.2941063694958156
 40
0.3092259350450371
 40
0.3242666421820204
 40
0.3386093628484847
 40
0.3522362852239513
 40
0.365153075091224
 40
0.3773828326577542
 40
0.3905406196710697
 40
0.4028426097229208
 40
0.4144556103102321
 40
0.4272942935997399
 40
0.4419608726306458
 40
0.4584346472649719
 40
0.4766536217696876
 40
0.4940867982511234
 40
0.5128586366039727
 40
0.532965297399682
 40
0.5544025665885135
 40
0.5767688958994143
 40
0.6196519829616648
 40
0.6609287429217179
 40
0.6964515322979575
 40
0.7307395297837992
 40
0.7641144958243943
 40
0.7969216738007573
 40
0.8175007669246354
 40
0.8378461559700657
 40
0.857866273077769
 40
0.8764738847079699
 40
0.8872817912971533
 40
0.8974023431565149
 40
0.9068345781403908
 40
0.9155852594853537
 40
0.9237621312308967
 40
0.9294145568259372
 40
0.9374932266244393
 40
0.9462426948855622
 40
0.9537614382196935
 40
0.9574856666269685
 40
0.960795002052035
 40
0.9646096563885166
 40
0.9695983673569893
 40
0.9757368168242131
 40
0.9815572654016351
 40
0.9862189089635405
 40
0.9904837730504671
 40
0.9946192780147568
 40
0.998723062725215
 40
1.0
 40
1.0
 40
1.0
 40
1.0
 10
216.9950675029175
 20
-90.99017142097046
 30
0.0
 10
214.4814626286028
 20
-92.43883712109749
 30
0.0
 10
209.3917944116787
 20
-95.37216520548657
 30
0.0
 10
201.2379296429233
 20
-100.1097076591452
 30
0.0
 10
192.7210564822492
 20
-105.0517980827474
 30
0.0
 10
184.3216414599436
 20
-109.9110785545684
 30
0.0
 10
176.188003358076
 20
-114.6058544274063
 30
0.0
 10
168.348031157639
 20
-119.1186987415216
 30
0.0
 10
160.8116310682828
 20
-123.4559942224776
 30
0.0
 10
153.5457959625515
 20
-127.6028617252143
 30
0.0
 10
146.6150859794205
 20
-131.646910216449
 30
0.0
 10
139.3174325585354
 20
-135.1829530635655
 30
0.0
 10
131.8171932407414
 20
-138.2334191727018
 30
0.0
 10
124.2049017411261
 20
-140.8223636905459
 30
0.0
 10
116.5488473020784
 20
-142.983994798449
 30
0.0
 10
108.76120983988
 20
-144.7827212373923
 30
0.0
 10
100.7531637762089
 20
-146.2363232974079
 30
0.0
 10
92.37479046294523
 20
-147.3512984928754
 30
0.0
 10
83.63300367027445
 20
-148.0969793546894
 30
0.0
 10
74.57442164822872
 20
-148.4360147963327
 30
0.0
 10
65.351924993089
 20
-148.3253281878861
 30
0.0
 10
56.2512579317818
 20
-147.765910562537
 30
0.0
 10
47.5568908019995
 20
-146.8156728759589
 30
0.0
 10
39.43272185779771
 20
-145.5453476770025
 30
0.0
 10
31.89872775487587
 20
-144.0149886835141
 30
0.0
 10
24.65217250670718
 20
-142.2062410689142
 30
0.0
 10
17.74966727984385
 20
-140.1396755892717
 30
0.0
 10
11.2185923827432
 20
-137.8364127956496
 30
0.0
 10
5.01386383201112
 20
-135.3071797769624
 30
0.0
 10
-1.273280177954236
 20
-132.3818069215505
 30
0.0
 10
-7.805630989658003
 20
-128.755573118484
 30
0.0
 10
-14.86500500792706
 20
-124.5490148575618
 30
0.0
 10
-22.38879714947713
 20
-120.1570049300482
 30
0.0
 10
-30.21342994510069
 20
-115.5656316831078
 30
0.0
 10
-38.30905882156858
 20
-110.8255565562363
 30
0.0
 10
-46.97245493296802
 20
-105.75565985726
 30
0.0
 10
-56.1467580731181
 20
-100.393879505631
 30
0.0
 10
-68.58563677704012
 20
-93.13517725915918
 30
0.0
 10
-83.91279121342107
 20
-84.2158528375431
 30
0.0
 10
-101.19085738713
 20
-74.20011363148261
 30
0.0
 10
-117.2830160712464
 20
-64.908891452553
 30
0.0
 10
-132.2902234711318
 20
-56.27504824236651
 30
0.0
 10
-146.9308526612666
 20
-47.87776639795357
 30
0.0
 10
-159.560898811834
 20
-40.65293020678148
 30
0.0
 10
-170.2925436251402
 20
-34.52516257658635
 30
0.0
 10
-179.1587930569276
 20
-29.46882501441884
 30
0.0
 10
-187.740681414053
 20
-24.57993937754781
 30
0.0
 10
-194.9088093015001
 20
-20.50007493099009
 30
0.0
 10
-200.6171230654774
 20
-17.25311084661823
 30
0.0
 10
-204.9895168900805
 20
-14.76737819810463
 30
0.0
 10
-209.0360373942855
 20
-12.46768652140072
 30
0.0
 10
-212.8319973896947
 20
-10.31321703372665
 30
0.0
 10
-215.8326442314934
 20
-8.60975902209745
 30
0.0
 10
-218.2010770897288
 20
-7.122542990034369
 30
0.0
 10
-220.3815075142402
 20
-5.645065854039247
 30
0.0
 10
-222.5421975413355
 20
-4.027255682626761
 30
0.0
 10
-224.1276146749261
 20
-2.720438410238835
 30
0.0
 10
-225.2132931148861
 20
-1.764116776256347
 30
0.0
 10
-225.9933194927929
 20
-1.046392057902412
 30
0.0
 10
-226.8110452479588
 20
-0.2591404397359401
 30
0.0
 10
-227.7494581517418
 20
0.6967716289299208
 30
0.0
 10
-228.7341072976052
 20
1.776494263922061
 30
0.0
 10
-229.6138448828031
 20
2.825647679957591
 30
0.0
 10
-230.3132651752016
 20
3.724481116090403
 30
0.0
 10
-230.8691431183488
 20
4.494666021847553
 30
0.0
 10
-231.3089924152405
 20
5.12732983898484
 30
0.0
 10
-231.7649354247378
 20
5.868595948132646
 30
0.0
 10
-231.7329315672515
 20
5.797477821187308
 30
0.0
 10
-231.7253365049768
 20
5.780600274371384
 30
0.0
  0
SPLINE
  5
75
330
1F
100
AcDbEntity
  8
0
  6
Continuous
 62
     7
370
    25
100
AcDbSpline
210
0.0
220
0.0
230
1.0
 70
     8
 71
     3
 72
    22
 73
    18
 74
     0
 42
0.000000001
 43
0.00000001
 40
0.0
 40
0.0
 40
0.0
 40
0.0
 40
0.0341364263834151
 40
0.0694489708076592
 40
0.1040027800092982
 40
0.1845300390248323
 40
0.2868847367564336
 40
0.4001546221418724
 40
0.4805026945159896
 40
0.5521701325207288
 40
0.6068092688960516
 40
0.6364508558556659
 40
0.6802203187673438
 40
0.7382764010925226
 40
0.8107806005648605
 40
0.8979344904322096
 40
1.0
 40
1.0
 40
1.0
 40
1.0
 10
233.0140066129348
 20
-76.45810208856358
 30
0.0
 10
232.975709629457
 20
-76.52718136711448
 30
0.0
 10
232.8977961988682
 20
-76.6677199444574
 30
0.0
 10
232.6391420793263
 20
-77.10987586884474
 30
0.0
 10
232.295461035212
 20
-77.66250449384923
 30
0.0
 10
231.7365791227886
 20
-78.49785225632635
 30
0.0
 10
230.8277349772434
 20
-79.70617654841638
 30
0.0
 10
229.7163263079847
 20
-81.00665947780408
 30
0.0
 10
228.547156269138
 20
-82.23423361734754
 30
0.0
 10
227.5217938498662
 20
-83.22671086079131
 30
0.0
 10
226.7054940431766
 20
-83.96978345333022
 30
0.0
 10
225.9093611623159
 20
-84.66414035225557
 30
0.0
 10
224.988043039348
 20
-85.43722374761481
 30
0.0
 10
223.6848473360444
 20
-86.47466906750489
 30
0.0
 10
221.9375496721607
 20
-87.77488481356525
 30
0.0
 10
219.7033129714799
 20
-89.32210659836318
 30
0.0
 10
217.944029997163
 20
-90.40568564484738
 30
0.0
 10
216.9950675029175
 20
-90.99017142097046
 30
0.0
  0
LWPOLYLINE
  5
76
330
1F
100
AcDbEntity
  8
0
  6
Continuous
 62
     7
370
    25
100
AcDbPolyline
 90
       95
 70
   128
 43
0.0
 10
-116.6726188958
 20
-67.3536692254
 10
-40.3486614818
 20
-111.4145519782
 10
-31.7816866701
 20
-116.3601612668
 10
-23.2147118583
 20
-121.3057705554
 10
-14.6477370465
 20
-126.2513798439
 10
-6.0391292168
 20
-131.1671295209
 10
3.1583195948
 20
-135.632905334
 10
13.0374594356
 20
-139.4964490769
 10
23.5170095428
 20
-142.7363117015
 10
33.2946822834
 20
-145.07998954
 10
43.4298517912
 20
-146.8964480057
 10
53.8564069316
 20
-148.1705198017
 10
64.4749663414
 20
-148.8870376308
 10
75.1759612782
 20
-149.030915027
 10
85.659483978
 20
-148.609417219
 10
96.0118309894
 20
-147.6425800069
 10
106.1291184776
 20
-146.144772577
 10
115.9300813449
 20
-144.1303641158
 10
125.5323083874
 20
-141.5634074312
 10
134.7034108132
 20
-138.4909571954
 10
143.3838370538
 20
-134.9281807056
 10
151.5062016449
 20
-130.8902452588
 10
159.1666521262
 20
-126.5042174663
 10
189.1510639674
 20
-109.1945849563
 10
198.6915586441
 20
-103.6869746122
 10
208.2320533209
 20
-98.1793642681
 10
217.7725479976
 20
-92.671753924
 10
227.2594772762
 20
-87.1392610596
 10
234.0795093672
 20
-82.5130944804
 10
240.1042286947
 20
-77.5781878548
 10
245.3087444009
 20
-72.3713658581
 10
249.6681656277
 20
-66.9250114215
 10
253.2128380566
 20
-61.1623774817
 10
255.8293283434
 20
-55.2111487963
 10
257.4913631125
 20
-49.1214643026
 10
258.1726689878
 20
-42.9566829272
 10
257.8517926764
 20
-36.7804195804
 10
256.5726971851
 20
-30.7648229056
 10
254.3633283976
 20
-24.8593718371
 10
251.2485771718
 20
-19.117909651
 10
247.2533343656
 20
-13.576080634
 10
241.6545539461
 20
-7.5392038661
 10
234.9800375452
 20
-1.8473262609
 10
227.2666973642
 20
3.4529631108
 10
218.7722670707
 20
8.4127969257
 10
210.2239838403
 20
13.3476157941
 10
176.6414425782
 20
32.7344042053
 10
116.6726188958
 20
67.3536692254
 10
40.3486614818
 20
111.4145519782
 10
31.7816866701
 20
116.3601612668
 10
23.2147118583
 20
121.3057705554
 10
14.6477370465
 20
126.2513798439
 10
6.0391292168
 20
131.1671295209
 10
-3.1583195948
 20
135.632905334
 10
-13.0374594356
 20
139.4964490769
 10
-23.5170095428
 20
142.7363117015
 10
-33.2946822834
 20
145.07998954
 10
-43.4298517912
 20
146.8964480057
 10
-53.8564069316
 20
148.1705198017
 10
-64.4749663414
 20
148.8870376308
 10
-75.1759612782
 20
149.030915027
 10
-85.659483978
 20
148.609417219
 10
-96.0118309894
 20
147.6425800069
 10
-106.1291184776
 20
146.144772577
 10
-115.9300813449
 20
144.1303641158
 10
-125.5323083874
 20
141.5634074312
 10
-134.7034108132
 20
138.4909571954
 10
-143.3838370538
 20
134.9281807056
 10
-151.5062016449
 20
130.8902452588
 10
-159.1666521262
 20
126.5042174663
 10
-189.1510639674
 20
109.1945849563
 10
-198.6915586441
 20
103.6869746122
 10
-208.2320533209
 20
98.1793642681
 10
-217.7725479976
 20
92.671753924
 10
-227.2594772762
 20
87.1392610596
 10
-234.0795093672
 20
82.5130944804
 10
-240.1042286947
 20
77.5781878548
 10
-245.3087444009
 20
72.3713658581
 10
-249.6681656277
 20
66.9250114215
 10
-253.2128380566
 20
61.1623774817
 10
-255.8293283434
 20
55.2111487963
 10
-257.4913631125
 20
49.1214643026
 10
-258.1726689878
 20
42.9566829272
 10
-257.8517926764
 20
36.7804195804
 10
-256.5726971851
 20
30.7648229056
 10
-254.3633283976
 20
24.8593718371
 10
-251.2485771718
 20
19.117909651
 10
-247.2533343656
 20
13.576080634
 10
-241.6545539461
 20
7.5392038661
 10
-234.9800375452
 20
1.8473262609
 10
-227.2666973642
 20
-3.4529631108
 10
-218.7722670707
 20
-8.4127969257
 10
-210.2239838403
 20
-13.3476157941
 10
-176.6414425782
 20
-32.7344042053
 10
-116.6726188958
 20
-67.3536692254
  0
SPLINE
  5
77
330
1F
100
AcDbEntity
  8
0
  6
Continuous
 62
     7
370
    25
100
AcDbSpline
210
0.0
220
0.0
230
1.0
 70
     8
 71
     3
 72
    27
 73
    23
 74
     0
 42
0.000000001
 43
0.00000001
 40
0.0
 40
0.0
 40
0.0
 40
0.0
 40
0.1250000000000003
 40
0.1250000000000003
 40
0.1875000000000005
 40
0.1875000000000005
 40
0.2500000000000007
 40
0.2500000000000007
 40
0.3750000000000011
 40
0.3750000000000011
 40
0.5000000000000014
 40
0.5000000000000014
 40
0.6250000000000019
 40
0.6250000000000019
 40
0.6875000000000018
 40
0.6875000000000018
 40
0.7500000000000017
 40
0.8125000000000016
 40
0.8125000000000016
 40
0.8750000000000014
 40
0.8750000000000014
 40
1.0
 40
1.0
 40
1.0
 40
1.0
 10
-49.49747468305826
 20
-89.27476275005382
 30
0.0
 10
-49.96422551147267
 20
-89.51711126290205
 30
0.0
 10
-50.37738887312915
 20
-89.78090921459396
 30
0.0
 10
-50.9200594056168
 20
-90.20692170149182
 30
0.0
 10
-51.088008653454
 20
-90.35401750112165
 30
0.0
 10
-51.39744339869205
 20
-90.65854147269987
 30
0.0
 10
-51.53917981470869
 20
-90.81651788270983
 30
0.0
 10
-51.91520915382895
 20
-91.29584375606274
 30
0.0
 10
-52.10424729232134
 20
-91.62546757748117
 30
0.0
 10
-52.36022514953881
 20
-92.30433629843897
 30
0.0
 10
-52.42591380235404
 20
-92.65527000557755
 30
0.0
 10
-52.42689428241152
 20
-93.35125216201934
 30
0.0
 10
-52.36427817545862
 20
-93.69982932779227
 30
0.0
 10
-52.17338645379009
 20
-94.22484309627806
 30
0.0
 10
-52.09322872119137
 20
-94.4002221514872
 30
0.0
 10
-51.90377457419921
 20
-94.74411164651463
 30
0.0
 10
-51.68457233220484
 20
-95.08313150164832
 30
0.0
 10
-51.40678002495949
 20
-95.41290123756679
 30
0.0
 10
-51.09929570429231
 20
-95.73812884731336
 30
0.0
 10
-50.92992565746322
 20
-95.89912529563274
 30
0.0
 10
-50.38119905421264
 20
-96.37026946914
 30
0.0
 10
-49.96479074695059
 20
-96.66657457755787
 30
0.0
 10
-49.4974746830583
 20
-96.94517138285653
 30
0.0
  0
SPLINE
  5
78
330
1F
100
AcDbEntity
  8
0
  6
Continuous
 62
     7
370
    25
100
AcDbSpline
210
0.0
220
0.0
230
1.0
 70
     8
 71
     3
 72
    10
 73
     6
 74
     0
 42
0.000000001
 43
0.00000001
 40
0.0
 40
0.0
 40
0.0
 40
0.0
 40
0.5
 40
0.5
 40
1.0
 40
1.0
 40
1.0
 40
1.0
 10
-49.49747468305829
 20
-96.94517138285653
 30
0.0
 10
-42.42696277146011
 20
-101.1603528897601
 30
0.0
 10
-35.35577017069298
 20
-105.3289365232574
 30
0.0
 10
-21.21282532676057
 20
-113.4934852193416
 30
0.0
 10
-14.14159058836958
 20
-117.4891508879088
 30
0.0
 10
-7.071067811865617
 20
-121.4374147375378
 30
0.0
  0
SPLINE
  5
79
330
1F
100
AcDbEntity
  8
0
  6
Continuous
 62
     7
370
    25
100
AcDbSpline
210
0.0
220
0.0
230
1.0
 70
     8
 71
     3
 72
    29
 73
    25
 74
     0
 42
0.000000001
 43
0.00000001
 40
0.0
 40
0.0
 40
0.0
 40
0.0
 40
0.1249999999999996
 40
0.1249999999999996
 40
0.1875
 40
0.1875
 40
0.2500000000000004
 40
0.2500000000000004
 40
0.3750000000000013
 40
0.3750000000000013
 40
0.4375000000000016
 40
0.4375000000000016
 40
0.5000000000000018
 40
0.5000000000000018
 40
0.6250000000000012
 40
0.6250000000000012
 40
0.687500000000001
 40
0.687500000000001
 40
0.7500000000000008
 40
0.8125000000000006
 40
0.8125000000000006
 40
0.8750000000000003
 40
0.8750000000000003
 40
1.0
 40
1.0
 40
1.0
 40
1.0
 10
-7.071067811865613
 20
-121.4374147375378
 30
0.0
 10
-6.603777977379276
 20
-121.6983549281178
 30
0.0
 10
-6.098405001256458
 20
-121.934244607288
 30
0.0
 10
-5.28553651671616
 20
-122.2517479896336
 30
0.0
 10
-5.005377590839299
 20
-122.3514773799796
 30
0.0
 10
-4.426229922350436
 20
-122.5383349395127
 30
0.0
 10
-4.126378390669788
 20
-122.6255870878363
 30
0.0
 10
-3.217970003345571
 20
-122.8623709573447
 30
0.0
 10
-2.594690721226086
 20
-122.9893137395337
 30
0.0
 10
-1.633459584973254
 20
-123.1327169742277
 30
0.0
 10
-1.307281714602537
 20
-123.1727488357756
 30
0.0
 10
-0.6519968217868697
 20
-123.2356217050034
 30
0.0
 10
-0.3252871497972723
 20
-123.25830966663
 30
0.0
 10
0.65214929888327
 20
-123.3006419019674
 30
0.0
 10
1.300218043371403
 20
-123.2946756988071
 30
0.0
 10
2.26709993615443
 20
-123.2293490109516
 30
0.0
 10
2.587668987844044
 20
-123.1982050862786
 30
0.0
 10
3.213102973708557
 20
-123.1187155114387
 30
0.0
 10
3.826323084575152
 20
-123.0218267918157
 30
0.0
 10
4.415445804320239
 20
-122.8907146461789
 30
0.0
 10
4.992336229943623
 20
-122.7423004281279
 30
0.0
 10
5.27591174964425
 20
-122.6590043094861
 30
0.0
 10
6.097072353149064
 20
-122.3857277115217
 30
0.0
 10
6.604343924856097
 20
-122.1734217471702
 30
0.0
 10
7.071067811865422
 20
-121.9310872229623
 30
0.0
  0
SPLINE
  5
7A
330
1F
100
AcDbEntity
  8
0
  6
Continuous
 62
     7
370
    25
100
AcDbSpline
210
0.0
220
0.0
230
1.0
 70
     8
 71
     3
 72
    18
 73
    14
 74
     0
 42
0.000000001
 43
0.00000001
 40
0.0
 40
0.0
 40
0.0
 40
0.0
 40
0.1249999999999999
 40
0.1249999999999999
 40
0.2499999999999999
 40
0.2499999999999999
 40
0.4999999999999998
 40
0.4999999999999998
 40
0.7499999999999998
 40
0.7499999999999998
 40
0.8749999999999998
 40
0.8749999999999998
 40
1.0
 40
1.0
 40
1.0
 40
1.0
 10
7.071067811865444
 20
-121.9310872229623
 30
0.0
 10
8.837271079977903
 20
-121.0140310350413
 30
0.0
 10
10.60426254310678
 20
-120.0648264183258
 30
0.0
 10
14.13910700416522
 20
-118.1312774166686
 30
0.0
 10
15.90699910659994
 20
-117.1465648298556
 30
0.0
 10
21.21122301293357
 20
-114.1620811307992
 30
0.0
 10
24.74771444116672
 20
-112.1315433067142
 30
0.0
 10
31.82057673139256
 20
-108.0484676129528
 30
0.0
 10
35.35709549926677
 20
-105.9958440865984
 30
0.0
 10
40.6612835585637
 20
-102.8562253729758
 30
0.0
 10
42.42931019996774
 20
-101.799694363048
 30
0.0
 10
45.96435504616106
 20
-99.65187741487325
 30
0.0
 10
47.73137468111459
 20
-98.5609369575682
 30
0.0
 10
49.49747468305829
 20
-97.43884386828114
 30
0.0
  0
SPLINE
  5
7B
330
1F
100
AcDbEntity
  8
0
  6
Continuous
 62
     7
370
    25
100
AcDbSpline
210
0.0
220
0.0
230
1.0
 70
     8
 71
     3
 72
    27
 73
    23
 74
     0
 42
0.000000001
 43
0.00000001
 40
0.0
 40
0.0
 40
0.0
 40
0.0
 40
0.1249999999999996
 40
0.1249999999999996
 40
0.1875000000000001
 40
0.1875000000000001
 40
0.2500000000000007
 40
0.2500000000000007
 40
0.3750000000000012
 40
0.3750000000000012
 40
0.5000000000000017
 40
0.5000000000000017
 40
0.6250000000000021
 40
0.6250000000000021
 40
0.6875000000000018
 40
0.6875000000000018
 40
0.7500000000000014
 40
0.8125000000000012
 40
0.8125000000000012
 40
0.8750000000000009
 40
0.8750000000000009
 40
1.0
 40
1.0
 40
1.0
 40
1.0
 10
49.49747468305828
 20
-97.43884386828113
 30
0.0
 10
49.96422550411016
 20
-97.14229335010835
 30
0.0
 10
50.37738886007863
 20
-96.82339239043428
 30
0.0
 10
50.92005938646177
 20
-96.3124064720664
 30
0.0
 10
51.08800863267449
 20
-96.13659991958475
 30
0.0
 10
51.39744337554232
 20
-95.77371184624617
 30
0.0
 10
51.53917979099634
 20
-95.58598474284547
 30
0.0
 10
51.91520913007582
 20
-95.01769546800296
 30
0.0
 10
52.10424727033664
 20
-94.62855451944952
 30
0.0
 10
52.36022513518332
 20
-93.8296060091203
 30
0.0
 10
52.42591379439779
 20
-93.41646753839208
 30
0.0
 10
52.42689429018614
 20
-92.60742368535388
 30
0.0
 10
52.36427819200804
 20
-92.20762477585149
 30
0.0
 10
52.17338647129693
 20
-91.61634674989533
 30
0.0
 10
52.09322873613377
 20
-91.4206818635952
 30
0.0
 10
51.90377458180612
 20
-91.04106833737974
 30
0.0
 10
51.684572329886
 20
-90.6709056855116
 30
0.0
 10
51.40678000956619
 20
-90.31968543560247
 30
0.0
 10
51.09929567563996
 20
-89.97820507150422
 30
0.0
 10
50.92992562018672
 20
-89.81167295862429
 30
0.0
 10
50.38119901374293
 20
-89.33246058690763
 30
0.0
 10
49.96479071611967
 20
-89.0420576061011
 30
0.0
 10
49.49747468305831
 20
-88.78110449812438
 30
0.0
  0
SPLINE
  5
7C
330
1F
100
AcDbEntity
  8
0
  6
Continuous
 62
     7
370
    25
100
AcDbSpline
210
0.0
220
0.0
230
1.0
 70
     8
 71
     3
 72
    10
 73
     6
 74
     0
 42
0.000000001
 43
0.00000001
 40
0.0
 40
0.0
 40
0.0
 40
0.0
 40
0.5
 40
0.5
 40
1.0
 40
1.0
 40
1.0
 40
1.0
 10
49.49747468305829
 20
-88.78110449812439
 30
0.0
 10
42.42695158991215
 20
-84.83286637735897
 30
0.0
 10
35.35606330416446
 20
-80.83752076566905
 30
0.0
 10
21.21294025346563
 20
-72.67286702973067
 30
0.0
 10
14.14166226511717
 20
-68.50411219100027
 30
0.0
 10
7.071067811865606
 20
-64.28885868140841
 30
0.0
  0
SPLINE
  5
7D
330
1F
100
AcDbEntity
  8
0
  6
Continuous
 62
     7
370
    25
100
AcDbSpline
210
0.0
220
0.0
230
1.0
 70
     8
 71
     3
 72
    29
 73
    25
 74
     0
 42
0.000000001
 43
0.00000001
 40
0.0
 40
0.0
 40
0.0
 40
0.0
 40
0.124999999999999
 40
0.124999999999999
 40
0.1874999999999977
 40
0.1874999999999977
 40
0.2499999999999964
 40
0.2499999999999964
 40
0.3749999999999951
 40
0.3749999999999951
 40
0.4374999999999944
 40
0.4374999999999944
 40
0.4999999999999937
 40
0.4999999999999937
 40
0.6249999999999941
 40
0.6249999999999941
 40
0.6874999999999949
 40
0.6874999999999949
 40
0.7499999999999958
 40
0.8124999999999966
 40
0.8124999999999966
 40
0.8749999999999974
 40
0.8749999999999974
 40
1.0
 40
1.0
 40
1.0
 40
1.0
 10
7.071067811865613
 20
-64.2888586814084
 30
0.0
 10
6.603778006422558
 20
-64.0102760239793
 30
0.0
 10
6.098405047541233
 20
-63.76858377008288
 30
0.0
 10
5.285536561866064
 20
-63.45885828006019
 30
0.0
 10
5.005377631128412
 20
-63.36447917746676
 30
0.0
 10
4.426229942311833
 20
-63.19374500141841
 30
0.0
 10
4.126378401753193
 20
-63.11732884751643
 30
0.0
 10
3.217969992695146
 20
-62.92010644900895
 30
0.0
 10
2.594690688863678
 20
-62.82900774201118
 30
0.0
 10
1.633459511079936
 20
-62.7513054272607
 30
0.0
 10
1.307281614133245
 20
-62.73528149399868
 30
0.0
 10
0.6519967293482192
 20
-62.72367870312186
 30
0.0
 10
0.3252870610786808
 20
-62.72804906555067
 30
0.0
 10
-0.6521493809073069
 20
-62.77044042442476
 30
0.0
 10
-1.300218129089675
 20
-62.83733041892034
 30
0.0
 10
-2.267100056766343
 20
-62.9933358728949
 30
0.0
 10
-2.587669077955369
 20
-63.05483542800508
 30
0.0
 10
-3.213103032593988
 20
-63.19419298246608
 30
0.0
 10
-3.826323146063647
 20
-63.35042927418225
 30
0.0
 10
-4.415445846937001
 20
-63.54005144507664
 30
0.0
 10
-4.992336284909152
 20
-63.74667806142433
 30
0.0
 10
-5.275911819812181
 20
-63.85906304098997
 30
0.0
 10
-6.097072376702696
 20
-64.21828066693483
 30
0.0
 10
-6.604343931686904
 20
-64.48598599410596
 30
0.0
 10
-7.071067811865444
 20
-64.78251939537269
 30
0.0
  0
SPLINE
  5
7E
330
1F
100
AcDbEntity
  8
0
  6
Continuous
 62
     7
370
    25
100
AcDbSpline
210
0.0
220
0.0
230
1.0
 70
     8
 71
     3
 72
    18
 73
    14
 74
     0
 42
0.000000001
 43
0.00000001
 40
0.0
 40
0.0
 40
0.0
 40
0.0
 40
0.125
 40
0.125
 40
0.2500000000000001
 40
0.2500000000000001
 40
0.5000000000000001
 40
0.5000000000000001
 40
0.75
 40
0.75
 40
0.8750000000000001
 40
0.8750000000000001
 40
1.0
 40
1.0
 40
1.0
 40
1.0
 10
-7.071067811865426
 20
-64.7825193953727
 30
0.0
 10
-8.837159638783989
 20
-65.90460729065084
 30
0.0
 10
-10.60418647571974
 20
-66.99555245088592
 30
0.0
 10
-14.13926258299138
 20
-69.14338819237449
 30
0.0
 10
-15.90728058712835
 20
-70.19991370342815
 30
0.0
 10
-21.21139456357523
 20
-73.33948860247874
 30
0.0
 10
-24.74790218693822
 20
-75.39210616967746
 30
0.0
 10
-31.82072208137864
 20
-79.47515792564775
 30
0.0
 10
-35.35721086781955
 20
-81.5056940411523
 30
0.0
 10
-40.66131200449193
 20
-84.49011091791539
 30
0.0
 10
-42.42934154818251
 20
-85.47490148203947
 30
0.0
 10
-45.96435181102407
 20
-87.40854132760306
 30
0.0
 10
-47.73136404270841
 20
-88.357754656746
 30
0.0
 10
-49.49747468305825
 20
-89.27476275005384
 30
0.0
  0
LWPOLYLINE
  5
82
330
1F
100
AcDbEntity
  8
0
  6
Continuous
 62
     7
370
    25
100
AcDbPolyline
 90
       10
 70
   128
 43
0.0
 10
24.6904264356
 20
-90.263744134
 10
27.0616368538
 20
-91.7788747619
 10
29.1551582578
 20
-93.4247180899
 10
30.9495082847
 20
-95.1843855383
 10
32.4262744753
 20
-97.0398205379
 10
33.57030321
 20
-98.9719838147
 10
34.3698552059
 20
-100.9610487589
 10
34.8167259775
 20
-102.9866048726
 10
34.9063300261
 20
-105.027867209
 10
34.7590664243
 20
-106.4354890939
  0
LWPOLYLINE
  5
83
330
1F
100
AcDbEntity
  8
0
  6
Continuous
 62
     7
370
    25
100
AcDbPolyline
 90
       25
 70
   128
 43
0.0
 10
-34.8591624914
 20
-105.6823023057
 10
-34.9063300261
 20
-104.0065806338
 10
-34.6377478927
 20
-101.9705581886
 10
-34.0137355937
 20
-99.9606679799
 10
-33.0406963395
 20
-97.9975342013
 10
-31.7286148296
 20
-96.1013012617
 10
-30.0909547959
 20
-94.2914270772
 10
-28.1445208465
 20
-92.586483406
 10
-25.9092860275
 20
-91.0039652774
 10
-23.408186873
 20
-89.5601114688
 10
-20.6668880449
 20
-88.2697378742
 10
-17.7135189787
 20
-87.1460854728
 10
-14.5783852375
 20
-86.2006844587
 10
-11.2936575361
 20
-85.4432359259
 10
-7.8930416256
 20
-84.881512321
 10
-4.411432427
 20
-84.5212776886
 10
-0.8845559621
 20
-84.3662285233
 10
2.6513972439
 20
-84.4179558395
 10
6.1601435264
 20
-84.6759288449
 10
9.6056784002
 20
-85.1375003873
 10
12.9526460151
 20
-85.7979341181
 10
16.1667019541
 20
-86.6504530935
 10
19.2148656541
 20
-87.6863093153
 10
22.0658588306
 20
-88.8948734967
 10
24.6904264356
 20
-90.263744134
  0
LWPOLYLINE
  5
84
330
1F
100
AcDbEntity
  8
0
  6
Continuous
 62
     7
370
    25
100
AcDbPolyline
 90
       28
 70
   128
 43
0.0
 10
22.9858378715
 20
-113.1485062082
 10
22.9886508884
 20
-113.0996920808
 10
22.8979251859
 20
-111.4330978639
 10
22.4460855246
 20
-109.7862095474
 10
21.6402576859
 20
-108.1849995438
 10
20.4931500563
 20
-106.6547198915
 10
19.0228532083
 20
-105.2195040146
 10
17.2525546015
 20
-103.901986125
 10
15.2101729024
 20
-102.7229442667
 10
12.9279176906
 20
-101.7009726343
 10
10.441781494
 20
-100.8521883308
 10
7.7909721656
 20
-100.1899771918
 10
5.0172945521
 20
-99.7247826825
 10
2.1644912063
 20
-99.4639411982
 10
-0.7224474588
 20
-99.4115663649
 10
-3.5979926959
 20
-99.5684841651
 10
-6.4167954389
 20
-99.9322199113
 10
-9.1344014846
 20
-100.4970372735
 10
-11.7079525623
 20
-101.2540287445
 10
-14.096862234
 20
-102.1912561166
 10
-16.2634559673
 20
-103.2939387543
 10
-18.1735652846
 20
-104.5446866936
 10
-19.7970666211
 20
-105.9237748924
 10
-21.1083563907
 20
-107.4094543059
 10
-22.0867547706
 20
-108.9782948824
 10
-22.7168318337
 20
-110.6055550687
 10
-22.9886508884
 20
-112.2655719996
 10
-23.0
 20
-112.6826320402
  0
LWPOLYLINE
  5
85
330
1F
100
AcDbEntity
  8
0
  6
Continuous
 62
     7
370
    25
100
AcDbPolyline
 90
       24
 70
   128
 43
0.0
 10
-22.6154679411
 20
-112.7144862979
 10
-22.0867547706
 20
-111.427917318
 10
-21.1083563907
 20
-109.8590767416
 10
-19.7970666211
 20
-108.373397328
 10
-18.1735652846
 20
-106.9943091292
 10
-16.2634559673
 20
-105.7435611899
 10
-14.096862234
 20
-104.6408785523
 10
-11.7079525623
 20
-103.7036511802
 10
-9.1344014846
 20
-102.9466597092
 10
-6.4167954389
 20
-102.381842347
 10
-3.5979926959
 20
-102.0181066008
 10
-0.7224474588
 20
-101.8611888006
 10
2.1644912063
 20
-101.9135636338
 10
5.0172945521
 20
-102.1744051181
 10
7.7909721656
 20
-102.6395996274
 10
10.441781494
 20
-103.3018107664
 10
12.9279176906
 20
-104.1505950699
 10
15.2101729024
 20
-105.1725667024
 10
17.2525546015
 20
-106.3516085606
 10
19.0228532083
 20
-107.6691264503
 10
20.4931500563
 20
-109.1043423271
 10
21.6402576859
 20
-110.6346219795
 10
22.4460855246
 20
-112.235831983
 10
22.7840147835
 20
-113.3169007413
  0
LINE
  5
8A
330
1F
100
AcDbEntity
  8
0
  6
Continuous
 62
     7
370
    25
100
AcDbLine
 10
-7.0710678119
 20
-75.9429400076
 30
0.0
 11
-46.5094424517
 21
-98.7102290718
 31
0.0
  0
LINE
  5
8B
330
1F
100
AcDbEntity
  8
0
  6
Continuous
 62
     7
370
    25
100
AcDbLine
 10
46.9864642925
 20
-98.9856079189
 30
0.0
 11
7.0710678119
 21
-75.9429400076
 31
0.0
  0
LINE
  5
8C
330
1F
100
AcDbEntity
  8
0
  6
Continuous
 62
     7
370
    25
100
AcDbLine
 10
7.0710678119
 20
-64.2888586814
 30
0.0
 11
7.0710678119
 21
-75.9429400076
 31
0.0
  0
LINE
  5
8D
330
1F
100
AcDbEntity
  8
0
  6
Continuous
 62
     7
370
    25
100
AcDbLine
 10
-7.0710678119
 20
-64.7825193954
 30
0.0
 11
-7.0710678119
 21
-75.9429400076
 31
0.0
  0
LINE
  5
8E
330
1F
100
AcDbEntity
  8
0
  6
Continuous
 62
     8
370
    25
100
AcDbLine
 10
-49.4974746831
 20
-89.2747627501
 30
0.0
 11
-49.4974746831
 21
-96.9451713829
 31
0.0
  0
LINE
  5
8F
330
1F
100
AcDbEntity
  8
0
  6
Continuous
 62
     8
370
    25
100
AcDbLine
 10
49.4974746831
 20
-88.7811044981
 30
0.0
 11
49.4974746831
 21
-97.4388438683
 31
0.0
  0
ARC
  5
90
330
1F
100
AcDbEntity
  8
0
  6
Continuous
 62
     7
370
    25
100
AcDbCircle
 10
0.0
 20
-89.5900508571
 30
0.0
 40
15.37021907911712
100
AcDbArc
 50
62.6096722366
 51
117.3903277634
  0
SPLINE
  5
91
330
1B
100
AcDbEntity
 67
     1
  8
0
  6
Continuous
 62
     7
370
    25
100
AcDbSpline
210
0.0
220
0.0
230
1.0
 70
     8
 71
     3
 72
    27
 73
    23
 74
     0
 42
0.000000001
 43
0.00000001
 40
0.0
 40
0.0
 40
0.0
 40
0.0
 40
0.1250000000000003
 40
0.1250000000000003
 40
0.1875000000000005
 40
0.1875000000000005
 40
0.2500000000000007
 40
0.2500000000000007
 40
0.3750000000000011
 40
0.3750000000000011
 40
0.5000000000000014
 40
0.5000000000000014
 40
0.6250000000000019
 40
0.6250000000000019
 40
0.6875000000000018
 40
0.6875000000000018
 40
0.7500000000000017
 40
0.8125000000000016
 40
0.8125000000000016
 40
0.8750000000000014
 40
0.8750000000000014
 40
1.0
 40
1.0
 40
1.0
 40
1.0
 10
-39.99999999999999
 20
-29.99999999999993
 30
0.0
 10
-39.99999999999999
 20
-30.66008535179247
 30
0.0
 10
-39.9352831925139
 20
-31.3091033888088
 30
0.0
 10
-39.74515502644249
 20
-32.26668358182447
 30
0.0
 10
-39.66615514918087
 20
-32.58319956316785
 30
0.0
 10
-39.47620952334564
 20
-33.21075200238818
 30
0.0
 10
-39.36471005909664
 20
-33.52269702845005
 30
0.0
 10
-38.98900278993692
 20
-34.43019008884385
 30
0.0
 10
-38.68247350591461
 20
-35.00405967212785
 30
0.0
 10
-37.95840457172172
 20
-36.0901359636649
 30
0.0
 10
-37.53690606140918
 20
-36.60453225768275
 30
0.0
 10
-36.61586287285511
 20
-37.52696205443174
 30
0.0
 10
-36.1132518162275
 20
-37.94102056338355
 30
0.0
 10
-35.29460992052576
 20
-38.4897007973569
 30
0.0
 10
-35.01068786942737
 20
-38.66026269588511
 30
0.0
 10
-34.4336216094725
 20
-38.96940033171583
 30
0.0
 10
-33.84429061891304
 20
-39.24873253874427
 30
0.0
 10
-33.23079623548104
 20
-39.46936927374697
 30
0.0
 10
-32.60505322469535
 20
-39.66026378802805
 30
0.0
 10
-32.28469881943124
 20
-39.7410927760067
 30
0.0
 10
-31.31465374375587
 20
-39.93512124733017
 30
0.0
 10
-30.66088471547122
 20
-40.00000000000003
 30
0.0
 10
-29.99999999999993
 20
-40.00000000000001
 30
0.0
  0
SPLINE
  5
92
330
1B
100
AcDbEntity
 67
     1
  8
0
  6
Continuous
 62
     7
370
    25
100
AcDbSpline
210
0.0
220
0.0
230
1.0
 70
    24
 71
     3
 72
    10
 73
     6
 74
     0
 42
0.000000001
 43
0.00000001
 40
0.0
 40
0.0
 40
0.0
 40
0.0
 40
0.5
 40
0.5
 40
1.0
 40
1.0
 40
1.0
 40
1.0
 10
-29.99999999999993
 20
-40.00000000000001
 30
0.0
 10
-20.00078616169725
 20
-40.0
 30
0.0
 10
-10.00060968354009
 20
-39.99999999999999
 30
0.0
 10
10.00053472664379
 20
-39.99999999999999
 30
0.0
 10
20.00077079640012
 20
-39.99999999999999
 30
0.0
 10
29.99999999999991
 20
-39.99999999999999
 30
0.0
  0
SPLINE
  5
93
330
1B
100
AcDbEntity
 67
     1
  8
0
  6
Continuous
 62
     7
370
    25
100
AcDbSpline
210
0.0
220
0.0
230
1.0
 70
     8
 71
     3
 72
    29
 73
    25
 74
     0
 42
0.000000001
 43
0.00000001
 40
0.0
 40
0.0
 40
0.0
 40
0.0
 40
0.1249999999999996
 40
0.1249999999999996
 40
0.1875
 40
0.1875
 40
0.2500000000000004
 40
0.2500000000000004
 40
0.3750000000000013
 40
0.3750000000000013
 40
0.4375000000000016
 40
0.4375000000000016
 40
0.5000000000000018
 40
0.5000000000000018
 40
0.6250000000000012
 40
0.6250000000000012
 40
0.687500000000001
 40
0.687500000000001
 40
0.7500000000000008
 40
0.8125000000000006
 40
0.8125000000000006
 40
0.8750000000000003
 40
0.8750000000000003
 40
1.0
 40
1.0
 40
1.0
 40
1.0
 10
29.99999999999994
 20
-40.00000000000001
 30
0.0
 10
30.66084762148959
 20
-40.0
 30
0.0
 10
31.31068904243824
 20
-39.93513610405891
 30
0.0
 10
32.26961183278343
 20
-39.74448925914154
 30
0.0
 10
32.58659325465285
 20
-39.66526612841602
 30
0.0
 10
33.21511474784553
 20
-39.474749134215
 30
0.0
 10
33.52737824160922
 20
-39.36295852517758
 30
0.0
 10
34.43552124588692
 20
-38.98641806792789
 30
0.0
 10
35.00978280901693
 20
-38.67922961713835
 30
0.0
 10
35.82488897038385
 20
-38.13494966904122
 30
0.0
 10
36.08986216965894
 20
-37.93863770029207
 30
0.0
 10
36.5988301659451
 20
-37.52089291394011
 30
0.0
 10
36.84106714781978
 20
-37.30109264672863
 30
0.0
 10
37.5321828034001
 20
-36.60990442022715
 30
0.0
 10
37.94581667615212
 20
-36.10703068517394
 30
0.0
 10
38.49395303642648
 20
-35.28778955946157
 30
0.0
 10
38.66389112370521
 20
-35.00437454616377
 30
0.0
 10
38.97210926184882
 20
-34.42809545912872
 30
0.0
 10
39.25069775467811
 20
-33.83945975445054
 30
0.0
 10
39.4708403152055
 20
-33.22645697481231
 30
0.0
 10
39.66132267066121
 20
-32.60109306634823
 30
0.0
 10
39.74199815274454
 20
-32.28073220251395
 30
0.0
 10
39.93528237410916
 20
-31.31271996151559
 30
0.0
 10
39.99999999999999
 20
-30.66004725089201
 30
0.0
 10
39.99999999999996
 20
-29.99999999999991
 30
0.0
  0
SPLINE
  5
94
330
1B
100
AcDbEntity
 67
     1
  8
0
  6
Continuous
 62
     7
370
    25
100
AcDbSpline
210
0.0
220
0.0
230
1.0
 70
    24
 71
     3
 72
    18
 73
    14
 74
     0
 42
0.000000001
 43
0.00000001
 40
0.0
 40
0.0
 40
0.0
 40
0.0
 40
0.1249999999999999
 40
0.1249999999999999
 40
0.2499999999999999
 40
0.2499999999999999
 40
0.4999999999999998
 40
0.4999999999999998
 40
0.7499999999999998
 40
0.7499999999999998
 40
0.8749999999999998
 40
0.8749999999999998
 40
1.0
 40
1.0
 40
1.0
 40
1.0
 10
40.00000000000001
 20
-29.99999999999993
 30
0.0
 10
40.00000000000001
 20
-27.50221138432761
 30
0.0
 10
40.00000000000002
 20
-25.00330809257329
 30
0.0
 10
40.00000000000002
 20
-20.00428311486504
 30
0.0
 10
40.0
 20
-17.50410612678956
 30
0.0
 10
40.00000000000001
 20
-10.00280074058896
 30
0.0
 10
39.99999999999999
 20
-5.001446599565433
 30
0.0
 10
40.0
 20
5.001091176069151
 30
0.0
 10
40.00000000000002
 20
10.00248398118382
 30
0.0
 10
40.00000000000001
 20
17.50373867201894
 30
0.0
 10
39.99999999999998
 20
20.00410592692952
 30
0.0
 10
39.99999999999999
 20
25.00341429201322
 30
0.0
 10
40.00000000000006
 20
27.50235742474399
 30
0.0
 10
40.00000000000005
 20
29.99999999999992
 30
0.0
  0
SPLINE
  5
95
330
1B
100
AcDbEntity
 67
     1
  8
0
  6
Continuous
 62
     7
370
    25
100
AcDbSpline
210
0.0
220
0.0
230
1.0
 70
     8
 71
     3
 72
    27
 73
    23
 74
     0
 42
0.000000001
 43
0.00000001
 40
0.0
 40
0.0
 40
0.0
 40
0.0
 40
0.1249999999999996
 40
0.1249999999999996
 40
0.1875000000000001
 40
0.1875000000000001
 40
0.2500000000000007
 40
0.2500000000000007
 40
0.3750000000000012
 40
0.3750000000000012
 40
0.5000000000000017
 40
0.5000000000000017
 40
0.6250000000000021
 40
0.6250000000000021
 40
0.6875000000000018
 40
0.6875000000000018
 40
0.7500000000000014
 40
0.8125000000000012
 40
0.8125000000000012
 40
0.8750000000000009
 40
0.8750000000000009
 40
1.0
 40
1.0
 40
1.0
 40
1.0
 10
40.00000000000002
 20
29.99999999999993
 30
0.0
 10
40.00000000000002
 20
30.66008534138027
 30
0.0
 10
39.9352831945362
 20
31.30910336833028
 30
0.0
 10
39.74515503442856
 20
32.26668354674911
 30
0.0
 10
39.66615515965021
 20
32.58319952331183
 30
0.0
 10
39.47620953984212
 20
33.21075195315304
 30
0.0
 10
39.36471007904132
 20
33.52269697497106
 30
0.0
 10
38.98900282116459
 20
34.43019002402417
 30
0.0
 10
38.68247354629667
 20
35.00405960065473
 30
0.0
 10
37.95840463413283
 20
36.09013588095204
 30
0.0
 10
37.53690613889256
 20
36.60453216894753
 30
0.0
 10
36.61586296596036
 20
37.52696197232146
 30
0.0
 10
36.11325190848207
 20
37.94102049453338
 30
0.0
 10
35.29460998496295
 20
38.48970075767811
 30
0.0
 10
35.01068791805682
 20
38.6602626683874
 30
0.0
 10
34.43362162952667
 20
38.96940032241945
 30
0.0
 10
33.84429061066115
 20
39.24873254371683
 30
0.0
 10
33.23079620184913
 20
39.46936928560947
 30
0.0
 10
32.60505316869254
 20
39.66026380351033
 30
0.0
 10
32.28469875062776
 20
39.74109279209324
 30
0.0
 10
31.31465367802442
 20
39.93512125582882
 30
0.0
 10
30.66088467186973
 20
40.0
 30
0.0
 10
29.99999999999997
 20
40.0
 30
0.0
  0
SPLINE
  5
96
330
1B
100
AcDbEntity
 67
     1
  8
0
  6
Continuous
 62
     7
370
    25
100
AcDbSpline
210
0.0
220
0.0
230
1.0
 70
    24
 71
     3
 72
    10
 73
     6
 74
     0
 42
0.000000001
 43
0.00000001
 40
0.0
 40
0.0
 40
0.0
 40
0.0
 40
0.5
 40
0.5
 40
1.0
 40
1.0
 40
1.0
 40
1.0
 10
29.99999999999993
 20
40.00000000000001
 30
0.0
 10
20.00077034860047
 20
40.00000000000001
 30
0.0
 10
10.00102423687104
 20
39.99999999999999
 30
0.0
 10
-10.0003721957388
 20
39.99999999999997
 30
0.0
 10
-20.00066943017157
 20
39.99999999999999
 30
0.0
 10
-29.99999999999993
 20
39.99999999999999
 30
0.0
  0
SPLINE
  5
97
330
1B
100
AcDbEntity
 67
     1
  8
0
  6
Continuous
 62
     7
370
    25
100
AcDbSpline
210
0.0
220
0.0
230
1.0
 70
     8
 71
     3
 72
    29
 73
    25
 74
     0
 42
0.000000001
 43
0.00000001
 40
0.0
 40
0.0
 40
0.0
 40
0.0
 40
0.124999999999999
 40
0.124999999999999
 40
0.1874999999999977
 40
0.1874999999999977
 40
0.2499999999999964
 40
0.2499999999999964
 40
0.3749999999999951
 40
0.3749999999999951
 40
0.4374999999999944
 40
0.4374999999999944
 40
0.4999999999999937
 40
0.4999999999999937
 40
0.6249999999999941
 40
0.6249999999999941
 40
0.6874999999999949
 40
0.6874999999999949
 40
0.7499999999999958
 40
0.8124999999999966
 40
0.8124999999999966
 40
0.8749999999999974
 40
0.8749999999999974
 40
1.0
 40
1.0
 40
1.0
 40
1.0
 10
-29.99999999999992
 20
39.99999999999999
 30
0.0
 10
-30.66084758041618
 20
39.99999999999999
 30
0.0
 10
-31.31068898480157
 20
39.93513611187879
 30
0.0
 10
-32.26961178103888
 20
39.7444892712486
 30
0.0
 10
-32.58659321002941
 20
39.66526614077
 30
0.0
 10
-33.21511472708193
 20
39.47474914168107
 30
0.0
 10
-33.52737823042487
 20
39.36295852966752
 30
0.0
 10
-34.43552125674258
 20
38.98641806372158
 30
0.0
 10
-35.00978283934425
 20
38.67922960169832
 30
0.0
 10
-35.8248890316017
 20
38.13494962575813
 30
0.0
 10
-36.08986224996188
 20
37.93863763850997
 30
0.0
 10
-36.59883023547618
 20
37.5208928527432
 30
0.0
 10
-36.84106721254254
 20
37.30109258598436
 30
0.0
 10
-37.53218285741178
 20
36.60990435823931
 30
0.0
 10
-37.94581673000974
 20
36.10703061780762
 30
0.0
 10
-38.49395310217118
 20
35.28778945463527
 30
0.0
 10
-38.66389116999213
 20
35.00437446501402
 30
0.0
 10
-38.97210928898853
 20
34.42809540299186
 30
0.0
 10
-39.25069782117468
 20
33.83945973398924
 30
0.0
 10
-39.47084033072521
 20
33.22645693006281
 30
0.0
 10
-39.66132268736207
 20
32.60109300531612
 30
0.0
 10
-39.7419981710973
 20
32.28073212163427
 30
0.0
 10
-39.93528237597968
 20
31.31271993007624
 30
0.0
 10
-40.00000000000002
 20
30.66004724123183
 30
0.0
 10
-40.00000000000001
 20
29.99999999999993
 30
0.0
  0
SPLINE
  5
98
330
1B
100
AcDbEntity
 67
     1
  8
0
  6
Continuous
 62
     7
370
    25
100
AcDbSpline
210
0.0
220
0.0
230
1.0
 70
    24
 71
     3
 72
    18
 73
    14
 74
     0
 42
0.000000001
 43
0.00000001
 40
0.0
 40
0.0
 40
0.0
 40
0.0
 40
0.125
 40
0.125
 40
0.2500000000000001
 40
0.2500000000000001
 40
0.5000000000000001
 40
0.5000000000000001
 40
0.75
 40
0.75
 40
0.8750000000000001
 40
0.8750000000000001
 40
1.0
 40
1.0
 40
1.0
 40
1.0
 10
-39.99999999999998
 20
29.99999999999992
 30
0.0
 10
-39.99999999999998
 20
27.50236898597542
 30
0.0
 10
-39.99999999999996
 20
25.00341566810364
 30
0.0
 10
-39.99999999999997
 20
20.00406309317901
 30
0.0
 10
-40.0
 20
17.50370805320872
 30
0.0
 10
-40.0
 20
10.00255813134488
 30
0.0
 10
-39.99999999999997
 20
5.001181086949088
 30
0.0
 10
-39.99999999999996
 20
-5.001296731990794
 30
0.0
 10
-39.99999999999998
 20
-10.00264713695587
 30
0.0
 10
-39.99999999999996
 20
-17.50377890063649
 30
0.0
 10
-39.99999999999997
 20
-20.00415026000002
 30
0.0
 10
-40.0
 20
-25.0034097168386
 30
0.0
 10
-39.99999999999999
 20
-27.50234237976574
 30
0.0
 10
-39.99999999999998
 20
-29.99999999999993
 30
0.0
  0
LWPOLYLINE
  5
99
330
1B
100
AcDbEntity
 67
     1
  8
0
  6
Continuous
 62
     7
370
    25
100
AcDbPolyline
 90
       95
 70
   128
 43
0.0
 10
0.0
 20
-165.0
 10
107.9383757088
 20
-165.0
 10
120.0539076761
 20
-165.0
 10
132.1694396434
 20
-165.0
 10
144.2849716107
 20
-165.0
 10
156.3933681983
 20
-164.9339866415
 10
168.3669753355
 20
-163.9004369302
 10
180.0849502556
 20
-161.6471983029
 10
191.4635463218
 20
-158.20547248
 10
201.2481234822
 20
-154.1623322421
 10
210.6397098365
 20
-149.2206244215
 10
219.5729796709
 20
-143.4085185675
 10
227.9590816673
 20
-136.7777098338
 10
235.7020599507
 20
-129.3871959467
 10
242.5987467235
 20
-121.4579427359
 10
248.7347042627
 20
-112.9534707292
 10
254.0540760987
 20
-103.964837385
 10
258.5169996242
 20
-94.5671062993
 10
262.1625917644
 20
-84.633098727
 10
264.8841650422
 20
-74.3847745723
 10
266.658188222
 20
-63.8828212355
 10
267.4555906673
 20
-53.1934655174
 10
267.5
 20
-42.4043618856
 10
267.5
 20
0.0
 10
267.5
 20
13.4922969636
 10
267.5
 20
26.9845939272
 10
267.5
 20
40.4768908908
 10
267.4316455022
 20
53.9617894395
 10
266.5876486738
 20
64.4507681469
 10
264.8031120335
 20
74.7555445697
 10
262.1055408062
 20
84.8134124943
 10
258.5169996242
 20
94.5671062993
 10
253.9649403668
 20
104.1320893798
 10
248.5255517453
 20
113.2717540508
 10
242.241669738
 20
121.9061081696
 10
235.172323192
 20
129.9389667246
 10
227.3802628164
 20
137.2772394688
 10
219.1074361668
 20
143.741151927
 10
210.3117218457
 20
149.4123469445
 10
201.0766717699
 20
154.2424735934
 10
191.4635463218
 20
158.20547248
 10
180.1101756577
 20
161.6409719422
 10
168.418726529
 20
163.8932294544
 10
156.4723657125
 20
164.9312799757
 10
144.3907071625
 20
165.0
 10
132.3016090831
 20
165.0
 10
84.8087237712
 20
165.0
 10
0.0
 20
165.0
 10
-107.9383757088
 20
165.0
 10
-120.0539076761
 20
165.0
 10
-132.1694396434
 20
165.0
 10
-144.2849716107
 20
165.0
 10
-156.3933681983
 20
164.9339866415
 10
-168.3669753355
 20
163.9004369302
 10
-180.0849502556
 20
161.6471983029
 10
-191.4635463218
 20
158.20547248
 10
-201.2481234822
 20
154.1623322421
 10
-210.6397098365
 20
149.2206244215
 10
-219.5729796709
 20
143.4085185675
 10
-227.9590816673
 20
136.7777098338
 10
-235.7020599507
 20
129.3871959467
 10
-242.5987467235
 20
121.4579427359
 10
-248.7347042627
 20
112.9534707292
 10
-254.0540760987
 20
103.964837385
 10
-258.5169996242
 20
94.5671062993
 10
-262.1625917644
 20
84.633098727
 10
-264.8841650422
 20
74.3847745723
 10
-266.658188222
 20
63.8828212355
 10
-267.4555906673
 20
53.1934655174
 10
-267.5
 20
42.4043618856
 10
-267.5
 20
0.0
 10
-267.5
 20
-13.4922969636
 10
-267.5
 20
-26.9845939272
 10
-267.5
 20
-40.4768908908
 10
-267.4316455022
 20
-53.9617894395
 10
-266.5876486738
 20
-64.4507681469
 10
-264.8031120335
 20
-74.7555445697
 10
-262.1055408062
 20
-84.8134124943
 10
-258.5169996242
 20
-94.5671062993
 10
-253.9649403668
 20
-104.1320893798
 10
-248.5255517453
 20
-113.2717540508
 10
-242.241669738
 20
-121.9061081696
 10
-235.172323192
 20
-129.9389667246
 10
-227.3802628164
 20
-137.2772394688
 10
-219.1074361668
 20
-143.741151927
 10
-210.3117218457
 20
-149.4123469445
 10
-201.0766717699
 20
-154.2424735934
 10
-191.4635463218
 20
-158.20547248
 10
-180.1101756577
 20
-161.6409719422
 10
-168.418726529
 20
-163.8932294544
 10
-156.4723657125
 20
-164.9312799757
 10
-144.3907071625
 20
-165.0
 10
-132.3016090831
 20
-165.0
 10
-84.8087237712
 20
-165.0
 10
0.0
 20
-165.0
  0
CIRCLE
  5
9A
330
1B
100
AcDbEntity
 67
     1
  8
0
  6
Continuous
 62
     7
370
    25
100
AcDbCircle
 10
0.0
 20
0.0
 30
0.0
 40
34.91753592594155
  0
CIRCLE
  5
9B
330
1B
100
AcDbEntity
 67
     1
  8
0
  6
Continuous
 62
     7
370
    25
100
AcDbCircle
 10
0.0
 20
0.0
 30
0.0
 40
22.9999999999964
  0
VIEWPORT
  5
17F
330
1B
100
AcDbEntity
 67
     1
  8
0
100
AcDbViewport
 10
0.0
 20
0.0
 30
0.0
 40
205.6
 41
156.0
 68
     1
 69
     1
 12
0.0
 22
-22.6961034758
 13
0.0
 23
0.0
 14
10.0
 24
10.0
 15
10.0
 25
10.0
 16
0.0
 26
0.0
 36
1.0
 17
0.0
 27
0.0
 37
0.0
 42
50.0
 43
0.0
 44
0.0
 45
399.6151273282
 50
0.0
 51
0.0
 72
   100
 90
   557152
  1

281
     0
 71
     1
 74
     0
110
0.0
120
0.0
130
0.0
111
1.0
121
0.0
131
0.0
112
0.0
122
1.0
132
0.0
 79
     0
146
0.0
170
     0
 61
     5
348
2F
292
     1
282
     1
141
0.0
142
0.0
 63
   256
361
180
  0
ENDSEC
  0
SECTION
  2
OBJECTS
  0
DICTIONARY
  5
C
330
0
100
AcDbDictionary
281
     1
  3
ACAD_DETAILVIEWSTYLE
350
19B
  3
ACAD_GROUP
350
D
  3
ACAD_LAYOUT
350
1A
  3
ACAD_MATERIAL
350
43
  3
ACAD_MLEADERSTYLE
350
6B
  3
ACAD_MLINESTYLE
350
17
  3
ACAD_PLOTSETTINGS
350
19
  3
ACAD_PLOTSTYLENAME
350
E
  3
ACAD_SCALELIST
350
47
  3
ACAD_SECTIONVIEWSTYLE
350
19C
  3
ACAD_TABLESTYLE
350
69
  3
ACAD_VISUALSTYLE
350
2A
  3
ACDB_RECOMPOSE_DATA
350
198
  3
AcDbVariableDictionary
350
193
  0
SUN
  5
6D
330
29
100
AcDbSun
 90
        1
290
     0
 63
     7
421
 16777215
 40
1.0
291
     1
 91
  2455826
 92
 54000000
292
     0
 70
     2
 71
   256
280
     1
  0
SUN
  5
182
330
181
100
AcDbSun
 90
        1
290
     0
 63
     7
421
 16777215
 40
1.0
291
     1
 91
  2455826
 92
 54000000
292
     0
 70
     2
 71
   256
280
     1
  0
SUN
  5
184
330
183
100
AcDbSun
 90
        1
290
     0
 63
     7
421
 16777215
 40
1.0
291
     1
 91
  2455826
 92
 54000000
292
     0
 70
     2
 71
   256
280
     1
  0
SUN
  5
186
330
185
100
AcDbSun
 90
        1
290
     0
 63
     7
421
 16777215
 40
1.0
291
     1
 91
  2455826
 92
 54000000
292
     0
 70
     2
 71
   256
280
     1
  0
SUN
  5
188
330
187
100
AcDbSun
 90
        1
290
     0
 63
     7
421
 16777215
 40
1.0
291
     1
 91
  2455826
 92
 54000000
292
     0
 70
     2
 71
   256
280
     1
  0
SUN
  5
18A
330
189
100
AcDbSun
 90
        1
290
     0
 63
     7
421
 16777215
 40
1.0
291
     1
 91
  2455826
 92
 54000000
292
     0
 70
     2
 71
   256
280
     1
  0
SUN
  5
18C
330
18B
100
AcDbSun
 90
        1
290
     0
 63
     7
421
 16777215
 40
1.0
291
     1
 91
  2455826
 92
 54000000
292
     0
 70
     2
 71
   256
280
     1
  0
SUN
  5
18E
330
18D
100
AcDbSun
 90
        1
290
     0
 63
     7
421
 16777215
 40
1.0
291
     1
 91
  2455826
 92
 54000000
292
     0
 70
     2
 71
   256
280
     1
  0
SUN
  5
190
330
18F
100
AcDbSun
 90
        1
290
     0
 63
     7
421
 16777215
 40
1.0
291
     1
 91
  2455826
 92
 54000000
292
     0
 70
     2
 71
   256
280
     1
  0
SUN
  5
192
330
191
100
AcDbSun
 90
        1
290
     0
 63
     7
421
 16777215
 40
1.0
291
     1
 91
  2455826
 92
 54000000
292
     0
 70
     2
 71
   256
280
     1
  0
SUN
  5
180
330
17F
100
AcDbSun
 90
        1
290
     0
 63
     7
421
 16777215
 40
1.0
291
     1
 91
  2455826
 92
 54000000
292
     0
 70
     2
 71
   256
280
     1
  0
DICTIONARY
  5
19B
102
{ACAD_REACTORS
330
C
102
}
330
C
100
AcDbDictionary
281
     1
  0
DICTIONARY
  5
D
102
{ACAD_REACTORS
330
C
102
}
330
C
100
AcDbDictionary
281
     1
  0
DICTIONARY
  5
1A
102
{ACAD_REACTORS
330
C
102
}
330
C
100
AcDbDictionary
281
     1
  3
_Dimetrisch
350
166
  3
_Isometrisch
350
128
  3
_Links
350
B0
  3
_Normal auf
350
CB
  3
_Oben
350
1E
  3
_Rechts
350
F8
  3
_Rückseite
350
E2
  3
_Trimetrisch
350
14A
  3
_Unten
350
112
  3
_Vorderseite
350
26
  3
Model
350
22
  0
DICTIONARY
  5
43
102
{ACAD_REACTORS
330
C
102
}
330
C
100
AcDbDictionary
281
     1
  3
ByBlock
350
45
  3
ByLayer
350
44
  3
Global
350
46
  0
DICTIONARY
  5
6B
102
{ACAD_REACTORS
330
C
102
}
330
C
100
AcDbDictionary
281
     1
  3
Standard
350
6C
  0
DICTIONARY
  5
17
102
{ACAD_REACTORS
330
C
102
}
330
C
100
AcDbDictionary
281
     1
  3
Standard
350
18
  0
DICTIONARY
  5
19
102
{ACAD_REACTORS
330
C
102
}
330
C
100
AcDbDictionary
281
     1
  0
ACDBDICTIONARYWDFLT
  5
E
102
{ACAD_REACTORS
330
C
102
}
330
C
100
AcDbDictionary
281
     1
  3
Normal
350
F
100
AcDbDictionaryWithDefault
340
F
  0
DICTIONARY
  5
47
102
{ACAD_REACTORS
330
C
102
}
330
C
100
AcDbDictionary
281
     1
  3
A0
350
48
  3
A1
350
49
  3
A2
350
4A
  3
A3
350
4B
  3
A4
350
4C
  3
A5
350
4D
  3
A6
350
4E
  3
A7
350
4F
  3
A8
350
50
  3
A9
350
51
  3
B0
350
52
  3
B1
350
53
  3
B2
350
54
  3
B3
350
55
  3
B4
350
56
  3
B5
350
57
  3
B6
350
58
  3
B7
350
59
  3
B8
350
5A
  3
B9
350
5B
  3
C0
350
5C
  3
C1
350
5D
  3
C2
350
5E
  3
C3
350
5F
  3
C4
350
60
  3
C5
350
61
  3
C6
350
62
  3
C7
350
63
  3
C8
350
64
  3
C9
350
65
  3
D0
350
66
  3
D1
350
67
  3
D2
350
68
  0
DICTIONARY
  5
19C
102
{ACAD_REACTORS
330
C
102
}
330
C
100
AcDbDictionary
281
     1
  0
DICTIONARY
  5
69
102
{ACAD_REACTORS
330
C
102
}
330
C
100
AcDbDictionary
281
     1
  3
Standard
350
6A
  0
DICTIONARY
  5
2A
102
{ACAD_REACTORS
330
C
102
}
330
C
100
AcDbDictionary
281
     1
  3
2dWireframe
350
2F
  3
Basic
350
32
  3
Brighten
350
36
  3
ColorChange
350
3A
  3
Conceptual
350
34
  3
Dim
350
35
  3
EdgeColorOff
350
3D
  3
Facepattern
350
39
  3
Flat
350
2B
  3
FlatWithEdges
350
2C
  3
Gouraud
350
2D
  3
GouraudWithEdges
350
2E
  3
Hidden
350
31
  3
JitterOff
350
3B
  3
Linepattern
350
38
  3
OverhangOff
350
3C
  3
Realistic
350
33
  3
Shaded
350
42
  3
Shaded with edges
350
41
  3
Shades of Gray
350
3E
  3
Sketchy
350
3F
  3
Thicken
350
37
  3
Wireframe
350
30
  3
X-Ray
350
40
  0
XRECORD
  5
198
102
{ACAD_REACTORS
330
C
102
}
330
C
100
AcDbXrecord
280
     1
 90
        1
330
6A
  0
DICTIONARY
  5
193
102
{ACAD_REACTORS
330
C
102
}
330
C
100
AcDbDictionary
281
     1
  3
CANNOSCALE
350
194
  3
CENTEREXE
350
19D
  3
CENTERLTYPEFILE
350
19E
  3
CMLEADERSTYLE
350
19A
  3
CTABLESTYLE
350
199
  0
LAYOUT
  5
166
102
{ACAD_REACTORS
330
1A
102
}
330
1A
100
AcDbPlotSettings
  1

  2
none_device
  4
ISO_A4_(210.00_x_297.00_MM)
  6

 40
7.5
 41
20.0
 42
7.5
 43
20.0
 44
210.0
 45
297.0
 46
0.0
 47
0.0
 48
0.0
 49
0.0
140
0.0
141
0.0
142
1.0
143
2.0817120623
 70
   688
 72
     1
 73
     1
 74
     1
  7

 75
     0
 76
     0
 77
     2
 78
   300
147
0.4803738318
148
267.5
149
165.0
100
AcDbLayout
  1
_Dimetrisch
 70
     1
 71
    10
 10
0.0
 20
0.0
 11
0.0
 21
0.0
 12
0.0
 22
0.0
 32
0.0
 14
0.0
 24
0.0
 34
0.0
 15
0.0
 25
0.0
 35
0.0
146
0.0
 13
0.0
 23
0.0
 33
0.0
 16
1.0
 26
0.0
 36
0.0
 17
0.0
 27
1.0
 37
0.0
 76
     0
330
165
331
191
  0
LAYOUT
  5
128
102
{ACAD_REACTORS
330
1A
102
}
330
1A
100
AcDbPlotSettings
  1

  2
none_device
  4
ISO_A4_(210.00_x_297.00_MM)
  6

 40
7.5
 41
20.0
 42
7.5
 43
20.0
 44
210.0
 45
297.0
 46
0.0
 47
0.0
 48
0.0
 49
0.0
140
0.0
141
0.0
142
1.0
143
2.0817120623
 70
   688
 72
     1
 73
     1
 74
     1
  7

 75
     0
 76
     0
 77
     2
 78
   300
147
0.4803738318
148
267.5
149
165.0
100
AcDbLayout
  1
_Isometrisch
 70
     1
 71
     8
 10
0.0
 20
0.0
 11
0.0
 21
0.0
 12
0.0
 22
0.0
 32
0.0
 14
0.0
 24
0.0
 34
0.0
 15
0.0
 25
0.0
 35
0.0
146
0.0
 13
0.0
 23
0.0
 33
0.0
 16
1.0
 26
0.0
 36
0.0
 17
0.0
 27
1.0
 37
0.0
 76
     0
330
127
331
18D
  0
LAYOUT
  5
B0
102
{ACAD_REACTORS
330
1A
102
}
330
1A
100
AcDbPlotSettings
  1

  2
none_device
  4
ISO_A4_(210.00_x_297.00_MM)
  6

 40
7.5
 41
20.0
 42
7.5
 43
20.0
 44
210.0
 45
297.0
 46
0.0
 47
0.0
 48
0.0
 49
0.0
140
0.0
141
0.0
142
1.0
143
2.0817120623
 70
   688
 72
     1
 73
     1
 74
     1
  7

 75
     0
 76
     0
 77
     2
 78
   300
147
0.4803738318
148
267.5
149
165.0
100
AcDbLayout
  1
_Links
 70
     1
 71
     3
 10
0.0
 20
0.0
 11
0.0
 21
0.0
 12
0.0
 22
0.0
 32
0.0
 14
0.0
 24
0.0
 34
0.0
 15
0.0
 25
0.0
 35
0.0
146
0.0
 13
0.0
 23
0.0
 33
0.0
 16
1.0
 26
0.0
 36
0.0
 17
0.0
 27
1.0
 37
0.0
 76
     0
330
AF
331
183
  0
LAYOUT
  5
CB
102
{ACAD_REACTORS
330
1A
102
}
330
1A
100
AcDbPlotSettings
  1

  2
none_device
  4
ISO_A4_(210.00_x_297.00_MM)
  6

 40
7.5
 41
20.0
 42
7.5
 43
20.0
 44
210.0
 45
297.0
 46
0.0
 47
0.0
 48
0.0
 49
0.0
140
0.0
141
0.0
142
1.0
143
2.0817120623
 70
   688
 72
     1
 73
     1
 74
     1
  7

 75
     0
 76
     0
 77
     2
 78
   300
147
0.4803738318
148
267.5
149
165.0
100
AcDbLayout
  1
_Normal auf
 70
     1
 71
     4
 10
0.0
 20
0.0
 11
0.0
 21
0.0
 12
0.0
 22
0.0
 32
0.0
 14
0.0
 24
0.0
 34
0.0
 15
0.0
 25
0.0
 35
0.0
146
0.0
 13
0.0
 23
0.0
 33
0.0
 16
1.0
 26
0.0
 36
0.0
 17
0.0
 27
1.0
 37
0.0
 76
     0
330
CA
331
185
  0
LAYOUT
  5
1E
102
{ACAD_REACTORS
330
1A
102
}
330
1A
100
AcDbPlotSettings
  1

  2
none_device
  4
ISO_A4_(210.00_x_297.00_MM)
  6

 40
7.5
 41
20.0
 42
7.5
 43
20.0
 44
210.0
 45
297.0
 46
0.0
 47
0.0
 48
0.0
 49
0.0
140
0.0
141
0.0
142
1.0
143
2.0817120623
 70
   688
 72
     1
 73
     1
 74
     1
  7

 75
     0
 76
     0
 77
     2
 78
   300
147
0.4803738318
148
267.5
149
165.0
100
AcDbLayout
  1
_Oben
 70
     1
 71
     1
 10
-309.1342412451
 20
-180.6128404669
 11
309.1342412451
 21
256.546692607
 12
0.0
 22
0.0
 32
0.0
 14
-267.5
 24
-165.0
 34
0.0
 15
267.5
 25
165.0
 35
0.0
146
0.0
 13
0.0
 23
0.0
 33
0.0
 16
1.0
 26
0.0
 36
0.0
 17
0.0
 27
1.0
 37
0.0
 76
     0
330
1B
331
17F
  0
LAYOUT
  5
F8
102
{ACAD_REACTORS
330
1A
102
}
330
1A
100
AcDbPlotSettings
  1

  2
none_device
  4
ISO_A4_(210.00_x_297.00_MM)
  6

 40
7.5
 41
20.0
 42
7.5
 43
20.0
 44
210.0
 45
297.0
 46
0.0
 47
0.0
 48
0.0
 49
0.0
140
0.0
141
0.0
142
1.0
143
2.0817120623
 70
   688
 72
     1
 73
     1
 74
     1
  7

 75
     0
 76
     0
 77
     2
 78
   300
147
0.4803738318
148
267.5
149
165.0
100
AcDbLayout
  1
_Rechts
 70
     1
 71
     6
 10
0.0
 20
0.0
 11
0.0
 21
0.0
 12
0.0
 22
0.0
 32
0.0
 14
0.0
 24
0.0
 34
0.0
 15
0.0
 25
0.0
 35
0.0
146
0.0
 13
0.0
 23
0.0
 33
0.0
 16
1.0
 26
0.0
 36
0.0
 17
0.0
 27
1.0
 37
0.0
 76
     0
330
F7
331
189
  0
LAYOUT
  5
E2
102
{ACAD_REACTORS
330
1A
102
}
330
1A
100
AcDbPlotSettings
  1

  2
none_device
  4
ISO_A4_(210.00_x_297.00_MM)
  6

 40
7.5
 41
20.0
 42
7.5
 43
20.0
 44
210.0
 45
297.0
 46
0.0
 47
0.0
 48
0.0
 49
0.0
140
0.0
141
0.0
142
1.0
143
2.0817120623
 70
   688
 72
     1
 73
     1
 74
     1
  7

 75
     0
 76
     0
 77
     2
 78
   300
147
0.4803738318
148
267.5
149
165.0
100
AcDbLayout
  1
_Rückseite
 70
     1
 71
     5
 10
0.0
 20
0.0
 11
0.0
 21
0.0
 12
0.0
 22
0.0
 32
0.0
 14
0.0
 24
0.0
 34
0.0
 15
0.0
 25
0.0
 35
0.0
146
0.0
 13
0.0
 23
0.0
 33
0.0
 16
1.0
 26
0.0
 36
0.0
 17
0.0
 27
1.0
 37
0.0
 76
     0
330
E1
331
187
  0
LAYOUT
  5
14A
102
{ACAD_REACTORS
330
1A
102
}
330
1A
100
AcDbPlotSettings
  1

  2
none_device
  4
ISO_A4_(210.00_x_297.00_MM)
  6

 40
7.5
 41
20.0
 42
7.5
 43
20.0
 44
210.0
 45
297.0
 46
0.0
 47
0.0
 48
0.0
 49
0.0
140
0.0
141
0.0
142
1.0
143
2.0817120623
 70
   688
 72
     1
 73
     1
 74
     1
  7

 75
     0
 76
     0
 77
     2
 78
   300
147
0.4803738318
148
267.5
149
165.0
100
AcDbLayout
  1
_Trimetrisch
 70
     1
 71
     9
 10
0.0
 20
0.0
 11
0.0
 21
0.0
 12
0.0
 22
0.0
 32
0.0
 14
0.0
 24
0.0
 34
0.0
 15
0.0
 25
0.0
 35
0.0
146
0.0
 13
0.0
 23
0.0
 33
0.0
 16
1.0
 26
0.0
 36
0.0
 17
0.0
 27
1.0
 37
0.0
 76
     0
330
149
331
18F
  0
LAYOUT
  5
112
102
{ACAD_REACTORS
330
1A
102
}
330
1A
100
AcDbPlotSettings
  1

  2
none_device
  4
ISO_A4_(210.00_x_297.00_MM)
  6

 40
7.5
 41
20.0
 42
7.5
 43
20.0
 44
210.0
 45
297.0
 46
0.0
 47
0.0
 48
0.0
 49
0.0
140
0.0
141
0.0
142
1.0
143
2.0817120623
 70
   688
 72
     1
 73
     1
 74
     1
  7

 75
     0
 76
     0
 77
     2
 78
   300
147
0.4803738318
148
267.5
149
165.0
100
AcDbLayout
  1
_Unten
 70
     1
 71
     7
 10
0.0
 20
0.0
 11
0.0
 21
0.0
 12
0.0
 22
0.0
 32
0.0
 14
0.0
 24
0.0
 34
0.0
 15
0.0
 25
0.0
 35
0.0
146
0.0
 13
0.0
 23
0.0
 33
0.0
 16
1.0
 26
0.0
 36
0.0
 17
0.0
 27
1.0
 37
0.0
 76
     0
330
111
331
18B
  0
LAYOUT
  5
26
102
{ACAD_REACTORS
330
1A
102
}
330
1A
100
AcDbPlotSettings
  1

  2
none_device
  4
ISO_A4_(210.00_x_297.00_MM)
  6

 40
7.5
 41
20.0
 42
7.5
 43
20.0
 44
210.0
 45
297.0
 46
0.0
 47
0.0
 48
0.0
 49
0.0
140
0.0
141
0.0
142
1.0
143
2.0817120623
 70
   688
 72
     1
 73
     1
 74
     1
  7

 75
     0
 76
     0
 77
     2
 78
   300
147
0.4803738318
148
267.5
149
165.0
100
AcDbLayout
  1
_Vorderseite
 70
     1
 71
     2
 10
0.0
 20
0.0
 11
0.0
 21
0.0
 12
0.0
 22
0.0
 32
0.0
 14
0.0
 24
0.0
 34
0.0
 15
0.0
 25
0.0
 35
0.0
146
0.0
 13
0.0
 23
0.0
 33
0.0
 16
1.0
 26
0.0
 36
0.0
 17
0.0
 27
1.0
 37
0.0
 76
     0
330
23
331
181
  0
LAYOUT
  5
22
102
{ACAD_REACTORS
330
1A
102
}
330
1A
100
AcDbPlotSettings
  1

  2
none_device
  4
ANSI_A_(11.00_x_8.50_Inches)
  6

 40
6.35
 41
19.05
 42
6.35000508
 43
19.05000254
 44
279.4
 45
215.9
 46
133.34999746
 47
101.0582926785
 48
0.0
 49
0.0
140
0.0
141
0.0
142
0.0210905361
143
1.0
 70
  1696
 72
     0
 73
     0
 74
     0
  7

 75
     0
 76
     0
 77
     2
 78
   300
147
0.0179189148
148
-1300.4909072572
149
0.0
100
AcDbLayout
  1
Model
 70
     1
 71
     0
 10
0.0
 20
0.0
 11
420.0
 21
297.0
 12
0.0
 22
0.0
 32
0.0
 14
-258.1726689878
 24
-194.4231219786
 34
0.0
 15
258.1726689878
 25
149.030915027
 35
0.0
146
0.0
 13
0.0
 23
0.0
 33
0.0
 16
1.0
 26
0.0
 36
0.0
 17
0.0
 27
1.0
 37
0.0
 76
     0
330
1F
331
29
  0
MATERIAL
  5
45
102
{ACAD_REACTORS
330
43
102
}
330
43
100
AcDbMaterial
  1
ByBlock
 72
     1
 94
      127
  0
MATERIAL
  5
44
102
{ACAD_REACTORS
330
43
102
}
330
43
100
AcDbMaterial
  1
ByLayer
 72
     1
 94
      127
  0
MATERIAL
  5
46
102
{ACAD_REACTORS
330
43
102
}
330
43
100
AcDbMaterial
  1
Global
 72
     1
 94
      127
  0
MLEADERSTYLE
  5
6C
102
{ACAD_REACTORS
330
6B
102
}
330
6B
100
AcDbMLeaderStyle
170
     2
171
     1
172
     0
 90
        2
 40
0.0
 41
0.0
173
     1
 91
-1056964608
340
14
 92
       -2
290
     1
 42
2.0
291
     1
 43
8.0
  3
Standard
341
0
 44
4.0
300

342
11
174
     1
178
     6
175
     1
176
     0
 93
-1056964608
 45
4.0
292
     0
297
     0
 46
4.0
343
0
 94
-1056964608
 47
1.0
 49
1.0
140
1.0
293
     1
141
0.0
294
     1
177
     0
142
1.0
295
     0
296
     0
143
3.75
1001
ACAD_MLEADERVER
1070
     2
  0
MLINESTYLE
  5
18
102
{ACAD_REACTORS
330
17
102
}
330
17
100
AcDbMlineStyle
  2
Standard
 70
     0
  3

 62
   256
 51
90.0
 52
90.0
 71
     2
 49
0.5
 62
   256
  6
BYLAYER
 49
-0.5
 62
   256
  6
BYLAYER
  0
ACDBPLACEHOLDER
  5
F
102
{ACAD_REACTORS
330
E
102
}
330
E
  0
SCALE
  5
48
102
{ACAD_REACTORS
330
47
102
}
330
47
100
AcDbScale
 70
     0
300
1:1
140
1.0
141
1.0
290
     1
  0
SCALE
  5
49
102
{ACAD_REACTORS
330
47
102
}
330
47
100
AcDbScale
 70
     0
300
1:2
140
1.0
141
2.0
290
     0
  0
SCALE
  5
4A
102
{ACAD_REACTORS
330
47
102
}
330
47
100
AcDbScale
 70
     0
300
1:4
140
1.0
141
4.0
290
     0
  0
SCALE
  5
4B
102
{ACAD_REACTORS
330
47
102
}
330
47
100
AcDbScale
 70
     0
300
1:5
140
1.0
141
5.0
290
     0
  0
SCALE
  5
4C
102
{ACAD_REACTORS
330
47
102
}
330
47
100
AcDbScale
 70
     0
300
1:8
140
1.0
141
8.0
290
     0
  0
SCALE
  5
4D
102
{ACAD_REACTORS
330
47
102
}
330
47
100
AcDbScale
 70
     0
300
1:10
140
1.0
141
10.0
290
     0
  0
SCALE
  5
4E
102
{ACAD_REACTORS
330
47
102
}
330
47
100
AcDbScale
 70
     0
300
1:16
140
1.0
141
16.0
290
     0
  0
SCALE
  5
4F
102
{ACAD_REACTORS
330
47
102
}
330
47
100
AcDbScale
 70
     0
300
1:20
140
1.0
141
20.0
290
     0
  0
SCALE
  5
50
102
{ACAD_REACTORS
330
47
102
}
330
47
100
AcDbScale
 70
     0
300
1:30
140
1.0
141
30.0
290
     0
  0
SCALE
  5
51
102
{ACAD_REACTORS
330
47
102
}
330
47
100
AcDbScale
 70
     0
300
1:40
140
1.0
141
40.0
290
     0
  0
SCALE
  5
52
102
{ACAD_REACTORS
330
47
102
}
330
47
100
AcDbScale
 70
     0
300
1:50
140
1.0
141
50.0
290
     0
  0
SCALE
  5
53
102
{ACAD_REACTORS
330
47
102
}
330
47
100
AcDbScale
 70
     0
300
1:100
140
1.0
141
100.0
290
     0
  0
SCALE
  5
54
102
{ACAD_REACTORS
330
47
102
}
330
47
100
AcDbScale
 70
     0
300
2:1
140
2.0
141
1.0
290
     0
  0
SCALE
  5
55
102
{ACAD_REACTORS
330
47
102
}
330
47
100
AcDbScale
 70
     0
300
4:1
140
4.0
141
1.0
290
     0
  0
SCALE
  5
56
102
{ACAD_REACTORS
330
47
102
}
330
47
100
AcDbScale
 70
     0
300
8:1
140
8.0
141
1.0
290
     0
  0
SCALE
  5
57
102
{ACAD_REACTORS
330
47
102
}
330
47
100
AcDbScale
 70
     0
300
10:1
140
10.0
141
1.0
290
     0
  0
SCALE
  5
58
102
{ACAD_REACTORS
330
47
102
}
330
47
100
AcDbScale
 70
     0
300
100:1
140
100.0
141
1.0
290
     0
  0
SCALE
  5
59
102
{ACAD_REACTORS
330
47
102
}
330
47
100
AcDbScale
 70
     0
300
1/128" = 1'-0"
140
0.0078125
141
12.0
290
     0
  0
SCALE
  5
5A
102
{ACAD_REACTORS
330
47
102
}
330
47
100
AcDbScale
 70
     0
300
1/64" = 1'-0"
140
0.015625
141
12.0
290
     0
  0
SCALE
  5
5B
102
{ACAD_REACTORS
330
47
102
}
330
47
100
AcDbScale
 70
     0
300
1/32" = 1'-0"
140
0.03125
141
12.0
290
     0
  0
SCALE
  5
5C
102
{ACAD_REACTORS
330
47
102
}
330
47
100
AcDbScale
 70
     0
300
1/16" = 1'-0"
140
0.0625
141
12.0
290
     0
  0
SCALE
  5
5D
102
{ACAD_REACTORS
330
47
102
}
330
47
100
AcDbScale
 70
     0
300
3/32" = 1'-0"
140
0.09375
141
12.0
290
     0
  0
SCALE
  5
5E
102
{ACAD_REACTORS
330
47
102
}
330
47
100
AcDbScale
 70
     0
300
1/8" = 1'-0"
140
0.125
141
12.0
290
     0
  0
SCALE
  5
5F
102
{ACAD_REACTORS
330
47
102
}
330
47
100
AcDbScale
 70
     0
300
3/16" = 1'-0"
140
0.1875
141
12.0
290
     0
  0
SCALE
  5
60
102
{ACAD_REACTORS
330
47
102
}
330
47
100
AcDbScale
 70
     0
300
1/4" = 1'-0"
140
0.25
141
12.0
290
     0
  0
SCALE
  5
61
102
{ACAD_REACTORS
330
47
102
}
330
47
100
AcDbScale
 70
     0
300
3/8" = 1'-0"
140
0.375
141
12.0
290
     0
  0
SCALE
  5
62
102
{ACAD_REACTORS
330
47
102
}
330
47
100
AcDbScale
 70
     0
300
1/2" = 1'-0"
140
0.5
141
12.0
290
     0
  0
SCALE
  5
63
102
{ACAD_REACTORS
330
47
102
}
330
47
100
AcDbScale
 70
     0
300
3/4" = 1'-0"
140
0.75
141
12.0
290
     0
  0
SCALE
  5
64
102
{ACAD_REACTORS
330
47
102
}
330
47
100
AcDbScale
 70
     0
300
1" = 1'-0"
140
1.0
141
12.0
290
     0
  0
SCALE
  5
65
102
{ACAD_REACTORS
330
47
102
}
330
47
100
AcDbScale
 70
     0
300
1-1/2" = 1'-0"
140
1.5
141
12.0
290
     0
  0
SCALE
  5
66
102
{ACAD_REACTORS
330
47
102
}
330
47
100
AcDbScale
 70
     0
300
3" = 1'-0"
140
3.0
141
12.0
290
     0
  0
SCALE
  5
67
102
{ACAD_REACTORS
330
47
102
}
330
47
100
AcDbScale
 70
     0
300
6" = 1'-0"
140
6.0
141
12.0
290
     0
  0
SCALE
  5
68
102
{ACAD_REACTORS
330
47
102
}
330
47
100
AcDbScale
 70
     0
300
1'-0" = 1'-0"
140
12.0
141
12.0
290
     0
  0
TABLESTYLE
  5
6A
102
{ACAD_REACTORS
330
69
102
}
102
{ACAD_XDICTIONARY
360
195
102
}
330
69
100
AcDbTableStyle
  3
Standard
 70
     0
 71
     0
 40
0.06
 41
0.06
280
     0
281
     0
  7
Standard
140
4.5
170
     2
 62
     0
 63
   257
283
     0
 90
        4
 91
        0
  1

274
    -2
284
     1
 64
     0
275
    -2
285
     1
 65
     0
276
    -2
286
     1
 66
     0
277
    -2
287
     1
 67
     0
278
    -2
288
     1
 68
     0
279
    -2
289
     1
 69
     0
  7
Standard
140
6.0
170
     5
 62
     0
 63
   257
283
     0
 90
        4
 91
        0
  1

274
    -2
284
     1
 64
     0
275
    -2
285
     1
 65
     0
276
    -2
286
     1
 66
     0
277
    -2
287
     1
 67
     0
278
    -2
288
     1
 68
     0
279
    -2
289
     1
 69
     0
  7
Standard
140
4.5
170
     5
 62
     0
 63
   257
283
     0
 90
        4
 91
        0
  1

274
    -2
284
     1
 64
     0
275
    -2
285
     1
 65
     0
276
    -2
286
     1
 66
     0
277
    -2
287
     1
 67
     0
278
    -2
288
     1
 68
     0
279
    -2
289
     1
 69
     0
  0
VISUALSTYLE
  5
2F
102
{ACAD_REACTORS
330
2A
102
}
330
2A
100
AcDbVisualStyle
  2
2dWireframe
 70
     4
 71
     0
 72
     2
 73
     0
 90
        0
 40
0.6
 41
30.0
 62
     5
 63
     7
421
 16777215
 74
     1
 91
        4
 64
     7
 65
   257
 75
     1
175
     1
 42
1.0
 92
        0
 66
   257
 43
1.0
 76
     1
 77
     6
 78
     2
 67
     7
 79
     5
170
     0
171
     0
290
     0
174
     0
 93
        1
 44
0.0
173
     0
291
     0
 45
0.0
  0
VISUALSTYLE
  5
32
102
{ACAD_REACTORS
330
2A
102
}
330
2A
100
AcDbVisualStyle
  2
Basic
 70
     7
 71
     1
 72
     0
 73
     1
 90
        0
 40
0.6
 41
30.0
 62
     5
 63
     7
421
 16777215
 74
     0
 91
        4
 64
     7
 65
   257
 75
     1
175
     1
 42
1.0
 92
        8
 66
     7
 43
1.0
 76
     1
 77
     6
 78
     2
 67
     7
 79
     5
170
     0
171
     0
290
     0
174
     0
 93
        1
 44
0.0
173
     0
291
     1
 45
0.0
  0
VISUALSTYLE
  5
36
102
{ACAD_REACTORS
330
2A
102
}
330
2A
100
AcDbVisualStyle
  2
Brighten
 70
    12
 71
     2
 72
     2
 73
     0
 90
        0
 40
0.6
 41
30.0
 62
     5
 63
     7
421
 16777215
 74
     1
 91
        4
 64
     7
 65
   257
 75
     1
175
     1
 42
1.0
 92
        8
 66
     7
 43
1.0
 76
     1
 77
     6
 78
     2
 67
     7
 79
     5
170
     0
171
     0
290
     0
174
     0
 93
        1
 44
50.0
173
     0
291
     1
 45
0.0
  0
VISUALSTYLE
  5
3A
102
{ACAD_REACTORS
330
2A
102
}
330
2A
100
AcDbVisualStyle
  2
ColorChange
 70
    16
 71
     2
 72
     2
 73
     3
 90
        0
 40
0.6
 41
30.0
 62
     5
 63
     8
421
  8421504
 74
     1
 91
        4
 64
     7
 65
   257
 75
     1
175
     1
 42
1.0
 92
        8
 66
     8
424
  8421504
 43
1.0
 76
     1
 77
     6
 78
     2
 67
     7
 79
     5
170
     0
171
     0
290
     0
174
     0
 93
        1
 44
0.0
173
     0
291
     1
 45
0.0
  0
VISUALSTYLE
  5
34
102
{ACAD_REACTORS
330
2A
102
}
330
2A
100
AcDbVisualStyle
  2
Conceptual
 70
     9
 71
     3
 72
     2
 73
     0
 90
        0
 40
0.6
 41
30.0
 62
     5
 63
     7
421
 16777215
 74
     2
 91
        2
 64
     7
 65
   257
 75
     1
175
     1
 42
179.0
 92
        8
 66
     7
 43
1.0
 76
     1
 77
     6
 78
     2
 67
     7
 79
     3
170
     0
171
     0
290
     0
174
     0
 93
        1
 44
0.0
173
     0
291
     0
 45
0.0
  0
VISUALSTYLE
  5
35
102
{ACAD_REACTORS
330
2A
102
}
330
2A
100
AcDbVisualStyle
  2
Dim
 70
    11
 71
     2
 72
     2
 73
     0
 90
        0
 40
0.6
 41
30.0
 62
     5
 63
     7
421
 16777215
 74
     1
 91
        4
 64
     7
 65
   257
 75
     1
175
     1
 42
1.0
 92
        8
 66
     7
 43
1.0
 76
     1
 77
     6
 78
     2
 67
     7
 79
     5
170
     0
171
     0
290
     0
174
     0
 93
        1
 44
-50.0
173
     0
291
     1
 45
0.0
  0
VISUALSTYLE
  5
3D
102
{ACAD_REACTORS
330
2A
102
}
330
2A
100
AcDbVisualStyle
  2
EdgeColorOff
 70
    22
 71
     2
 72
     2
 73
     0
 90
        0
 40
0.6
 41
30.0
 62
     5
 63
     7
421
 16777215
 74
     1
 91
        4
 64
     7
 65
   257
 75
     1
175
     1
 42
1.0
 92
        8
 66
     7
 43
1.0
 76
     1
 77
     6
 78
     2
 67
     7
 79
     5
170
     0
171
     0
290
     0
174
     0
 93
        1
 44
0.0
173
     0
291
     1
 45
0.0
  0
VISUALSTYLE
  5
39
102
{ACAD_REACTORS
330
2A
102
}
330
2A
100
AcDbVisualStyle
  2
Facepattern
 70
    15
 71
     2
 72
     2
 73
     0
 90
        0
 40
0.6
 41
30.0
 62
     5
 63
     7
421
 16777215
 74
     1
 91
        4
 64
     7
 65
   257
 75
     1
175
     1
 42
1.0
 92
        8
 66
     7
 43
1.0
 76
     1
 77
     6
 78
     2
 67
     7
 79
     5
170
     0
171
     0
290
     0
174
     0
 93
        1
 44
0.0
173
     0
291
     1
 45
0.0
  0
VISUALSTYLE
  5
2B
102
{ACAD_REACTORS
330
2A
102
}
330
2A
100
AcDbVisualStyle
  2
Flat
 70
     0
 71
     2
 72
     1
 73
     1
 90
        2
 40
0.6
 41
30.0
 62
     5
 63
     7
421
 16777215
 74
     0
 91
        0
 64
     7
 65
   257
 75
     1
175
     1
 42
1.0
 92
        8
 66
     7
 43
1.0
 76
     1
 77
     6
 78
     2
 67
     7
 79
     5
170
     0
171
     0
290
     0
174
     0
 93
       13
 44
0.0
173
     0
291
     1
 45
0.0
  0
VISUALSTYLE
  5
2C
102
{ACAD_REACTORS
330
2A
102
}
330
2A
100
AcDbVisualStyle
  2
FlatWithEdges
 70
     1
 71
     2
 72
     1
 73
     1
 90
        2
 40
0.6
 41
30.0
 62
     5
 63
     7
421
 16777215
 74
     1
 91
        0
 64
     7
 65
   257
 75
     1
175
     1
 42
1.0
 92
        0
 66
   257
 43
1.0
 76
     1
 77
     6
 78
     2
 67
     7
 79
     5
170
     0
171
     0
290
     0
174
     0
 93
       13
 44
0.0
173
     0
291
     1
 45
0.0
  0
VISUALSTYLE
  5
2D
102
{ACAD_REACTORS
330
2A
102
}
330
2A
100
AcDbVisualStyle
  2
Gouraud
 70
     2
 71
     2
 72
     2
 73
     1
 90
        2
 40
0.6
 41
30.0
 62
     5
 63
     7
421
 16777215
 74
     0
 91
        0
 64
     7
 65
   257
 75
     1
175
     1
 42
1.0
 92
        0
 66
     7
 43
1.0
 76
     1
 77
     6
 78
     2
 67
     7
 79
     5
170
     0
171
     0
290
     0
174
     0
 93
       13
 44
0.0
173
     0
291
     1
 45
0.0
  0
VISUALSTYLE
  5
2E
102
{ACAD_REACTORS
330
2A
102
}
330
2A
100
AcDbVisualStyle
  2
GouraudWithEdges
 70
     3
 71
     2
 72
     2
 73
     1
 90
        2
 40
0.6
 41
30.0
 62
     5
 63
     7
421
 16777215
 74
     1
 91
        0
 64
     7
 65
   257
 75
     1
175
     1
 42
1.0
 92
        0
 66
   257
 43
1.0
 76
     1
 77
     6
 78
     2
 67
     7
 79
     5
170
     0
171
     0
290
     0
174
     0
 93
       13
 44
0.0
173
     0
291
     1
 45
0.0
  0
VISUALSTYLE
  5
31
102
{ACAD_REACTORS
330
2A
102
}
330
2A
100
AcDbVisualStyle
  2
Hidden
 70
     6
 71
     1
 72
     2
 73
     2
 90
        0
 40
0.6
 41
30.0
 62
     5
 63
     7
421
 16777215
 74
     2
 91
        2
 64
     7
 65
   257
 75
     2
175
     1
 42
40.0
 92
        0
 66
   257
 43
1.0
 76
     1
 77
     6
 78
     2
 67
     7
 79
     3
170
     0
171
     0
290
     0
174
     0
 93
        1
 44
0.0
173
     0
291
     0
 45
0.0
  0
VISUALSTYLE
  5
3B
102
{ACAD_REACTORS
330
2A
102
}
330
2A
100
AcDbVisualStyle
  2
JitterOff
 70
    20
 71
     2
 72
     2
 73
     0
 90
        0
 40
0.6
 41
30.0
 62
     5
 63
     7
421
 16777215
 74
     1
 91
        4
 64
     7
 65
   257
 75
     1
175
     1
 42
1.0
 92
       10
 66
     7
 43
1.0
 76
     1
 77
     6
 78
     2
 67
     7
 79
     5
170
     0
171
     0
290
     0
174
     0
 93
        1
 44
0.0
173
     0
291
     1
 45
0.0
  0
VISUALSTYLE
  5
38
102
{ACAD_REACTORS
330
2A
102
}
330
2A
100
AcDbVisualStyle
  2
Linepattern
 70
    14
 71
     2
 72
     2
 73
     0
 90
        0
 40
0.6
 41
30.0
 62
     5
 63
     7
421
 16777215
 74
     1
 91
        4
 64
     7
 65
   257
 75
     7
175
     7
 42
1.0
 92
        8
 66
     7
 43
1.0
 76
     1
 77
     6
 78
     2
 67
     7
 79
     5
170
     0
171
     0
290
     0
174
     0
 93
        1
 44
0.0
173
     0
291
     1
 45
0.0
  0
VISUALSTYLE
  5
3C
102
{ACAD_REACTORS
330
2A
102
}
330
2A
100
AcDbVisualStyle
  2
OverhangOff
 70
    21
 71
     2
 72
     2
 73
     0
 90
        0
 40
0.6
 41
30.0
 62
     5
 63
     7
421
 16777215
 74
     1
 91
        4
 64
     7
 65
   257
 75
     1
175
     1
 42
1.0
 92
        9
 66
     7
 43
1.0
 76
     1
 77
     6
 78
     2
 67
     7
 79
     5
170
     0
171
     0
290
     0
174
     0
 93
        1
 44
0.0
173
     0
291
     1
 45
0.0
  0
VISUALSTYLE
  5
33
102
{ACAD_REACTORS
330
2A
102
}
330
2A
100
AcDbVisualStyle
  2
Realistic
 70
     8
 71
     2
 72
     3
 73
     0
 90
        2
 40
0.6
 41
30.0
 62
     5
 63
     7
421
 16777215
 74
     0
 91
        0
 64
     7
 65
   257
 75
     1
175
     1
 42
1.0
 92
        8
 66
   257
 43
1.0
 76
     1
 77
     6
 78
     2
 67
     7
 79
     3
170
     0
171
     0
290
     0
174
     0
 93
       13
 44
0.0
173
     0
291
     0
 45
0.0
  0
VISUALSTYLE
  5
42
102
{ACAD_REACTORS
330
2A
102
}
330
2A
100
AcDbVisualStyle
  2
Shaded
 70
    27
 71
     2
 72
     2
 73
     1
 90
        2
 40
0.6
 41
30.0
 62
     5
 63
     7
421
 16777215
 74
     0
 91
        4
 64
     7
 65
   257
 75
     1
175
     1
 42
1.0
 92
        8
 66
   257
 43
1.0
 76
     1
 77
     6
 78
     2
 67
     8
425
  7895160
 79
     3
170
     0
171
     0
290
     0
174
     0
 93
        5
 44
0.0
173
     0
291
     0
 45
0.0
  0
VISUALSTYLE
  5
41
102
{ACAD_REACTORS
330
2A
102
}
330
2A
100
AcDbVisualStyle
  2
Shaded with edges
 70
    26
 71
     2
 72
     2
 73
     1
 90
        2
 40
0.6
 41
30.0
 62
     5
 63
     7
421
 16777215
 74
     1
 91
       10
 64
     7
 65
   257
 75
     2
175
     1
 42
1.0
 92
        8
 66
   257
 43
1.0
 76
     1
 77
     6
 78
     2
 67
     7
 79
     3
170
     0
171
     0
290
     0
174
     0
 93
        5
 44
0.0
173
     0
291
     0
 45
0.0
  0
VISUALSTYLE
  5
3E
102
{ACAD_REACTORS
330
2A
102
}
330
2A
100
AcDbVisualStyle
  2
Shades of Gray
 70
    23
 71
     2
 72
     2
 73
     3
 90
        0
 40
0.6
 41
30.0
 62
     5
 63
     7
421
 16777215
 74
     2
 91
        2
 64
     7
 65
     7
 75
     1
175
     1
 42
40.0
 92
        8
 66
     7
 43
1.0
 76
     1
 77
     6
 78
     2
 67
     7
 79
     3
170
     0
171
     0
290
     0
174
     0
 93
        1
 44
0.0
173
     0
291
     0
 45
0.0
  0
VISUALSTYLE
  5
3F
102
{ACAD_REACTORS
330
2A
102
}
330
2A
100
AcDbVisualStyle
  2
Sketchy
 70
    24
 71
     1
 72
     2
 73
     2
 90
        0
 40
0.6
 41
30.0
 62
     5
 63
     7
421
 16777215
 74
     2
 91
        2
 64
     7
 65
     7
 75
     1
175
     1
 42
40.0
 92
       11
 66
     7
 43
1.0
 76
     1
 77
     6
 78
     2
 67
     7
 79
     6
170
     0
171
     0
290
     0
174
     0
 93
        1
 44
0.0
173
     0
291
     0
 45
0.0
  0
VISUALSTYLE
  5
37
102
{ACAD_REACTORS
330
2A
102
}
330
2A
100
AcDbVisualStyle
  2
Thicken
 70
    13
 71
     2
 72
     2
 73
     0
 90
        0
 40
0.6
 41
30.0
 62
     5
 63
     7
421
 16777215
 74
     1
 91
        4
 64
     7
 65
   257
 75
     1
175
     1
 42
1.0
 92
       12
 66
     7
 43
1.0
 76
     1
 77
     6
 78
     2
 67
     7
 79
     5
170
     0
171
     0
290
     0
174
     0
 93
        1
 44
0.0
173
     0
291
     1
 45
0.0
  0
VISUALSTYLE
  5
30
102
{ACAD_REACTORS
330
2A
102
}
330
2A
100
AcDbVisualStyle
  2
Wireframe
 70
     5
 71
     0
 72
     2
 73
     0
 90
        0
 40
0.6
 41
30.0
 62
     5
 63
     7
421
 16777215
 74
     1
 91
        4
 64
     7
 65
   257
 75
     1
175
     1
 42
1.0
 92
        0
 66
   257
 43
1.0
 76
     1
 77
     6
 78
     2
 67
     7
 79
     3
170
     0
171
     0
290
     0
174
     0
 93
        1
 44
0.0
173
     0
291
     0
 45
0.0
  0
VISUALSTYLE
  5
40
102
{ACAD_REACTORS
330
2A
102
}
330
2A
100
AcDbVisualStyle
  2
X-Ray
 70
    25
 71
     2
 72
     2
 73
     1
 90
        1
 40
0.5
 41
30.0
 62
     5
 63
     7
421
 16777215
 74
     1
 91
        0
 64
     7
 65
   257
 75
     1
175
     1
 42
1.0
 92
        8
 66
     7
 43
1.0
 76
     1
 77
     6
 78
     2
 67
     7
 79
     3
170
     0
171
     0
290
     0
174
     0
 93
       13
 44
0.0
173
     0
291
     0
 45
0.0
  0
DICTIONARYVAR
  5
194
102
{ACAD_REACTORS
330
193
102
}
330
193
100
DictionaryVariables
280
     0
  1
1:1
  0
DICTIONARYVAR
  5
19D
102
{ACAD_REACTORS
330
193
102
}
330
193
100
DictionaryVariables
280
     0
  1
3.500000
  0
DICTIONARYVAR
  5
19E
102
{ACAD_REACTORS
330
193
102
}
330
193
100
DictionaryVariables
280
     0
  1
acadiso.lin
  0
DICTIONARYVAR
  5
19A
102
{ACAD_REACTORS
330
193
102
}
330
193
100
DictionaryVariables
280
     0
  1
Standard
  0
DICTIONARYVAR
  5
199
102
{ACAD_REACTORS
330
193
102
}
330
193
100
DictionaryVariables
280
     0
  1
Standard
  0
DICTIONARY
  5
195
330
6A
100
AcDbDictionary
280
     1
281
     1
  3
ACAD_ROUNDTRIP_2008_TABLESTYLE_CELLSTYLEMAP
360
196
  0
CELLSTYLEMAP
  5
196
102
{ACAD_REACTORS
330
195
102
}
330
195
100
AcDbCellStyleMap
 90
        3
300
CELLSTYLE
  1
TABLEFORMAT_BEGIN
 90
        5
170
     1
 91
        0
 92
    32768
 62
   257
 93
        1
300
CONTENTFORMAT
  1
CONTENTFORMAT_BEGIN
 90
        0
 91
        0
 92
        4
 93
        0
300

 40
0.0
140
1.0
 94
        5
 62
     0
340
11
144
6.0
309
CONTENTFORMAT_END
171
     1
301
MARGIN
  1
CELLMARGIN_BEGIN
 40
1.5
 40
1.5
 40
1.5
 40
1.5
 40
1.5
 40
1.5
309
CELLMARGIN_END
 94
        6
 95
        1
302
GRIDFORMAT
  1
GRIDFORMAT_BEGIN
 90
        0
 91
        1
 62
     0
 92
       -2
340
14
 93
        0
 40
0.045
309
GRIDFORMAT_END
 95
        2
302
GRIDFORMAT
  1
GRIDFORMAT_BEGIN
 90
        0
 91
        1
 62
     0
 92
       -2
340
14
 93
        0
 40
0.045
309
GRIDFORMAT_END
 95
        4
302
GRIDFORMAT
  1
GRIDFORMAT_BEGIN
 90
        0
 91
        1
 62
     0
 92
       -2
340
14
 93
        0
 40
0.045
309
GRIDFORMAT_END
 95
        8
302
GRIDFORMAT
  1
GRIDFORMAT_BEGIN
 90
        0
 91
        1
 62
     0
 92
       -2
340
14
 93
        0
 40
0.045
309
GRIDFORMAT_END
 95
       16
302
GRIDFORMAT
  1
GRIDFORMAT_BEGIN
 90
        0
 91
        1
 62
     0
 92
       -2
340
14
 93
        0
 40
0.045
309
GRIDFORMAT_END
 95
       32
302
GRIDFORMAT
  1
GRIDFORMAT_BEGIN
 90
        0
 91
        1
 62
     0
 92
       -2
340
14
 93
        0
 40
0.045
309
GRIDFORMAT_END
309
TABLEFORMAT_END
  1
CELLSTYLE_BEGIN
 90
        1
 91
        1
300
_TITLE
309
CELLSTYLE_END
300
CELLSTYLE
  1
TABLEFORMAT_BEGIN
 90
        5
170
     1
 91
        0
 92
        0
 62
   257
 93
        1
300
CONTENTFORMAT
  1
CONTENTFORMAT_BEGIN
 90
        0
 91
        0
 92
        4
 93
        0
300

 40
0.0
140
1.0
 94
        5
 62
     0
340
11
144
4.5
309
CONTENTFORMAT_END
171
     1
301
MARGIN
  1
CELLMARGIN_BEGIN
 40
1.5
 40
1.5
 40
1.5
 40
1.5
 40
1.5
 40
1.5
309
CELLMARGIN_END
 94
        6
 95
        1
302
GRIDFORMAT
  1
GRIDFORMAT_BEGIN
 90
        0
 91
        1
 62
     0
 92
       -2
340
14
 93
        0
 40
0.045
309
GRIDFORMAT_END
 95
        2
302
GRIDFORMAT
  1
GRIDFORMAT_BEGIN
 90
        0
 91
        1
 62
     0
 92
       -2
340
14
 93
        0
 40
0.045
309
GRIDFORMAT_END
 95
        4
302
GRIDFORMAT
  1
GRIDFORMAT_BEGIN
 90
        0
 91
        1
 62
     0
 92
       -2
340
14
 93
        0
 40
0.045
309
GRIDFORMAT_END
 95
        8
302
GRIDFORMAT
  1
GRIDFORMAT_BEGIN
 90
        0
 91
        1
 62
     0
 92
       -2
340
14
 93
        0
 40
0.045
309
GRIDFORMAT_END
 95
       16
302
GRIDFORMAT
  1
GRIDFORMAT_BEGIN
 90
        0
 91
        1
 62
     0
 92
       -2
340
14
 93
        0
 40
0.045
309
GRIDFORMAT_END
 95
       32
302
GRIDFORMAT
  1
GRIDFORMAT_BEGIN
 90
        0
 91
        1
 62
     0
 92
       -2
340
14
 93
        0
 40
0.045
309
GRIDFORMAT_END
309
TABLEFORMAT_END
  1
CELLSTYLE_BEGIN
 90
        2
 91
        1
300
_HEADER
309
CELLSTYLE_END
300
CELLSTYLE
  1
TABLEFORMAT_BEGIN
 90
        5
170
     1
 91
        0
 92
        0
 62
   257
 93
        1
300
CONTENTFORMAT
  1
CONTENTFORMAT_BEGIN
 90
        0
 91
        0
 92
        4
 93
        0
300

 40
0.0
140
1.0
 94
        2
 62
     0
340
11
144
4.5
309
CONTENTFORMAT_END
171
     1
301
MARGIN
  1
CELLMARGIN_BEGIN
 40
1.5
 40
1.5
 40
1.5
 40
1.5
 40
1.5
 40
1.5
309
CELLMARGIN_END
 94
        6
 95
        1
302
GRIDFORMAT
  1
GRIDFORMAT_BEGIN
 90
        0
 91
        1
 62
     0
 92
       -2
340
14
 93
        0
 40
0.045
309
GRIDFORMAT_END
 95
        2
302
GRIDFORMAT
  1
GRIDFORMAT_BEGIN
 90
        0
 91
        1
 62
     0
 92
       -2
340
14
 93
        0
 40
0.045
309
GRIDFORMAT_END
 95
        4
302
GRIDFORMAT
  1
GRIDFORMAT_BEGIN
 90
        0
 91
        1
 62
     0
 92
       -2
340
14
 93
        0
 40
0.045
309
GRIDFORMAT_END
 95
        8
302
GRIDFORMAT
  1
GRIDFORMAT_BEGIN
 90
        0
 91
        1
 62
     0
 92
       -2
340
14
 93
        0
 40
0.045
309
GRIDFORMAT_END
 95
       16
302
GRIDFORMAT
  1
GRIDFORMAT_BEGIN
 90
        0
 91
        1
 62
     0
 92
       -2
340
14
 93
        0
 40
0.045
309
GRIDFORMAT_END
 95
       32
302
GRIDFORMAT
  1
GRIDFORMAT_BEGIN
 90
        0
 91
        1
 62
     0
 92
       -2
340
14
 93
        0
 40
0.045
309
GRIDFORMAT_END
309
TABLEFORMAT_END
  1
CELLSTYLE_BEGIN
 90
        3
 91
        2
300
_DATA
309
CELLSTYLE_END
  0
ENDSEC
  0
EOF
