  0
SECTION
  2
HEADER
  9
$ACADVER
  1
AC1021
  9
$ACADMAINTVER
 70
    25
  9
$DWGCODEPAGE
  3
ANSI_1252
  9
$INSBASE
 10
0.0
 20
0.0
 30
0.0
  9
$EXTMIN
 10
-225.0
 20
-225.0
 30
0.0
  9
$EXTMAX
 10
225.0
 20
225.0
 30
0.0
  9
$LIMMIN
 10
0.0
 20
0.0
  9
$LIMMAX
 10
420.0
 20
297.0
  9
$ORTHOMODE
 70
     0
  9
$REGENMODE
 70
     1
  9
$FILLMODE
 70
     1
  9
$QTEXTMODE
 70
     0
  9
$MIRRTEXT
 70
     1
  9
$LTSCALE
 40
1.0
  9
$ATTMODE
 70
     1
  9
$TEXTSIZE
 40
3.5
  9
$TRACEWID
 40
1.0
  9
$TEXTSTYLE
  7
STANDARD
  9
$CLAYER
  8
0
  9
$CELTYPE
  6
ByLayer
  9
$CECOLOR
 62
   256
  9
$CELTSCALE
 40
1.0
  9
$DISPSILH
 70
     0
  9
$DIMSCALE
 40
1.0
  9
$DIMASZ
 40
7.4083333333
  9
$DIMEXO
 40
1.0
  9
$DIMDLI
 40
3.75
  9
$DIMRND
 40
0.0
  9
$DIMDLE
 40
0.0
  9
$DIMEXE
 40
1.0
  9
$DIMTP
 40
0.0
  9
$DIMTM
 40
0.0
  9
$DIMTXT
 40
9.8777777778
  9
$DIMCEN
 40
2.5
  9
$DIMTSZ
 40
0.0
  9
$DIMTOL
 70
     0
  9
$DIMLIM
 70
     0
  9
$DIMTIH
 70
     1
  9
$DIMTOH
 70
     1
  9
$DIMSE1
 70
     0
  9
$DIMSE2
 70
     0
  9
$DIMTAD
 70
     1
  9
$DIMZIN
 70
     0
  9
$DIMBLK
  1

  9
$DIMASO
 70
     1
  9
$DIMSHO
 70
     1
  9
$DIMPOST
  1

  9
$DIMAPOST
  1

  9
$DIMALT
 70
     0
  9
$DIMALTD
 70
     3
  9
$DIMALTF
 40
0.0393700787
  9
$DIMLFAC
 40
1.0
  9
$DIMTOFL
 70
     1
  9
$DIMTVP
 40
0.0
  9
$DIMTIX
 70
     0
  9
$DIMSOXD
 70
     0
  9
$DIMSAH
 70
     0
  9
$DIMBLK1
  1

  9
$DIMBLK2
  1

  9
$DIMSTYLE
  2
ISO-25
  9
$DIMCLRD
 70
     0
  9
$DIMCLRE
 70
     0
  9
$DIMCLRT
 70
     0
  9
$DIMTFAC
 40
1.0
  9
$DIMGAP
 40
1.524
  9
$DIMJUST
 70
     0
  9
$DIMSD1
 70
     0
  9
$DIMSD2
 70
     0
  9
$DIMTOLJ
 70
     0
  9
$DIMTZIN
 70
     0
  9
$DIMALTZ
 70
     0
  9
$DIMALTTZ
 70
     0
  9
$DIMUPT
 70
     0
  9
$DIMDEC
 70
     2
  9
$DIMTDEC
 70
     2
  9
$DIMALTU
 70
     2
  9
$DIMALTTD
 70
     3
  9
$DIMTXSTY
  7
STANDARD
  9
$DIMAUNIT
 70
     0
  9
$DIMADEC
 70
     2
  9
$DIMALTRND
 40
0.0
  9
$DIMAZIN
 70
     0
  9
$DIMDSEP
 70
    44
  9
$DIMATFIT
 70
     3
  9
$DIMFRAC
 70
     0
  9
$DIMLDRBLK
  1

  9
$DIMLUNIT
 70
     2
  9
$DIMLWD
 70
    -2
  9
$DIMLWE
 70
    -2
  9
$DIMTMOVE
 70
     0
  9
$DIMFXL
 40
1.0
  9
$DIMFXLON
 70
     0
  9
$DIMJOGANG
 40
0.7853981634
  9
$DIMTFILL
 70
     0
  9
$DIMTFILLCLR
 70
     0
  9
$DIMARCSYM
 70
     0
  9
$DIMLTYPE
  6

  9
$DIMLTEX1
  6

  9
$DIMLTEX2
  6

  9
$LUNITS
 70
     2
  9
$LUPREC
 70
     2
  9
$SKETCHINC
 40
1.0
  9
$FILLETRAD
 40
10.0
  9
$AUNITS
 70
     0
  9
$AUPREC
 70
     2
  9
$MENU
  1
.
  9
$ELEVATION
 40
0.0
  9
$PELEVATION
 40
0.0
  9
$THICKNESS
 40
0.0
  9
$LIMCHECK
 70
     0
  9
$CHAMFERA
 40
0.0
  9
$CHAMFERB
 40
0.0
  9
$CHAMFERC
 40
0.0
  9
$CHAMFERD
 40
0.0
  9
$SKPOLY
 70
     0
  9
$TDCREATE
 40
2458535.501131238
  9
$TDUCREATE
 40
2458535.459464572
  9
$TDUPDATE
 40
2458535.50116596
  9
$TDUUPDATE
 40
2458535.459499294
  9
$TDINDWG
 40
0.0000000116
  9
$TDUSRTIMER
 40
0.0000000116
  9
$USRTIMER
 70
     1
  9
$ANGBASE
 50
0.0
  9
$ANGDIR
 70
     0
  9
$PDMODE
 70
     0
  9
$PDSIZE
 40
-1.0
  9
$PLINEWID
 40
0.0
  9
$SPLFRAME
 70
     0
  9
$SPLINETYPE
 70
     6
  9
$SPLINESEGS
 70
     8
  9
$HANDSEED
  5
20E
  9
$SURFTAB1
 70
     6
  9
$SURFTAB2
 70
     6
  9
$SURFTYPE
 70
     6
  9
$SURFU
 70
     6
  9
$SURFV
 70
     6
  9
$UCSBASE
  2

  9
$UCSNAME
  2

  9
$UCSORG
 10
0.0
 20
0.0
 30
0.0
  9
$UCSXDIR
 10
1.0
 20
0.0
 30
0.0
  9
$UCSYDIR
 10
0.0
 20
1.0
 30
0.0
  9
$UCSORTHOREF
  2

  9
$UCSORTHOVIEW
 70
     0
  9
$UCSORGTOP
 10
0.0
 20
0.0
 30
0.0
  9
$UCSORGBOTTOM
 10
0.0
 20
0.0
 30
0.0
  9
$UCSORGLEFT
 10
0.0
 20
0.0
 30
0.0
  9
$UCSORGRIGHT
 10
0.0
 20
0.0
 30
0.0
  9
$UCSORGFRONT
 10
0.0
 20
0.0
 30
0.0
  9
$UCSORGBACK
 10
0.0
 20
0.0
 30
0.0
  9
$PUCSBASE
  2

  9
$PUCSNAME
  2

  9
$PUCSORG
 10
0.0
 20
0.0
 30
0.0
  9
$PUCSXDIR
 10
1.0
 20
0.0
 30
0.0
  9
$PUCSYDIR
 10
0.0
 20
1.0
 30
0.0
  9
$PUCSORTHOREF
  2

  9
$PUCSORTHOVIEW
 70
     0
  9
$PUCSORGTOP
 10
0.0
 20
0.0
 30
0.0
  9
$PUCSORGBOTTOM
 10
0.0
 20
0.0
 30
0.0
  9
$PUCSORGLEFT
 10
0.0
 20
0.0
 30
0.0
  9
$PUCSORGRIGHT
 10
0.0
 20
0.0
 30
0.0
  9
$PUCSORGFRONT
 10
0.0
 20
0.0
 30
0.0
  9
$PUCSORGBACK
 10
0.0
 20
0.0
 30
0.0
  9
$USERI1
 70
     0
  9
$USERI2
 70
     0
  9
$USERI3
 70
     0
  9
$USERI4
 70
     0
  9
$USERI5
 70
     0
  9
$USERR1
 40
0.0
  9
$USERR2
 40
0.0
  9
$USERR3
 40
0.0
  9
$USERR4
 40
0.0
  9
$USERR5
 40
0.0
  9
$WORLDVIEW
 70
     1
  9
$SHADEDGE
 70
     3
  9
$SHADEDIF
 70
    70
  9
$TILEMODE
 70
     1
  9
$MAXACTVP
 70
    64
  9
$PINSBASE
 10
0.0
 20
0.0
 30
0.0
  9
$PLIMCHECK
 70
     0
  9
$PEXTMIN
 10
-225.0
 20
-95.0
 30
0.0
  9
$PEXTMAX
 10
225.0
 20
0.0
 30
0.0
  9
$PLIMMIN
 10
-260.0194552529
 20
-108.1322957198
  9
$PLIMMAX
 10
260.0194552529
 20
259.5719844358
  9
$UNITMODE
 70
     0
  9
$VISRETAIN
 70
     1
  9
$PLINEGEN
 70
     0
  9
$PSLTSCALE
 70
     1
  9
$TREEDEPTH
 70
  3020
  9
$CMLSTYLE
  2
Standard
  9
$CMLJUST
 70
     0
  9
$CMLSCALE
 40
20.0
  9
$PROXYGRAPHICS
 70
     1
  9
$MEASUREMENT
 70
     1
  9
$CELWEIGHT
370
    -1
  9
$ENDCAPS
280
     0
  9
$JOINSTYLE
280
     0
  9
$LWDISPLAY
290
     1
  9
$INSUNITS
 70
     4
  9
$HYPERLINKBASE
  1

  9
$STYLESHEET
  1

  9
$XEDIT
290
     1
  9
$CEPSNTYPE
380
     0
  9
$PSTYLEMODE
290
     1
  9
$FINGERPRINTGUID
  2
{4403e352-0e61-4bef-bb82-8f56f2955e9b}
  9
$VERSIONGUID
  2
{FAEB1C32-E019-11D5-929B-00C0DF256EC4}
  9
$EXTNAMES
290
     1
  9
$PSVPSCALE
 40
0.0
  9
$OLESTARTUP
290
     0
  9
$SORTENTS
280
   127
  9
$INDEXCTL
280
     0
  9
$HIDETEXT
280
     1
  9
$XCLIPFRAME
290
     0
  9
$HALOGAP
280
     0
  9
$OBSCOLOR
 70
   257
  9
$OBSLTYPE
280
     0
  9
$INTERSECTIONDISPLAY
280
     0
  9
$INTERSECTIONCOLOR
 70
   257
  9
$DIMASSOC
280
     2
  9
$PROJECTNAME
  1

  9
$CAMERADISPLAY
290
     0
  9
$LENSLENGTH
 40
50.0
  9
$CAMERAHEIGHT
 40
0.0
  9
$STEPSPERSEC
 40
2.0
  9
$STEPSIZE
 40
6.0
  9
$3DDWFPREC
 40
2.0
  9
$PSOLWIDTH
 40
5.0
  9
$PSOLHEIGHT
 40
80.0
  9
$LOFTANG1
 40
1.5707963268
  9
$LOFTANG2
 40
1.5707963268
  9
$LOFTMAG1
 40
0.0
  9
$LOFTMAG2
 40
0.0
  9
$LOFTPARAM
 70
     7
  9
$LOFTNORMALS
280
     1
  9
$LATITUDE
 40
37.795
  9
$LONGITUDE
 40
-122.394
  9
$NORTHDIRECTION
 40
0.0
  9
$TIMEZONE
 70
 -8000
  9
$LIGHTGLYPHDISPLAY
280
     1
  9
$TILEMODELIGHTSYNCH
280
     1
  9
$CMATERIAL
347
44
  9
$SOLIDHIST
280
     0
  9
$SHOWHIST
280
     1
  9
$DWFFRAME
280
     2
  9
$DGNFRAME
280
     2
  9
$REALWORLDSCALE
290
     1
  9
$INTERFERECOLOR
 62
   256
  9
$CSHADOW
280
     0
  9
$SHADOWPLANELOCATION
 40
0.0
  0
ENDSEC
  0
SECTION
  2
CLASSES
  0
CLASS
  1
ACDBDICTIONARYWDFLT
  2
AcDbDictionaryWithDefault
  3
ObjectDBX Classes
 90
        0
 91
        3
280
     0
281
     0
  0
CLASS
  1
VISUALSTYLE
  2
AcDbVisualStyle
  3
ObjectDBX Classes
 90
     4095
 91
        3
280
     0
281
     0
  0
CLASS
  1
MATERIAL
  2
AcDbMaterial
  3
ObjectDBX Classes
 90
     1153
 91
        3
280
     0
281
     0
  0
CLASS
  1
SCALE
  2
AcDbScale
  3
ObjectDBX Classes
 90
     1153
 91
        3
280
     0
281
     0
  0
CLASS
  1
TABLESTYLE
  2
AcDbTableStyle
  3
ObjectDBX Classes
 90
     4095
 91
        3
280
     0
281
     0
  0
CLASS
  1
MLEADERSTYLE
  2
AcDbMLeaderStyle
  3
ACDB_MLEADERSTYLE_CLASS
 90
     4095
 91
        3
280
     0
281
     0
  0
CLASS
  1
SUN
  2
AcDbSun
  3
SCENEOE
 90
     1153
 91
        3
280
     0
281
     0
  0
CLASS
  1
DICTIONARYVAR
  2
AcDbDictionaryVar
  3
ObjectDBX Classes
 90
        0
 91
        3
280
     0
281
     0
  0
CLASS
  1
CELLSTYLEMAP
  2
AcDbCellStyleMap
  3
ObjectDBX Classes
 90
     1152
 91
        3
280
     0
281
     0
  0
ENDSEC
  0
SECTION
  2
TABLES
  0
TABLE
  2
VPORT
  5
8
330
0
100
AcDbSymbolTable
 70
     1
  0
VPORT
  5
29
330
8
100
AcDbSymbolTableRecord
100
AcDbViewportTableRecord
  2
*Active
 70
     0
 10
0.0
 20
0.0
 11
1.0
 21
1.0
 12
0.0
 22
0.0
 13
0.0
 23
0.0
 14
10.0
 24
10.0
 15
10.0
 25
10.0
 16
0.0
 26
0.0
 36
1.0
 17
0.0
 27
0.0
 37
0.0
 40
459.0
 41
1.0
 42
50.0
 43
0.0
 44
0.0
 50
0.0
 51
0.0
 71
     0
 72
   100
 73
     1
 74
     3
 75
     0
 76
     0
 77
     0
 78
     0
281
     0
 65
     1
110
0.0
120
0.0
130
0.0
111
1.0
121
0.0
131
0.0
112
0.0
122
1.0
132
0.0
 79
     0
146
0.0
348
2F
 60
     3
 61
     5
292
     1
282
     1
141
0.0
142
0.0
 63
   250
361
6D
  0
ENDTAB
  0
TABLE
  2
LTYPE
  5
5
330
0
100
AcDbSymbolTable
 70
     6
  0
LTYPE
  5
14
330
5
100
AcDbSymbolTableRecord
100
AcDbLinetypeTableRecord
  2
ByBlock
 70
     0
  3

 72
    65
 73
     0
 40
0.0
  0
LTYPE
  5
15
330
5
100
AcDbSymbolTableRecord
100
AcDbLinetypeTableRecord
  2
ByLayer
 70
     0
  3

 72
    65
 73
     0
 40
0.0
  0
LTYPE
  5
16
330
5
100
AcDbSymbolTableRecord
100
AcDbLinetypeTableRecord
  2
Continuous
 70
     0
  3
Solid line
 72
    65
 73
     0
 40
0.0
  0
LTYPE
  5
6E
330
5
100
AcDbSymbolTableRecord
100
AcDbLinetypeTableRecord
  2
HIDDEN
 70
     0
  3
Hidden __ __ __ __ __ __ __ __ __ __ __ __ __ __
 72
    65
 73
     2
 40
1.905
 49
1.27
 74
     0
 49
-0.635
 74
     0
  0
LTYPE
  5
6F
330
5
100
AcDbSymbolTableRecord
100
AcDbLinetypeTableRecord
  2
PHANTOM
 70
     0
  3
Phantom ______  __  __  ______  __  __  ______
 72
    65
 73
     6
 40
12.7
 49
6.35
 74
     0
 49
-1.27
 74
     0
 49
1.27
 74
     0
 49
-1.27
 74
     0
 49
1.27
 74
     0
 49
-1.27
 74
     0
  0
LTYPE
  5
70
330
5
100
AcDbSymbolTableRecord
100
AcDbLinetypeTableRecord
  2
CENTER
 70
     0
  3
Center ____ _ ____ _ ____ _ ____ _ ____ _ ____
 72
    65
 73
     4
 40
10.16
 49
6.35
 74
     0
 49
-1.27
 74
     0
 49
1.27
 74
     0
 49
-1.27
 74
     0
  0
LTYPE
  5
71
330
5
100
AcDbSymbolTableRecord
100
AcDbLinetypeTableRecord
  2
CENTERX2
 70
     0
  3
Center (2x) ________  __  ________  __  _____
 72
    65
 73
     4
 40
20.32
 49
12.7
 74
     0
 49
-2.54
 74
     0
 49
2.54
 74
     0
 49
-2.54
 74
     0
  0
LTYPE
  5
72
330
5
100
AcDbSymbolTableRecord
100
AcDbLinetypeTableRecord
  2
DOT2
 70
     0
  3
Dot (.5x) ........................................
 72
    65
 73
     2
 40
0.635
 49
0.0
 74
     0
 49
-0.635
 74
     0
  0
ENDTAB
  0
TABLE
  2
LAYER
  5
2
330
0
100
AcDbSymbolTable
 70
     1
  0
LAYER
  5
10
330
2
100
AcDbSymbolTableRecord
100
AcDbLayerTableRecord
  2
0
 70
     0
 62
     7
  6
Continuous
370
    -3
390
F
347
46
  0
ENDTAB
  0
TABLE
  2
STYLE
  5
3
330
0
100
AcDbSymbolTable
 70
     1
  0
STYLE
  5
11
330
3
100
AcDbSymbolTableRecord
100
AcDbTextStyleTableRecord
  2
STANDARD
 70
     0
 40
0.0
 41
1.0
 50
0.0
 71
     0
 42
3.5
  3
GOTHIC.TTF
  4

1001
ACAD
1000
CENTURY GOTHIC
1071
       34
  0
ENDTAB
  0
TABLE
  2
VIEW
  5
6
330
0
100
AcDbSymbolTable
 70
     0
  0
ENDTAB
  0
TABLE
  2
UCS
  5
7
330
0
100
AcDbSymbolTable
 70
     0
  0
ENDTAB
  0
TABLE
  2
APPID
  5
9
330
0
100
AcDbSymbolTable
 70
     2
  0
APPID
  5
12
330
9
100
AcDbSymbolTableRecord
100
AcDbRegAppTableRecord
  2
ACAD
 70
     0
  0
APPID
  5
206
330
9
100
AcDbSymbolTableRecord
100
AcDbRegAppTableRecord
  2
ACAD_MLEADERVER
 70
     0
  0
ENDTAB
  0
TABLE
  2
DIMSTYLE
  5
A
330
0
100
AcDbSymbolTable
 70
     1
100
AcDbDimStyleTable
  0
DIMSTYLE
105
27
330
A
100
AcDbSymbolTableRecord
100
AcDbDimStyleTableRecord
  2
ISO-25
 70
     0
 41
2.5
 42
0.625
 43
3.75
 44
1.25
 73
     0
 74
     0
 77
     1
 78
     8
140
2.5
141
2.5
143
0.0393700787
147
0.625
171
     3
172
     1
178
     0
271
     2
272
     2
274
     3
278
    44
283
     0
284
     8
340
11
  0
ENDTAB
  0
TABLE
  2
BLOCK_RECORD
  5
1
330
0
100
AcDbSymbolTable
 70
     8
  0
BLOCK_RECORD
  5
1F
330
1
100
AcDbSymbolTableRecord
100
AcDbBlockTableRecord
  2
*Model_Space
340
22
 70
     0
280
     1
281
     0
  0
BLOCK_RECORD
  5
1B
330
1
100
AcDbSymbolTableRecord
100
AcDbBlockTableRecord
  2
*Paper_Space
340
1E
 70
     0
280
     1
281
     0
  0
BLOCK_RECORD
  5
23
330
1
100
AcDbSymbolTableRecord
100
AcDbBlockTableRecord
  2
*Paper_Space0
340
26
 70
     0
280
     1
281
     0
  0
BLOCK_RECORD
  5
D3
330
1
100
AcDbSymbolTableRecord
100
AcDbBlockTableRecord
  2
*Paper_Space1
340
D4
 70
     0
280
     1
281
     0
  0
BLOCK_RECORD
  5
107
330
1
100
AcDbSymbolTableRecord
100
AcDbBlockTableRecord
  2
*Paper_Space2
340
108
 70
     0
280
     1
281
     0
  0
BLOCK_RECORD
  5
137
330
1
100
AcDbSymbolTableRecord
100
AcDbBlockTableRecord
  2
*Paper_Space3
340
138
 70
     0
280
     1
281
     0
  0
BLOCK_RECORD
  5
167
330
1
100
AcDbSymbolTableRecord
100
AcDbBlockTableRecord
  2
*Paper_Space4
340
168
 70
     0
280
     1
281
     0
  0
BLOCK_RECORD
  5
16F
330
1
100
AcDbSymbolTableRecord
100
AcDbBlockTableRecord
  2
*Paper_Space5
340
170
 70
     0
280
     1
281
     0
  0
BLOCK_RECORD
  5
199
330
1
100
AcDbSymbolTableRecord
100
AcDbBlockTableRecord
  2
*Paper_Space6
340
19A
 70
     0
280
     1
281
     0
  0
BLOCK_RECORD
  5
1C0
330
1
100
AcDbSymbolTableRecord
100
AcDbBlockTableRecord
  2
*Paper_Space7
340
1C1
 70
     0
280
     1
281
     0
  0
ENDTAB
  0
ENDSEC
  0
SECTION
  2
BLOCKS
  0
BLOCK
  5
20
330
1F
100
AcDbEntity
  8
0
100
AcDbBlockBegin
  2
*Model_Space
 70
     0
 10
0.0
 20
0.0
 30
0.0
  3
*Model_Space
  1

  0
ENDBLK
  5
21
330
1F
100
AcDbEntity
  8
0
100
AcDbBlockEnd
  0
BLOCK
  5
1C
330
1B
100
AcDbEntity
 67
     1
  8
0
100
AcDbBlockBegin
  2
*Paper_Space
 70
     0
 10
0.0
 20
0.0
 30
0.0
  3
*Paper_Space
  1

  0
ENDBLK
  5
1D
330
1B
100
AcDbEntity
 67
     1
  8
0
100
AcDbBlockEnd
  0
BLOCK
  5
24
330
23
100
AcDbEntity
  8
0
100
AcDbBlockBegin
  2
*Paper_Space0
 70
     0
 10
0.0
 20
0.0
 30
0.0
  3
*Paper_Space0
  1

  0
LINE
  5
BD
330
23
100
AcDbEntity
  8
0
  6
Continuous
 62
     7
370
    25
100
AcDbLine
 10
-52.5
 20
-90.7058083289
 30
0.0
 11
-52.5
 21
-95.0
 31
0.0
  0
LINE
  5
BE
330
23
100
AcDbEntity
  8
0
  6
Continuous
 62
     7
370
    25
100
AcDbLine
 10
52.5
 20
-95.0
 30
0.0
 11
52.5
 21
-90.7058083289
 31
0.0
  0
LINE
  5
BF
330
23
100
AcDbEntity
  8
0
  6
Continuous
 62
     7
370
    25
100
AcDbLine
 10
-225.0
 20
0.0
 30
0.0
 11
225.0
 21
0.0
 31
0.0
  0
LINE
  5
C0
330
23
100
AcDbEntity
  8
0
  6
Continuous
 62
     7
370
    25
100
AcDbLine
 10
-52.5
 20
-95.0
 30
0.0
 11
52.5
 21
-95.0
 31
0.0
  0
LINE
  5
C1
330
23
100
AcDbEntity
  8
0
  6
HIDDEN
 62
     7
370
    18
100
AcDbLine
 10
-34.9175359259
 20
-75.0
 30
0.0
 11
34.9175359259
 21
-75.0
 31
0.0
  0
LINE
  5
C2
330
23
100
AcDbEntity
  8
0
  6
HIDDEN
 62
     7
370
    18
100
AcDbLine
 10
-23.0
 20
-85.0
 30
0.0
 11
23.0
 21
-85.0
 31
0.0
  0
LINE
  5
C3
330
23
100
AcDbEntity
  8
0
  6
HIDDEN
 62
     7
370
    18
100
AcDbLine
 10
-34.9175359259
 20
-75.0
 30
0.0
 11
-23.0
 21
-85.0
 31
0.0
  0
LINE
  5
C4
330
23
100
AcDbEntity
  8
0
  6
HIDDEN
 62
     7
370
    18
100
AcDbLine
 10
23.0
 20
-85.0
 30
0.0
 11
34.9175359259
 21
-75.0
 31
0.0
  0
LINE
  5
C5
330
23
100
AcDbEntity
  8
0
  6
HIDDEN
 62
     7
370
    18
100
AcDbLine
 10
-23.0
 20
-85.0
 30
0.0
 11
-23.0
 21
-95.0
 31
0.0
  0
LINE
  5
C6
330
23
100
AcDbEntity
  8
0
  6
HIDDEN
 62
     7
370
    18
100
AcDbLine
 10
23.0
 20
-95.0
 30
0.0
 11
23.0
 21
-85.0
 31
0.0
  0
ARC
  5
C7
330
23
100
AcDbEntity
  8
0
  6
Continuous
 62
     7
370
    25
100
AcDbCircle
 10
-121.9101096012
 20
42.3494009111
 30
0.0
 40
111.4495278588976
100
AcDbArc
 50
202.3328936218
 51
247.4423490299
  0
ARC
  5
C8
330
23
100
AcDbEntity
  8
0
  6
Continuous
 62
     7
370
    25
100
AcDbCircle
 10
121.9101096012
 20
42.3494009111
 30
0.0
 40
111.4495278588977
100
AcDbArc
 50
292.5576509701
 51
337.6671063782
  0
ARC
  5
C9
330
23
100
AcDbEntity
  8
0
  6
Continuous
 62
     7
370
    25
100
AcDbCircle
 10
-34.9175359259
 20
251.7717953764
 30
0.0
 40
338.2213232353116
100
AcDbArc
 50
247.4423490299
 51
266.2274626705
  0
ARC
  5
CA
330
23
100
AcDbEntity
  8
0
  6
Continuous
 62
     7
370
    25
100
AcDbCircle
 10
34.9175359259
 20
251.7717953764
 30
0.0
 40
338.2213232353175
100
AcDbArc
 50
273.7725373295
 51
292.5576509701
  0
ARC
  5
CB
330
23
100
AcDbEntity
  8
0
  6
Continuous
 62
     7
370
    25
100
AcDbCircle
 10
-57.5
 20
-90.7058083289
 30
0.0
 40
5.000000000000041
100
AcDbArc
 50
0.0
 51
86.2274626705
  0
ARC
  5
CC
330
23
100
AcDbEntity
  8
0
  6
Continuous
 62
     7
370
    25
100
AcDbCircle
 10
57.5
 20
-90.7058083289
 30
0.0
 40
5.000000000000041
100
AcDbArc
 50
93.7725373295
 51
180.0
  0
ARC
  5
CD
330
23
100
AcDbEntity
  8
0
  6
HIDDEN
 62
     7
370
    18
100
AcDbCircle
 10
-235.3796292148
 20
-37.085797919
 30
0.0
 40
38.51094792292555
100
AcDbArc
 50
34.9942348107
 51
74.3640490186
  0
ARC
  5
CE
330
23
100
AcDbEntity
  8
0
  6
HIDDEN
 62
     7
370
    18
100
AcDbCircle
 10
235.3796292148
 20
-37.085797919
 30
0.0
 40
38.51094792292538
100
AcDbArc
 50
105.6359509814
 51
145.0057651893
  0
ARC
  5
CF
330
23
100
AcDbEntity
  8
0
  6
HIDDEN
 62
     7
370
    18
100
AcDbCircle
 10
-121.9101096012
 20
42.3494009111
 30
0.0
 40
99.99999999999923
100
AcDbArc
 50
214.9942348107
 51
247.4423490299
  0
ARC
  5
D0
330
23
100
AcDbEntity
  8
0
  6
HIDDEN
 62
     7
370
    18
100
AcDbCircle
 10
121.9101096012
 20
42.3494009111
 30
0.0
 40
99.99999999999946
100
AcDbArc
 50
292.5576509701
 51
325.0057651893
  0
ARC
  5
D1
330
23
100
AcDbEntity
  8
0
  6
HIDDEN
 62
     7
370
    18
100
AcDbCircle
 10
-34.9175359259
 20
251.7717953764
 30
0.0
 40
326.7717953764051
100
AcDbArc
 50
247.4423490299
 51
270.0
  0
ARC
  5
D2
330
23
100
AcDbEntity
  8
0
  6
HIDDEN
 62
     7
370
    18
100
AcDbCircle
 10
34.9175359259
 20
251.7717953764
 30
0.0
 40
326.7717953764076
100
AcDbArc
 50
270.0
 51
292.5576509701
  0
VIEWPORT
  5
1F2
330
23
100
AcDbEntity
  8
0
100
AcDbViewport
 10
0.0
 20
0.0
 30
0.0
 40
205.6
 41
156.0
 68
     1
 69
     1
 12
0.0
 22
0.0
 13
0.0
 23
0.0
 14
10.0
 24
10.0
 15
10.0
 25
10.0
 16
0.0
 26
0.0
 36
1.0
 17
0.0
 27
0.0
 37
0.0
 42
50.0
 43
0.0
 44
0.0
 45
459.0
 50
0.0
 51
0.0
 72
   100
 90
   557152
  1

281
     0
 71
     1
 74
     0
110
0.0
120
0.0
130
0.0
111
1.0
121
0.0
131
0.0
112
0.0
122
1.0
132
0.0
 79
     0
146
0.0
170
     0
 61
     5
348
2F
292
     1
282
     1
141
0.0
142
0.0
 63
   256
361
1F3
  0
ENDBLK
  5
25
330
23
100
AcDbEntity
  8
0
100
AcDbBlockEnd
  0
BLOCK
  5
D5
330
D3
100
AcDbEntity
  8
0
100
AcDbBlockBegin
  2
*Paper_Space1
 70
     0
 10
0.0
 20
0.0
 30
0.0
  3
*Paper_Space1
  1

  0
LINE
  5
F1
330
D3
100
AcDbEntity
  8
0
  6
Continuous
 62
     7
370
    25
100
AcDbLine
 10
-52.5
 20
-90.7058083289
 30
0.0
 11
-52.5
 21
-95.0
 31
0.0
  0
LINE
  5
F2
330
D3
100
AcDbEntity
  8
0
  6
Continuous
 62
     7
370
    25
100
AcDbLine
 10
52.5
 20
-95.0
 30
0.0
 11
52.5
 21
-90.7058083289
 31
0.0
  0
LINE
  5
F3
330
D3
100
AcDbEntity
  8
0
  6
Continuous
 62
     7
370
    25
100
AcDbLine
 10
-225.0
 20
0.0
 30
0.0
 11
225.0
 21
0.0
 31
0.0
  0
LINE
  5
F4
330
D3
100
AcDbEntity
  8
0
  6
Continuous
 62
     7
370
    25
100
AcDbLine
 10
-52.5
 20
-95.0
 30
0.0
 11
52.5
 21
-95.0
 31
0.0
  0
LINE
  5
F5
330
D3
100
AcDbEntity
  8
0
  6
HIDDEN
 62
     7
370
    18
100
AcDbLine
 10
-34.9175359259
 20
-75.0
 30
0.0
 11
34.9175359259
 21
-75.0
 31
0.0
  0
LINE
  5
F6
330
D3
100
AcDbEntity
  8
0
  6
HIDDEN
 62
     7
370
    18
100
AcDbLine
 10
-23.0
 20
-85.0
 30
0.0
 11
23.0
 21
-85.0
 31
0.0
  0
LINE
  5
F7
330
D3
100
AcDbEntity
  8
0
  6
HIDDEN
 62
     7
370
    18
100
AcDbLine
 10
-34.9175359259
 20
-75.0
 30
0.0
 11
-23.0
 21
-85.0
 31
0.0
  0
LINE
  5
F8
330
D3
100
AcDbEntity
  8
0
  6
HIDDEN
 62
     7
370
    18
100
AcDbLine
 10
23.0
 20
-85.0
 30
0.0
 11
34.9175359259
 21
-75.0
 31
0.0
  0
LINE
  5
F9
330
D3
100
AcDbEntity
  8
0
  6
HIDDEN
 62
     7
370
    18
100
AcDbLine
 10
-23.0
 20
-85.0
 30
0.0
 11
-23.0
 21
-95.0
 31
0.0
  0
LINE
  5
FA
330
D3
100
AcDbEntity
  8
0
  6
HIDDEN
 62
     7
370
    18
100
AcDbLine
 10
23.0
 20
-95.0
 30
0.0
 11
23.0
 21
-85.0
 31
0.0
  0
ARC
  5
FB
330
D3
100
AcDbEntity
  8
0
  6
Continuous
 62
     7
370
    25
100
AcDbCircle
 10
-121.9101096012
 20
42.3494009111
 30
0.0
 40
111.4495278588975
100
AcDbArc
 50
202.3328936218
 51
247.4423490299
  0
ARC
  5
FC
330
D3
100
AcDbEntity
  8
0
  6
Continuous
 62
     7
370
    25
100
AcDbCircle
 10
121.9101096012
 20
42.3494009111
 30
0.0
 40
111.4495278588979
100
AcDbArc
 50
292.5576509701
 51
337.6671063782
  0
ARC
  5
FD
330
D3
100
AcDbEntity
  8
0
  6
Continuous
 62
     7
370
    25
100
AcDbCircle
 10
-34.9175359259
 20
251.7717953764
 30
0.0
 40
338.2213232353103
100
AcDbArc
 50
247.4423490299
 51
266.2274626705
  0
ARC
  5
FE
330
D3
100
AcDbEntity
  8
0
  6
Continuous
 62
     7
370
    25
100
AcDbCircle
 10
34.9175359259
 20
251.7717953764
 30
0.0
 40
338.2213232353175
100
AcDbArc
 50
273.7725373295
 51
292.5576509701
  0
ARC
  5
FF
330
D3
100
AcDbEntity
  8
0
  6
Continuous
 62
     7
370
    25
100
AcDbCircle
 10
-57.5
 20
-90.7058083289
 30
0.0
 40
5.000000000000041
100
AcDbArc
 50
0.0
 51
86.2274626705
  0
ARC
  5
100
330
D3
100
AcDbEntity
  8
0
  6
Continuous
 62
     7
370
    25
100
AcDbCircle
 10
57.5
 20
-90.7058083289
 30
0.0
 40
5.000000000000042
100
AcDbArc
 50
93.7725373295
 51
180.0
  0
ARC
  5
101
330
D3
100
AcDbEntity
  8
0
  6
HIDDEN
 62
     7
370
    18
100
AcDbCircle
 10
-235.3796292148
 20
-37.085797919
 30
0.0
 40
38.51094792292559
100
AcDbArc
 50
34.9942348107
 51
74.3640490186
  0
ARC
  5
102
330
D3
100
AcDbEntity
  8
0
  6
HIDDEN
 62
     7
370
    18
100
AcDbCircle
 10
235.3796292148
 20
-37.085797919
 30
0.0
 40
38.51094792292562
100
AcDbArc
 50
105.6359509814
 51
145.0057651893
  0
ARC
  5
103
330
D3
100
AcDbEntity
  8
0
  6
HIDDEN
 62
     7
370
    18
100
AcDbCircle
 10
-121.9101096012
 20
42.3494009111
 30
0.0
 40
99.99999999999946
100
AcDbArc
 50
214.9942348107
 51
247.4423490299
  0
ARC
  5
104
330
D3
100
AcDbEntity
  8
0
  6
HIDDEN
 62
     7
370
    18
100
AcDbCircle
 10
121.9101096012
 20
42.3494009111
 30
0.0
 40
99.99999999999889
100
AcDbArc
 50
292.5576509701
 51
325.0057651893
  0
ARC
  5
105
330
D3
100
AcDbEntity
  8
0
  6
HIDDEN
 62
     7
370
    18
100
AcDbCircle
 10
-34.9175359259
 20
251.7717953764
 30
0.0
 40
326.7717953764052
100
AcDbArc
 50
247.4423490299
 51
270.0
  0
ARC
  5
106
330
D3
100
AcDbEntity
  8
0
  6
HIDDEN
 62
     7
370
    18
100
AcDbCircle
 10
34.9175359259
 20
251.7717953764
 30
0.0
 40
326.771795376408
100
AcDbArc
 50
270.0
 51
292.5576509701
  0
VIEWPORT
  5
1F4
330
D3
100
AcDbEntity
  8
0
100
AcDbViewport
 10
0.0
 20
0.0
 30
0.0
 40
205.6
 41
156.0
 68
     1
 69
     1
 12
0.0
 22
0.0
 13
0.0
 23
0.0
 14
10.0
 24
10.0
 15
10.0
 25
10.0
 16
0.0
 26
0.0
 36
1.0
 17
0.0
 27
0.0
 37
0.0
 42
50.0
 43
0.0
 44
0.0
 45
459.0
 50
0.0
 51
0.0
 72
   100
 90
   557152
  1

281
     0
 71
     1
 74
     0
110
0.0
120
0.0
130
0.0
111
1.0
121
0.0
131
0.0
112
0.0
122
1.0
132
0.0
 79
     0
146
0.0
170
     0
 61
     5
348
2F
292
     1
282
     1
141
0.0
142
0.0
 63
   256
361
1F5
  0
ENDBLK
  5
D6
330
D3
100
AcDbEntity
  8
0
100
AcDbBlockEnd
  0
BLOCK
  5
109
330
107
100
AcDbEntity
  8
0
100
AcDbBlockBegin
  2
*Paper_Space2
 70
     0
 10
0.0
 20
0.0
 30
0.0
  3
*Paper_Space2
  1

  0
LINE
  5
121
330
107
100
AcDbEntity
  8
0
  6
Continuous
 62
     7
370
    25
100
AcDbLine
 10
-52.5
 20
-90.7058083289
 30
0.0
 11
-52.5
 21
-95.0
 31
0.0
  0
LINE
  5
122
330
107
100
AcDbEntity
  8
0
  6
Continuous
 62
     7
370
    25
100
AcDbLine
 10
52.5
 20
-95.0
 30
0.0
 11
52.5
 21
-90.7058083289
 31
0.0
  0
LINE
  5
123
330
107
100
AcDbEntity
  8
0
  6
Continuous
 62
     7
370
    25
100
AcDbLine
 10
-225.0
 20
0.0
 30
0.0
 11
225.0
 21
0.0
 31
0.0
  0
LINE
  5
124
330
107
100
AcDbEntity
  8
0
  6
Continuous
 62
     7
370
    25
100
AcDbLine
 10
-52.5
 20
-95.0
 30
0.0
 11
52.5
 21
-95.0
 31
0.0
  0
LINE
  5
125
330
107
100
AcDbEntity
  8
0
  6
HIDDEN
 62
     7
370
    18
100
AcDbLine
 10
-34.9175359259
 20
-75.0
 30
0.0
 11
34.9175359259
 21
-75.0
 31
0.0
  0
LINE
  5
126
330
107
100
AcDbEntity
  8
0
  6
HIDDEN
 62
     7
370
    18
100
AcDbLine
 10
-23.0
 20
-85.0
 30
0.0
 11
23.0
 21
-85.0
 31
0.0
  0
LINE
  5
127
330
107
100
AcDbEntity
  8
0
  6
HIDDEN
 62
     7
370
    18
100
AcDbLine
 10
-34.9175359259
 20
-75.0
 30
0.0
 11
-23.0
 21
-85.0
 31
0.0
  0
LINE
  5
128
330
107
100
AcDbEntity
  8
0
  6
HIDDEN
 62
     7
370
    18
100
AcDbLine
 10
23.0
 20
-85.0
 30
0.0
 11
34.9175359259
 21
-75.0
 31
0.0
  0
LINE
  5
129
330
107
100
AcDbEntity
  8
0
  6
HIDDEN
 62
     7
370
    18
100
AcDbLine
 10
-23.0
 20
-85.0
 30
0.0
 11
-23.0
 21
-95.0
 31
0.0
  0
LINE
  5
12A
330
107
100
AcDbEntity
  8
0
  6
HIDDEN
 62
     7
370
    18
100
AcDbLine
 10
23.0
 20
-95.0
 30
0.0
 11
23.0
 21
-85.0
 31
0.0
  0
ARC
  5
12B
330
107
100
AcDbEntity
  8
0
  6
Continuous
 62
     7
370
    25
100
AcDbCircle
 10
-121.9101096012
 20
42.3494009111
 30
0.0
 40
111.4495278588975
100
AcDbArc
 50
202.3328936218
 51
247.4423490299
  0
ARC
  5
12C
330
107
100
AcDbEntity
  8
0
  6
Continuous
 62
     7
370
    25
100
AcDbCircle
 10
121.9101096012
 20
42.3494009111
 30
0.0
 40
111.4495278588979
100
AcDbArc
 50
292.5576509701
 51
337.6671063782
  0
ARC
  5
12D
330
107
100
AcDbEntity
  8
0
  6
Continuous
 62
     7
370
    25
100
AcDbCircle
 10
-34.9175359259
 20
251.7717953764
 30
0.0
 40
338.221323235312
100
AcDbArc
 50
247.4423490299
 51
266.2274626705
  0
ARC
  5
12E
330
107
100
AcDbEntity
  8
0
  6
Continuous
 62
     7
370
    25
100
AcDbCircle
 10
34.9175359259
 20
251.7717953764
 30
0.0
 40
338.2213232353158
100
AcDbArc
 50
273.7725373295
 51
292.5576509701
  0
ARC
  5
12F
330
107
100
AcDbEntity
  8
0
  6
Continuous
 62
     7
370
    25
100
AcDbCircle
 10
-57.5
 20
-90.7058083289
 30
0.0
 40
5.000000000000041
100
AcDbArc
 50
0.0
 51
86.2274626705
  0
ARC
  5
130
330
107
100
AcDbEntity
  8
0
  6
Continuous
 62
     7
370
    25
100
AcDbCircle
 10
57.5
 20
-90.7058083289
 30
0.0
 40
5.000000000000042
100
AcDbArc
 50
93.7725373295
 51
180.0
  0
ARC
  5
131
330
107
100
AcDbEntity
  8
0
  6
HIDDEN
 62
     7
370
    18
100
AcDbCircle
 10
-235.3796292148
 20
-37.085797919
 30
0.0
 40
38.51094792292556
100
AcDbArc
 50
34.9942348107
 51
74.3640490186
  0
ARC
  5
132
330
107
100
AcDbEntity
  8
0
  6
HIDDEN
 62
     7
370
    18
100
AcDbCircle
 10
235.3796292148
 20
-37.085797919
 30
0.0
 40
38.51094792292562
100
AcDbArc
 50
105.6359509814
 51
145.0057651893
  0
ARC
  5
133
330
107
100
AcDbEntity
  8
0
  6
HIDDEN
 62
     7
370
    18
100
AcDbCircle
 10
-121.9101096012
 20
42.3494009111
 30
0.0
 40
99.99999999999946
100
AcDbArc
 50
214.9942348107
 51
247.4423490299
  0
ARC
  5
134
330
107
100
AcDbEntity
  8
0
  6
HIDDEN
 62
     7
370
    18
100
AcDbCircle
 10
121.9101096012
 20
42.3494009111
 30
0.0
 40
99.99999999999888
100
AcDbArc
 50
292.5576509701
 51
325.0057651893
  0
ARC
  5
135
330
107
100
AcDbEntity
  8
0
  6
HIDDEN
 62
     7
370
    18
100
AcDbCircle
 10
-34.9175359259
 20
251.7717953764
 30
0.0
 40
326.7717953764052
100
AcDbArc
 50
247.4423490299
 51
270.0
  0
ARC
  5
136
330
107
100
AcDbEntity
  8
0
  6
HIDDEN
 62
     7
370
    18
100
AcDbCircle
 10
34.9175359259
 20
251.7717953764
 30
0.0
 40
326.771795376408
100
AcDbArc
 50
270.0
 51
292.5576509701
  0
VIEWPORT
  5
1F6
330
107
100
AcDbEntity
  8
0
100
AcDbViewport
 10
0.0
 20
0.0
 30
0.0
 40
205.6
 41
156.0
 68
     1
 69
     1
 12
0.0
 22
0.0
 13
0.0
 23
0.0
 14
10.0
 24
10.0
 15
10.0
 25
10.0
 16
0.0
 26
0.0
 36
1.0
 17
0.0
 27
0.0
 37
0.0
 42
50.0
 43
0.0
 44
0.0
 45
459.0
 50
0.0
 51
0.0
 72
   100
 90
   557152
  1

281
     0
 71
     1
 74
     0
110
0.0
120
0.0
130
0.0
111
1.0
121
0.0
131
0.0
112
0.0
122
1.0
132
0.0
 79
     0
146
0.0
170
     0
 61
     5
348
2F
292
     1
282
     1
141
0.0
142
0.0
 63
   256
361
1F7
  0
ENDBLK
  5
10A
330
107
100
AcDbEntity
  8
0
100
AcDbBlockEnd
  0
BLOCK
  5
139
330
137
100
AcDbEntity
  8
0
100
AcDbBlockBegin
  2
*Paper_Space3
 70
     0
 10
0.0
 20
0.0
 30
0.0
  3
*Paper_Space3
  1

  0
LINE
  5
151
330
137
100
AcDbEntity
  8
0
  6
Continuous
 62
     7
370
    25
100
AcDbLine
 10
-52.5
 20
-90.7058083289
 30
0.0
 11
-52.5
 21
-95.0
 31
0.0
  0
LINE
  5
152
330
137
100
AcDbEntity
  8
0
  6
Continuous
 62
     7
370
    25
100
AcDbLine
 10
52.5
 20
-95.0
 30
0.0
 11
52.5
 21
-90.7058083289
 31
0.0
  0
LINE
  5
153
330
137
100
AcDbEntity
  8
0
  6
Continuous
 62
     7
370
    25
100
AcDbLine
 10
-225.0
 20
0.0
 30
0.0
 11
225.0
 21
0.0
 31
0.0
  0
LINE
  5
154
330
137
100
AcDbEntity
  8
0
  6
Continuous
 62
     7
370
    25
100
AcDbLine
 10
-52.5
 20
-95.0
 30
0.0
 11
52.5
 21
-95.0
 31
0.0
  0
LINE
  5
155
330
137
100
AcDbEntity
  8
0
  6
HIDDEN
 62
     7
370
    18
100
AcDbLine
 10
-34.9175358767
 20
-75.0
 30
0.0
 11
34.9175359259
 21
-75.0
 31
0.0
  0
LINE
  5
156
330
137
100
AcDbEntity
  8
0
  6
HIDDEN
 62
     7
370
    18
100
AcDbLine
 10
-23.0
 20
-85.0
 30
0.0
 11
23.0
 21
-85.0
 31
0.0
  0
LINE
  5
157
330
137
100
AcDbEntity
  8
0
  6
HIDDEN
 62
     7
370
    18
100
AcDbLine
 10
-34.9175359259
 20
-75.0
 30
0.0
 11
-23.0
 21
-85.0
 31
0.0
  0
LINE
  5
158
330
137
100
AcDbEntity
  8
0
  6
HIDDEN
 62
     7
370
    18
100
AcDbLine
 10
23.0
 20
-85.0
 30
0.0
 11
34.9175359259
 21
-75.0
 31
0.0
  0
LINE
  5
159
330
137
100
AcDbEntity
  8
0
  6
HIDDEN
 62
     7
370
    18
100
AcDbLine
 10
-23.0
 20
-85.0
 30
0.0
 11
-23.0
 21
-95.0
 31
0.0
  0
LINE
  5
15A
330
137
100
AcDbEntity
  8
0
  6
HIDDEN
 62
     7
370
    18
100
AcDbLine
 10
23.0
 20
-95.0
 30
0.0
 11
23.0
 21
-85.0
 31
0.0
  0
ARC
  5
15B
330
137
100
AcDbEntity
  8
0
  6
Continuous
 62
     7
370
    25
100
AcDbCircle
 10
-121.9101096012
 20
42.3494009111
 30
0.0
 40
111.4495278588976
100
AcDbArc
 50
202.3328936218
 51
247.4423490299
  0
ARC
  5
15C
330
137
100
AcDbEntity
  8
0
  6
Continuous
 62
     7
370
    25
100
AcDbCircle
 10
121.9101096012
 20
42.3494009111
 30
0.0
 40
111.4495278588977
100
AcDbArc
 50
292.5576509701
 51
337.6671063782
  0
ARC
  5
15D
330
137
100
AcDbEntity
  8
0
  6
Continuous
 62
     7
370
    25
100
AcDbCircle
 10
-34.9175359259
 20
251.7717953764
 30
0.0
 40
338.2213232353116
100
AcDbArc
 50
247.4423490299
 51
266.2274626705
  0
ARC
  5
15E
330
137
100
AcDbEntity
  8
0
  6
Continuous
 62
     7
370
    25
100
AcDbCircle
 10
34.9175359259
 20
251.7717953764
 30
0.0
 40
338.2213232353175
100
AcDbArc
 50
273.7725373295
 51
292.5576509701
  0
ARC
  5
15F
330
137
100
AcDbEntity
  8
0
  6
Continuous
 62
     7
370
    25
100
AcDbCircle
 10
-57.5
 20
-90.7058083289
 30
0.0
 40
5.000000000000041
100
AcDbArc
 50
0.0
 51
86.2274626705
  0
ARC
  5
160
330
137
100
AcDbEntity
  8
0
  6
Continuous
 62
     7
370
    25
100
AcDbCircle
 10
57.5
 20
-90.7058083289
 30
0.0
 40
5.000000000000041
100
AcDbArc
 50
93.7725373295
 51
180.0
  0
ARC
  5
161
330
137
100
AcDbEntity
  8
0
  6
HIDDEN
 62
     7
370
    18
100
AcDbCircle
 10
-235.3796292148
 20
-37.085797919
 30
0.0
 40
38.51094792292555
100
AcDbArc
 50
34.9942348107
 51
74.3640490186
  0
ARC
  5
162
330
137
100
AcDbEntity
  8
0
  6
HIDDEN
 62
     7
370
    18
100
AcDbCircle
 10
235.3796292148
 20
-37.085797919
 30
0.0
 40
38.51094792292538
100
AcDbArc
 50
105.6359509814
 51
145.0057651893
  0
ARC
  5
163
330
137
100
AcDbEntity
  8
0
  6
HIDDEN
 62
     7
370
    18
100
AcDbCircle
 10
-121.9101096012
 20
42.3494009111
 30
0.0
 40
99.99999999999923
100
AcDbArc
 50
214.9942348107
 51
247.4423490299
  0
ARC
  5
164
330
137
100
AcDbEntity
  8
0
  6
HIDDEN
 62
     7
370
    18
100
AcDbCircle
 10
121.9101096012
 20
42.3494009111
 30
0.0
 40
99.99999999999946
100
AcDbArc
 50
292.5576509701
 51
325.0057651893
  0
ARC
  5
165
330
137
100
AcDbEntity
  8
0
  6
HIDDEN
 62
     7
370
    18
100
AcDbCircle
 10
-34.9175359259
 20
251.7717953764
 30
0.0
 40
326.7717953764051
100
AcDbArc
 50
247.4423490299
 51
270.0
  0
ARC
  5
166
330
137
100
AcDbEntity
  8
0
  6
HIDDEN
 62
     7
370
    18
100
AcDbCircle
 10
34.9175359259
 20
251.7717953764
 30
0.0
 40
326.7717953764076
100
AcDbArc
 50
270.0
 51
292.5576509701
  0
VIEWPORT
  5
1F8
330
137
100
AcDbEntity
  8
0
100
AcDbViewport
 10
0.0
 20
0.0
 30
0.0
 40
205.6
 41
156.0
 68
     1
 69
     1
 12
0.0
 22
0.0
 13
0.0
 23
0.0
 14
10.0
 24
10.0
 15
10.0
 25
10.0
 16
0.0
 26
0.0
 36
1.0
 17
0.0
 27
0.0
 37
0.0
 42
50.0
 43
0.0
 44
0.0
 45
459.0
 50
0.0
 51
0.0
 72
   100
 90
   557152
  1

281
     0
 71
     1
 74
     0
110
0.0
120
0.0
130
0.0
111
1.0
121
0.0
131
0.0
112
0.0
122
1.0
132
0.0
 79
     0
146
0.0
170
     0
 61
     5
348
2F
292
     1
282
     1
141
0.0
142
0.0
 63
   256
361
1F9
  0
ENDBLK
  5
13A
330
137
100
AcDbEntity
  8
0
100
AcDbBlockEnd
  0
BLOCK
  5
169
330
167
100
AcDbEntity
  8
0
100
AcDbBlockBegin
  2
*Paper_Space4
 70
     0
 10
0.0
 20
0.0
 30
0.0
  3
*Paper_Space4
  1

  0
CIRCLE
  5
16B
330
167
100
AcDbEntity
  8
0
  6
Continuous
 62
     7
370
    25
100
AcDbCircle
 10
0.0
 20
0.0
 30
0.0
 40
52.50000000000001
  0
CIRCLE
  5
16C
330
167
100
AcDbEntity
  8
0
  6
Continuous
 62
     7
370
    25
100
AcDbCircle
 10
0.0
 20
0.0
 30
0.0
 40
23.00000000000002
  0
CIRCLE
  5
16D
330
167
100
AcDbEntity
  8
0
  6
Continuous
 62
     7
370
    25
100
AcDbCircle
 10
0.0
 20
0.0
 30
0.0
 40
225.0000000000003
  0
CIRCLE
  5
16E
330
167
100
AcDbEntity
  8
0
  6
HIDDEN
 62
     7
370
    18
100
AcDbCircle
 10
0.0
 20
0.0
 30
0.0
 40
34.91753592594218
  0
VIEWPORT
  5
1FA
330
167
100
AcDbEntity
  8
0
100
AcDbViewport
 10
0.0
 20
0.0
 30
0.0
 40
205.6
 41
156.0
 68
     1
 69
     1
 12
0.0
 22
0.0
 13
0.0
 23
0.0
 14
10.0
 24
10.0
 15
10.0
 25
10.0
 16
0.0
 26
0.0
 36
1.0
 17
0.0
 27
0.0
 37
0.0
 42
50.0
 43
0.0
 44
0.0
 45
459.0
 50
0.0
 51
0.0
 72
   100
 90
   557152
  1

281
     0
 71
     1
 74
     0
110
0.0
120
0.0
130
0.0
111
1.0
121
0.0
131
0.0
112
0.0
122
1.0
132
0.0
 79
     0
146
0.0
170
     0
 61
     5
348
2F
292
     1
282
     1
141
0.0
142
0.0
 63
   256
361
1FB
  0
ENDBLK
  5
16A
330
167
100
AcDbEntity
  8
0
100
AcDbBlockEnd
  0
BLOCK
  5
171
330
16F
100
AcDbEntity
  8
0
100
AcDbBlockBegin
  2
*Paper_Space5
 70
     0
 10
0.0
 20
0.0
 30
0.0
  3
*Paper_Space5
  1

  0
SPLINE
  5
173
330
16F
100
AcDbEntity
  8
0
  6
Continuous
 62
     7
370
    25
100
AcDbSpline
210
0.0
220
0.0
230
1.0
 70
     8
 71
     3
 72
    57
 73
    53
 74
     0
 42
0.000000001
 43
0.00000001
 40
0.0
 40
0.0
 40
0.0
 40
0.0
 40
0.0125480803899904
 40
0.0324746623177129
 40
0.0523367428497486
 40
0.0721620100005557
 40
0.0919719952472141
 40
0.1117811542862252
 40
0.1316003571696077
 40
0.1514400590656595
 40
0.17130794721974
 40
0.1912094744294608
 40
0.211148292430287
 40
0.2311266037236958
 40
0.2511454480893249
 40
0.2712049362603942
 40
0.2913044405157887
 40
0.3114427499309119
 40
0.331618196516517
 40
0.3518287573142707
 40
0.3720721366109116
 40
0.3923458317120572
 40
0.4126471851355967
 40
0.4329734256108353
 40
0.4533216998801887
 40
0.4736890969789539
 40
0.494072666403222
 40
0.5144694313575027
 40
0.5348763980948822
 40
0.5552905622185502
 40
0.5757089126996751
 40
0.5961284342801866
 40
0.6165454101387752
 40
0.6369565137975969
 40
0.6573587257473086
 40
0.6777490286139072
 40
0.6981244106069542
 40
0.7184818711067806
 40
0.7388184290743658
 40
0.7591311351166169
 40
0.7794170881737165
 40
0.7996734579604149
 40
0.8198975144947847
 40
0.8400866662899945
 40
0.8602385090738938
 40
0.8803508872448482
 40
0.9004219706801576
 40
0.9204503499983171
 40
0.9404351539556804
 40
0.9603761933555884
 40
0.9802741366980084
 40
1.0
 40
1.0
 40
1.0
 40
1.0
 10
177.138563605379
 20
-70.42930303179851
 30
0.0
 10
176.4721885284119
 20
-71.10811078906883
 30
0.0
 10
174.7475976006466
 20
-72.86487772160956
 30
0.0
 10
171.6504546134399
 20
-75.69353371229715
 30
0.0
 10
167.8905791869624
 20
-78.89715251066887
 30
0.0
 10
163.8558038942545
 20
-82.06433648271683
 30
0.0
 10
159.5635665464456
 20
-85.18667006260004
 30
0.0
 10
155.0135871195177
 20
-88.25555832794127
 30
0.0
 10
150.2116351879894
 20
-91.26232864370495
 30
0.0
 10
145.1628521910773
 20
-94.19850537566147
 30
0.0
 10
139.8733966021961
 20
-97.05584779236945
 30
0.0
 10
134.350158885831
 20
-99.82628077729404
 30
0.0
 10
128.6008281653214
 20
-102.5019589697688
 30
0.0
 10
122.6338015604344
 20
-105.0753185104704
 30
0.0
 10
116.4581364441386
 20
-107.5391171483477
 30
0.0
 10
110.0834929516433
 20
-109.8864653313626
 30
0.0
 10
103.5200816243345
 20
-112.1108498920245
 30
0.0
 10
96.77861267922728
 20
-114.206151789217
 30
0.0
 10
89.87024813733396
 20
-116.1666590773224
 30
0.0
 10
82.80655660986648
 20
-117.9870760857516
 30
0.0
 10
75.59947080064777
 20
-119.6625296242869
 30
0.0
 10
68.26124761644283
 20
-121.1885728930616
 30
0.0
 10
60.8044307495975
 20
-122.5611876600486
 30
0.0
 10
53.24181555334521
 20
-123.7767851711641
 30
0.0
 10
45.58641600751962
 20
-124.8322061753618
 30
0.0
 10
37.85143355738553
 20
-125.7247203772962
 30
0.0
 10
30.05022760145423
 20
-126.4520255714612
 30
0.0
 10
22.19628740214143
 20
-127.0122466625682
 30
0.0
 10
14.30320519574751
 20
-127.403934735986
 30
0.0
 10
6.38465027836567
 20
-127.6260663077535
 30
0.0
 10
-1.545656138678075
 20
-127.6780428557335
 30
0.0
 10
-9.473875118202537
 20
-127.5596920572093
 30
0.0
 10
-17.38612578564819
 20
-127.2712769200438
 30
0.0
 10
-25.26855189614902
 20
-126.8134988061677
 30
0.0
 10
-33.10743732423198
 20
-126.1874883425269
 30
0.0
 10
-40.88917956552653
 20
-125.3948029655348
 30
0.0
 10
-48.60027526991379
 20
-124.4374302738267
 30
0.0
 10
-56.22734621561614
 20
-123.3177903205641
 30
0.0
 10
-63.75716634171459
 20
-122.038738218527
 30
0.0
 10
-71.1766900550261
 20
-120.6035669453534
 30
0.0
 10
-78.47308218786218
 20
-119.0160102457265
 30
0.0
 10
-85.63374947601575
 20
-117.2802453089163
 30
0.0
 10
-92.64637537096499
 20
-115.4008954907115
 30
0.0
 10
-99.4989528075085
 20
-113.3830308768615
 30
0.0
 10
-106.1798363518811
 20
-111.2321733545083
 30
0.0
 10
-112.6777353866581
 20
-108.9542794420531
 30
0.0
 10
-118.9819412150468
 20
-106.5557979932263
 30
0.0
 10
-125.0816995799936
 20
-104.043438421292
 30
0.0
 10
-130.9687791932956
 20
-101.425001233856
 30
0.0
 10
-136.6281686403947
 20
-98.70623761412185
 30
0.0
 10
-142.0610295250651
 20
-95.90859580469262
 30
0.0
 10
-145.4817102374931
 20
-93.97514920122948
 30
0.0
 10
-147.1846228510805
 20
-93.01262422870786
 30
0.0
  0
SPLINE
  5
174
330
16F
100
AcDbEntity
  8
0
  6
Continuous
 62
     7
370
    25
100
AcDbSpline
210
0.0
220
0.0
230
1.0
 70
     8
 71
     3
 72
    15
 73
    11
 74
     0
 42
0.000000001
 43
0.00000001
 40
0.0
 40
0.0
 40
0.0
 40
0.0
 40
0.071898728884871
 40
0.2091725957217518
 40
0.3462217626865987
 40
0.4831156131220569
 40
0.619928494103139
 40
0.7567408454583365
 40
0.8936518908974148
 40
1.0
 40
1.0
 40
1.0
 40
1.0
 10
-147.1846228510805
 20
-93.01262422870786
 30
0.0
 10
-148.0615817143625
 20
-92.5004334042012
 30
0.0
 10
-150.6128891521843
 20
-91.0103335661572
 30
0.0
 10
-154.6535714902582
 20
-88.4868089139637
 30
0.0
 10
-159.2163726841601
 20
-85.4294375565011
 30
0.0
 10
-163.5149727180438
 20
-82.32074664374855
 30
0.0
 10
-167.552599170785
 20
-79.17150877588605
 30
0.0
 10
-171.3140873624444
 20
-75.99114998238166
 30
0.0
 10
-174.575021628631
 20
-73.02908407876596
 30
0.0
 10
-176.4530898519259
 20
-71.13054856923927
 30
0.0
 10
-177.2741442730405
 20
-70.30054625387855
 30
0.0
  0
SPLINE
  5
175
330
16F
100
AcDbEntity
  8
0
  6
Continuous
 62
     7
370
    25
100
AcDbSpline
210
0.0
220
0.0
230
1.0
 70
     8
 71
     3
 72
    71
 73
    67
 74
     0
 42
0.000000001
 43
0.00000001
 40
0.0
 40
0.0
 40
0.0
 40
0.0
 40
0.0082471652612856
 40
0.0226220213100675
 40
0.0370976744510238
 40
0.0516867710921219
 40
0.0664018354399954
 40
0.0812549583993938
 40
0.096257386955599
 40
0.1114190078602286
 40
0.1267477310498498
 40
0.1422487968626125
 40
0.1579240570576889
 40
0.1737713104489923
 40
0.1897838028847164
 40
0.2059500167478547
 40
0.2145602941088975
 40
0.2250777271988592
 40
0.2415764754842714
 40
0.2581064422717614
 40
0.274703273188559
 40
0.2913425967923801
 40
0.3080000711006799
 40
0.3246535248585107
 40
0.3412888941043003
 40
0.3578960058007101
 40
0.3744684301260804
 40
0.3910031115166929
 40
0.4074998983749996
 40
0.423961047471605
 40
0.4403907527817878
 40
0.4567947253654397
 40
0.4731798336516929
 40
0.4895538021040702
 40
0.5059249594863223
 40
0.5223020243305045
 40
0.5386916433522979
 40
0.5551020886934178
 40
0.5715422120245168
 40
0.588020545205663
 40
0.6045450620438035
 40
0.6211228905672657
 40
0.6377599611034184
 40
0.6544605790169093
 40
0.6712269182858304
 40
0.6880584452306201
 40
0.7049513025051077
 40
0.7218977124559212
 40
0.7388854934733834
 40
0.7558960694614918
 40
0.7729018182149936
 40
0.789876519411223
 40
0.8067918258225157
 40
0.8236189920676985
 40
0.840330788440942
 40
0.8569032651712922
 40
0.8733170892673423
 40
0.889558288538979
 40
0.9056183836122302
 40
0.921494012381745
 40
0.9371862178958376
 40
0.9526995777076778
 40
0.9680413195920368
 40
0.9832205196386778
 40
0.9982474322813034
 40
1.0
 40
1.0
 40
1.0
 40
1.0
 10
-215.2109936187214
 20
-37.81695737756938
 30
0.0
 10
-214.5856704188858
 20
-39.01410211859223
 30
0.0
 10
-212.8704053181891
 20
-42.29787696542159
 30
0.0
 10
-209.7643520843771
 20
-47.51570191310931
 30
0.0
 10
-205.9187609708485
 20
-53.48830050473207
 30
0.0
 10
-201.7831769247453
 20
-59.32852772402727
 30
0.0
 10
-197.3751624648411
 20
-65.03971306235806
 30
0.0
 10
-192.6919844352253
 20
-70.61419546329738
 30
0.0
 10
-187.7362183370498
 20
-76.04724305840233
 30
0.0
 10
-182.5090206998313
 20
-81.33308287649571
 30
0.0
 10
-177.012270063847
 20
-86.46578270873998
 30
0.0
 10
-171.2483894489791
 20
-91.43883328950767
 30
0.0
 10
-165.2208835898016
 20
-96.24512467696266
 30
0.0
 10
-158.9346987125824
 20
-100.8769064907024
 30
0.0
 10
-152.3967102564793
 20
-105.3258022723475
 30
0.0
 10
-146.6917790140404
 20
-108.9075659883824
 30
0.0
 10
-141.6597069387453
 20
-111.8763434158751
 30
0.0
 10
-136.5074117540347
 20
-114.7720039799164
 30
0.0
 10
-130.0881736364406
 20
-118.1377172758587
 30
0.0
 10
-122.6129131898853
 20
-121.7327718139704
 30
0.0
 10
-114.9644165230501
 20
-125.0976950729431
 30
0.0
 10
-107.1522393831615
 20
-128.230834277717
 30
0.0
 10
-99.1955648174247
 20
-131.1275128136217
 30
0.0
 10
-91.11286973227219
 20
-133.7846901155696
 30
0.0
 10
-82.92110698175935
 20
-136.2008834565199
 30
0.0
 10
-74.63525040333468
 20
-138.37589414086
 30
0.0
 10
-66.26890764423472
 20
-140.3103011663968
 30
0.0
 10
-57.83435788377525
 20
-142.005207808532
 30
0.0
 10
-49.34266980647669
 20
-143.4620120220625
 30
0.0
 10
-40.8038609632598
 20
-144.6822130992198
 30
0.0
 10
-32.22707083956369
 20
-145.6672575446505
 30
0.0
 10
-23.62072960493054
 20
-146.4184213828866
 30
0.0
 10
-14.99271275049986
 20
-146.9367232855642
 30
0.0
 10
-6.350478104541729
 20
-147.2228620825839
 30
0.0
 10
2.298813928852284
 20
-147.277172694509
 30
0.0
 10
10.9477939492386
 20
-147.099603891016
 30
0.0
 10
19.58907112459746
 20
-146.6897437408014
 30
0.0
 10
28.21527839599081
 20
-146.0468155754942
 30
0.0
 10
36.81938392621992
 20
-145.1696154008586
 30
0.0
 10
45.39430788277247
 20
-144.0565027492871
 30
0.0
 10
53.93267656819495
 20
-142.7054231024448
 30
0.0
 10
62.42667768869934
 20
-141.1139431717013
 30
0.0
 10
70.86789050399963
 20
-139.2793120921519
 30
0.0
 10
79.24708957999285
 20
-137.1985575096907
 30
0.0
 10
87.55402577829344
 20
-134.8686264682905
 30
0.0
 10
95.77719557306564
 20
-132.2865803239866
 30
0.0
 10
103.9036200081721
 20
-129.4498494791325
 30
0.0
 10
111.9186668274664
 20
-126.3565463093873
 30
0.0
 10
119.8056908820987
 20
-123.0059372747506
 30
0.0
 10
127.5454271960699
 20
-119.3991824018445
 30
0.0
 10
135.1171313952013
 20
-115.5394466498526
 30
0.0
 10
142.4994000712734
 20
-111.4319749838344
 30
0.0
 10
149.6715222778993
 20
-107.083672639772
 30
0.0
 10
156.6135330224267
 20
-102.5032872939509
 30
0.0
 10
163.3069822340467
 20
-97.70107441851574
 30
0.0
 10
169.7355554846742
 20
-92.68834221562146
 30
0.0
 10
175.8854620749634
 20
-87.47696598710185
 30
0.0
 10
181.7455160094581
 20
-82.07893261701851
 30
0.0
 10
187.3070866777256
 20
-76.50605835393954
 30
0.0
 10
192.5634401198531
 20
-70.76960572122856
 30
0.0
 10
197.5105744525796
 20
-64.88089889672021
 30
0.0
 10
202.1422293717181
 20
-58.84885503665292
 30
0.0
 10
206.4662714124522
 20
-52.68926978398216
 30
0.0
 10
210.4428485886557
 20
-46.39122148875801
 30
0.0
 10
213.1130071155602
 20
-41.89057738231303
 30
0.0
 10
214.3697947512718
 20
-39.44675495431017
 30
0.0
 10
214.5010625493308
 20
-39.19150483897187
 30
0.0
  0
LWPOLYLINE
  5
179
330
16F
100
AcDbEntity
  8
0
  6
Continuous
 62
     7
370
    25
100
AcDbPolyline
 90
      160
 70
   128
 43
0.0
 10
-159.099025767
 20
-91.8459125801
 10
-152.6893563265
 20
-95.4027294969
 10
-146.0412805814
 20
-98.8105863765
 10
-139.1651787128
 20
-102.0641622551
 10
-132.0717869376
 20
-105.1583770601
 10
-124.7721807449
 20
-108.0883995423
 10
-117.2777576034
 20
-110.8496548195
 10
-109.600219165
 20
-113.4378315194
 10
-101.7515529948
 20
-115.8488885112
 10
-93.7440138532
 20
-118.0790612157
 10
-85.590104562
 20
-120.1248674829
 10
-77.3025564827
 20
-121.9831130293
 10
-68.8943096379
 20
-123.6508964249
 10
-60.3784925068
 20
-125.125613624
 10
-51.768401527
 20
-126.4049620307
 10
-43.0774803335
 20
-127.4869440944
 10
-34.319298768
 20
-128.3698704285
 10
-25.5075316915
 20
-129.0523624483
 10
-16.6559376322
 20
-129.5333545236
 10
-7.7783373034
 20
-129.8120956424
 10
1.1114079757
 20
-129.8881505834
 10
9.9994179232
 20
-129.761400596
 10
18.8718149666
 20
-129.4320435851
 10
27.7147459111
 20
-128.9005938027
 10
36.5144035699
 20
-128.1678810445
 10
45.257048322
 20
-127.2350493544
 10
53.9290295655
 20
-126.1035552385
 10
62.5168070311
 20
-124.7751653905
 10
71.0069719237
 20
-123.2519539335
 10
79.3862678586
 20
-121.5362991812
 10
87.6416115601
 20
-119.6308799251
 10
95.7601132887
 20
-117.5386712509
 10
103.7290969679
 20
-115.2629398943
 10
111.5361199755
 20
-112.8072391396
 10
119.1689925719
 20
-110.1754032719
 10
126.6157969327
 20
-107.3715415907
 10
133.8649057567
 20
-104.4000319931
 10
140.9050004211
 20
-101.2655141385
 10
147.7250886538
 20
-97.9728822045
 10
154.3145216966
 20
-94.5272772451
 10
160.6630109319
 20
-90.9340791633
 10
166.7606439476
 20
-87.1988983114
 10
172.5979000134
 20
-83.3275667309
 10
178.165664947
 20
-79.3261290466
 10
183.4552453442
 20
-75.2008330283
 10
188.4583821533
 20
-70.9581198361
 10
193.1672635701
 20
-66.6046139631
 10
197.5745372351
 20
-62.1471128918
 10
201.6733217137
 20
-57.592576481
 10
205.4572172405
 20
-52.9481160986
 10
208.9203157119
 20
-48.2209835184
 10
212.0572099106
 20
-43.4185595965
 10
214.8630019487
 20
-38.5483427479
 10
217.333310915
 20
-33.6179372381
 10
219.4642797154
 20
-28.6350413099
 10
221.252581095
 20
-23.607435164
 10
222.6954228335
 20
-18.5429688104
 10
223.7905521047
 20
-13.4495498122
 10
224.5362589944
 20
-8.3351309385
 10
224.9313791697
 20
-3.2076977473
 10
224.9752956974
 20
1.9247438832
 10
224.667940007
 20
7.0541802545
 10
224.009791998
 20
12.1726023608
 10
223.0018792904
 20
17.2720183935
 10
221.6457756202
 20
22.3444662198
 10
219.9435983823
 20
27.3820258145
 10
217.8980053243
 20
32.3768316263
 10
215.5121903972
 20
37.3210848589
 10
212.7898787675
 20
42.2070656478
 10
209.7353210018
 20
47.027145114
 10
206.3532864295
 20
51.7737972755
 10
202.649055696
 20
56.4396107985
 10
198.628412518
 20
61.017300569
 10
194.2976346524
 20
65.4997190679
 10
189.6634840948
 20
69.8798675307
 10
184.7331965212
 20
74.1509068756
 10
179.5144699904
 20
78.3061683817
 10
174.0154529243
 20
82.3391641013
 10
168.2447313854
 20
86.2435969905
 10
162.2113156703
 20
90.0133707407
 10
155.9246262414
 20
93.6425992977
 10
149.394479018
 20
97.1256160519
 10
142.6310700498
 20
100.4569826862
 10
135.644959597
 20
103.631497667
 10
128.4470556419
 20
106.644204366
 10
121.0485968569
 20
109.4903987992
 10
113.4611350573
 20
112.1656369721
 10
105.696517164
 20
114.6657418177
 10
97.766866706
 20
116.9868097191
 10
89.6845648913
 20
119.1252166042
 10
81.4622312747
 20
121.0776236047
 10
73.1127040542
 20
122.8409822687
 10
64.6490200252
 20
124.4125393209
 10
56.0843942258
 20
125.7898409617
 10
47.4321993024
 20
126.970736698
 10
38.7059446303
 20
127.9533827012
 10
29.9192552204
 20
128.7362446863
 10
21.0858504451
 20
129.3181003073
 10
12.2195226174
 20
129.6980410656
 10
3.3341154556
 20
129.8754737289
 10
-5.5564975317
 20
129.8501212571
 10
-14.4384347077
 20
129.6220232351
 10
-23.2978279818
 20
129.1915358109
 10
-32.1208444631
 20
128.5593311395
 10
-40.8937080588
 20
127.7263963334
 10
-49.6027209838
 20
126.6940319214
 10
-58.2342851481
 20
125.4638498181
 10
-66.7749233889
 20
124.0377708068
 10
-75.2113005136
 20
122.4180215405
 10
-83.5302441207
 20
120.6071310655
 10
-91.7187651671
 20
118.6079268722
 10
-99.7640782495
 20
116.4235304808
 10
-107.6536215663
 20
114.0573525668
 10
-115.3750765324
 20
111.5130876362
 10
-122.9163870123
 20
108.7947082566
 10
-130.2657781449
 20
105.9064588549
 10
-137.4117747284
 20
102.8528490894
 10
-144.3432191374
 20
99.6386468095
 10
-151.0492887444
 20
96.2688706104
 10
-157.5195128176
 20
92.7487819977
 10
-163.7437888702
 20
89.0838771718
 10
-169.712398434
 20
85.2798784466
 10
-175.4160222338
 20
81.3427253145
 10
-180.845754738
 20
77.2785651728
 10
-185.9931180638
 20
73.0937437252
 10
-190.8500752145
 20
68.7947950734
 10
-195.409042628
 20
64.3884315156
 10
-199.6629020179
 20
59.8815330653
 10
-203.6050114878
 20
55.2811367095
 10
-207.2292159015
 20
50.594425421
 10
-210.5298564942
 20
45.8287169431
 10
-213.5017797074
 20
40.9914523639
 10
-216.1403452358
 20
36.0901844979
 10
-218.4414332725
 20
31.1325660929
 10
-220.4014509416
 20
26.1263378816
 10
-222.0173379084
 20
21.079316495
 10
-223.2865711571
 20
15.9993822581
 10
-224.2071689306
 20
10.894466885
 10
-224.7776938248
 20
5.7725410951
 10
-224.9972550328
 20
0.6416021675
 10
-224.8655097359
 20
-4.4903385457
 10
-224.3826636387
 20
-9.6152681283
 10
-223.549470648
 20
-14.7251846112
 10
-222.3672316958
 20
-19.8121094662
 10
-220.8377927079
 20
-24.8681000641
 10
-218.9635417218
 20
-29.8852620758
 10
-216.7474051577
 20
-34.8557617984
 10
-214.19284325
 20
-39.7718383866
 10
-211.3038446438
 20
-44.6258159703
 10
-208.0849201674
 20
-49.4101156398
 10
-204.5410957893
 20
-54.117267279
 10
-200.6779047707
 20
-58.7399212295
 10
-196.5013790256
 20
-63.2708597658
 10
-192.0180397034
 20
-67.7030083654
 10
-187.234887006
 20
-72.0294467542
 10
-182.1593892587
 20
-76.2434197122
 10
-176.7994712487
 20
-80.3383476211
 10
-171.1635018517
 20
-84.3078367369
 10
-165.2602809649
 20
-88.1456891735
 10
-159.099025767
 20
-91.8459125801
  0
LWPOLYLINE
  5
17A
330
16F
100
AcDbEntity
  8
0
  6
Continuous
 62
     7
370
    25
100
AcDbPolyline
 90
       63
 70
   128
 43
0.0
 10
-24.6904264356
 20
-75.4940406788
 10
-22.0658588306
 20
-76.8629113161
 10
-19.2148656541
 20
-78.0714754975
 10
-16.1667019541
 20
-79.1073317193
 10
-12.9526460151
 20
-79.9598506947
 10
-9.6056784002
 20
-80.6202844256
 10
-6.1601435264
 20
-81.081855968
 10
-2.6513972439
 20
-81.3398289733
 10
0.8845559621
 20
-81.3915562895
 10
4.411432427
 20
-81.2365071242
 10
7.8930416256
 20
-80.8762724918
 10
11.2936575361
 20
-80.314548887
 10
14.5783852375
 20
-79.5571003541
 10
17.7135189787
 20
-78.61169934
 10
20.6668880449
 20
-77.4880469386
 10
23.4081868731
 20
-76.197673344
 10
25.9092860275
 20
-74.7538195354
 10
28.1445208465
 20
-73.1713014068
 10
30.0909547959
 20
-71.4663577356
 10
31.7286148296
 20
-69.6564835511
 10
33.0406963395
 20
-67.7602506115
 10
34.0137355937
 20
-65.7971168329
 10
34.6377478927
 20
-63.7872266242
 10
34.9063300261
 20
-61.751204179
 10
34.8167259775
 20
-59.7099418427
 10
34.3698552059
 20
-57.684385729
 10
33.57030321
 20
-55.6953207848
 10
32.4262744753
 20
-53.7631575079
 10
30.9495082847
 20
-51.9077225084
 10
29.1551582578
 20
-50.14805506
 10
27.0616368538
 20
-48.5022117319
 10
24.6904264356
 20
-46.987081104
 10
22.0658588306
 20
-45.6182104668
 10
19.2148656541
 20
-44.4096462853
 10
16.1667019541
 20
-43.3737900636
 10
12.9526460151
 20
-42.5212710881
 10
9.6056784002
 20
-41.8608373573
 10
6.1601435264
 20
-41.3992658149
 10
2.6513972439
 20
-41.1412928096
 10
-0.8845559621
 20
-41.0895654934
 10
-4.411432427
 20
-41.2446146586
 10
-7.8930416256
 20
-41.6048492911
 10
-11.2936575361
 20
-42.1665728959
 10
-14.5783852375
 20
-42.9240214288
 10
-17.7135189787
 20
-43.8694224428
 10
-20.6668880449
 20
-44.9930748442
 10
-23.4081868731
 20
-46.2834484388
 10
-25.9092860275
 20
-47.7273022474
 10
-28.1445208465
 20
-49.309820376
 10
-30.0909547959
 20
-51.0147640472
 10
-31.7286148296
 20
-52.8246382318
 10
-33.0406963395
 20
-54.7208711713
 10
-34.0137355937
 20
-56.68400495
 10
-34.6377478927
 20
-58.6938951586
 10
-34.9063300261
 20
-60.7299176038
 10
-34.8167259775
 20
-62.7711799402
 10
-34.3698552059
 20
-64.7967360539
 10
-33.57030321
 20
-66.7858009981
 10
-32.4262744753
 20
-68.7179642749
 10
-30.9495082847
 20
-70.5733992745
 10
-29.1551582578
 20
-72.3330667229
 10
-27.0616368538
 20
-73.9789100509
 10
-24.6904264356
 20
-75.4940406788
  0
LWPOLYLINE
  5
17C
330
16F
100
AcDbEntity
  8
0
  6
Continuous
 62
     7
370
    25
100
AcDbPolyline
 90
       41
 70
   128
 43
0.0
 10
15.1249855841
 20
-79.408797818
 10
15.2101729024
 20
-79.3656567838
 10
17.2525546015
 20
-78.1866149256
 10
19.0228532083
 20
-76.8690970359
 10
20.4931500563
 20
-75.4338811591
 10
21.6402576859
 20
-73.9036015067
 10
22.4460855246
 20
-72.3023915031
 10
22.8979251859
 20
-70.6555031866
 10
22.9886508884
 20
-68.9889089697
 10
22.7168318337
 20
-67.3288920388
 10
22.0867547706
 20
-65.7016318524
 10
21.1083563907
 20
-64.132791276
 10
19.7970666211
 20
-62.6471118624
 10
18.1735652846
 20
-61.2680236636
 10
16.2634559673
 20
-60.0172757243
 10
14.096862234
 20
-58.9145930867
 10
11.7079525623
 20
-57.9773657146
 10
9.1344014846
 20
-57.2203742436
 10
6.4167954389
 20
-56.6555568814
 10
3.5979926959
 20
-56.2918211352
 10
0.7224474588
 20
-56.134903335
 10
-2.1644912063
 20
-56.1872781682
 10
-5.0172945521
 20
-56.4481196525
 10
-7.7909721656
 20
-56.9133141618
 10
-10.441781494
 20
-57.5755253008
 10
-12.9279176906
 20
-58.4243096043
 10
-15.2101729024
 20
-59.4462812368
 10
-17.2525546015
 20
-60.625323095
 10
-19.0228532083
 20
-61.9428409847
 10
-20.4931500563
 20
-63.3780568615
 10
-21.6402576859
 20
-64.9083365139
 10
-22.4460855246
 20
-66.5095465174
 10
-22.8979251859
 20
-68.156434834
 10
-22.9886508884
 20
-69.8230290509
 10
-22.7168318337
 20
-71.4830459818
 10
-22.0867547706
 20
-73.1103061681
 10
-21.1083563907
 20
-74.6791467446
 10
-19.7970666211
 20
-76.1648261582
 10
-18.1735652846
 20
-77.543914357
 10
-16.2634559673
 20
-78.7946622962
 10
-16.2634559673
 20
-78.7946622962
  0
LWPOLYLINE
  5
17D
330
16F
100
AcDbEntity
  8
0
  6
Continuous
 62
     7
370
    25
100
AcDbPolyline
 90
       22
 70
   128
 43
0.0
 10
21.8856972598
 20
-73.4886730697
 10
21.1083563907
 20
-72.2981993948
 10
19.7970666211
 20
-70.8125199813
 10
18.1735652846
 20
-69.4334317825
 10
16.2634559673
 20
-68.1826838432
 10
14.096862234
 20
-67.0800012055
 10
11.7079525623
 20
-66.1427738335
 10
9.1344014846
 20
-65.3857823625
 10
6.4167954389
 20
-64.8209650002
 10
3.5979926959
 20
-64.457229254
 10
0.7224474588
 20
-64.3003114538
 10
-2.1644912063
 20
-64.3526862871
 10
-5.0172945521
 20
-64.6135277714
 10
-7.7909721656
 20
-65.0787222807
 10
-10.441781494
 20
-65.7409334197
 10
-12.9279176906
 20
-66.5897177232
 10
-15.2101729024
 20
-67.6116893556
 10
-17.2525546015
 20
-68.7907312139
 10
-19.0228532083
 20
-70.1082491035
 10
-20.4931500563
 20
-71.5434649804
 10
-21.6402576859
 20
-73.0737446327
 10
-21.8856972598
 20
-73.4886730697
  0
LWPOLYLINE
  5
17F
330
16F
100
AcDbEntity
  8
0
  6
HIDDEN
 62
     7
370
    18
100
AcDbPolyline
 90
       77
 70
   128
 43
0.0
 10
-37.1231060123
 20
-99.0020900645
 10
-33.9307099877
 20
-100.6986275618
 10
-30.5065328086
 20
-102.2371824879
 10
-26.8739650772
 20
-103.6072449526
 10
-23.0578209145
 20
-104.7994560401
 10
-19.0841684546
 20
-105.8056717397
 10
-14.9801517731
 20
-106.6190185779
 10
-10.7738054653
 20
-107.2339405711
 10
-6.4938631416
 20
-107.6462371786
 10
-2.1695611481
 20
-107.8530919964
 10
2.1695611481
 20
-107.8530919964
 10
6.4938631416
 20
-107.6462371786
 10
10.7738054653
 20
-107.2339405711
 10
14.9801517731
 20
-106.6190185779
 10
19.0841684546
 20
-105.8056717397
 10
23.0578209145
 20
-104.7994560401
 10
26.8739650772
 20
-103.6072449526
 10
30.5065328086
 20
-102.2371824879
 10
33.9307099877
 20
-100.6986275618
 10
37.1231060123
 20
-99.0020900645
 10
40.0619135805
 20
-97.1591590674
 10
42.7270576567
 20
-95.1824236579
 10
45.1003326044
 20
-93.0853869432
 10
47.1655265493
 20
-90.8823738105
 10
48.9085321227
 20
-88.5884330734
 10
50.3174428291
 20
-86.2192346729
 10
51.3826343797
 20
-83.7909626366
 10
52.0968304362
 20
-81.3202045248
 10
52.4551523153
 20
-78.8238381205
 10
52.4551523153
 20
-76.3189161378
 10
52.0968304362
 20
-73.8225497335
 10
51.3826343797
 20
-71.3517916216
 10
50.3174428291
 20
-68.9235195854
 10
48.9085321227
 20
-66.5543211849
 10
47.1655265493
 20
-64.2603804477
 10
45.1003326044
 20
-62.0573673151
 10
42.7270576567
 20
-59.9603306004
 10
40.0619135805
 20
-57.9835951909
 10
37.1231060123
 20
-56.1406641938
 10
33.9307099877
 20
-54.4441266965
 10
30.5065328086
 20
-52.9055717704
 10
26.8739650772
 20
-51.5355093056
 10
23.0578209145
 20
-50.3432982182
 10
19.0841684546
 20
-49.3370825186
 10
14.9801517731
 20
-48.5237356804
 10
10.7738054653
 20
-47.9088136872
 10
6.4938631416
 20
-47.4965170797
 10
2.1695611481
 20
-47.2896622619
 10
-2.1695611481
 20
-47.2896622619
 10
-6.4938631416
 20
-47.4965170797
 10
-10.7738054653
 20
-47.9088136872
 10
-14.9801517731
 20
-48.5237356804
 10
-19.0841684546
 20
-49.3370825186
 10
-23.0578209145
 20
-50.3432982182
 10
-26.8739650772
 20
-51.5355093056
 10
-30.5065328086
 20
-52.9055717704
 10
-33.9307099877
 20
-54.4441266965
 10
-37.1231060123
 20
-56.1406641938
 10
-40.0619135805
 20
-57.9835951909
 10
-42.7270576567
 20
-59.9603306004
 10
-45.1003326044
 20
-62.0573673151
 10
-47.1655265493
 20
-64.2603804477
 10
-48.9085321227
 20
-66.5543211849
 10
-50.3174428291
 20
-68.9235195854
 10
-51.3826343797
 20
-71.3517916216
 10
-52.0968304362
 20
-73.8225497335
 10
-52.4551523153
 20
-76.3189161378
 10
-52.4551523153
 20
-78.8238381205
 10
-52.0968304362
 20
-81.3202045248
 10
-51.3826343797
 20
-83.7909626366
 10
-50.3174428291
 20
-86.2192346729
 10
-48.9085321227
 20
-88.5884330734
 10
-47.1655265493
 20
-90.8823738105
 10
-45.1003326044
 20
-93.0853869432
 10
-42.7270576567
 20
-95.1824236579
 10
-40.0619135805
 20
-97.1591590674
 10
-37.1231060123
 20
-99.0020900645
  0
LWPOLYLINE
  5
181
330
16F
100
AcDbEntity
  8
0
  6
HIDDEN
 62
     7
370
    18
100
AcDbPolyline
 90
       23
 70
   128
 43
0.0
 10
-16.2634559673
 20
-86.9600704151
 10
-14.096862234
 20
-88.0627530528
 10
-11.7079525623
 20
-88.9999804248
 10
-9.1344014846
 20
-89.7569718958
 10
-6.4167954389
 20
-90.321789258
 10
-3.5979926959
 20
-90.6855250042
 10
-0.7224474588
 20
-90.8424428045
 10
2.1644912063
 20
-90.7900679712
 10
5.0172945521
 20
-90.5292264869
 10
7.7909721656
 20
-90.0640319776
 10
10.441781494
 20
-89.4018208386
 10
12.9279176906
 20
-88.5530365351
 10
15.2101729024
 20
-87.5310649027
 10
17.2525546015
 20
-86.3520230444
 10
19.0228532083
 20
-85.0345051548
 10
20.4931500563
 20
-83.5992892779
 10
21.6402576859
 20
-82.0690096256
 10
22.4460855246
 20
-80.467799622
 10
22.8979251859
 20
-78.8209113055
 10
22.9886508884
 20
-77.1543170886
 10
22.7168318337
 20
-75.4943001576
 10
22.0867547706
 20
-73.8670399713
 10
21.8856972598
 20
-73.4886730697
  0
LWPOLYLINE
  5
182
330
16F
100
AcDbEntity
  8
0
  6
HIDDEN
 62
     7
370
    18
100
AcDbPolyline
 90
       10
 70
   128
 43
0.0
 10
-21.8856972598
 20
-73.4886730697
 10
-22.4460855246
 20
-74.6749546363
 10
-22.8979251859
 20
-76.3218429528
 10
-22.9886508884
 20
-77.9884371697
 10
-22.7168318337
 20
-79.6484541007
 10
-22.0867547706
 20
-81.275714287
 10
-21.1083563907
 20
-82.8445548635
 10
-19.7970666211
 20
-84.330234277
 10
-18.1735652846
 20
-85.7093224758
 10
-16.2634559673
 20
-86.9600704151
  0
SPLINE
  5
183
330
16F
100
AcDbEntity
  8
0
  6
HIDDEN
 62
     7
370
    18
100
AcDbSpline
210
0.0
220
0.0
230
1.0
 70
     8
 71
     3
 72
    56
 73
    52
 74
     0
 42
0.000000001
 43
0.00000001
 40
0.0
 40
0.0
 40
0.0
 40
0.0
 40
0.0087687709532002
 40
0.0286122055105623
 40
0.0486903930613902
 40
0.069003320364498
 40
0.0895448783488016
 40
0.1103023610132736
 40
0.1312564794788538
 40
0.1393297248635854
 40
0.1526404039492655
 40
0.1739836313194829
 40
0.1953606848780952
 40
0.2168137948078494
 40
0.2383108202070076
 40
0.2598174233334729
 40
0.281309595356915
 40
0.3027707738793955
 40
0.3241896048026171
 40
0.3455595318200662
 40
0.3668781831759969
 40
0.3881466887951833
 40
0.4093690130682489
 40
0.4305513523457098
 40
0.4517016181048195
 40
0.4728290078090358
 40
0.4939436541508811
 40
0.5150563373842725
 40
0.5361782427189403
 40
0.5573170244708189
 40
0.5784840370653517
 40
0.599690513199384
 40
0.6209472679140087
 40
0.6422644074260989
 40
0.6636509691688244
 40
0.685114472748908
 40
0.7066603652045178
 40
0.7282913526104778
 40
0.7500066266423042
 40
0.7718010221587847
 40
0.793664181740008
 40
0.8155798527732611
 40
0.8375226720162443
 40
0.8594559013534454
 40
0.8813440710753567
 40
0.9031487159530975
 40
0.9248307785030333
 40
0.9463532974778984
 40
0.9676839023658919
 40
0.9887967035991249
 40
1.0
 40
1.0
 40
1.0
 40
1.0
 10
-176.9223776138622
 20
-70.62930313471196
 30
0.0
 10
-176.1745835296222
 20
-71.39692150284293
 30
0.0
 10
-173.7345565141998
 20
-73.9016344916832
 30
0.0
 10
-169.3516883419566
 20
-77.94177322728247
 30
0.0
 10
-163.7697005576969
 20
-82.77008009987742
 30
0.0
 10
-157.9087268351429
 20
-87.4220726126527
 30
0.0
 10
-151.7908351328804
 20
-91.90496638881322
 30
0.0
 10
-145.4194395776966
 20
-96.20559494376207
 30
0.0
 10
-140.1794622630463
 20
-99.46224433286231
 30
0.0
 10
-135.6423685330002
 20
-102.1240276415903
 30
0.0
 10
-131.0042996138556
 20
-104.7306765659249
 30
0.0
 10
-124.800206115884
 20
-107.9805735537064
 30
0.0
 10
-117.5321019100135
 20
-111.4664213060915
 30
0.0
 10
-110.0921692200566
 20
-114.7246910544227
 30
0.0
 10
-102.4911148553029
 20
-117.7536757987999
 30
0.0
 10
-94.74810517674977
 20
-120.5491770908815
 30
0.0
 10
-86.88138384726135
 20
-123.108629745592
 30
0.0
 10
-78.90713756806245
 20
-125.4310636812514
 30
0.0
 10
-70.83996911657472
 20
-127.5165484134963
 30
0.0
 10
-62.69314496130748
 20
-129.3658339787035
 30
0.0
 10
-54.47868300892698
 20
-130.980101822769
 30
0.0
 10
-46.20749847759349
 20
-132.3607501571558
 30
0.0
 10
-37.88957400914857
 20
-133.5092203809365
 30
0.0
 10
-29.53413076897905
 20
-134.426863594877
 30
0.0
 10
-21.14978697498936
 20
-135.1148419191169
 30
0.0
 10
-12.74469774719758
 20
-135.5740577089734
 30
0.0
 10
-4.326675405003824
 20
-135.8051037946826
 30
0.0
 10
4.09670724834052
 20
-135.8082288539873
 30
0.0
 10
12.51753220075794
 20
-135.5833266296007
 30
0.0
 10
20.92795133884684
 20
-135.1299667751442
 30
0.0
 10
29.32013015599419
 20
-134.4473838041466
 30
0.0
 10
37.68666229316041
 20
-133.5343972679455
 30
0.0
 10
46.01998727240478
 20
-132.389425428907
 30
0.0
 10
54.3122708909689
 20
-131.0104992120179
 30
0.0
 10
62.55527049289955
 20
-129.3952931542268
 30
0.0
 10
70.74017366538693
 20
-127.5411813109718
 30
0.0
 10
78.85740857955794
 20
-125.445327583783
 30
0.0
 10
86.89642886596846
 20
-123.1048211684885
 30
0.0
 10
94.84548316118155
 20
-120.5168674074602
 30
0.0
 10
102.6913902133571
 20
-117.6790415999546
 30
0.0
 10
110.4193519063104
 20
-114.5896047013251
 30
0.0
 10
118.0125289979933
 20
-111.2480157097729
 30
0.0
 10
125.4515211818695
 20
-107.6556512554536
 30
0.0
 10
132.7154877547219
 20
-103.815978389702
 30
0.0
 10
139.7828892014614
 20
-99.73448071794077
 30
0.0
 10
146.6332447701431
 20
-95.41876734661204
 30
0.0
 10
153.2454418320831
 20
-90.87695216949413
 30
0.0
 10
159.6052728887991
 20
-86.12389758189826
 30
0.0
 10
165.681213343641
 20
-81.156383605702
 30
0.0
 10
170.6249130368167
 20
-76.82349715904613
 30
0.0
 10
173.4461289235383
 20
-74.05683780895829
 30
0.0
 10
174.4241838281763
 20
-73.09769648285425
 30
0.0
  0
SPLINE
  5
184
330
16F
100
AcDbEntity
  8
0
  6
HIDDEN
 62
     7
370
    18
100
AcDbSpline
210
0.0
220
0.0
230
1.0
 70
     8
 71
     3
 72
     9
 73
     5
 74
     0
 42
0.000000001
 43
0.00000001
 40
0.0
 40
0.0
 40
0.0
 40
0.0
 40
0.9580266484224519
 40
0.9999999999999999
 40
0.9999999999999999
 40
0.9999999999999999
 40
0.9999999999999999
 10
175.9968105806922
 20
-71.57534555889181
 30
0.0
 10
176.3293982698351
 20
-71.26658873621264
 30
0.0
 10
176.6765573908163
 20
-70.94430456678207
 30
0.0
 10
177.0012136307939
 20
-70.60066361711151
 30
0.0
 10
177.0148405412963
 20
-70.58623985471452
 30
0.0
  0
SPLINE
  5
185
330
16F
100
AcDbEntity
  8
0
  6
HIDDEN
 62
     7
370
    18
100
AcDbSpline
210
0.0
220
0.0
230
1.0
 70
     8
 71
     3
 72
    39
 73
    35
 74
     0
 42
0.000000001
 43
0.00000001
 40
0.0
 40
0.0
 40
0.0
 40
0.0
 40
0.008543555641679
 40
0.0442875687346473
 40
0.0797998485370209
 40
0.1144086894062838
 40
0.1480148066596306
 40
0.1808161128787881
 40
0.2130672396793659
 40
0.2449806831239303
 40
0.2767098527700798
 40
0.3083578280064518
 40
0.3399880526029919
 40
0.3716310616905704
 40
0.4033135898865013
 40
0.4350487142879993
 40
0.4668405980730399
 40
0.4986877357484593
 40
0.5305851152107836
 40
0.5625256265759498
 40
0.5945009554672136
 40
0.626502129017577
 40
0.6585198324247101
 40
0.6905445784540268
 40
0.72256580710743
 40
0.7545716728765263
 40
0.7865525293745486
 40
0.8184987848203006
 40
0.8504010473611868
 40
0.882250405227736
 40
0.9140389171121571
 40
0.9457604210211513
 40
0.9774118135889666
 40
1.0
 40
1.0
 40
1.0
 40
1.0
 10
52.47208336402909
 20
-74.04062903808453
 30
0.0
 10
52.48078515147739
 20
-74.20882613460539
 30
0.0
 10
52.52589295271305
 20
-75.08071610472467
 30
0.0
 10
52.30063038864849
 20
-76.65225429189186
 30
0.0
 10
51.77803061762748
 20
-78.75514077726716
 30
0.0
 10
50.92193574005682
 20
-80.83542917079275
 30
0.0
 10
49.7784936845809
 20
-82.87248377049794
 30
0.0
 10
48.35210658173551
 20
-84.85708490322843
 30
0.0
 10
46.65284542262018
 20
-86.78395804612457
 30
0.0
 10
44.68625908927795
 20
-88.64662739255787
 30
0.0
 10
42.45917936304576
 20
-90.43618196107734
 30
0.0
 10
39.98027159431916
 20
-92.14174777710588
 30
0.0
 10
37.2609882087506
 20
-93.75127524275257
 30
0.0
 10
34.31523810464731
 20
-95.25259737280692
 30
0.0
 10
31.15912298865976
 20
-96.6339905862706
 30
0.0
 10
27.81039504941631
 20
-97.88458634273519
 30
0.0
 10
24.28865834916732
 20
-98.99439403486355
 30
0.0
 10
20.61508453435678
 20
-99.95449991716472
 30
0.0
 10
16.81214162401628
 20
-100.7571923982271
 30
0.0
 10
12.90334402667231
 20
-101.3960379042664
 30
0.0
 10
8.913024796236565
 20
-101.8659250668727
 30
0.0
 10
4.866127785198491
 20
-102.1630894311841
 30
0.0
 10
0.7880159189115749
 20
-102.2851269203001
 30
0.0
 10
-3.295666442647172
 20
-102.2310018251816
 30
0.0
 10
-7.359114671948999
 20
-102.0010650182292
 30
0.0
 10
-11.37663003303482
 20
-101.5970698551706
 30
0.0
 10
-15.32284799858513
 20
-101.0221720672228
 30
0.0
 10
-19.17291868486117
 20
-100.2808935539016
 30
0.0
 10
-22.90274407216972
 20
-99.37919774203147
 30
0.0
 10
-26.48860927214503
 20
-98.32424512884941
 30
0.0
 10
-29.90948823238734
 20
-97.12530138763844
 30
0.0
 10
-33.13949482764886
 20
-95.79031217752781
 30
0.0
 10
-35.88937653245618
 20
-94.47603864942361
 30
0.0
 10
-37.49159559714765
 20
-93.57974616386085
 30
0.0
 10
-38.1588430866364
 20
-93.20648327864204
 30
0.0
  0
SPLINE
  5
186
330
16F
100
AcDbEntity
  8
0
  6
HIDDEN
 62
     7
370
    18
100
AcDbSpline
210
0.0
220
0.0
230
1.0
 70
     8
 71
     3
 72
    18
 73
    14
 74
     0
 42
0.000000001
 43
0.00000001
 40
0.0
 40
0.0
 40
0.0
 40
0.0
 40
0.050473180344064
 40
0.1468053030981069
 40
0.2430385799647276
 40
0.3392830342701358
 40
0.4357193800131562
 40
0.5326464743625282
 40
0.6304988287506251
 40
0.729864530589148
 40
0.8314515098549877
 40
0.9359098539028259
 40
1.0
 40
1.0
 40
1.0
 40
1.0
 10
-38.1588430866364
 20
-93.20648327864204
 30
0.0
 10
-38.63178661552205
 20
-92.92695136747881
 30
0.0
 10
-40.00738089416772
 20
-92.11391032936366
 30
0.0
 10
-42.10493854114621
 20
-90.69360368475947
 30
0.0
 10
-44.35535020829799
 20
-88.93096548997923
 30
0.0
 10
-46.33742069290832
 20
-87.10319588399781
 30
0.0
 10
-48.04855623259069
 20
-85.22659539583938
 30
0.0
 10
-49.48509924904751
 20
-83.31327453129273
 30
0.0
 10
-50.64625668189847
 20
-81.37240517721595
 30
0.0
 10
-51.53740009766941
 20
-79.40763919993485
 30
0.0
 10
-52.14284367762009
 20
-77.41623953628259
 30
0.0
 10
-52.46601058741911
 20
-75.6703898642392
 30
0.0
 10
-52.4637966386173
 20
-74.58548241921125
 30
0.0
 10
-52.46295479006656
 20
-74.17294904917674
 30
0.0
  0
LINE
  5
18D
330
16F
100
AcDbEntity
  8
0
  6
Continuous
 62
     7
370
    25
100
AcDbLine
 10
214.7869175794
 20
-38.6385233999
 30
0.0
 11
215.240720627
 21
-37.7606495271
 31
0.0
  0
LINE
  5
18E
330
16F
100
AcDbEntity
  8
0
  6
Continuous
 62
     7
370
    25
100
AcDbLine
 10
177.0444822697
 20
-70.5580648665
 30
0.0
 11
177.1803769023
 21
-70.4203418685
 31
0.0
  0
LINE
  5
18F
330
16F
100
AcDbEntity
  8
0
  6
Continuous
 62
     7
370
    25
100
AcDbLine
 10
-177.3310537636
 20
-70.2671315504
 30
0.0
 11
-176.9974649092
 21
-70.605614576
 31
0.0
  0
LINE
  5
190
330
16F
100
AcDbEntity
  8
0
  6
Continuous
 62
     7
370
    25
100
AcDbLine
 10
-16.2634559673
 20
-78.7946622962
 30
0.0
 11
-15.1249855841
 21
-79.408797818
 31
0.0
  0
LINE
  5
191
330
16F
100
AcDbEntity
  8
0
  6
HIDDEN
 62
     7
370
    18
100
AcDbLine
 10
-52.5
 20
-74.0649943756
 30
0.0
 11
-52.4994921639
 21
-74.19829976
 31
0.0
  0
LINE
  5
192
330
16F
100
AcDbEntity
  8
0
  6
HIDDEN
 62
     7
370
    18
100
AcDbLine
 10
-52.5
 20
-74.0649943756
 30
0.0
 11
-52.5
 21
-77.5713771291
 31
0.0
  0
LINE
  5
193
330
16F
100
AcDbEntity
  8
0
  6
HIDDEN
 62
     7
370
    18
100
AcDbLine
 10
52.5
 20
-77.5713771291
 30
0.0
 11
52.5
 21
-74.0649943756
 31
0.0
  0
LINE
  5
194
330
16F
100
AcDbEntity
  8
0
  6
HIDDEN
 62
     7
370
    18
100
AcDbLine
 10
-18.8066666864
 20
-78.2244360533
 30
0.0
 11
-12.3878539054
 21
-80.5931595827
 31
0.0
  0
LINE
  5
195
330
16F
100
AcDbEntity
  8
0
  6
HIDDEN
 62
     7
370
    18
100
AcDbLine
 10
12.3878539054
 20
-80.5931595827
 30
0.0
 11
18.8066666864
 21
-78.2244360533
 31
0.0
  0
LINE
  5
196
330
16F
100
AcDbEntity
  8
0
  6
HIDDEN
 62
     7
370
    18
100
AcDbLine
 10
-23.0
 20
-69.4059690103
 30
0.0
 11
-23.0
 21
-77.5713771291
 31
0.0
  0
LINE
  5
197
330
16F
100
AcDbEntity
  8
0
  6
HIDDEN
 62
     7
370
    18
100
AcDbLine
 10
23.0
 20
-77.5713771291
 30
0.0
 11
23.0
 21
-69.4059690103
 31
0.0
  0
ARC
  5
198
330
16F
100
AcDbEntity
  8
0
  6
HIDDEN
 62
     7
370
    18
100
AcDbCircle
 10
0.0
 20
-46.7460038728
 30
0.0
 40
35.9947676368208
100
AcDbArc
 50
245.1528127077
 51
294.8471872923
  0
VIEWPORT
  5
1FC
330
16F
100
AcDbEntity
  8
0
100
AcDbViewport
 10
0.0
 20
0.0
 30
0.0
 40
205.6
 41
156.0
 68
     1
 69
     1
 12
0.0
 22
0.0
 13
0.0
 23
0.0
 14
10.0
 24
10.0
 15
10.0
 25
10.0
 16
0.0
 26
0.0
 36
1.0
 17
0.0
 27
0.0
 37
0.0
 42
50.0
 43
0.0
 44
0.0
 45
459.0
 50
0.0
 51
0.0
 72
   100
 90
   557152
  1

281
     0
 71
     1
 74
     0
110
0.0
120
0.0
130
0.0
111
1.0
121
0.0
131
0.0
112
0.0
122
1.0
132
0.0
 79
     0
146
0.0
170
     0
 61
     5
348
2F
292
     1
282
     1
141
0.0
142
0.0
 63
   256
361
1FD
  0
ENDBLK
  5
172
330
16F
100
AcDbEntity
  8
0
100
AcDbBlockEnd
  0
BLOCK
  5
19B
330
199
100
AcDbEntity
  8
0
100
AcDbBlockBegin
  2
*Paper_Space6
 70
     0
 10
0.0
 20
0.0
 30
0.0
  3
*Paper_Space6
  1

  0
SPLINE
  5
19D
330
199
100
AcDbEntity
  8
0
  6
Continuous
 62
     7
370
    25
100
AcDbSpline
210
0.0
220
0.0
230
1.0
 70
     8
 71
     3
 72
    52
 73
    48
 74
     0
 42
0.000000001
 43
0.00000001
 40
0.0
 40
0.0
 40
0.0
 40
0.0
 40
0.0101039181887162
 40
0.032171598627993
 40
0.0541224924985284
 40
0.0760108119595355
 40
0.0978770365762233
 40
0.1197460667070767
 40
0.141638468703818
 40
0.1635721825360011
 40
0.1855599484440364
 40
0.2076104515299925
 40
0.2297292107481916
 40
0.2519192756511795
 40
0.2741817770381399
 40
0.2965163643713923
 40
0.318921554048649
 40
0.3413950066548188
 40
0.3639337471478687
 40
0.3865343389329442
 40
0.4091930205565842
 40
0.4319058120618454
 40
0.4546685967266575
 40
0.477477182859493
 40
0.5003273494796291
 40
0.5232148790184761
 40
0.5461355796104859
 40
0.5690852990746729
 40
0.592059932302305
 40
0.6150554234501996
 40
0.6380677640810265
 40
0.6610929881836017
 40
0.6841271648404749
 40
0.7071663891812537
 40
0.7302067721639373
 40
0.7532433063022059
 40
0.7762719277499677
 40
0.7992887229513161
 40
0.8222897479823472
 40
0.8452710195999241
 40
0.8682285080914791
 40
0.891158132551402
 40
0.9140557593686175
 40
0.9369172048815558
 40
0.9597382433717773
 40
0.9825146218334455
 40
0.9999999999999999
 40
0.9999999999999999
 40
0.9999999999999999
 40
0.9999999999999999
 10
184.9993598144229
 20
-56.89710705549124
 30
0.0
 10
184.641445831695
 20
-57.3037387709919
 30
0.0
 10
183.5018220955759
 20
-58.59848325488024
 30
0.0
 10
181.2786192207498
 20
-60.83558116775165
 30
0.0
 10
178.3461513072809
 20
-63.58297067266707
 30
0.0
 10
175.1240985240061
 20
-66.34573123625869
 30
0.0
 10
171.6320783306205
 20
-69.11008122785238
 30
0.0
 10
167.8653589370212
 20
-71.8671561939202
 30
0.0
 10
163.8274736609857
 20
-74.60656845850468
 30
0.0
 10
159.5209614826914
 20
-77.31860758856033
 30
0.0
 10
154.9497829547359
 20
-79.99370292850415
 30
0.0
 10
150.1188430366468
 20
-82.62248883079373
 30
0.0
 10
145.0340798131505
 20
-85.19584906792011
 30
0.0
 10
139.7023386125994
 20
-87.70498635183199
 30
0.0
 10
134.1313059878098
 20
-90.14146434087961
 30
0.0
 10
128.3294311445649
 20
-92.49724064809537
 30
0.0
 10
122.3058553018168
 20
-94.76468927890794
 30
0.0
 10
116.0703441558256
 20
-96.9366156353179
 30
0.0
 10
109.6332251563734
 20
-99.00626544285699
 30
0.0
 10
103.0053293058275
 20
-100.9673290400672
 30
0.0
 10
96.19793753421177
 20
-102.8139421302337
 30
0.0
 10
89.22273145779003
 20
-104.5406839247937
 30
0.0
 10
82.09174828058231
 20
-106.1425734339953
 30
0.0
 10
74.81733953208371
 20
-107.6150645213428
 30
0.0
 10
67.41213330312209
 20
-108.9540402185082
 30
0.0
 10
59.88899962558651
 20
-110.155806697129
 30
0.0
 10
52.26101864053643
 20
-111.2170872102335
 30
0.0
 10
44.54145120801758
 20
-112.1350162471835
 30
0.0
 10
36.74371162759876
 20
-112.9071340901796
 30
0.0
 10
28.88134215841272
 20
-113.5313819158572
 30
0.0
 10
20.96798904856603
 20
-114.006097550586
 30
0.0
 10
13.01737980593981
 20
-114.3300119618497
 30
0.0
 10
5.043301458219671
 20
-114.5022465468512
 30
0.0
 10
-2.940420419200715
 20
-114.5223112705981
 30
0.0
 10
-10.9198124770984
 20
-114.390105824526
 30
0.0
 10
-18.88088456438398
 20
-114.1059292810096
 30
0.0
 10
-26.80967214427679
 20
-113.670481757352
 30
0.0
 10
-34.69238628676512
 20
-113.0848533054544
 30
0.0
 10
-42.51532184343662
 20
-112.3505248242831
 30
0.0
 10
-50.26486657906472
 20
-111.4693783781701
 30
0.0
 10
-57.92749427665303
 20
-110.4436798880111
 30
0.0
 10
-65.48989489372866
 20
-109.2761667727299
 30
0.0
 10
-72.93859954350965
 20
-107.969749184722
 30
0.0
 10
-80.2614935864303
 20
-106.5286547186531
 30
0.0
 10
-87.44230824016844
 20
-104.9542030148001
 30
0.0
 10
-93.94120830858397
 20
-103.3905125841619
 30
0.0
 10
-97.99149667956561
 20
-102.311832549725
 30
0.0
 10
-99.75050646406585
 20
-101.8433699216036
 30
0.0
  0
SPLINE
  5
19E
330
199
100
AcDbEntity
  8
0
  6
Continuous
 62
     7
370
    25
100
AcDbSpline
210
0.0
220
0.0
230
1.0
 70
     8
 71
     3
 72
    26
 73
    22
 74
     0
 42
0.000000001
 43
0.00000001
 40
0.0
 40
0.0
 40
0.0
 40
0.0
 40
0.0300421566616657
 40
0.0872343274493308
 40
0.1442876290301271
 40
0.2011833042851592
 40
0.2579120156629275
 40
0.3144653690327294
 40
0.3708362901644112
 40
0.4270195053285107
 40
0.4830121451214331
 40
0.5388144988789825
 40
0.5944309535312109
 40
0.6498711594029418
 40
0.705151477364284
 40
0.7602967786142316
 40
0.8153426930289237
 40
0.8703384389666454
 40
0.9253383468443264
 40
0.9804112989763678
 40
1.0
 40
1.0
 40
1.0
 40
1.0
 10
-99.75050646406585
 20
-101.8433699216036
 30
0.0
 10
-100.9370041882311
 20
-101.5163440210328
 30
0.0
 10
-104.3822738522359
 20
-100.5667489298387
 30
0.0
 10
-109.9576136559182
 20
-98.90467822362602
 30
0.0
 10
-116.4041846780323
 20
-96.82517204341832
 30
0.0
 10
-122.6466111395092
 20
-94.64106300049093
 30
0.0
 10
-128.6765097603797
 20
-92.36142344907621
 30
0.0
 10
-134.4830251290516
 20
-89.99305730161424
 30
0.0
 10
-140.0567675229314
 20
-87.54397431137114
 30
0.0
 10
-145.38876028493
 20
-85.02249138982957
 30
0.0
 10
-150.4708141588554
 20
-82.43746540218912
 30
0.0
 10
-155.2955344482782
 20
-79.79821394626099
 30
0.0
 10
-159.8564178263098
 20
-77.11451067951769
 30
0.0
 10
-164.1479967286108
 20
-74.396531831519
 30
0.0
 10
-168.165743717707
 20
-71.65484427023605
 30
0.0
 10
-171.9069178490719
 20
-68.9001752727472
 30
0.0
 10
-175.3679188498905
 20
-66.14388229579784
 30
0.0
 10
-178.5544180233735
 20
-63.3958834690945
 30
0.0
 10
-181.4432024696943
 20
-60.67253961039347
 30
0.0
 10
-183.5468281978244
 20
-58.55025656671701
 30
0.0
 10
-184.5922276833219
 20
-57.36058921613826
 30
0.0
 10
-184.8665052690188
 20
-57.04846060575946
 30
0.0
  0
SPLINE
  5
19F
330
199
100
AcDbEntity
  8
0
  6
Continuous
 62
     7
370
    25
100
AcDbSpline
210
0.0
220
0.0
230
1.0
 70
     8
 71
     3
 72
    30
 73
    26
 74
     0
 42
0.000000001
 43
0.00000001
 40
0.0
 40
0.0
 40
0.0
 40
0.0
 40
0.0202502455984016
 40
0.0604233130236087
 40
0.1008690908574495
 40
0.1416333946035605
 40
0.1827644835560305
 40
0.2243125971509677
 40
0.2663291123011146
 40
0.3088651972709616
 40
0.3519698283576498
 40
0.3956870503859449
 40
0.4400524225308383
 40
0.4850887250910668
 40
0.5308012345700113
 40
0.5771731998531633
 40
0.6241625019326057
 40
0.6717006891855729
 40
0.7196954207309635
 40
0.7680366661684083
 40
0.8166059185997596
 40
0.865281126344052
 40
0.9139319710926705
 40
0.9624789697646704
 40
0.9999999999999999
 40
0.9999999999999999
 40
0.9999999999999999
 40
0.9999999999999999
 10
-217.992674601309
 20
-28.61114313939084
 30
0.0
 10
-217.4924239150338
 20
-29.63799718225136
 30
0.0
 10
-215.999760349044
 20
-32.70195623202293
 30
0.0
 10
-213.2222215677133
 20
-37.65766697218127
 30
0.0
 10
-209.6787497578755
 20
-43.48945346469529
 30
0.0
 10
-205.8483810523038
 20
-49.18955184857349
 30
0.0
 10
-201.7505704345787
 20
-54.763270813933
 30
0.0
 10
-197.3814352422207
 20
-60.20418726582223
 30
0.0
 10
-192.742465596896
 20
-65.5094849951197
 30
0.0
 10
-187.8327997747242
 20
-70.67555019927372
 30
0.0
 10
-182.6515274784317
 20
-75.69887070293349
 30
0.0
 10
-177.1974390016673
 20
-80.57544309288157
 30
0.0
 10
-171.4696783674815
 20
-85.30055862268894
 30
0.0
 10
-165.4683724541098
 20
-89.86849807409915
 30
0.0
 10
-159.1954635454343
 20
-94.27232518413307
 30
0.0
 10
-152.6555949702272
 20
-98.50380820022033
 30
0.0
 10
-145.8569232954193
 20
-102.5535423078359
 30
0.0
 10
-138.8116685014428
 20
-106.4113295225352
 30
0.0
 10
-131.536181257057
 20
-110.0667438665552
 30
0.0
 10
-124.0505296015116
 20
-113.5100354079488
 30
0.0
 10
-116.3774792414649
 20
-116.7322124885389
 30
0.0
 10
-108.5432408442092
 20
-119.7273851108217
 30
0.0
 10
-100.5704560648226
 20
-122.4860890754631
 30
0.0
 10
-93.09409402180466
 20
-124.8350909246708
 30
0.0
 10
-88.24023792608786
 20
-126.1888122492197
 30
0.0
 10
-86.12421780064246
 20
-126.778961917958
 30
0.0
  0
SPLINE
  5
1A0
330
199
100
AcDbEntity
  8
0
  6
Continuous
 62
     7
370
    25
100
AcDbSpline
210
0.0
220
0.0
230
1.0
 70
     8
 71
     3
 72
    50
 73
    46
 74
     0
 42
0.000000001
 43
0.00000001
 40
0.0
 40
0.0
 40
0.0
 40
0.0
 40
0.0139009189873313
 40
0.0383735314165578
 40
0.0627115055851691
 40
0.0869393224086185
 40
0.1110633575343869
 40
0.1350941000596295
 40
0.1590449601348447
 40
0.1829313940409051
 40
0.2067702662602775
 40
0.2305793991125471
 40
0.2543772611664897
 40
0.2781827503262684
 40
0.3020095866695204
 40
0.3258761538394627
 40
0.3498017731511474
 40
0.3738055915929773
 40
0.397906317549384
 40
0.4221218323957524
 40
0.4464686240464781
 40
0.4709609812164254
 40
0.4956098851945405
 40
0.5204215480505556
 40
0.5453955862749639
 40
0.5705229050922598
 40
0.5957835168782939
 40
0.6211447230447743
 40
0.6465546756413969
 40
0.6719381492302982
 40
0.6972251249768958
 40
0.7223440615759796
 40
0.7472286024018892
 40
0.7718235625560798
 40
0.7960887642154701
 40
0.8200001924493491
 40
0.843548820104034
 40
0.8667379641418498
 40
0.889580091986232
 40
0.9120937606409909
 40
0.9343010603336162
 40
0.9562256828173124
 40
0.9778915813913092
 40
0.999322120086365
 40
0.9999999999999999
 40
0.9999999999999999
 40
0.9999999999999999
 40
0.9999999999999999
 10
-86.12421780064246
 20
-126.778961917958
 30
0.0
 10
-84.57296237268183
 20
-127.192383282216
 30
0.0
 10
-80.29071679206923
 20
-128.3336342832534
 30
0.0
 10
-73.20511473669218
 20
-130.0206295049573
 30
0.0
 10
-64.86128692388328
 20
-131.7776284575555
 30
0.0
 10
-56.46872756523374
 20
-133.3061692215624
 30
0.0
 10
-48.0359631436589
 20
-134.6141647227853
 30
0.0
 10
-39.57030367829179
 20
-135.7037309242117
 30
0.0
 10
-31.07878395323834
 20
-136.5779447534413
 30
0.0
 10
-22.56755316701626
 20
-137.2390576552731
 30
0.0
 10
-14.04231277537055
 20
-137.6888881220316
 30
0.0
 10
-5.508404008303907
 20
-137.9286686434512
 30
0.0
 10
3.029066501285218
 20
-137.9590576524333
 30
0.0
 10
11.5645004941563
 20
-137.7801297881239
 30
0.0
 10
20.09229082378
 20
-137.3914268547939
 30
0.0
 10
28.60689357217147
 20
-136.7919473263368
 30
0.0
 10
37.10342165683593
 20
-135.9800408198588
 30
0.0
 10
45.57702992087313
 20
-134.9533828746243
 30
0.0
 10
54.0227022149271
 20
-133.708961517131
 30
0.0
 10
62.435108173101
 20
-132.2430691917702
 30
0.0
 10
70.80840419309045
 20
-130.5513165926579
 30
0.0
 10
79.13596364092223
 20
-128.6286849643412
 30
0.0
 10
87.41002418186329
 20
-126.4696391691708
 30
0.0
 10
95.62124867364524
 20
-124.068328999553
 30
0.0
 10
103.7582139348812
 20
-121.4189082278545
 30
0.0
 10
111.8068724987653
 20
-118.5159951530831
 30
0.0
 10
119.7500765994487
 20
-115.3552787432285
 30
0.0
 10
127.5667251045175
 20
-111.9344885970382
 30
0.0
 10
135.2308445799434
 20
-108.2547546921518
 30
0.0
 10
142.713866976455
 20
-104.3207670236941
 30
0.0
 10
149.9866533571139
 20
-100.1406428360768
 30
0.0
 10
157.0222980503678
 20
-95.72482465758809
 30
0.0
 10
163.7965815476169
 20
-91.08593065258904
 30
0.0
 10
170.2892966955406
 20
-86.2377407003966
 30
0.0
 10
176.4848978520097
 20
-81.19417871597548
 30
0.0
 10
182.3724321946523
 20
-75.9685293634737
 30
0.0
 10
187.9448681626039
 20
-70.57298181938167
 30
0.0
 10
193.1982711163091
 20
-65.01859012246702
 30
0.0
 10
198.1304207547402
 20
-59.31521782606444
 30
0.0
 10
202.7414581635123
 20
-53.47260728660144
 30
0.0
 10
207.0278250010709
 20
-47.49788832974902
 30
0.0
 10
211.0017334487414
 20
-41.40622102994242
 30
0.0
 10
214.6181536194076
 20
-35.18318130160119
 30
0.0
 10
216.9483443717121
 20
-30.9228043751829
 30
0.0
 10
217.9875261010175
 20
-28.69834637245323
 30
0.0
 10
218.0193890955348
 20
-28.63014088813234
 30
0.0
  0
LWPOLYLINE
  5
1A1
330
199
100
AcDbEntity
  8
0
  6
Continuous
 62
     7
370
    25
100
AcDbPolyline
 90
        3
 70
   128
 43
0.0
 10
184.8356622456
 20
-57.1115074219
 10
184.9737328435
 20
-56.9582123626
 10
185.0679730268
 20
-56.8532080104
  0
LWPOLYLINE
  5
1A2
330
199
100
AcDbEntity
  8
0
  6
Continuous
 62
     7
370
    25
100
AcDbPolyline
 90
      160
 70
   128
 43
0.0
 10
-105.0064625093
 20
-102.489526531
 10
-97.0629045935
 20
-104.5461230028
 10
-88.9677944742
 20
-106.439483114
 10
-80.733771705
 20
-108.1666506074
 10
-72.3736927349
 20
-109.724928716
 10
-63.9006108349
 20
-111.1118843736
 10
-55.3277557165
 20
-112.3253520135
 10
-46.6685128754
 20
-113.3634369501
 10
-37.9364026913
 20
-114.2245183369
 10
-29.1450593177
 20
-114.9072516976
 10
-20.3082093938
 20
-115.410571025
 10
-11.4396506116
 20
-115.7336904459
 10
-2.5532301729
 20
-115.8761054476
 10
6.3371768316
 20
-115.8375936659
 10
15.2176890867
 20
-115.6182152325
 10
24.0744407268
 20
-115.2183126807
 10
32.8936029855
 20
-114.6385104109
 10
41.6614057878
 20
-113.8797137154
 10
50.3641592505
 20
-112.9431073654
 10
58.9882750571
 20
-111.8301537604
 10
67.5202876746
 20
-110.5425906452
 10
75.946875378
 20
-109.082428397
 10
84.2548810509
 20
-107.4519468858
 10
92.4313327287
 20
-105.6536919147
 10
100.4634638527
 20
-103.6904712456
 10
108.3387332036
 20
-101.5653502145
 10
116.0448444833
 20
-99.2816469455
 10
123.5697655136
 20
-96.8429271702
 10
130.9017470237
 20
-94.2529986602
 10
138.0293409947
 20
-91.5159052812
 10
144.9414185349
 20
-88.6359206797
 10
151.6271872556
 20
-85.6175416098
 10
158.0762081227
 20
-82.4654809121
 10
164.2784117555
 20
-79.1846601552
 10
170.2241141494
 20
-75.7802019512
 10
175.9040317959
 20
-72.2574219575
 10
181.3092961778
 20
-68.6218205769
 10
186.4314676164
 20
-64.8790743694
 10
191.2625484491
 20
-61.0350271889
 10
195.7949955166
 20
-57.0956810587
 10
200.0217319409
 20
-53.0671868002
 10
203.9361581748
 20
-48.955834429
 10
207.5321623063
 20
-44.7680433337
 10
210.804129602
 20
-40.510352253
 10
213.7469512733
 20
-36.1894090662
 10
216.3560324534
 20
-31.811960413
 10
218.6272993718
 20
-27.38484116
 10
220.5572057149
 20
-22.9149637283
 10
222.142738163
 20
-18.4093073009
 10
223.3814210954
 20
-13.8749069254
 10
224.2713204557
 20
-9.3188425298
 10
224.8110467718
 20
-4.7482278679
 10
224.9997573249
 20
-0.1701994117
 10
224.8371574661
 20
4.4080947906
 10
224.3235010757
 20
8.9795062761
 10
223.4595901672
 20
13.5368973286
 10
222.2467736348
 20
18.0731521228
 10
220.6869451477
 20
22.5811878353
 10
218.7825401929
 20
27.0539657036
 10
216.5365322726
 20
31.484502016
 10
213.9524282616
 20
35.8658790159
 10
211.0342629316
 20
40.1912557033
 10
207.7865926513
 20
44.4538785158
 10
204.2144882722
 20
48.6470918741
 10
200.3235272115
 20
52.7643485731
 10
196.1197847429
 20
56.7992200054
 10
191.6098245112
 20
60.7454061981
 10
186.800688284
 20
64.5967456499
 10
181.6998849566
 20
68.3472249515
 10
176.3153788279
 20
71.9909881746
 10
170.6555771651
 20
75.5223460156
 10
164.7293170766
 20
78.9357846783
 10
158.545851714
 20
82.2259744834
 10
152.1148358245
 20
85.3877781902
 10
145.4463106759
 20
88.4162590175
 10
138.5506883788
 20
91.306688352
 10
131.4387356287
 20
94.0545531314
 10
124.1215568956
 20
96.655562891
 10
116.6105770856
 20
99.1056564628
 10
108.9175237019
 20
101.4010083167
 10
101.0544085343
 20
103.5380345331
 10
93.0335089036
 20
105.5133983992
 10
84.8673484926
 20
107.324015619
 10
76.5686777912
 20
108.9670591285
 10
68.1504541887
 20
110.4399635103
 10
59.6258217419
 20
111.7404289991
 10
51.0080906525
 20
112.8664250725
 10
42.3107164845
 20
113.8161936211
 10
33.5472791554
 20
114.5882516942
 10
24.7314617321
 20
115.1813938147
 10
15.8770290672
 20
115.5946938616
 10
6.997806306
 20
115.827506516
 10
-1.8923426989
 20
115.8794682685
 10
-10.7795370354
 20
115.750497987
 10
-19.6499004044
 20
115.4407970433
 10
-28.4895827866
 20
114.9508489987
 10
-37.2847820671
 20
114.2814188489
 10
-46.0217655863
 20
113.4335518295
 10
-54.6868915818
 20
112.4085717844
 10
-63.2666304877
 20
111.2080790981
 10
-71.7475860604
 20
109.8339481975
 10
-80.1165162943
 20
108.2883246248
 10
-88.3603540985
 20
106.5736216879
 10
-96.4662276988
 20
104.6925166917
 10
-104.4214807357
 20
102.6479467585
 10
-112.2136920261
 20
100.4431042414
 10
-119.8306949569
 20
98.0814317404
 10
-127.2605964823
 20
95.5666167267
 10
-134.491795693
 20
92.9025857854
 10
-141.5130019299
 20
90.0934984846
 10
-148.3132524129
 20
87.1437408807
 10
-154.881929358
 20
84.05791867
 10
-161.2087765561
 20
80.8408499975
 10
-167.2839153862
 20
77.4975579341
 10
-173.0978602403
 20
74.0332626336
 10
-178.6415333335
 20
70.4533731817
 10
-183.9062788785
 20
66.763479151
 10
-188.8838765999
 20
62.9693418728
 10
-193.56655457
 20
59.0768854422
 10
-197.9470013428
 20
55.0921874678
 10
-202.0183773707
 20
51.0214695826
 10
-205.7743256834
 20
46.8710877292
 10
-209.2089818134
 20
42.6475222362
 10
-212.3169829529
 20
38.3573676999
 10
-215.0934763271
 20
34.0073226871
 10
-217.5341267711
 20
29.604179277
 10
-219.635123499
 20
25.154812455
 10
-221.3931860539
 20
20.6661693795
 10
-222.8055694296
 20
16.1452585338
 10
-223.8700683574
 20
11.5991387834
 10
-224.5850207483
 20
7.0349083547
 10
-224.9493102892
 20
2.4596937516
 10
-224.9623681852
 20
-2.1193613712
 10
-224.6241740479
 20
-6.6951073628
 10
-223.9352559273
 20
-11.260399739
 10
-222.8966894873
 20
-15.8081103378
 10
-221.5100963261
 20
-20.3311384488
 10
-219.7776414443
 20
-24.8224219005
 10
-217.7020298646
 20
-29.2749480871
 10
-215.286502408
 20
-33.6817649173
 10
-212.534830634
 20
-38.0359916699
 10
-209.4513109513
 20
-42.3308297367
 10
-206.0407579099
 20
-46.5595732377
 10
-202.3084966836
 20
-50.7156194922
 10
-198.2603547552
 20
-54.7924793271
 10
-193.9026528177
 20
-58.7837872098
 10
-189.2421949055
 20
-62.6833111868
 10
-184.2862577704
 20
-66.4849626143
 10
-179.0425795198
 20
-70.182805665
 10
-173.5193475349
 20
-73.7710665959
 10
-167.7251856869
 20
-77.2441427633
 10
-161.6691408716
 20
-80.5966113713
 10
-155.3606688841
 20
-83.8232379381
 10
-148.8096196545
 20
-86.9189844692
 10
-142.0262218687
 20
-89.879017324
 10
-135.0210669969
 20
-92.6987147625
 10
-127.8050927569
 20
-95.3736741619
 10
-120.389566036
 20
-97.8997188906
 10
-112.7860652989
 20
-100.2729048297
 10
-105.0064625093
 20
-102.489526531
  0
LWPOLYLINE
  5
1A3
330
199
100
AcDbEntity
  8
0
  6
Continuous
 62
     7
370
    25
100
AcDbPolyline
 90
       63
 70
   128
 43
0.0
 10
-16.2958530094
 20
-80.1927996623
 10
-13.087994333
 20
-80.9602991423
 10
-9.7458351237
 20
-81.5567136292
 10
-6.3036704579
 20
-81.9759231032
 10
-2.796821603
 20
-82.2136259078
 10
0.7387264263
 20
-82.2673828907
 10
4.2666941228
 20
-82.1366424323
 10
7.7508797639
 20
-81.8227461069
 10
11.1555308899
 20
-81.3289149153
 10
14.4457111732
 20
-80.660216234
 10
17.5876589117
 20
-79.8235118162
 10
20.5491334698
 20
-78.8273873816
 10
23.2997461111
 20
-77.6820645148
 10
25.8112718277
 20
-76.3992957782
 10
28.0579389671
 20
-74.9922441151
 10
30.0166936843
 20
-73.4753477794
 10
31.6674365052
 20
-71.8641721804
 10
32.9932285747
 20
-70.1752501598
 10
33.980465472
 20
-68.4259123432
 10
34.6190168106
 20
-66.6341093037
 10
34.9023301898
 20
-64.8182273653
 10
34.8274984308
 20
-62.9968999338
 10
34.3952894088
 20
-61.1888162935
 10
33.6101381732
 20
-59.4125298291
 10
32.4801014381
 20
-57.6862676435
 10
31.0167749097
 20
-56.0277435227
 10
29.2351742983
 20
-54.4539761686
 10
27.1535812371
 20
-52.9811145638
 10
24.7933556877
 20
-51.6242722616
 10
22.1787167583
 20
-50.3973723
 10
19.3364941822
 20
-49.3130043329
 10
16.2958530094
 20
-48.382295443
 10
13.087994333
 20
-47.614795963
 10
9.7458351237
 20
-47.0183814761
 10
6.3036704579
 20
-46.5991720022
 10
2.796821603
 20
-46.3614691975
 10
-0.7387264263
 20
-46.3077122147
 10
-4.2666941228
 20
-46.438452673
 10
-7.7508797639
 20
-46.7523489984
 10
-11.1555308899
 20
-47.24618019
 10
-14.4457111732
 20
-47.9148788713
 10
-17.5876589117
 20
-48.7515832891
 10
-20.5491334698
 20
-49.7477077237
 10
-23.2997461111
 20
-50.8930305906
 10
-25.8112718277
 20
-52.1757993271
 10
-28.0579389671
 20
-53.5828509903
 10
-30.0166936843
 20
-55.0997473259
 10
-31.6674365052
 20
-56.7109229249
 10
-32.9932285747
 20
-58.3998449455
 10
-33.980465472
 20
-60.1491827621
 10
-34.6190168106
 20
-61.9409858016
 10
-34.9023301898
 20
-63.75686774
 10
-34.8274984308
 20
-65.5781951715
 10
-34.3952894088
 20
-67.3862788119
 10
-33.6101381732
 20
-69.1625652762
 10
-32.4801014381
 20
-70.8888274618
 10
-31.0167749097
 20
-72.5473515826
 10
-29.2351742983
 20
-74.1211189367
 10
-27.1535812371
 20
-75.5939805415
 10
-24.7933556877
 20
-76.9508228437
 10
-22.1787167583
 20
-78.1777228053
 10
-19.3364941822
 20
-79.2620907725
 10
-16.2958530094
 20
-80.1927996623
  0
LWPOLYLINE
  5
1A4
330
199
100
AcDbEntity
  8
0
  6
Continuous
 62
     7
370
    25
100
AcDbPolyline
 90
       36
 70
   128
 43
0.0
 10
19.3612885557
 20
-79.2535900155
 10
19.627484208
 20
-79.0345649574
 10
20.9754703209
 20
-77.7188891868
 10
21.9926607367
 20
-76.3265735389
 10
22.6630137549
 20
-74.8795756632
 10
22.975957508
 20
-73.4007155807
 10
22.926556686
 20
-71.9133157981
 10
22.5155903694
 20
-70.4408334988
 10
21.7495397425
 20
-69.006490608
 10
20.6404858813
 20
-67.6329075701
 10
19.2059192278
 20
-66.3417466101
 10
17.468463755
 20
-65.1533701076
 10
15.4555201736
 20
-64.08651947
 10
13.1988338063
 20
-63.1580195692
 10
10.7339939454
 20
-62.3825134032
 10
8.0998725878
 20
-61.7722311675
 10
5.3380114008
 20
-61.3367973776
 10
2.4919665852
 20
-61.0830790844
 10
-0.393378032
 20
-61.015077577
 10
-3.2725188427
 20
-61.1338652799
 10
-6.1000500763
 20
-61.4375688398
 10
-8.8313798762
 20
-61.9213986703
 10
-11.4234335398
 20
-62.577724486
 10
-13.8353328325
 20
-63.3961956366
 10
-16.0290406616
 20
-64.3639043432
 10
-17.9699609442
 20
-65.4655892614
 10
-19.627484208
 20
-66.6838761619
 10
-20.9754703209
 20
-67.9995519326
 10
-21.9926607367
 20
-69.3918675805
 10
-22.6630137549
 20
-70.8388654561
 10
-22.975957508
 20
-72.3177255387
 10
-22.926556686
 20
-73.8051253212
 10
-22.5155903694
 20
-75.2776076206
 10
-21.7495397425
 20
-76.7119505113
 10
-20.6404858813
 20
-78.0855335492
 10
-19.3612885557
 20
-79.2535900155
  0
LWPOLYLINE
  5
1A5
330
199
100
AcDbEntity
  8
0
  6
Continuous
 62
     7
370
    25
100
AcDbPolyline
 90
       21
 70
   128
 43
0.0
 10
21.4418829657
 20
-77.1450570632
 10
20.6404858813
 20
-76.2045805771
 10
19.2059192278
 20
-74.9134196171
 10
17.468463755
 20
-73.7250431147
 10
15.4555201736
 20
-72.6581924771
 10
13.1988338063
 20
-71.7296925762
 10
10.7339939454
 20
-70.9541864102
 10
8.0998725878
 20
-70.3439041745
 10
5.3380114008
 20
-69.9084703846
 10
2.4919665852
 20
-69.6547520914
 10
-0.393378032
 20
-69.5867505841
 10
-3.2725188427
 20
-69.7055382869
 10
-6.1000500763
 20
-70.0092418468
 10
-8.8313798762
 20
-70.4930716774
 10
-11.4234335398
 20
-71.149397493
 10
-13.8353328325
 20
-71.9678686437
 10
-16.0290406616
 20
-72.9355773503
 10
-17.9699609442
 20
-74.0372622685
 10
-19.627484208
 20
-75.255549169
 10
-20.9754703209
 20
-76.5712249396
 10
-21.4418829657
 20
-77.1450570632
  0
LWPOLYLINE
  5
1A7
330
199
100
AcDbEntity
  8
0
  6
HIDDEN
 62
     7
370
    18
100
AcDbPolyline
 90
       77
 70
   128
 43
0.0
 10
-24.5015079188
 20
-105.3451164239
 10
-20.5835026926
 20
-106.305523287
 10
-16.5248912715
 20
-107.0960112065
 10
-12.353398087
 20
-107.7111803485
 10
-8.0975186675
 20
-108.1468284839
 10
-3.7863249846
 20
-108.3999796942
 10
0.5507331372
 20
-108.4689047
 10
4.8840291932
 20
-108.3531326735
 10
9.1839623775
 20
-108.0534544552
 10
13.4211597863
 20
-107.5719171511
 10
17.5666770649
 20
-106.9118101492
 10
21.5921961268
 20
-106.0776426498
 10
25.470218595
 20
-105.0751128626
 10
29.1742536437
 20
-103.9110690827
 10
32.6789989576
 20
-102.5934629095
 10
35.9605135727
 20
-101.1312949291
 10
38.9963814165
 20
-99.5345532314
 10
41.7658644335
 20
-97.8141451814
 10
44.2500442464
 20
-95.9818229104
 10
46.4319513881
 20
-94.0501030376
 10
48.2966812204
 20
-92.0321811684
 10
49.8314957478
 20
-89.9418417553
 10
51.0259106308
 20
-87.793363936
 10
51.8717668046
 20
-85.6014239927
 10
52.3632862138
 20
-83.3809950978
 10
52.4971112825
 20
-81.1472450319
 10
52.2723278498
 20
-78.9154325732
 10
51.6904714145
 20
-76.7008032638
 10
50.7555166459
 20
-74.5184852673
 10
49.4738502332
 20
-72.3833860286
 10
47.8542272576
 20
-70.3100904405
 10
45.9077113863
 20
-68.312761214
 10
43.6475992964
 20
-66.4050421331
 10
41.0893298452
 20
-64.5999648536
 10
38.2503786071
 20
-62.9098598835
 10
35.1501384978
 20
-61.3462723535
 10
31.8097873008
 20
-59.9198831519
 10
28.2521430018
 20
-58.6404359634
 10
24.5015079188
 20
-57.5166707095
 10
20.5835026926
 20
-56.5562638464
 10
16.5248912715
 20
-55.7657759269
 10
12.353398087
 20
-55.1506067849
 10
8.0975186674
 20
-54.7149586495
 10
3.7863249846
 20
-54.4618074392
 10
-0.5507331372
 20
-54.3928824334
 10
-4.8840291932
 20
-54.5086544599
 10
-9.1839623775
 20
-54.8083326782
 10
-13.4211597863
 20
-55.2898699823
 10
-17.5666770649
 20
-55.9499769842
 10
-21.5921961268
 20
-56.7841444837
 10
-25.470218595
 20
-57.7866742708
 10
-29.1742536437
 20
-58.9507180507
 10
-32.6789989576
 20
-60.2683242239
 10
-35.9605135727
 20
-61.7304922043
 10
-38.9963814165
 20
-63.327233902
 10
-41.7658644335
 20
-65.047641952
 10
-44.2500442464
 20
-66.879964223
 10
-46.4319513881
 20
-68.8116840958
 10
-48.2966812204
 20
-70.829605965
 10
-49.8314957478
 20
-72.9199453781
 10
-51.0259106308
 20
-75.0684231974
 10
-51.8717668046
 20
-77.2603631407
 10
-52.3632862138
 20
-79.4807920357
 10
-52.4971112825
 20
-81.7145421015
 10
-52.2723278498
 20
-83.9463545602
 10
-51.6904714145
 20
-86.1609838697
 10
-50.7555166459
 20
-88.3433018661
 10
-49.4738502332
 20
-90.4784011048
 10
-47.8542272576
 20
-92.5516966929
 10
-45.9077113863
 20
-94.5490259194
 10
-43.6475992964
 20
-96.4567450003
 10
-41.0893298452
 20
-98.2618222798
 10
-38.2503786071
 20
-99.95192725
 10
-35.1501384978
 20
-101.5155147799
 10
-31.8097873008
 20
-102.9419039815
 10
-28.2521430018
 20
-104.22135117
 10
-24.5015079188
 20
-105.3451164239
  0
LWPOLYLINE
  5
1A8
330
199
100
AcDbEntity
  8
0
  6
HIDDEN
 62
     7
370
    18
100
AcDbPolyline
 90
       13
 70
   128
 43
0.0
 10
-10.7339939454
 20
-83.3359277162
 10
-8.0998725878
 20
-83.9462099519
 10
-5.3380114008
 20
-84.3816437418
 10
-2.4919665852
 20
-84.6353620349
 10
0.393378032
 20
-84.7033635423
 10
3.2725188427
 20
-84.5845758395
 10
6.1000500763
 20
-84.2808722796
 10
8.8313798762
 20
-83.797042449
 10
11.4234335398
 20
-83.1407166333
 10
13.8353328325
 20
-82.3222454827
 10
16.0290406616
 20
-81.3545367761
 10
17.9699609442
 20
-80.2528518579
 10
19.3612885557
 20
-79.2535900155
  0
LWPOLYLINE
  5
1AA
330
199
100
AcDbEntity
  8
0
  6
HIDDEN
 62
     7
370
    18
100
AcDbPolyline
 90
       21
 70
   128
 43
0.0
 10
-10.7339939454
 20
-91.9076007232
 10
-8.0998725878
 20
-92.5178829589
 10
-5.3380114008
 20
-92.9533167488
 10
-2.4919665852
 20
-93.207035042
 10
0.393378032
 20
-93.2750365493
 10
3.2725188427
 20
-93.1562488465
 10
6.1000500763
 20
-92.8525452866
 10
8.8313798762
 20
-92.368715456
 10
11.4234335398
 20
-91.7123896404
 10
13.8353328325
 20
-90.8939184897
 10
16.0290406616
 20
-89.9262097831
 10
17.9699609442
 20
-88.824524865
 10
19.627484208
 20
-87.6062379644
 10
20.9754703209
 20
-86.2905621938
 10
21.9926607367
 20
-84.8982465459
 10
22.6630137549
 20
-83.4512486702
 10
22.975957508
 20
-81.9723885877
 10
22.926556686
 20
-80.4849888052
 10
22.5155903694
 20
-79.0125065058
 10
21.7495397425
 20
-77.578163615
 10
21.4418829657
 20
-77.1450570632
  0
LWPOLYLINE
  5
1AB
330
199
100
AcDbEntity
  8
0
  6
HIDDEN
 62
     7
370
    18
100
AcDbPolyline
 90
       13
 70
   128
 43
0.0
 10
-21.4418829657
 20
-77.1450570632
 10
-21.9926607367
 20
-77.9635405875
 10
-22.6630137549
 20
-79.4105384632
 10
-22.975957508
 20
-80.8893985457
 10
-22.926556686
 20
-82.3767983282
 10
-22.5155903694
 20
-83.8492806276
 10
-21.7495397425
 20
-85.2836235184
 10
-20.6404858813
 20
-86.6572065563
 10
-19.2059192278
 20
-87.9483675163
 10
-17.468463755
 20
-89.1367440187
 10
-15.4555201736
 20
-90.2035946563
 10
-13.1988338063
 20
-91.1320945572
 10
-10.7339939454
 20
-91.9076007232
  0
SPLINE
  5
1AD
330
199
100
AcDbEntity
  8
0
  6
HIDDEN
 62
     7
370
    18
100
AcDbSpline
210
0.0
220
0.0
230
1.0
 70
     8
 71
     3
 72
    23
 73
    19
 74
     0
 42
0.000000001
 43
0.00000001
 40
0.0
 40
0.0
 40
0.0
 40
0.0
 40
0.0367806026012541
 40
0.0975106236506166
 40
0.1591651989360511
 40
0.2217917687217324
 40
0.2854153918283504
 40
0.3500314581711551
 40
0.4155993322924482
 40
0.48203868747495
 40
0.5492303945215858
 40
0.617023171269643
 40
0.6852457058129181
 40
0.753722139475124
 40
0.8222593781928998
 40
0.8907043697970585
 40
0.9589572385881595
 40
1.0
 40
1.0
 40
1.0
 40
1.0
 10
-183.3341301721609
 20
-58.70243990036611
 30
0.0
 10
-182.3802004635965
 20
-59.73591475144219
 30
0.0
 10
-179.8511967436359
 20
-62.47580399002197
 30
0.0
 10
-175.4854642750826
 20
-66.71278320839221
 30
0.0
 10
-170.2439288274311
 20
-71.45603402221849
 30
0.0
 10
-164.7148588994793
 20
-76.04313691455174
 30
0.0
 10
-158.910822701904
 20
-80.47950123944824
 30
0.0
 10
-152.8311622172056
 20
-84.75427513548418
 30
0.0
 10
-146.4825851090692
 20
-88.8593388556275
 30
0.0
 10
-139.8745387658434
 20
-92.78432604399906
 30
0.0
 10
-133.0210822709568
 20
-96.51856842857555
 30
0.0
 10
-125.9402944310671
 20
-100.0514022933388
 30
0.0
 10
-118.6536643749957
 20
-103.3732301224617
 30
0.0
 10
-111.1855615167969
 20
-106.4753361469346
 30
0.0
 10
-103.5621475511949
 20
-109.352590237101
 30
0.0
 10
-95.80571195846784
 20
-111.9972994468
 30
0.0
 10
-88.98017389079841
 20
-114.1045891537592
 30
0.0
 10
-84.72086386794797
 20
-115.2864151574617
 30
0.0
 10
-83.12140518215865
 20
-115.7302151759089
 30
0.0
  0
SPLINE
  5
1AE
330
199
100
AcDbEntity
  8
0
  6
HIDDEN
 62
     7
370
    18
100
AcDbSpline
210
0.0
220
0.0
230
1.0
 70
     8
 71
     3
 72
    43
 73
    39
 74
     0
 42
0.000000001
 43
0.00000001
 40
0.0
 40
0.0
 40
0.0
 40
0.0
 40
0.0160747311559021
 40
0.0446583799209744
 40
0.0730862964480631
 40
0.1013851446829414
 40
0.1295638875998854
 40
0.1576357018850364
 40
0.1856166923126443
 40
0.2135249686845627
 40
0.241379991988942
 40
0.2692021269856326
 40
0.2970123439612416
 40
0.3248320202467455
 40
0.3526761005230841
 40
0.3805658923507219
 40
0.4085232343043355
 40
0.4365698294653935
 40
0.4647269842019995
 40
0.4930152083910664
 40
0.5214536150277471
 40
0.5500590458938577
 40
0.5788448428309539
 40
0.6078191904513485
 40
0.6369829917192883
 40
0.6663273257794285
 40
0.6958307024396421
 40
0.7254565778556725
 40
0.755147686481536
 40
0.7848128520360916
 40
0.8143675191957167
 40
0.8437236686824519
 40
0.8727982703893545
 40
0.9015212371745177
 40
0.9298408569167524
 40
0.9577257816162679
 40
0.9851638636538432
 40
1.0
 40
1.0
 40
1.0
 40
1.0
 10
-83.12140518215865
 20
-115.7302151759089
 30
0.0
 10
-81.6301841888088
 20
-116.1276308663001
 30
0.0
 10
-77.48731467383725
 20
-117.2317203043079
 30
0.0
 10
-70.61870796788963
 20
-118.8660446621813
 30
0.0
 10
-62.50810920929754
 20
-120.5706779823091
 30
0.0
 10
-54.34590176073492
 20
-122.0521314930193
 30
0.0
 10
-46.14105593505657
 20
-123.3179487239384
 30
0.0
 10
-37.90101652223649
 20
-124.3700859141922
 30
0.0
 10
-29.63312653518697
 20
-125.2114066935072
 30
0.0
 10
-21.34397087736998
 20
-125.8439704444949
 30
0.0
 10
-13.03978772044355
 20
-126.2694278870109
 30
0.0
 10
-4.726528687317599
 20
-126.4888833596464
 30
0.0
 10
3.590037925980782
 20
-126.5029135030317
 30
0.0
 10
11.9036040782365
 20
-126.311564169613
 30
0.0
 10
20.20789976041479
 20
-125.9144016188718
 30
0.0
 10
28.49671845861747
 20
-125.3104984714246
 30
0.0
 10
36.76453982023134
 20
-124.4983229779142
 30
0.0
 10
45.00585321680312
 20
-123.4757219502612
 30
0.0
 10
53.21502444126498
 20
-122.239899214366
 30
0.0
 10
61.38617312473878
 20
-120.7873990551635
 30
0.0
 10
69.51299729813469
 20
-119.1141076073019
 30
0.0
 10
77.58852981726095
 20
-117.2152878011116
 30
0.0
 10
85.60481289008922
 20
-115.0856694665951
 30
0.0
 10
93.55248335325547
 20
-112.7196222477752
 30
0.0
 10
101.4202763982445
 20
-110.1114428644459
 30
0.0
 10
109.1944831941879
 20
-107.2557854741999
 30
0.0
 10
116.8584411402987
 20
-104.1482484850909
 30
0.0
 10
124.3918305781603
 20
-100.78625307927
 30
0.0
 10
131.7692314829273
 20
-97.17061054062073
 30
0.0
 10
138.9624346480136
 20
-93.30569922949601
 30
0.0
 10
145.9422184305537
 20
-89.19960220627813
 30
0.0
 10
152.6813756305612
 20
-84.86273431142313
 30
0.0
 10
159.1556278736845
 20
-80.30829963258219
 30
0.0
 10
165.3431588825881
 20
-75.54942656763906
 30
0.0
 10
171.2324431314259
 20
-70.60473170689521
 30
0.0
 10
176.7964905590705
 20
-65.47311525867272
 30
0.0
 10
181.3048400923994
 20
-60.99760723243855
 30
0.0
 10
183.8574632996724
 20
-58.1423876756384
 30
0.0
 10
184.7533063783002
 20
-57.14034841240743
 30
0.0
  0
SPLINE
  5
1AF
330
199
100
AcDbEntity
  8
0
  6
HIDDEN
 62
     7
370
    18
100
AcDbSpline
210
0.0
220
0.0
230
1.0
 70
     8
 71
     3
 72
    35
 73
    31
 74
     0
 42
0.000000001
 43
0.00000001
 40
0.0
 40
0.0
 40
0.0
 40
0.0
 40
0.0350099206066304
 40
0.0777123510239763
 40
0.1143698605150001
 40
0.1532627332045592
 40
0.1907325347629345
 40
0.2273192236908018
 40
0.263442487887059
 40
0.299362636429396
 40
0.3352338560374656
 40
0.3711212284186061
 40
0.4070799506240383
 40
0.4431367646569256
 40
0.479300041884529
 40
0.5155673800710047
 40
0.5519303320318091
 40
0.5883772943664197
 40
0.6248952191208273
 40
0.6614705783773309
 40
0.6980898602614639
 40
0.7347397754664905
 40
0.7714072885692678
 40
0.8080795468941793
 40
0.8447404822784589
 40
0.8813761900806057
 40
0.9179734686611037
 40
0.9545187478062015
 40
0.9890436428383667
 40
0.9999999999999999
 40
0.9999999999999999
 40
0.9999999999999999
 40
0.9999999999999999
 10
52.4782604177646
 20
-77.77037828437032
 30
0.0
 10
52.46603732376133
 20
-78.25818554891478
 30
0.0
 10
52.43890543213401
 20
-79.34098290227821
 30
0.0
 10
52.04009840198854
 20
-80.96396930447615
 30
0.0
 10
51.35983737091374
 20
-82.69133668813866
 30
0.0
 10
50.40892267239737
 20
-84.38644111285643
 30
0.0
 10
49.14708375166941
 20
-86.10944395150398
 30
0.0
 10
47.61266885923762
 20
-87.79610243388836
 30
0.0
 10
45.8086024955512
 20
-89.44234779879143
 30
0.0
 10
43.73754628958707
 20
-91.04022216332585
 30
0.0
 10
41.40593176280589
 20
-92.57830913544514
 30
0.0
 10
38.82350660236796
 20
-94.04396202755302
 30
0.0
 10
36.00309772344332
 20
-95.42441578390492
 30
0.0
 10
32.95951262130352
 20
-96.70765822014295
 30
0.0
 10
29.7099707915407
 20
-97.88237392691413
 30
0.0
 10
26.27374695790389
 20
-98.93822004881201
 30
0.0
 10
22.67180401823303
 20
-99.86599446671596
 30
0.0
 10
18.92647142483681
 20
-100.6577214605179
 30
0.0
 10
15.06116824608036
 20
-101.3066890040981
 30
0.0
 10
11.1001646926997
 20
-101.8074592904563
 30
0.0
 10
7.068373908076495
 20
-102.1558664123474
 30
0.0
 10
2.991168349444674
 20
-102.3490078956775
 30
0.0
 10
-1.105792619670126
 20
-102.3852404880619
 30
0.0
 10
-5.196581901470338
 20
-102.2641658647065
 30
0.0
 10
-9.255302608537992
 20
-101.9866982759273
 30
0.0
 10
-13.25605795972198
 20
-101.5548931786588
 30
0.0
 10
-17.17405765658332
 20
-100.972603985975
 30
0.0
 10
-20.91466795211387
 20
-100.2560054071548
 30
0.0
 10
-23.67723465633234
 20
-99.61023982594044
 30
0.0
 10
-25.16520850700693
 20
-99.2126260657787
 30
0.0
 10
-25.5236589051115
 20
-99.11684157967551
 30
0.0
  0
SPLINE
  5
1B0
330
199
100
AcDbEntity
  8
0
  6
HIDDEN
 62
     7
370
    18
100
AcDbSpline
210
0.0
220
0.0
230
1.0
 70
     8
 71
     3
 72
    22
 73
    18
 74
     0
 42
0.000000001
 43
0.00000001
 40
0.0
 40
0.0
 40
0.0
 40
0.0
 40
0.0365830768478917
 40
0.1061807951763031
 40
0.1755971432276666
 40
0.2447918922950345
 40
0.3137515132922951
 40
0.3824776774049429
 40
0.4509984174639968
 40
0.519385423763449
 40
0.5877551778483283
 40
0.656286883420218
 40
0.7253303020940794
 40
0.7954360671904719
 40
0.8674146766876543
 40
0.942317016116155
 40
1.0
 40
1.0
 40
1.0
 40
1.0
 10
-25.5236589051115
 20
-99.11684157967551
 30
0.0
 10
-26.14151777262559
 20
-98.94410383971925
 30
0.0
 10
-27.93482635987627
 20
-98.4427400353083
 30
0.0
 10
-30.77804824798839
 20
-97.5150779634606
 30
0.0
 10
-33.97223680666019
 20
-96.302534705041
 30
0.0
 10
-36.95084493064853
 20
-94.98307071857091
 30
0.0
 10
-39.69805780911674
 20
-93.57174127114008
 30
0.0
 10
-42.19746796102916
 20
-92.08192869757318
 30
0.0
 10
-44.43624410969363
 20
-90.52892750783201
 30
0.0
 10
-46.40441739374094
 20
-88.92874814374385
 30
0.0
 10
-48.09546212931145
 20
-87.29799350982441
 30
0.0
 10
-49.50758566880049
 20
-85.65236761427128
 30
0.0
 10
-50.64294949312731
 20
-84.00443597488018
 30
0.0
 10
-51.51147617430478
 20
-82.36004556045745
 30
0.0
 10
-52.11036919913762
 20
-80.71462954589946
 30
0.0
 10
-52.45057504775185
 20
-79.2046538242552
 30
0.0
 10
-52.46513330984109
 20
-78.24064161920008
 30
0.0
 10
-52.47146707270784
 20
-77.82123546549613
 30
0.0
  0
LINE
  5
1B7
330
199
100
AcDbEntity
  8
0
  6
HIDDEN
 62
     7
370
    18
100
AcDbLine
 10
-52.5
 20
-77.7500528833
 30
0.0
 11
-52.4996709134
 21
-77.845791778
 31
0.0
  0
LINE
  5
1B8
330
199
100
AcDbEntity
  8
0
  6
HIDDEN
 62
     7
370
    18
100
AcDbLine
 10
-184.8898823388
 20
-57.040141911
 30
0.0
 11
-184.5722271872
 21
-57.3795517034
 31
0.0
  0
LINE
  5
1B9
330
199
100
AcDbEntity
  8
0
  6
HIDDEN
 62
     7
370
    18
100
AcDbLine
 10
-52.5
 20
-77.7500528833
 30
0.0
 11
-52.5
 21
-81.4308935667
 31
0.0
  0
LINE
  5
1BA
330
199
100
AcDbEntity
  8
0
  6
HIDDEN
 62
     7
370
    18
100
AcDbLine
 10
52.5
 20
-81.4308935667
 30
0.0
 11
52.5
 21
-77.7500528833
 31
0.0
  0
LINE
  5
1BB
330
199
100
AcDbEntity
  8
0
  6
HIDDEN
 62
     7
370
    18
100
AcDbLine
 10
-24.3731549843
 20
-77.1653908282
 30
0.0
 11
-16.0544709062
 21
-81.3417892027
 31
0.0
  0
LINE
  5
1BC
330
199
100
AcDbEntity
  8
0
  6
HIDDEN
 62
     7
370
    18
100
AcDbLine
 10
16.0544709062
 20
-81.3417892027
 30
0.0
 11
24.3731549843
 21
-77.1653908282
 31
0.0
  0
LINE
  5
1BD
330
199
100
AcDbEntity
  8
0
  6
HIDDEN
 62
     7
370
    18
100
AcDbLine
 10
-23.0
 20
-72.8592205597
 30
0.0
 11
-23.0
 21
-81.4308935667
 31
0.0
  0
LINE
  5
1BE
330
199
100
AcDbEntity
  8
0
  6
HIDDEN
 62
     7
370
    18
100
AcDbLine
 10
23.0
 20
-81.4308935667
 30
0.0
 11
23.0
 21
-72.8592205597
 31
0.0
  0
ARC
  5
1BF
330
199
100
AcDbEntity
  8
0
  6
HIDDEN
 62
     7
370
    18
100
AcDbCircle
 10
-5.2503100093
 20
-60.5898419262
 30
0.0
 40
23.3977607534843
100
AcDbArc
 50
232.9084047243
 51
256.4456347114
  0
VIEWPORT
  5
1FE
330
199
100
AcDbEntity
  8
0
100
AcDbViewport
 10
0.0
 20
0.0
 30
0.0
 40
205.6
 41
156.0
 68
     1
 69
     1
 12
0.0
 22
0.0
 13
0.0
 23
0.0
 14
10.0
 24
10.0
 15
10.0
 25
10.0
 16
0.0
 26
0.0
 36
1.0
 17
0.0
 27
0.0
 37
0.0
 42
50.0
 43
0.0
 44
0.0
 45
459.0
 50
0.0
 51
0.0
 72
   100
 90
   557152
  1

281
     0
 71
     1
 74
     0
110
0.0
120
0.0
130
0.0
111
1.0
121
0.0
131
0.0
112
0.0
122
1.0
132
0.0
 79
     0
146
0.0
170
     0
 61
     5
348
2F
292
     1
282
     1
141
0.0
142
0.0
 63
   256
361
1FF
  0
ENDBLK
  5
19C
330
199
100
AcDbEntity
  8
0
100
AcDbBlockEnd
  0
BLOCK
  5
1C2
330
1C0
100
AcDbEntity
  8
0
100
AcDbBlockBegin
  2
*Paper_Space7
 70
     0
 10
0.0
 20
0.0
 30
0.0
  3
*Paper_Space7
  1

  0
SPLINE
  5
1C4
330
1C0
100
AcDbEntity
  8
0
  6
Continuous
 62
     7
370
    25
100
AcDbSpline
210
0.0
220
0.0
230
1.0
 70
     8
 71
     3
 72
    56
 73
    52
 74
     0
 42
0.000000001
 43
0.00000001
 40
0.0
 40
0.0
 40
0.0
 40
0.0
 40
0.0028902814003973
 40
0.0209581582516694
 40
0.0389192467738477
 40
0.0568871589474392
 40
0.0749333372757618
 40
0.0931250666973333
 40
0.111507630147961
 40
0.1301100203603318
 40
0.1489489369366684
 40
0.168031766600289
 40
0.1873588932751517
 40
0.2069255280540965
 40
0.2267231709359847
 40
0.2467407764926728
 40
0.2669656750507644
 40
0.2873842898757413
 40
0.3079826843170322
 40
0.3287469684284844
 40
0.3496635910059085
 40
0.3707195397412752
 40
0.3919024690914406
 40
0.4132007724793696
 40
0.4346036126385452
 40
0.4561009213407253
 40
0.4776833774633035
 40
0.4993423703813475
 40
0.5210699540124952
 40
0.5428587954841485
 40
0.5647021213017619
 40
0.5865936630396936
 40
0.6085276039141924
 40
0.6304985270964605
 40
0.6525013662496978
 40
0.6745313585003202
 40
0.6965839998562801
 40
0.7186550029464444
 40
0.7407402568583958
 40
0.762835788787006
 40
0.7849377271629051
 40
0.8070422659023572
 40
0.8291448818481297
 40
0.8512412801038735
 40
0.8733276241337373
 40
0.8953999923945382
 40
0.9174543420782738
 40
0.9394864716504268
 40
0.9614919817586273
 40
0.9834662341919461
 40
1.0
 40
1.0
 40
1.0
 40
1.0
 10
197.484127880036
 20
-30.96226715116896
 30
0.0
 10
197.4706900618266
 20
-30.98076846330002
 30
0.0
 10
197.3732490581415
 20
-31.1149261364778
 30
0.0
 10
196.983384416668
 20
-31.58528036326117
 30
0.0
 10
196.2729572214364
 20
-32.35376211123592
 30
0.0
 10
195.2847764775796
 20
-33.31497503526632
 30
0.0
 10
194.0298007636692
 20
-34.42029993093779
 30
0.0
 10
192.4893915745153
 20
-35.65813939367577
 30
0.0
 10
190.6553448491724
 20
-37.00907478057982
 30
0.0
 10
188.5194495013335
 20
-38.45716555066377
 30
0.0
 10
186.0764132992053
 20
-39.98656902229783
 30
0.0
 10
183.3229783244593
 20
-41.58238385464399
 30
0.0
 10
180.2580198947282
 20
-43.23040708549367
 30
0.0
 10
176.8823352936096
 20
-44.91721441766359
 30
0.0
 10
173.198488236052
 20
-46.63015824067289
 30
0.0
 10
169.2106224465269
 20
-48.35738224008016
 30
0.0
 10
164.9242798415903
 20
-50.08781992679434
 30
0.0
 10
160.3462232471254
 20
-51.81118430201496
 30
0.0
 10
155.484270810923
 20
-53.51794738954912
 30
0.0
 10
150.3471449091551
 20
-55.1993119847368
 30
0.0
 10
144.944337435741
 20
-56.84717753956381
 30
0.0
 10
139.2859919020422
 20
-58.45410229547035
 30
0.0
 10
133.3828018771225
 20
-60.01326351087956
 30
0.0
 10
127.2459246395258
 20
-61.5184173406094
 30
0.0
 10
120.8869085276204
 20
-62.96385958562459
 30
0.0
 10
114.3176322920612
 20
-64.34438821057743
 30
0.0
 10
107.5502547238758
 20
-65.65526824042003
 30
0.0
 10
100.5971729058046
 20
-66.89219940873917
 30
0.0
 10
93.47098757344763
 20
-68.05128674117925
 30
0.0
 10
86.18447424567982
 20
-69.12901411451674
 30
0.0
 10
78.75055896828556
 20
-70.12222072983677
 30
0.0
 10
71.18229769584738
 20
-71.02808036996429
 30
0.0
 10
63.49285850525914
 20
-71.8440832699403
 30
0.0
 10
55.69550598487302
 20
-72.56802040867578
 30
0.0
 10
47.80358727436847
 20
-73.19797002452984
 30
0.0
 10
39.83051934148162
 20
-73.73228616346368
 30
0.0
 10
31.78977717583111
 20
-74.16958908087123
 30
0.0
 10
23.69488265183828
 20
-74.5087573397775
 30
0.0
 10
15.55939389110134
 20
-74.74892145776005
 30
0.0
 10
7.396894940762428
 20
-74.88945902336147
 30
0.0
 10
-0.779014143204873
 20
-74.92999106039979
 30
0.0
 10
-8.954635395038032
 20
-74.87038074062399
 30
0.0
 10
-17.11621046953631
 20
-74.71073686803446
 30
0.0
 10
-25.2499999574421
 20
-74.4514206466642
 30
0.0
 10
-33.3423637539385
 20
-74.09302555115839
 30
0.0
 10
-41.37981912704613
 20
-73.6364356956114
 30
0.0
 10
-49.34869268432678
 20
-73.08260968494402
 30
0.0
 10
-57.23622968670568
 20
-72.4334125284331
 30
0.0
 10
-65.02650623905768
 20
-71.68854466087416
 30
0.0
 10
-72.08529988876761
 20
-70.92519099105195
 30
0.0
 10
-76.50693042765931
 20
-70.3817530090484
 30
0.0
 10
-78.40539747837944
 20
-70.1484229978978
 30
0.0
  0
SPLINE
  5
1C5
330
1C0
100
AcDbEntity
  8
0
  6
Continuous
 62
     7
370
    25
100
AcDbSpline
210
0.0
220
0.0
230
1.0
 70
     8
 71
     3
 72
    36
 73
    32
 74
     0
 42
0.000000001
 43
0.00000001
 40
0.0
 40
0.0
 40
0.0
 40
0.0
 40
0.0204373045251371
 40
0.0591270542677688
 40
0.0977383728145785
 40
0.1362526472982407
 40
0.1746580725183072
 40
0.2129418770254344
 40
0.2510902232934821
 40
0.2890881151203212
 40
0.3269193133290426
 40
0.3645662666460475
 40
0.4020100671983399
 40
0.4392304432971543
 40
0.4762058061467884
 40
0.512913371892144
 40
0.5493293860022868
 40
0.5854294833079288
 40
0.6211892238972172
 40
0.6565848522417025
 40
0.6915943339923963
 40
0.7261987314506494
 40
0.7603839845337409
 40
0.7941431694166148
 40
0.8274793135436878
 40
0.8604088577528545
 40
0.8929658837325045
 40
0.9252072882729953
 40
0.9572192244687526
 40
0.989125420368978
 40
1.0
 40
1.0
 40
1.0
 40
1.0
 10
-78.40539747837944
 20
-70.1484229978978
 30
0.0
 10
-79.72456451283541
 20
-69.97929368909683
 30
0.0
 10
-83.54103946620286
 20
-69.48998660814377
 30
0.0
 10
-89.7563790360456
 20
-68.61312662483905
 30
0.0
 10
-96.9919492486348
 20
-67.4923181682392
 30
0.0
 10
-104.0620177776094
 20
-66.28938563366984
 30
0.0
 10
-110.9553183684157
 20
-65.00951216300902
 30
0.0
 10
-117.6587525510112
 20
-63.65623235391829
 30
0.0
 10
-124.1600585113106
 20
-62.23401960633251
 30
0.0
 10
-130.4470026779014
 20
-60.74765854227507
 30
0.0
 10
-136.5076344388354
 20
-59.20246129189326
 30
0.0
 10
-142.3302665261019
 20
-57.60426504068471
 30
0.0
 10
-147.9035400363618
 20
-55.95949440644134
 30
0.0
 10
-153.2164812652505
 20
-54.27521305791696
 30
0.0
 10
-158.2585783569479
 20
-52.55918433448407
 30
0.0
 10
-163.0198740068336
 20
-50.81993473692628
 30
0.0
 10
-167.4910792120441
 20
-49.06682039283801
 30
0.0
 10
-171.663710908683
 20
-47.31009404926242
 30
0.0
 10
-175.5302566245076
 20
-45.56096991588462
 30
0.0
 10
-179.0843691023869
 20
-43.8316820210043
 30
0.0
 10
-182.3210909539036
 20
-42.1355327948312
 30
0.0
 10
-185.2371147692993
 20
-40.48692018562795
 30
0.0
 10
-187.8310559745651
 20
-38.90135856374148
 30
0.0
 10
-190.1038071754645
 20
-37.39540810560167
 30
0.0
 10
-192.0586928956315
 20
-35.98679809556384
 30
0.0
 10
-193.7024089205333
 20
-34.69368009416476
 30
0.0
 10
-195.0430786042515
 20
-33.53691067029744
 30
0.0
 10
-196.0988202804918
 20
-32.53107969503762
 30
0.0
 10
-196.8674889876858
 20
-31.71690818686003
 30
0.0
 10
-197.313873127424
 20
-31.18954285107336
 30
0.0
 10
-197.4396929557039
 20
-31.01909674667376
 30
0.0
 10
-197.4716754928318
 20
-30.97577051632675
 30
0.0
  0
SPLINE
  5
1C6
330
1C0
100
AcDbEntity
  8
0
  6
Continuous
 62
     7
370
    25
100
AcDbSpline
210
0.0
220
0.0
230
1.0
 70
     8
 71
     3
 72
    32
 73
    28
 74
     0
 42
0.000000001
 43
0.00000001
 40
0.0
 40
0.0
 40
0.0
 40
0.0
 40
0.0224036246865643
 40
0.056574558657115
 40
0.0908276748735329
 40
0.1251988787352127
 40
0.1597300133089944
 40
0.1944704205373933
 40
0.229478818939252
 40
0.2648255006315759
 40
0.3005948065974005
 40
0.3368877661581676
 40
0.3738246629808627
 40
0.4115470692759856
 40
0.4502184790286062
 40
0.4900219045593195
 40
0.5311514445358761
 40
0.5737927548384231
 40
0.6180852718159378
 40
0.664060512984807
 40
0.7115645802804039
 40
0.7602063402835326
 40
0.809395796121838
 40
0.8583315109855151
 40
0.9066003877406184
 40
0.9540001797157679
 40
1.0
 40
1.0
 40
1.0
 40
1.0
 10
-222.5647075663752
 20
-10.92356317344868
 30
0.0
 10
-222.0235385988595
 20
-12.15317271329645
 30
0.0
 10
-220.6569563638658
 20
-15.25823352424571
 30
0.0
 10
-218.1702784353876
 20
-20.08349956728389
 30
0.0
 10
-215.1514117770115
 20
-25.4090705310942
 30
0.0
 10
-211.8798836269776
 20
-30.58039401021634
 30
0.0
 10
-208.3763658224179
 20
-35.59900342141231
 30
0.0
 10
-204.6438903274594
 20
-40.45920595657049
 30
0.0
 10
-200.6887280068801
 20
-45.15926410166036
 30
0.0
 10
-196.5140939657922
 20
-49.69853411880979
 30
0.0
 10
-192.1210631627637
 20
-54.07834776400196
 30
0.0
 10
-187.5074272524612
 20
-58.30180269440547
 30
0.0
 10
-182.6670400311077
 20
-62.37372766849901
 30
0.0
 10
-177.5890445921779
 20
-66.30042370618322
 30
0.0
 10
-172.2573135288569
 20
-70.08921200583666
 30
0.0
 10
-166.6503310207517
 20
-73.74766566118856
 30
0.0
 10
-160.7420438085913
 20
-77.2823943720568
 30
0.0
 10
-154.5045324454027
 20
-80.69722681862969
 30
0.0
 10
-147.9136309590362
 20
-83.99075554507752
 30
0.0
 10
-140.9581932394465
 20
-87.15371430445138
 30
0.0
 10
-133.6513491462121
 20
-90.16756253312307
 30
0.0
 10
-126.0384141631532
 20
-93.00655794441137
 30
0.0
 10
-118.202175217142
 20
-95.64040424515977
 30
0.0
 10
-110.235345992482
 20
-98.04969300729225
 30
0.0
 10
-102.2134054487325
 20
-100.2227920212905
 30
0.0
 10
-94.22003804023682
 20
-102.1767629876699
 30
0.0
 10
-88.83455377933342
 20
-103.3166738828515
 30
0.0
 10
-86.18217330202333
 20
-103.8780862383201
 30
0.0
  0
SPLINE
  5
1C7
330
1C0
100
AcDbEntity
  8
0
  6
Continuous
 62
     7
370
    25
100
AcDbSpline
210
0.0
220
0.0
230
1.0
 70
     8
 71
     3
 72
    32
 73
    28
 74
     0
 42
0.000000001
 43
0.00000001
 40
0.0
 40
0.0
 40
0.0
 40
0.0
 40
0.0191498525320124
 40
0.0652602754553788
 40
0.1123536434316984
 40
0.1605421701925545
 40
0.2098914954569804
 40
0.260359604395379
 40
0.31170861737602
 40
0.3633208248872673
 40
0.4085820737387081
 40
0.4522906153378721
 40
0.494418197498152
 40
0.5350748239414924
 40
0.5744302852721341
 40
0.6126684970187513
 40
0.6499641367473028
 40
0.686472604944688
 40
0.722327074894557
 40
0.7576390569213775
 40
0.7925005634543272
 40
0.8269868715321202
 40
0.8649089925211187
 40
0.9024582835010743
 40
0.939594247512428
 40
0.9763609235084745
 40
1.0
 40
1.0
 40
1.0
 40
1.0
 10
86.24956734848446
 20
-103.8425515128155
 30
0.0
 10
87.3615130926282
 20
-103.619938083723
 30
0.0
 10
91.15088355555727
 20
-102.8612996723643
 30
0.0
 10
97.5380666108209
 20
-101.3791149551201
 30
0.0
 10
105.4661093479428
 20
-99.37268765805119
 30
0.0
 10
113.420908970371
 20
-97.11606052692458
 30
0.0
 10
121.4104715181155
 20
-94.59717699151051
 30
0.0
 10
129.4125452773559
 20
-91.78859917188178
 30
0.0
 10
137.3752474339516
 20
-88.67770626738567
 30
0.0
 10
144.9155324228295
 20
-85.3974001798417
 30
0.0
 10
151.9324365475992
 20
-82.01977203438791
 30
0.0
 10
158.3590969957379
 20
-78.62436573977241
 30
0.0
 10
164.4468021951776
 20
-75.1033275825931
 30
0.0
 10
170.2122770232782
 20
-71.46100023260762
 30
0.0
 10
175.6788071406058
 20
-67.69562390106191
 30
0.0
 10
180.869256860068
 20
-63.80233835878671
 30
0.0
 10
185.8027771545057
 20
-59.77530068402139
 30
0.0
 10
190.4936910682369
 20
-55.60904850034834
 30
0.0
 10
194.9515065908297
 20
-51.29931061810892
 30
0.0
 10
199.1814929857081
 20
-46.84348097031202
 30
0.0
 10
203.1853248274997
 20
-42.24073609157026
 30
0.0
 10
207.0990470697892
 20
-37.32040028160367
 30
0.0
 10
210.8892130880081
 20
-32.0652587370993
 30
0.0
 10
214.5184040025397
 20
-26.4699680963223
 30
0.0
 10
217.8292660304571
 20
-20.72662129623885
 30
0.0
 10
220.5192635497411
 20
-15.56019655695965
 30
0.0
 10
221.9770808218807
 20
-12.24675698277691
 30
0.0
 10
222.5475803618684
 20
-10.95008161133328
 30
0.0
  0
SPLINE
  5
1C8
330
1C0
100
AcDbEntity
  8
0
  6
Continuous
 62
     7
370
    25
100
AcDbSpline
210
0.0
220
0.0
230
1.0
 70
     8
 71
     3
 72
    11
 73
     7
 74
     0
 42
0.000000001
 43
0.00000001
 40
0.0
 40
0.0
 40
0.0
 40
0.0
 40
0.1647127231632446
 40
0.4991866913199107
 40
0.8349283542389712
 40
1.0
 40
1.0
 40
1.0
 40
1.0
 10
-86.34984308603234
 20
-103.8090082840863
 30
0.0
 10
-84.62260268589338
 20
-104.1707678243055
 30
0.0
 10
-79.38794076117422
 20
-105.2671345436905
 30
0.0
 10
-70.56735298694691
 20
-106.800357531093
 30
0.0
 10
-61.71125552759116
 20
-108.164037036779
 30
0.0
 10
-56.3800740985327
 20
-108.8554131063129
 30
0.0
 10
-54.62287859854757
 20
-109.0832955999682
 30
0.0
  0
SPLINE
  5
1C9
330
1C0
100
AcDbEntity
  8
0
  6
Continuous
 62
     7
370
    25
100
AcDbSpline
210
0.0
220
0.0
230
1.0
 70
     8
 71
     3
 72
    21
 73
    17
 74
     0
 42
0.000000001
 43
0.00000001
 40
0.0
 40
0.0
 40
0.0
 40
0.0
 40
0.0558215483199748
 40
0.1323437880500881
 40
0.208369618377263
 40
0.2841911811235552
 40
0.3599489741872638
 40
0.4358668454996536
 40
0.5122049048254627
 40
0.589176617599515
 40
0.6670680053299632
 40
0.7461205684641854
 40
0.8264868316256623
 40
0.9081856829085871
 40
0.9910733212631138
 40
1.0
 40
1.0
 40
1.0
 40
1.0
 10
-54.62287859854757
 20
-109.0832955999682
 30
0.0
 10
-52.00826539821747
 20
-109.3981795143516
 30
0.0
 10
-45.80944387442202
 20
-110.1447179261253
 30
0.0
 10
-36.01224220692485
 20
-111.0590669493425
 30
0.0
 10
-25.24781787150794
 20
-111.8113783417417
 30
0.0
 10
-14.4976295146958
 20
-112.2937914347139
 30
0.0
 10
-3.740436626412914
 20
-112.5156033112573
 30
0.0
 10
7.044445206529769
 20
-112.4756554319888
 30
0.0
 10
17.88067071524545
 20
-112.1712101044765
 30
0.0
 10
28.79467306206751
 20
-111.594917728151
 30
0.0
 10
39.81195871784329
 20
-110.7363839939939
 30
0.0
 10
50.95411829179522
 20
-109.5779770300567
 30
0.0
 10
62.23264722300041
 20
-108.1120480495245
 30
0.0
 10
73.62983216774724
 20
-106.2837651534698
 30
0.0
 10
81.67672965132869
 20
-104.8431512542375
 30
0.0
 10
85.90003398984226
 20
-103.9270165529313
 30
0.0
 10
86.31064621495388
 20
-103.8379450397147
 30
0.0
  0
LWPOLYLINE
  5
1CC
330
1C0
100
AcDbEntity
  8
0
  6
Continuous
 62
     7
370
    25
100
AcDbPolyline
 90
      160
 70
   128
 43
0.0
 10
-79.5495128652
 20
-70.1560759876
 10
-71.1725242185
 20
-71.148882848
 10
-62.6844081238
 20
-72.0305991737
 10
-54.098417767
 20
-72.7998482694
 10
-45.4279591527
 20
-73.4554290438
 10
-36.6865701727
 20
-73.9963178855
 10
-27.8878994685
 20
-74.4216702607
 10
-19.0456851196
 20
-74.7308220321
 10
-10.1737331944
 20
-74.9232904961
 10
-1.2858961924
 20
-74.9987751358
 10
7.6039485838
 20
-74.9571580911
 10
16.4819206969
 20
-74.798504342
 10
25.3341582474
 20
-74.5230616074
 10
34.1468395172
 20
-74.1312599586
 10
42.9062045505
 20
-73.6237111473
 10
51.5985766386
 20
-73.0012076506
 10
60.2103836745
 20
-72.264721434
 10
68.7281793437
 20
-71.4154024332
 10
77.1386641193
 20
-70.454576759
 10
85.4287060278
 20
-69.3837446267
 10
93.5853611529
 20
-68.2045780135
 10
101.5958938458
 20
-66.9189180481
 10
109.4477966106
 20
-65.5287721359
 10
117.1288096332
 20
-64.0363108247
 10
124.6269399236
 20
-62.4438644158
 10
131.9304800415
 20
-60.7539193251
 10
139.0280263758
 20
-58.9691142013
 10
145.9084969506
 20
-57.0922358057
 10
152.5611487277
 20
-55.1262146612
 10
158.9755943812
 20
-53.0741204764
 10
165.1418185157
 20
-50.9391573527
 10
171.050193304
 20
-48.7246587817
 10
176.6914935204
 20
-46.4340824399
 10
182.0569109442
 20
-44.0710047904
 10
187.1380681129
 20
-41.6391154986
 10
191.927031403
 20
-39.1422116707
 10
196.4163234167
 20
-36.5841919258
 10
200.5989346573
 20
-33.969050308
 10
204.468334474
 20
-31.3008700504
 10
208.0184812583
 20
-28.5838172
 10
211.2438318773
 20
-25.8221341121
 10
214.1393503291
 20
-23.020132827
 10
216.7005156052
 20
-20.1821883372
 10
218.92332875
 20
-17.3127317561
 10
220.8043191048
 20
-14.4162433995
 10
222.3405497263
 20
-11.4972457901
 10
223.5296219729
 20
-8.5602965962
 10
224.3696792493
 20
-5.6099815154
 10
224.8594099059
 20
-2.6509071144
 10
224.9980492863
 20
0.3123063634
 10
224.7853809216
 20
3.2750322119
 10
224.2217368682
 20
6.2326444864
 10
223.3079971894
 20
9.1805252263
 10
222.0455885813
 20
12.1140716659
 10
220.436482145
 20
15.0287034207
 10
218.4831903092
 20
17.919869639
 10
216.1887629073
 20
20.7830561082
 10
213.5567824153
 20
23.6137923023
 10
210.5913583582
 20
26.4076583628
 10
207.2971208937
 20
29.1602919996
 10
203.6792135826
 20
31.867395302
 10
199.7432853577
 20
34.5247414495
 10
195.4954817037
 20
37.1281813116
 10
190.9424350616
 20
39.6736499259
 10
186.0912544735
 20
42.1571728454
 10
180.9495144819
 20
44.5748723439
 10
175.5252433034
 20
46.9229734706
 10
169.8269102935
 20
49.1978099442
 10
163.863412723
 20
51.3958298778
 10
157.6440618852
 20
53.5136013241
 10
151.1785685582
 20
55.5478176344
 10
144.4770278425
 20
57.4953026213
 10
137.5499033982
 20
59.3530155183
 10
130.4080111079
 20
61.1180557272
 10
123.0625021886
 20
62.7876673473
 10
115.5248457806
 20
64.3592434781
 10
107.8068110395
 20
65.8303302901
 10
99.9204487604
 20
67.1986308559
 10
91.8780725618
 20
68.4620087366
 10
83.6922396595
 20
69.6184913176
 10
75.3757312598
 20
70.6662728886
 10
66.9415326035
 20
71.603717463
 10
58.4028126904
 20
72.4293613326
 10
49.7729037181
 20
73.1419153522
 10
41.065280265
 20
73.7402669536
 10
32.2935382516
 20
74.2234818816
 10
23.4713737117
 20
74.5908056534
 10
14.6125614079
 20
74.8416647367
 10
5.7309333241
 20
74.9756674448
 10
-3.1596429318
 20
74.9926045483
 10
-12.0452857803
 20
74.892449602
 10
-20.9121213449
 20
74.6753589858
 10
-29.7463051145
 20
74.3416716611
 10
-38.5340435597
 20
73.891908641
 10
-47.2616156702
 20
73.3267721771
 10
-55.9153943781
 20
72.6471446628
 10
-64.4818678352
 20
71.8540872559
 10
-72.9476605102
 20
70.9488382213
 10
-81.2995540727
 20
69.9328109979
 10
-89.5245080323
 20
68.8075919917
 10
-97.6096800999
 20
67.5749380986
 10
-105.5424462389
 20
66.2367739612
 10
-113.3104203768
 20
64.7951889641
 10
-120.901473744
 20
63.2524339711
 10
-128.3037538118
 20
61.6109178109
 10
-135.5057027987
 20
59.8732035163
 10
-142.4960757161
 20
58.0420043217
 10
-149.2639579266
 20
56.1201794273
 10
-155.7987821854
 20
54.1107295347
 10
-162.0903451403
 20
52.0167921612
 10
-168.1288232626
 20
49.8416367416
 10
-173.9047881854
 20
47.5886595227
 10
-179.4092214253
 20
45.2613782611
 10
-184.633528463
 20
42.8634267301
 10
-189.5695521633
 20
40.3985490466
 10
-194.2095855112
 20
37.8705938243
 10
-198.5463836454
 20
35.2835081652
 10
-202.5731751704
 20
32.6413314966
 10
-206.2836727293
 20
29.9481892635
 10
-209.6720828205
 20
27.208286488
 10
-212.733114844
 20
24.425901203
 10
-215.4619893616
 20
21.6053777728
 10
-217.8544455597
 20
18.7511201099
 10
-219.9067479019
 20
15.8675847988
 10
-221.6156919618
 20
12.9592741377
 10
-222.978609426
 20
10.0307291084
 10
-223.9933722608
 20
7.0865222862
 10
-224.6583960344
 20
4.1312507008
 10
-224.9726423912
 20
1.1695286578
 10
-224.9356206727
 20
-1.7940194654
 10
-224.547388684
 20
-4.7547664402
 10
-223.8085526032
 20
-7.7080894115
 10
-222.7202660353
 20
-10.6493771163
 10
-221.2842282104
 20
-13.5740370828
 10
-219.5026813312
 20
-16.4775028018
 10
-217.3784070716
 20
-19.3552408562
 10
-214.9147222337
 20
-22.2027579996
 10
-212.115473569
 20
-25.0156081719
 10
-208.985031772
 20
-27.7893994417
 10
-205.5282846558
 20
-30.519800863
 10
-201.7506295208
 20
-33.2025492382
 10
-197.6579647271
 20
-35.8334557741
 10
-193.2566804849
 20
-38.4084126225
 10
-188.553648877
 20
-40.923399294
 10
-183.5562131291
 20
-43.3744889354
 10
-178.2721761438
 20
-45.7578544612
 10
-172.7097883176
 20
-48.069774529
 10
-166.8777346589
 20
-50.3066393501
 10
-160.7851212271
 20
-52.4649563256
 10
-154.4414609148
 20
-54.5413554998
 10
-147.8566585946
 20
-56.5325948218
 10
-141.0409956537
 20
-58.4355652078
 10
-134.0051139406
 20
-60.2472953955
 10
-126.7599991494
 20
-61.9649565832
 10
-119.3169636669
 20
-63.5858668468
 10
-111.6876289095
 20
-65.1074953275
 10
-103.8839071776
 20
-66.527466183
 10
-95.9179830564
 20
-67.8435622973
 10
-87.8022943908
 20
-69.0537287426
 10
-79.5495128652
 20
-70.1560759876
  0
LWPOLYLINE
  5
1CE
330
1C0
100
AcDbEntity
  8
0
  6
Continuous
 62
     7
370
    25
100
AcDbPolyline
 90
       38
 70
   128
 43
0.0
 10
33.4244301175
 20
-74.0778692748
 10
34.1551204684
 20
-73.1296324611
 10
34.7140462456
 20
-71.9654161806
 10
34.9167589328
 20
-70.7883245896
 10
34.7611784234
 20
-69.6104362408
 10
34.248901184
 20
-68.4438378626
 10
33.3851838723
 20
-67.3005003329
 10
32.1788893967
 20
-66.1921558421
 10
30.6423959708
 20
-65.1301775043
 10
28.7914700966
 20
-64.1254626545
 10
26.645104778
 20
-63.1883210266
 10
24.2253246279
 20
-62.3283689619
 10
21.5569598649
 20
-61.5544307322
 10
18.6673915225
 20
-60.8744479911
 10
15.5862704821
 20
-60.2953982817
 10
12.3452132149
 20
-59.8232234376
 10
8.9774773545
 20
-59.4627686115
 10
5.5176204278
 20
-59.2177325579
 10
2.0011452491
 20
-59.0906296783
 10
-1.5358643879
 20
-59.08276422
 10
-5.0571139779
 20
-59.1942168935
 10
-8.5264707351
 20
-59.4238440435
 10
-11.9083343644
 20
-59.7692893845
 10
-15.1680023686
 20
-60.2270081801
 10
-18.2720261429
 20
-60.792303616
 10
-21.188554203
 20
-61.459374996
 10
-23.8876590242
 20
-62.221377265
 10
-26.3416441387
 20
-63.0704912487
 10
-28.5253283384
 20
-63.9980038885
 10
-30.4163040684
 20
-64.9943976497
 10
-31.9951673589
 20
-66.0494481838
 10
-33.2457169358
 20
-67.1523292448
 10
-34.1551204684
 20
-68.2917237804
 10
-34.7140462456
 20
-69.4559400609
 10
-34.9167589328
 20
-70.6330316519
 10
-34.7611784234
 20
-71.8109200007
 10
-34.248901184
 20
-72.9775183789
 10
-33.4158581577
 20
-74.0873092275
  0
LWPOLYLINE
  5
1D2
330
1C0
100
AcDbEntity
  8
0
  6
HIDDEN
 62
     7
370
    18
100
AcDbPolyline
 90
       18
 70
   128
 43
0.0
 10
-12.3452132149
 20
-81.598132804
 10
-8.9774773545
 20
-81.95858763
 10
-5.5176204278
 20
-82.2036236836
 10
-2.0011452491
 20
-82.3307265633
 10
1.5358643879
 20
-82.3385920215
 10
5.0571139779
 20
-82.227139348
 10
8.5264707351
 20
-81.9975121981
 10
11.9083343644
 20
-81.652066857
 10
15.1680023686
 20
-81.1943480614
 10
18.2720261429
 20
-80.6290526255
 10
21.188554203
 20
-79.9619812455
 10
23.8876590242
 20
-79.1999789765
 10
26.3416441387
 20
-78.3508649928
 10
28.5253283384
 20
-77.423352353
 10
30.4163040684
 20
-76.4269585918
 10
31.9951673589
 20
-75.3719080577
 10
33.2457169358
 20
-74.2690269967
 10
33.4244301175
 20
-74.0778692748
  0
LWPOLYLINE
  5
1D3
330
1C0
100
AcDbEntity
  8
0
  6
HIDDEN
 62
     7
370
    18
100
AcDbPolyline
 90
       11
 70
   128
 43
0.0
 10
-33.4158581577
 20
-74.0873092275
 10
-33.3851838723
 20
-74.1208559086
 10
-32.1788893967
 20
-75.2292003995
 10
-30.6423959708
 20
-76.2911787372
 10
-28.7914700966
 20
-77.295893587
 10
-26.645104778
 20
-78.2330352149
 10
-24.2253246279
 20
-79.0929872796
 10
-21.5569598649
 20
-79.8669255093
 10
-18.6673915225
 20
-80.5469082504
 10
-15.5862704821
 20
-81.1259579598
 10
-12.3452132149
 20
-81.598132804
  0
LWPOLYLINE
  5
1D4
330
1C0
100
AcDbEntity
  8
0
  6
HIDDEN
 62
     7
370
    18
100
AcDbPolyline
 90
       77
 70
   128
 43
0.0
 10
-18.5615530019
 20
-105.9366100167
 10
-14.4427459017
 20
-106.39163265
 10
-10.2252802022
 20
-106.7317250188
 10
-5.9379654706
 20
-106.9545639474
 10
-1.6100884139
 20
-107.0586272201
 10
2.7287871794
 20
-107.043203979
 10
7.0490223892
 20
-106.9083995806
 10
11.3211056285
 20
-106.6551348757
 10
15.5158542369
 20
-106.2851399189
 10
19.604613828
 20
-105.800942151
 10
23.5594540278
 20
-105.2058491337
 10
27.3533592677
 20
-104.5039259558
 10
30.9604133278
 20
-103.6999674642
 10
34.3559763714
 20
-102.7994655107
 10
37.51685326
 20
-101.8085714368
 10
40.4214519991
 20
-100.7340540536
 10
43.0499312343
 20
-99.5832534046
 10
45.3843357871
 20
-98.3640306249
 10
47.4087193074
 20
-97.0847142425
 10
49.109253203
 20
-95.7540432855
 10
50.4743211031
 20
-94.3811075857
 10
51.4945982098
 20
-92.9752856862
 10
52.1631149958
 20
-91.546180776
 10
52.4753048138
 20
-90.1035550908
 10
52.4290350906
 20
-88.6572632267
 10
52.0246218954
 20
-87.2171848238
 10
51.2648277803
 20
-85.7931570777
 10
50.1548429097
 20
-84.3949075419
 10
48.7022496057
 20
-83.0319876785
 10
46.9169705534
 20
-81.7137076122
 10
44.8112010191
 20
-80.4490725326
 10
42.3993255438
 20
-79.2467211795
 10
39.6978196828
 20
-78.1148668319
 10
36.7251374602
 20
-77.0612412026
 10
33.50158531
 20
-76.0930416231
 10
30.0491833619
 20
-75.2168818783
 10
26.3915150221
 20
-74.4387470275
 10
22.5535658739
 20
-73.7639525209
 10
18.5615530019
 20
-73.1971078892
 10
14.4427459017
 20
-72.7420852559
 10
10.2252802022
 20
-72.4019928871
 10
5.9379654706
 20
-72.1791539585
 10
1.6100884139
 20
-72.0750906859
 10
-2.7287871794
 20
-72.0905139269
 10
-7.0490223892
 20
-72.2253183253
 10
-11.3211056285
 20
-72.4785830302
 10
-15.5158542369
 20
-72.848577987
 10
-19.604613828
 20
-73.3327757549
 10
-23.5594540278
 20
-73.9278687722
 10
-27.3533592677
 20
-74.6297919502
 10
-30.9604133278
 20
-75.4337504417
 10
-34.3559763714
 20
-76.3342523952
 10
-37.51685326
 20
-77.3251464691
 10
-40.4214519991
 20
-78.3996638523
 10
-43.0499312343
 20
-79.5504645014
 10
-45.3843357871
 20
-80.769687281
 10
-47.4087193074
 20
-82.0490036634
 10
-49.109253203
 20
-83.3796746205
 10
-50.4743211031
 20
-84.7526103202
 10
-51.4945982098
 20
-86.1584322197
 10
-52.1631149958
 20
-87.5875371299
 10
-52.4753048138
 20
-89.0301628151
 10
-52.4290350906
 20
-90.4764546792
 10
-52.0246218954
 20
-91.9165330821
 10
-51.2648277803
 20
-93.3405608282
 10
-50.1548429097
 20
-94.738810364
 10
-48.7022496057
 20
-96.1017302274
 10
-46.9169705534
 20
-97.4200102937
 10
-44.8112010191
 20
-98.6846453734
 10
-42.3993255438
 20
-99.8869967264
 10
-39.6978196828
 20
-101.018851074
 10
-36.7251374602
 20
-102.0724767033
 10
-33.50158531
 20
-103.0406762828
 10
-30.0491833619
 20
-103.9168360277
 10
-26.3915150221
 20
-104.6949708784
 10
-22.5535658739
 20
-105.369765385
 10
-18.5615530019
 20
-105.9366100167
  0
LWPOLYLINE
  5
1D5
330
1C0
100
AcDbEntity
  8
0
  6
HIDDEN
 62
     7
370
    18
100
AcDbPolyline
 90
       23
 70
   128
 43
0.0
 10
-8.1317279818
 20
-87.3102785267
 10
-5.3711212675
 20
-87.5934542825
 10
-2.5258087622
 20
-87.7590651908
 10
0.359337256
 20
-87.8044994688
 10
3.2388163111
 20
-87.7290405907
 10
6.0672172982
 20
-87.533878588
 10
8.7999346441
 20
-87.2220912823
 10
11.3938717639
 20
-86.7985957455
 10
13.8081207195
 20
-86.2700707552
 10
16.0046073629
 20
-85.6448514663
 10
17.9486917874
 20
-84.9327979604
 10
19.6097146204
 20
-84.1451397467
 10
20.9614805396
 20
-83.2942986657
 10
21.9826713889
 20
-82.3936929895
 10
22.6571823786
 20
-81.4575258077
 10
22.9743760674
 20
-80.500561036
 10
22.9292501214
 20
-79.5378905804
 10
22.5225162038
 20
-78.5846963292
 10
21.7605887513
 20
-77.656010725
 10
20.655483815
 20
-76.7664796946
 10
19.22462956
 20
-75.9301316738
 10
17.4905914126
 20
-75.1601563705
 10
16.2402187843
 20
-74.7098818727
  0
LWPOLYLINE
  5
1D6
330
1C0
100
AcDbEntity
  8
0
  6
HIDDEN
 62
     7
370
    18
100
AcDbPolyline
 90
       17
 70
   128
 43
0.0
 10
-16.1462322327
 20
-74.6788216043
 10
-17.9486917874
 20
-75.3447391133
 10
-19.6097146204
 20
-76.1323973271
 10
-20.9614805396
 20
-76.9832384081
 10
-21.9826713889
 20
-77.8838440842
 10
-22.6571823786
 20
-78.820011266
 10
-22.9743760674
 20
-79.7769760377
 10
-22.9292501214
 20
-80.7396464933
 10
-22.5225162038
 20
-81.6928407446
 10
-21.7605887513
 20
-82.6215263487
 10
-20.655483815
 20
-83.5110573791
 10
-19.22462956
 20
-84.3474053999
 10
-17.4905914126
 20
-85.1173807033
 10
-15.4807161902
 20
-85.8088403187
 10
-13.2267008258
 20
-86.410879515
 10
-10.7640924882
 20
-86.9140037743
 10
-8.1317279818
 20
-87.3102785267
  0
LWPOLYLINE
  5
1D7
330
1C0
100
AcDbEntity
  8
0
  6
HIDDEN
 62
     7
370
    18
100
AcDbPolyline
 90
       51
 70
   128
 43
0.0
 10
-8.1317279818
 20
-96.7383689428
 10
-5.3711212675
 20
-97.0215446986
 10
-2.5258087622
 20
-97.1871556069
 10
0.359337256
 20
-97.2325898849
 10
3.2388163111
 20
-97.1571310068
 10
6.0672172982
 20
-96.9619690041
 10
8.7999346441
 20
-96.6501816984
 10
11.3938717639
 20
-96.2266861616
 10
13.8081207195
 20
-95.6981611713
 10
16.0046073629
 20
-95.0729418824
 10
17.9486917874
 20
-94.3608883765
 10
19.6097146204
 20
-93.5732301628
 10
20.9614805396
 20
-92.7223890818
 10
21.9826713889
 20
-91.8217834056
 10
22.6571823786
 20
-90.8856162238
 10
22.9743760674
 20
-89.9286514521
 10
22.9292501214
 20
-88.9659809965
 10
22.5225162038
 20
-88.0127867453
 10
21.7605887513
 20
-87.0841011411
 10
20.655483815
 20
-86.1945701107
 10
19.22462956
 20
-85.3582220899
 10
17.4905914126
 20
-84.5882467866
 10
15.4807161902
 20
-83.8967871711
 10
13.2267008258
 20
-83.2947479749
 10
10.7640924882
 20
-82.7916237155
 10
8.1317279818
 20
-82.3953489631
 10
5.3711212675
 20
-82.1121732074
 10
2.5258087622
 20
-81.946562299
 10
-0.359337256
 20
-81.901128021
 10
-3.2388163111
 20
-81.9765868992
 10
-6.0672172982
 20
-82.1717489018
 10
-8.7999346441
 20
-82.4835362075
 10
-11.3938717639
 20
-82.9070317443
 10
-13.8081207195
 20
-83.4355567346
 10
-16.0046073629
 20
-84.0607760235
 10
-17.9486917874
 20
-84.7728295294
 10
-19.6097146204
 20
-85.5604877432
 10
-20.9614805396
 20
-86.4113288242
 10
-21.9826713889
 20
-87.3119345003
 10
-22.6571823786
 20
-88.2481016821
 10
-22.9743760674
 20
-89.2050664538
 10
-22.9292501214
 20
-90.1677369094
 10
-22.5225162038
 20
-91.1209311607
 10
-21.7605887513
 20
-92.0496167648
 10
-20.655483815
 20
-92.9391477952
 10
-19.22462956
 20
-93.775495816
 10
-17.4905914126
 20
-94.5454711194
 10
-15.4807161902
 20
-95.2369307348
 10
-13.2267008258
 20
-95.8389699311
 10
-10.7640924882
 20
-96.3420941904
 10
-8.1317279818
 20
-96.7383689428
  0
SPLINE
  5
1D8
330
1C0
100
AcDbEntity
  8
0
  6
HIDDEN
 62
     7
370
    18
100
AcDbSpline
210
0.0
220
0.0
230
1.0
 70
     8
 71
     3
 72
    27
 73
    23
 74
     0
 42
0.000000001
 43
0.00000001
 40
0.0
 40
0.0
 40
0.0
 40
0.0
 40
0.0216672010591099
 40
0.0648253969802658
 40
0.1084949140202589
 40
0.1528017982680544
 40
0.1978963885351493
 40
0.2439563404933041
 40
0.2911881995256138
 40
0.3398256629123613
 40
0.3901210504397016
 40
0.4423238599004142
 40
0.4966371394635206
 40
0.5531424751973294
 40
0.6116984175296363
 40
0.6718582291105012
 40
0.7328982865576269
 40
0.7938148459239446
 40
0.8539823047431411
 40
0.9131058186786201
 40
0.9711073791255374
 40
1.0
 40
1.0
 40
1.0
 40
1.0
 10
-197.3982145410892
 20
-31.02095777289979
 30
0.0
 10
-196.8016642128886
 20
-31.80846616271539
 30
0.0
 10
-195.016864610078
 20
-34.16458700434217
 30
0.0
 10
-191.8193236110883
 20
-37.89167785313437
 30
0.0
 10
-187.8168648398983
 20
-42.2260337688841
 30
0.0
 10
-183.5811507102093
 20
-46.39704664185462
 30
0.0
 10
-179.1211067938329
 20
-50.42236556521301
 30
0.0
 10
-174.4239297883584
 20
-54.3043978415349
 30
0.0
 10
-169.4761729774806
 20
-58.05151521856059
 30
0.0
 10
-164.2574295327182
 20
-61.67140893242826
 30
0.0
 10
-158.7424826052542
 20
-65.17158960005123
 30
0.0
 10
-152.9029706794776
 20
-68.55717793826682
 30
0.0
 10
-146.7124325675787
 20
-71.82857138513025
 30
0.0
 10
-140.1549440478779
 20
-74.97854669153897
 30
0.0
 10
-133.2366399046664
 20
-77.99033289830764
 30
0.0
 10
-125.994855302562
 20
-80.83871973442078
 30
0.0
 10
-118.5052657417695
 20
-83.4933933393501
 30
0.0
 10
-110.8575292251603
 20
-85.93013816754849
 30
0.0
 10
-103.1354728455224
 20
-88.14204528634556
 30
0.0
 10
-95.37878042906316
 20
-90.12281090868929
 30
0.0
 10
-88.89061361157724
 20
-91.63512125508377
 30
0.0
 10
-84.9406787468958
 20
-92.42806104062323
 30
0.0
 10
-83.62731151345615
 20
-92.69171630788597
 30
0.0
  0
SPLINE
  5
1D9
330
1C0
100
AcDbEntity
  8
0
  6
HIDDEN
 62
     7
370
    18
100
AcDbSpline
210
0.0
220
0.0
230
1.0
 70
     8
 71
     3
 72
    27
 73
    23
 74
     0
 42
0.000000001
 43
0.00000001
 40
0.0
 40
0.0
 40
0.0
 40
0.0
 40
0.0285655766422431
 40
0.0854715944692648
 40
0.1435264305104132
 40
0.2028760904375399
 40
0.263625877305136
 40
0.3257750522196837
 40
0.3891119712487683
 40
0.4530444626505443
 40
0.5095433264222335
 40
0.5640799970747674
 40
0.6165500034715883
 40
0.6670624655485133
 40
0.715827668537585
 40
0.7630861833973197
 40
0.8090715233563874
 40
0.8539935721596525
 40
0.8980331511323196
 40
0.9413421155086428
 40
0.9840459894668303
 40
1.0
 40
1.0
 40
1.0
 40
1.0
 10
83.49109151630554
 20
-92.72028421861322
 30
0.0
 10
84.79102453393392
 20
-92.45971894867007
 30
0.0
 10
88.6805783529047
 20
-91.68007674629914
 30
0.0
 10
95.0678112269302
 20
-90.19712962063643
 30
0.0
 10
102.707840811352
 20
-88.25639217511774
 30
0.0
 10
110.3583905945096
 20
-86.07979442913296
 30
0.0
 10
118.0290974405271
 20
-83.65367390803392
 30
0.0
 10
125.7045060135263
 20
-80.95038134273761
 30
0.0
 10
133.3461487156412
 20
-77.9524818823413
 30
0.0
 10
140.6013669082498
 20
-74.77898974127214
 30
0.0
 10
147.3683527847588
 20
-71.49698363782781
 30
0.0
 10
153.5700389239753
 20
-68.18687126582354
 30
0.0
 10
159.4276076026956
 20
-64.75459901566956
 30
0.0
 10
164.9551424749745
 20
-61.20657713946574
 30
0.0
 10
170.1756861687688
 20
-57.54206583374187
 30
0.0
 10
175.1128264433045
 20
-53.7563155186302
 30
0.0
 10
179.7872384533904
 20
-49.84369621382863
 30
0.0
 10
184.2128032513072
 20
-45.79697969681645
 30
0.0
 10
188.405042859105
 20
-41.61671337730853
 30
0.0
 10
192.3506344147041
 20
-37.2812887206376
 30
0.0
 10
195.34926840311
 20
-33.76364936612088
 30
0.0
 10
196.9508402557065
 20
-31.61549474326215
 30
0.0
 10
197.3864422967197
 20
-31.03123089233832
 30
0.0
  0
SPLINE
  5
1DA
330
1C0
100
AcDbEntity
  8
0
  6
HIDDEN
 62
     7
370
    18
100
AcDbSpline
210
0.0
220
0.0
230
1.0
 70
     8
 71
     3
 72
    11
 73
     7
 74
     0
 42
0.000000001
 43
0.00000001
 40
0.0
 40
0.0
 40
0.0
 40
0.0
 40
0.2114483916417936
 40
0.5521252844111257
 40
0.8937805085914322
 40
1.0
 40
1.0
 40
1.0
 40
1.0
 10
-83.90563930950373
 20
-92.62471619715446
 30
0.0
 10
-81.75779242898574
 20
-93.067457733133
 30
0.0
 10
-76.14942359453978
 20
-94.22352609844305
 30
0.0
 10
-67.00334639431951
 20
-95.78274735502981
 30
0.0
 10
-58.90284580932668
 20
-96.990093330033
 30
0.0
 10
-54.28651284858078
 20
-97.58296248095024
 30
0.0
 10
-53.19168761688998
 20
-97.72356934597377
 30
0.0
  0
SPLINE
  5
1DB
330
1C0
100
AcDbEntity
  8
0
  6
HIDDEN
 62
     7
370
    18
100
AcDbSpline
210
0.0
220
0.0
230
1.0
 70
     8
 71
     3
 72
    20
 73
    16
 74
     0
 42
0.000000001
 43
0.00000001
 40
0.0
 40
0.0
 40
0.0
 40
0.0
 40
0.0558749409366997
 40
0.1333237118548632
 40
0.2102303312751236
 40
0.2869019770667365
 40
0.3634929983812286
 40
0.4402442771549095
 40
0.5174288791456153
 40
0.5952778049929547
 40
0.674094332353212
 40
0.7541342599523386
 40
0.835558402148553
 40
0.9183839007867342
 40
1.0
 40
1.0
 40
1.0
 40
1.0
 10
-53.19168761688998
 20
-97.72356934597377
 30
0.0
 10
-50.64701744583105
 20
-98.03001743298242
 30
0.0
 10
-44.57515648339576
 20
-98.76123603949694
 30
0.0
 10
-34.96341919692306
 20
-99.65687394704516
 30
0.0
 10
-24.37384526979257
 20
-100.3927664675139
 30
0.0
 10
-13.80179050314897
 20
-100.8604725754522
 30
0.0
 10
-3.224938582737681
 20
-101.069472025145
 30
0.0
 10
7.378428217948471
 20
-101.0187352698299
 30
0.0
 10
18.03305078229663
 20
-100.70535717684
 30
0.0
 10
28.76647304613719
 20
-100.1220667599769
 30
0.0
 10
39.60504278696601
 20
-99.25680070292495
 30
0.0
 10
50.57218214317956
 20
-98.09602233637898
 30
0.0
 10
61.67555900534828
 20
-96.61346602787299
 30
0.0
 10
72.80146116268413
 20
-94.83996162037661
 30
0.0
 10
80.18729556345525
 20
-93.38583628082873
 30
0.0
 10
83.85305289677088
 20
-92.6641208540042
 30
0.0
  0
SPLINE
  5
1DC
330
1C0
100
AcDbEntity
  8
0
  6
HIDDEN
 62
     7
370
    18
100
AcDbSpline
210
0.0
220
0.0
230
1.0
 70
     8
 71
     3
 72
    35
 73
    31
 74
     0
 42
0.000000001
 43
0.00000001
 40
0.0
 40
0.0
 40
0.0
 40
0.0
 40
0.0021130305185782
 40
0.0496641022812672
 40
0.0865207837791947
 40
0.1210453515022694
 40
0.1577018775664309
 40
0.193189507498827
 40
0.2285326920724947
 40
0.2640805097520058
 40
0.300043267341869
 40
0.3364696351665705
 40
0.3733374849860095
 40
0.410596132774608
 40
0.4481870986218689
 40
0.4860539357243275
 40
0.524146278807691
 40
0.5624209241135602
 40
0.6008415000707761
 40
0.6393775636354047
 40
0.6780035417144777
 40
0.7166977079514769
 40
0.7554412652300614
 40
0.7942175452369872
 40
0.8330113095832348
 40
0.8718078435558813
 40
0.9105884948002804
 40
0.9493385220668795
 40
0.9880420736173798
 40
1.0
 40
1.0
 40
1.0
 40
1.0
 10
52.4976847517088
 20
-85.50972272270589
 30
0.0
 10
52.49847312456132
 20
-85.51599059093071
 30
0.0
 10
52.51700282852867
 20
-85.66330888371688
 30
0.0
 10
52.46496594282139
 20
-85.89038672840725
 30
0.0
 10
52.27456465085161
 20
-86.41997202423453
 30
0.0
 10
51.88032584640414
 20
-87.07050296642223
 30
0.0
 10
51.22614329319428
 20
-87.86088711653096
 30
0.0
 10
50.26570508598605
 20
-88.76038627899888
 30
0.0
 10
49.02094728093116
 20
-89.70956690774892
 30
0.0
 10
47.48408132581376
 20
-90.68891840721167
 30
0.0
 10
45.65480692944027
 20
-91.67903674521264
 30
0.0
 10
43.53717095635704
 20
-92.66239843902498
 30
0.0
 10
41.1408258295782
 20
-93.62274771390584
 30
0.0
 10
38.47963956812664
 20
-94.54560005785022
 30
0.0
 10
35.57061561796154
 20
-95.41834358070317
 30
0.0
 10
32.4330519497387
 20
-96.23014929429954
 30
0.0
 10
29.08792799258297
 20
-96.97180729501154
 30
0.0
 10
25.55747218644922
 20
-97.63554704558042
 30
0.0
 10
21.86486095476245
 20
-98.21487250684483
 30
0.0
 10
18.03400472988218
 20
-98.70442415819053
 30
0.0
 10
14.0893872694042
 20
-99.0998703745077
 30
0.0
 10
10.05593697795475
 20
-99.39782447611448
 30
0.0
 10
5.958910313540584
 20
-99.59578712787601
 30
0.0
 10
1.823799980495415
 20
-99.69209512201712
 30
0.0
 10
-2.323804997652605
 20
-99.68592805064509
 30
0.0
 10
-6.457988107892552
 20
-99.57717027654994
 30
0.0
 10
-10.55344279751645
 20
-99.36689666684406
 30
0.0
 10
-14.58304297827506
 20
-99.05559985130745
 30
0.0
 10
-17.62099199557325
 20
-98.74307579397909
 30
0.0
 10
-19.30648349114024
 20
-98.5352919315981
 30
0.0
 10
-19.70431995475722
 20
-98.48624748537945
 30
0.0
  0
SPLINE
  5
1DD
330
1C0
100
AcDbEntity
  8
0
  6
HIDDEN
 62
     7
370
    18
100
AcDbSpline
210
0.0
220
0.0
230
1.0
 70
     8
 71
     3
 72
    25
 73
    21
 74
     0
 42
0.000000001
 43
0.00000001
 40
0.0
 40
0.0
 40
0.0
 40
0.0
 40
0.0326769790026823
 40
0.0946451507433704
 40
0.1564680350876342
 40
0.2180811260055713
 40
0.2794325778663285
 40
0.3404603917797038
 40
0.4010909437745488
 40
0.4612386568637832
 40
0.5208084603941187
 40
0.579704228472497
 40
0.637849004755272
 40
0.695227180176298
 40
0.7519664450098561
 40
0.8084939354490474
 40
0.8654342400982198
 40
0.9245684683272276
 40
0.9902463565812489
 40
1.0
 40
1.0
 40
1.0
 40
1.0
 10
-19.70431995475722
 20
-98.48624748537945
 30
0.0
 10
-20.37564778076754
 20
-98.39864647047075
 30
0.0
 10
-22.32007242558398
 20
-98.14492010058119
 30
0.0
 10
-25.44030763911967
 20
-97.65486708730076
 30
0.0
 10
-28.99438992401583
 20
-96.99137320226265
 30
0.0
 10
-32.3654519042748
 20
-96.24654827355968
 30
0.0
 10
-35.53239982386148
 20
-95.42938682139729
 30
0.0
 10
-38.47311323941213
 20
-94.54819460980326
 30
0.0
 10
-41.16718640121926
 20
-93.61355156095895
 30
0.0
 10
-43.59547666511097
 20
-92.63800388553582
 30
0.0
 10
-45.74084472135381
 20
-91.63673868296429
 30
0.0
 10
-47.5889428229775
 20
-90.62810825416726
 30
0.0
 10
-49.1295938291569
 20
-89.6342514376543
 30
0.0
 10
-50.35868561531402
 20
-88.68142683756918
 30
0.0
 10
-51.28141662183369
 20
-87.80001876536205
 30
0.0
 10
-51.91297508389979
 20
-87.0237514248032
 30
0.0
 10
-52.29122783120461
 20
-86.38647198263061
 30
0.0
 10
-52.45929104430446
 20
-85.89438682810022
 30
0.0
 10
-52.51599734992602
 20
-85.66994377114645
 30
0.0
 10
-52.4946125313125
 20
-85.52716078415982
 30
0.0
 10
-52.49184737606898
 20
-85.50869828829839
 30
0.0
  0
LINE
  5
1E4
330
1C0
100
AcDbEntity
  8
0
  6
Continuous
 62
     7
370
    25
100
AcDbLine
 10
197.4621826994
 20
-30.9937680103
 30
0.0
 11
197.5303983924
 21
-30.9047028304
 31
0.0
  0
LINE
  5
1E5
330
1C0
100
AcDbEntity
  8
0
  6
Continuous
 62
     7
370
    25
100
AcDbLine
 10
-197.516333457
 20
-30.9231077878
 30
0.0
 11
-197.4651898626
 21
-30.9898523031
 31
0.0
  0
LINE
  5
1E6
330
1C0
100
AcDbEntity
  8
0
  6
Continuous
 62
     7
370
    25
100
AcDbLine
 10
-86.3754199559
 20
-103.8394826174
 30
0.0
 11
-86.2022175998
 21
-103.8750051063
 31
0.0
  0
LINE
  5
1E7
330
1C0
100
AcDbEntity
  8
0
  6
HIDDEN
 62
     7
370
    18
100
AcDbLine
 10
83.553868533
 20
-92.7300108552
 30
0.0
 11
83.9096936097
 21
-92.6573391648
 31
0.0
  0
LINE
  5
1E8
330
1C0
100
AcDbEntity
  8
0
  6
HIDDEN
 62
     7
370
    18
100
AcDbLine
 10
-83.9582422657
 20
-92.6473908993
 30
0.0
 11
-83.6810454329
 21
-92.7040857342
 31
0.0
  0
LINE
  5
1E9
330
1C0
100
AcDbEntity
  8
0
  6
HIDDEN
 62
     7
370
    18
100
AcDbLine
 10
-52.5
 20
-85.5182562191
 30
0.0
 11
-52.5
 21
-89.566858953
 31
0.0
  0
LINE
  5
1EA
330
1C0
100
AcDbEntity
  8
0
  6
HIDDEN
 62
     7
370
    18
100
AcDbLine
 10
52.5
 20
-89.566858953
 30
0.0
 11
52.5
 21
-85.5182562191
 31
0.0
  0
LINE
  5
1EB
330
1C0
100
AcDbEntity
  8
0
  6
HIDDEN
 62
     7
370
    18
100
AcDbLine
 10
-31.6666712082
 20
-75.6148288528
 30
0.0
 11
-20.8586722538
 21
-83.3691072147
 31
0.0
  0
LINE
  5
1EC
330
1C0
100
AcDbEntity
  8
0
  6
HIDDEN
 62
     7
370
    18
100
AcDbLine
 10
20.8586722538
 20
-83.3691072147
 30
0.0
 11
31.6666712082
 21
-75.6148288528
 31
0.0
  0
LINE
  5
1ED
330
1C0
100
AcDbEntity
  8
0
  6
HIDDEN
 62
     7
370
    18
100
AcDbLine
 10
-23.0
 20
-80.1387685369
 30
0.0
 11
-23.0
 21
-89.566858953
 31
0.0
  0
LINE
  5
1EE
330
1C0
100
AcDbEntity
  8
0
  6
HIDDEN
 62
     7
370
    18
100
AcDbLine
 10
23.0
 20
-89.566858953
 30
0.0
 11
23.0
 21
-80.1387685369
 31
0.0
  0
ARC
  5
1EF
330
1C0
100
AcDbEntity
  8
0
  6
Continuous
 62
     7
370
    25
100
AcDbCircle
 10
-0.0060974141
 20
-130.0518588404
 30
0.0
 40
57.67735434914999
100
AcDbArc
 50
73.6397515063
 51
106.2503493421
  0
VIEWPORT
  5
200
330
1C0
100
AcDbEntity
  8
0
100
AcDbViewport
 10
0.0
 20
0.0
 30
0.0
 40
205.6
 41
156.0
 68
     1
 69
     1
 12
0.0
 22
0.0
 13
0.0
 23
0.0
 14
10.0
 24
10.0
 15
10.0
 25
10.0
 16
0.0
 26
0.0
 36
1.0
 17
0.0
 27
0.0
 37
0.0
 42
50.0
 43
0.0
 44
0.0
 45
459.0
 50
0.0
 51
0.0
 72
   100
 90
   557152
  1

281
     0
 71
     1
 74
     0
110
0.0
120
0.0
130
0.0
111
1.0
121
0.0
131
0.0
112
0.0
122
1.0
132
0.0
 79
     0
146
0.0
170
     0
 61
     5
348
2F
292
     1
282
     1
141
0.0
142
0.0
 63
   256
361
201
  0
ENDBLK
  5
1C3
330
1C0
100
AcDbEntity
  8
0
100
AcDbBlockEnd
  0
ENDSEC
  0
SECTION
  2
ENTITIES
  0
CIRCLE
  5
73
330
1F
100
AcDbEntity
  8
0
  6
Continuous
 62
     7
370
    25
100
AcDbCircle
 10
0.0
 20
0.0
 30
0.0
 40
225.0000000000003
  0
CIRCLE
  5
74
330
1F
100
AcDbEntity
  8
0
  6
Continuous
 62
     7
370
    25
100
AcDbCircle
 10
0.0
 20
0.0
 30
0.0
 40
34.91753592594218
  0
CIRCLE
  5
75
330
1F
100
AcDbEntity
  8
0
  6
Continuous
 62
     7
370
    25
100
AcDbCircle
 10
0.0
 20
0.0
 30
0.0
 40
23.00000000000002
  0
CIRCLE
  5
76
330
1F
100
AcDbEntity
  8
0
  6
HIDDEN
 62
     7
370
    18
100
AcDbCircle
 10
0.0
 20
0.0
 30
0.0
 40
52.49999999999999
  0
LINE
  5
91
330
1B
100
AcDbEntity
 67
     1
  8
0
  6
Continuous
 62
     7
370
    25
100
AcDbLine
 10
-52.5
 20
-90.7058083289
 30
0.0
 11
-52.5
 21
-95.0
 31
0.0
  0
LINE
  5
92
330
1B
100
AcDbEntity
 67
     1
  8
0
  6
Continuous
 62
     7
370
    25
100
AcDbLine
 10
52.5
 20
-95.0
 30
0.0
 11
52.5
 21
-90.7058083289
 31
0.0
  0
LINE
  5
93
330
1B
100
AcDbEntity
 67
     1
  8
0
  6
Continuous
 62
     7
370
    25
100
AcDbLine
 10
-225.0
 20
0.0
 30
0.0
 11
225.0
 21
0.0
 31
0.0
  0
LINE
  5
94
330
1B
100
AcDbEntity
 67
     1
  8
0
  6
Continuous
 62
     7
370
    25
100
AcDbLine
 10
-52.5
 20
-95.0
 30
0.0
 11
52.5
 21
-95.0
 31
0.0
  0
LINE
  5
95
330
1B
100
AcDbEntity
 67
     1
  8
0
  6
HIDDEN
 62
     7
370
    18
100
AcDbLine
 10
-34.9175359259
 20
-75.0
 30
0.0
 11
34.9175359259
 21
-75.0
 31
0.0
  0
LINE
  5
96
330
1B
100
AcDbEntity
 67
     1
  8
0
  6
HIDDEN
 62
     7
370
    18
100
AcDbLine
 10
-23.0
 20
-85.0
 30
0.0
 11
23.0
 21
-85.0
 31
0.0
  0
LINE
  5
97
330
1B
100
AcDbEntity
 67
     1
  8
0
  6
HIDDEN
 62
     7
370
    18
100
AcDbLine
 10
-34.9175359259
 20
-75.0
 30
0.0
 11
-23.0
 21
-85.0
 31
0.0
  0
LINE
  5
98
330
1B
100
AcDbEntity
 67
     1
  8
0
  6
HIDDEN
 62
     7
370
    18
100
AcDbLine
 10
23.0
 20
-85.0
 30
0.0
 11
34.9175359259
 21
-75.0
 31
0.0
  0
LINE
  5
99
330
1B
100
AcDbEntity
 67
     1
  8
0
  6
HIDDEN
 62
     7
370
    18
100
AcDbLine
 10
-23.0
 20
-85.0
 30
0.0
 11
-23.0
 21
-95.0
 31
0.0
  0
LINE
  5
9A
330
1B
100
AcDbEntity
 67
     1
  8
0
  6
HIDDEN
 62
     7
370
    18
100
AcDbLine
 10
23.0
 20
-95.0
 30
0.0
 11
23.0
 21
-85.0
 31
0.0
  0
ARC
  5
9B
330
1B
100
AcDbEntity
 67
     1
  8
0
  6
Continuous
 62
     7
370
    25
100
AcDbCircle
 10
-121.9101096012
 20
42.3494009111
 30
0.0
 40
111.4495278588975
100
AcDbArc
 50
202.3328936218
 51
247.4423490299
  0
ARC
  5
9C
330
1B
100
AcDbEntity
 67
     1
  8
0
  6
Continuous
 62
     7
370
    25
100
AcDbCircle
 10
121.9101096012
 20
42.3494009111
 30
0.0
 40
111.4495278588979
100
AcDbArc
 50
292.5576509701
 51
337.6671063782
  0
ARC
  5
9D
330
1B
100
AcDbEntity
 67
     1
  8
0
  6
Continuous
 62
     7
370
    25
100
AcDbCircle
 10
-34.9175359259
 20
251.7717953764
 30
0.0
 40
338.2213232353103
100
AcDbArc
 50
247.4423490299
 51
266.2274626705
  0
ARC
  5
9E
330
1B
100
AcDbEntity
 67
     1
  8
0
  6
Continuous
 62
     7
370
    25
100
AcDbCircle
 10
34.9175359259
 20
251.7717953764
 30
0.0
 40
338.2213232353175
100
AcDbArc
 50
273.7725373295
 51
292.5576509701
  0
ARC
  5
9F
330
1B
100
AcDbEntity
 67
     1
  8
0
  6
Continuous
 62
     7
370
    25
100
AcDbCircle
 10
-57.5
 20
-90.7058083289
 30
0.0
 40
5.000000000000041
100
AcDbArc
 50
0.0
 51
86.2274626705
  0
ARC
  5
A0
330
1B
100
AcDbEntity
 67
     1
  8
0
  6
Continuous
 62
     7
370
    25
100
AcDbCircle
 10
57.5
 20
-90.7058083289
 30
0.0
 40
5.000000000000042
100
AcDbArc
 50
93.7725373295
 51
180.0
  0
ARC
  5
A1
330
1B
100
AcDbEntity
 67
     1
  8
0
  6
HIDDEN
 62
     7
370
    18
100
AcDbCircle
 10
-235.3796292148
 20
-37.085797919
 30
0.0
 40
38.51094792292559
100
AcDbArc
 50
34.9942348107
 51
74.3640490186
  0
ARC
  5
A2
330
1B
100
AcDbEntity
 67
     1
  8
0
  6
HIDDEN
 62
     7
370
    18
100
AcDbCircle
 10
235.3796292148
 20
-37.085797919
 30
0.0
 40
38.51094792292562
100
AcDbArc
 50
105.6359509814
 51
145.0057651893
  0
ARC
  5
A3
330
1B
100
AcDbEntity
 67
     1
  8
0
  6
HIDDEN
 62
     7
370
    18
100
AcDbCircle
 10
-121.9101096012
 20
42.3494009111
 30
0.0
 40
99.99999999999946
100
AcDbArc
 50
214.9942348107
 51
247.4423490299
  0
ARC
  5
A4
330
1B
100
AcDbEntity
 67
     1
  8
0
  6
HIDDEN
 62
     7
370
    18
100
AcDbCircle
 10
121.9101096012
 20
42.3494009111
 30
0.0
 40
99.99999999999889
100
AcDbArc
 50
292.5576509701
 51
325.0057651893
  0
ARC
  5
A5
330
1B
100
AcDbEntity
 67
     1
  8
0
  6
HIDDEN
 62
     7
370
    18
100
AcDbCircle
 10
-34.9175359259
 20
251.7717953764
 30
0.0
 40
326.7717953764052
100
AcDbArc
 50
247.4423490299
 51
270.0
  0
ARC
  5
A6
330
1B
100
AcDbEntity
 67
     1
  8
0
  6
HIDDEN
 62
     7
370
    18
100
AcDbCircle
 10
34.9175359259
 20
251.7717953764
 30
0.0
 40
326.771795376408
100
AcDbArc
 50
270.0
 51
292.5576509701
  0
VIEWPORT
  5
1F0
330
1B
100
AcDbEntity
 67
     1
  8
0
100
AcDbViewport
 10
0.0
 20
0.0
 30
0.0
 40
205.6
 41
156.0
 68
     1
 69
     1
 12
0.0
 22
0.0
 13
0.0
 23
0.0
 14
10.0
 24
10.0
 15
10.0
 25
10.0
 16
0.0
 26
0.0
 36
1.0
 17
0.0
 27
0.0
 37
0.0
 42
50.0
 43
0.0
 44
0.0
 45
459.0
 50
0.0
 51
0.0
 72
   100
 90
   557152
  1

281
     0
 71
     1
 74
     0
110
0.0
120
0.0
130
0.0
111
1.0
121
0.0
131
0.0
112
0.0
122
1.0
132
0.0
 79
     0
146
0.0
170
     0
 61
     5
348
2F
292
     1
282
     1
141
0.0
142
0.0
 63
   256
361
1F1
  0
ENDSEC
  0
SECTION
  2
OBJECTS
  0
DICTIONARY
  5
C
330
0
100
AcDbDictionary
281
     1
  3
ACAD_DETAILVIEWSTYLE
350
20A
  3
ACAD_GROUP
350
D
  3
ACAD_LAYOUT
350
1A
  3
ACAD_MATERIAL
350
43
  3
ACAD_MLEADERSTYLE
350
6B
  3
ACAD_MLINESTYLE
350
17
  3
ACAD_PLOTSETTINGS
350
19
  3
ACAD_PLOTSTYLENAME
350
E
  3
ACAD_SCALELIST
350
47
  3
ACAD_SECTIONVIEWSTYLE
350
20B
  3
ACAD_TABLESTYLE
350
69
  3
ACAD_VISUALSTYLE
350
2A
  3
ACDB_RECOMPOSE_DATA
350
207
  3
AcDbVariableDictionary
350
202
  0
SUN
  5
6D
330
29
100
AcDbSun
 90
        1
290
     0
 63
     7
421
 16777215
 40
1.0
291
     1
 91
  2455826
 92
 54000000
292
     0
 70
     2
 71
   256
280
     1
  0
SUN
  5
1F3
330
1F2
100
AcDbSun
 90
        1
290
     0
 63
     7
421
 16777215
 40
1.0
291
     1
 91
  2455826
 92
 54000000
292
     0
 70
     2
 71
   256
280
     1
  0
SUN
  5
1F5
330
1F4
100
AcDbSun
 90
        1
290
     0
 63
     7
421
 16777215
 40
1.0
291
     1
 91
  2455826
 92
 54000000
292
     0
 70
     2
 71
   256
280
     1
  0
SUN
  5
1F7
330
1F6
100
AcDbSun
 90
        1
290
     0
 63
     7
421
 16777215
 40
1.0
291
     1
 91
  2455826
 92
 54000000
292
     0
 70
     2
 71
   256
280
     1
  0
SUN
  5
1F9
330
1F8
100
AcDbSun
 90
        1
290
     0
 63
     7
421
 16777215
 40
1.0
291
     1
 91
  2455826
 92
 54000000
292
     0
 70
     2
 71
   256
280
     1
  0
SUN
  5
1FB
330
1FA
100
AcDbSun
 90
        1
290
     0
 63
     7
421
 16777215
 40
1.0
291
     1
 91
  2455826
 92
 54000000
292
     0
 70
     2
 71
   256
280
     1
  0
SUN
  5
1FD
330
1FC
100
AcDbSun
 90
        1
290
     0
 63
     7
421
 16777215
 40
1.0
291
     1
 91
  2455826
 92
 54000000
292
     0
 70
     2
 71
   256
280
     1
  0
SUN
  5
1FF
330
1FE
100
AcDbSun
 90
        1
290
     0
 63
     7
421
 16777215
 40
1.0
291
     1
 91
  2455826
 92
 54000000
292
     0
 70
     2
 71
   256
280
     1
  0
SUN
  5
201
330
200
100
AcDbSun
 90
        1
290
     0
 63
     7
421
 16777215
 40
1.0
291
     1
 91
  2455826
 92
 54000000
292
     0
 70
     2
 71
   256
280
     1
  0
SUN
  5
1F1
330
1F0
100
AcDbSun
 90
        1
290
     0
 63
     7
421
 16777215
 40
1.0
291
     1
 91
  2455826
 92
 54000000
292
     0
 70
     2
 71
   256
280
     1
  0
DICTIONARY
  5
20A
102
{ACAD_REACTORS
330
C
102
}
330
C
100
AcDbDictionary
281
     1
  0
DICTIONARY
  5
D
102
{ACAD_REACTORS
330
C
102
}
330
C
100
AcDbDictionary
281
     1
  0
DICTIONARY
  5
1A
102
{ACAD_REACTORS
330
C
102
}
330
C
100
AcDbDictionary
281
     1
  3
_Dimetrisch
350
1C1
  3
_Isometrisch
350
170
  3
_Links
350
138
  3
_Normal auf
350
D4
  3
_Rechts
350
26
  3
_Rückseite
350
108
  3
_Trimetrisch
350
19A
  3
_Unten
350
168
  3
_Vorderseite
350
1E
  3
Model
350
22
  0
DICTIONARY
  5
43
102
{ACAD_REACTORS
330
C
102
}
330
C
100
AcDbDictionary
281
     1
  3
ByBlock
350
45
  3
ByLayer
350
44
  3
Global
350
46
  0
DICTIONARY
  5
6B
102
{ACAD_REACTORS
330
C
102
}
330
C
100
AcDbDictionary
281
     1
  3
Standard
350
6C
  0
DICTIONARY
  5
17
102
{ACAD_REACTORS
330
C
102
}
330
C
100
AcDbDictionary
281
     1
  3
Standard
350
18
  0
DICTIONARY
  5
19
102
{ACAD_REACTORS
330
C
102
}
330
C
100
AcDbDictionary
281
     1
  0
ACDBDICTIONARYWDFLT
  5
E
102
{ACAD_REACTORS
330
C
102
}
330
C
100
AcDbDictionary
281
     1
  3
Normal
350
F
100
AcDbDictionaryWithDefault
340
F
  0
DICTIONARY
  5
47
102
{ACAD_REACTORS
330
C
102
}
330
C
100
AcDbDictionary
281
     1
  3
A0
350
48
  3
A1
350
49
  3
A2
350
4A
  3
A3
350
4B
  3
A4
350
4C
  3
A5
350
4D
  3
A6
350
4E
  3
A7
350
4F
  3
A8
350
50
  3
A9
350
51
  3
B0
350
52
  3
B1
350
53
  3
B2
350
54
  3
B3
350
55
  3
B4
350
56
  3
B5
350
57
  3
B6
350
58
  3
B7
350
59
  3
B8
350
5A
  3
B9
350
5B
  3
C0
350
5C
  3
C1
350
5D
  3
C2
350
5E
  3
C3
350
5F
  3
C4
350
60
  3
C5
350
61
  3
C6
350
62
  3
C7
350
63
  3
C8
350
64
  3
C9
350
65
  3
D0
350
66
  3
D1
350
67
  3
D2
350
68
  0
DICTIONARY
  5
20B
102
{ACAD_REACTORS
330
C
102
}
330
C
100
AcDbDictionary
281
     1
  0
DICTIONARY
  5
69
102
{ACAD_REACTORS
330
C
102
}
330
C
100
AcDbDictionary
281
     1
  3
Standard
350
6A
  0
DICTIONARY
  5
2A
102
{ACAD_REACTORS
330
C
102
}
330
C
100
AcDbDictionary
281
     1
  3
2dWireframe
350
2F
  3
Basic
350
32
  3
Brighten
350
36
  3
ColorChange
350
3A
  3
Conceptual
350
34
  3
Dim
350
35
  3
EdgeColorOff
350
3D
  3
Facepattern
350
39
  3
Flat
350
2B
  3
FlatWithEdges
350
2C
  3
Gouraud
350
2D
  3
GouraudWithEdges
350
2E
  3
Hidden
350
31
  3
JitterOff
350
3B
  3
Linepattern
350
38
  3
OverhangOff
350
3C
  3
Realistic
350
33
  3
Shaded
350
42
  3
Shaded with edges
350
41
  3
Shades of Gray
350
3E
  3
Sketchy
350
3F
  3
Thicken
350
37
  3
Wireframe
350
30
  3
X-Ray
350
40
  0
XRECORD
  5
207
102
{ACAD_REACTORS
330
C
102
}
330
C
100
AcDbXrecord
280
     1
 90
        1
330
6A
  0
DICTIONARY
  5
202
102
{ACAD_REACTORS
330
C
102
}
330
C
100
AcDbDictionary
281
     1
  3
CANNOSCALE
350
203
  3
CENTEREXE
350
20C
  3
CENTERLTYPEFILE
350
20D
  3
CMLEADERSTYLE
350
209
  3
CTABLESTYLE
350
208
  0
LAYOUT
  5
1C1
102
{ACAD_REACTORS
330
1A
102
}
330
1A
100
AcDbPlotSettings
  1

  2
none_device
  4
ISO_A4_(210.00_x_297.00_MM)
  6

 40
7.5
 41
20.0
 42
7.5
 43
20.0
 44
210.0
 45
297.0
 46
0.0
 47
0.0
 48
0.0
 49
0.0
140
0.0
141
0.0
142
1.0
143
1.7509727626
 70
   688
 72
     1
 73
     1
 74
     1
  7

 75
     0
 76
     0
 77
     2
 78
   300
147
0.5711111111
148
225.0
149
95.0
100
AcDbLayout
  1
_Dimetrisch
 70
     1
 71
     9
 10
0.0
 20
0.0
 11
0.0
 21
0.0
 12
0.0
 22
0.0
 32
0.0
 14
0.0
 24
0.0
 34
0.0
 15
0.0
 25
0.0
 35
0.0
146
0.0
 13
0.0
 23
0.0
 33
0.0
 16
1.0
 26
0.0
 36
0.0
 17
0.0
 27
1.0
 37
0.0
 76
     0
330
1C0
331
200
  0
LAYOUT
  5
170
102
{ACAD_REACTORS
330
1A
102
}
330
1A
100
AcDbPlotSettings
  1

  2
none_device
  4
ISO_A4_(210.00_x_297.00_MM)
  6

 40
7.5
 41
20.0
 42
7.5
 43
20.0
 44
210.0
 45
297.0
 46
0.0
 47
0.0
 48
0.0
 49
0.0
140
0.0
141
0.0
142
1.0
143
1.7509727626
 70
   688
 72
     1
 73
     1
 74
     1
  7

 75
     0
 76
     0
 77
     2
 78
   300
147
0.5711111111
148
225.0
149
95.0
100
AcDbLayout
  1
_Isometrisch
 70
     1
 71
     7
 10
0.0
 20
0.0
 11
0.0
 21
0.0
 12
0.0
 22
0.0
 32
0.0
 14
0.0
 24
0.0
 34
0.0
 15
0.0
 25
0.0
 35
0.0
146
0.0
 13
0.0
 23
0.0
 33
0.0
 16
1.0
 26
0.0
 36
0.0
 17
0.0
 27
1.0
 37
0.0
 76
     0
330
16F
331
1FC
  0
LAYOUT
  5
138
102
{ACAD_REACTORS
330
1A
102
}
330
1A
100
AcDbPlotSettings
  1

  2
none_device
  4
ISO_A4_(210.00_x_297.00_MM)
  6

 40
7.5
 41
20.0
 42
7.5
 43
20.0
 44
210.0
 45
297.0
 46
0.0
 47
0.0
 48
0.0
 49
0.0
140
0.0
141
0.0
142
1.0
143
1.7509727626
 70
   688
 72
     1
 73
     1
 74
     1
  7

 75
     0
 76
     0
 77
     2
 78
   300
147
0.5711111111
148
225.0
149
95.0
100
AcDbLayout
  1
_Links
 70
     1
 71
     5
 10
0.0
 20
0.0
 11
0.0
 21
0.0
 12
0.0
 22
0.0
 32
0.0
 14
0.0
 24
0.0
 34
0.0
 15
0.0
 25
0.0
 35
0.0
146
0.0
 13
0.0
 23
0.0
 33
0.0
 16
1.0
 26
0.0
 36
0.0
 17
0.0
 27
1.0
 37
0.0
 76
     0
330
137
331
1F8
  0
LAYOUT
  5
D4
102
{ACAD_REACTORS
330
1A
102
}
330
1A
100
AcDbPlotSettings
  1

  2
none_device
  4
ISO_A4_(210.00_x_297.00_MM)
  6

 40
7.5
 41
20.0
 42
7.5
 43
20.0
 44
210.0
 45
297.0
 46
0.0
 47
0.0
 48
0.0
 49
0.0
140
0.0
141
0.0
142
1.0
143
1.7509727626
 70
   688
 72
     1
 73
     1
 74
     1
  7

 75
     0
 76
     0
 77
     2
 78
   300
147
0.5711111111
148
225.0
149
95.0
100
AcDbLayout
  1
_Normal auf
 70
     1
 71
     3
 10
0.0
 20
0.0
 11
0.0
 21
0.0
 12
0.0
 22
0.0
 32
0.0
 14
0.0
 24
0.0
 34
0.0
 15
0.0
 25
0.0
 35
0.0
146
0.0
 13
0.0
 23
0.0
 33
0.0
 16
1.0
 26
0.0
 36
0.0
 17
0.0
 27
1.0
 37
0.0
 76
     0
330
D3
331
1F4
  0
LAYOUT
  5
26
102
{ACAD_REACTORS
330
1A
102
}
330
1A
100
AcDbPlotSettings
  1

  2
none_device
  4
ISO_A4_(210.00_x_297.00_MM)
  6

 40
7.5
 41
20.0
 42
7.5
 43
20.0
 44
210.0
 45
297.0
 46
0.0
 47
0.0
 48
0.0
 49
0.0
140
0.0
141
0.0
142
1.0
143
1.7509727626
 70
   688
 72
     1
 73
     1
 74
     1
  7

 75
     0
 76
     0
 77
     2
 78
   300
147
0.5711111111
148
225.0
149
95.0
100
AcDbLayout
  1
_Rechts
 70
     1
 71
     2
 10
0.0
 20
0.0
 11
0.0
 21
0.0
 12
0.0
 22
0.0
 32
0.0
 14
0.0
 24
0.0
 34
0.0
 15
0.0
 25
0.0
 35
0.0
146
0.0
 13
0.0
 23
0.0
 33
0.0
 16
1.0
 26
0.0
 36
0.0
 17
0.0
 27
1.0
 37
0.0
 76
     0
330
23
331
1F2
  0
LAYOUT
  5
108
102
{ACAD_REACTORS
330
1A
102
}
330
1A
100
AcDbPlotSettings
  1

  2
none_device
  4
ISO_A4_(210.00_x_297.00_MM)
  6

 40
7.5
 41
20.0
 42
7.5
 43
20.0
 44
210.0
 45
297.0
 46
0.0
 47
0.0
 48
0.0
 49
0.0
140
0.0
141
0.0
142
1.0
143
1.7509727626
 70
   688
 72
     1
 73
     1
 74
     1
  7

 75
     0
 76
     0
 77
     2
 78
   300
147
0.5711111111
148
225.0
149
95.0
100
AcDbLayout
  1
_Rückseite
 70
     1
 71
     4
 10
0.0
 20
0.0
 11
0.0
 21
0.0
 12
0.0
 22
0.0
 32
0.0
 14
0.0
 24
0.0
 34
0.0
 15
0.0
 25
0.0
 35
0.0
146
0.0
 13
0.0
 23
0.0
 33
0.0
 16
1.0
 26
0.0
 36
0.0
 17
0.0
 27
1.0
 37
0.0
 76
     0
330
107
331
1F6
  0
LAYOUT
  5
19A
102
{ACAD_REACTORS
330
1A
102
}
330
1A
100
AcDbPlotSettings
  1

  2
none_device
  4
ISO_A4_(210.00_x_297.00_MM)
  6

 40
7.5
 41
20.0
 42
7.5
 43
20.0
 44
210.0
 45
297.0
 46
0.0
 47
0.0
 48
0.0
 49
0.0
140
0.0
141
0.0
142
1.0
143
1.7509727626
 70
   688
 72
     1
 73
     1
 74
     1
  7

 75
     0
 76
     0
 77
     2
 78
   300
147
0.5711111111
148
225.0
149
95.0
100
AcDbLayout
  1
_Trimetrisch
 70
     1
 71
     8
 10
0.0
 20
0.0
 11
0.0
 21
0.0
 12
0.0
 22
0.0
 32
0.0
 14
0.0
 24
0.0
 34
0.0
 15
0.0
 25
0.0
 35
0.0
146
0.0
 13
0.0
 23
0.0
 33
0.0
 16
1.0
 26
0.0
 36
0.0
 17
0.0
 27
1.0
 37
0.0
 76
     0
330
199
331
1FE
  0
LAYOUT
  5
168
102
{ACAD_REACTORS
330
1A
102
}
330
1A
100
AcDbPlotSettings
  1

  2
none_device
  4
ISO_A4_(210.00_x_297.00_MM)
  6

 40
7.5
 41
20.0
 42
7.5
 43
20.0
 44
210.0
 45
297.0
 46
0.0
 47
0.0
 48
0.0
 49
0.0
140
0.0
141
0.0
142
1.0
143
1.7509727626
 70
   688
 72
     1
 73
     1
 74
     1
  7

 75
     0
 76
     0
 77
     2
 78
   300
147
0.5711111111
148
225.0
149
95.0
100
AcDbLayout
  1
_Unten
 70
     1
 71
     6
 10
0.0
 20
0.0
 11
0.0
 21
0.0
 12
0.0
 22
0.0
 32
0.0
 14
0.0
 24
0.0
 34
0.0
 15
0.0
 25
0.0
 35
0.0
146
0.0
 13
0.0
 23
0.0
 33
0.0
 16
1.0
 26
0.0
 36
0.0
 17
0.0
 27
1.0
 37
0.0
 76
     0
330
167
331
1FA
  0
LAYOUT
  5
1E
102
{ACAD_REACTORS
330
1A
102
}
330
1A
100
AcDbPlotSettings
  1

  2
none_device
  4
ISO_A4_(210.00_x_297.00_MM)
  6

 40
7.5
 41
20.0
 42
7.5
 43
20.0
 44
210.0
 45
297.0
 46
0.0
 47
0.0
 48
0.0
 49
0.0
140
0.0
141
0.0
142
1.0
143
1.7509727626
 70
   688
 72
     1
 73
     1
 74
     1
  7

 75
     0
 76
     0
 77
     2
 78
   300
147
0.5711111111
148
225.0
149
95.0
100
AcDbLayout
  1
_Vorderseite
 70
     1
 71
     1
 10
-260.0194552529
 20
-108.1322957198
 11
260.0194552529
 21
259.5719844358
 12
0.0
 22
0.0
 32
0.0
 14
-225.0
 24
-95.0
 34
0.0
 15
225.0
 25
0.0
 35
0.0
146
0.0
 13
0.0
 23
0.0
 33
0.0
 16
1.0
 26
0.0
 36
0.0
 17
0.0
 27
1.0
 37
0.0
 76
     0
330
1B
331
1F0
  0
LAYOUT
  5
22
102
{ACAD_REACTORS
330
1A
102
}
330
1A
100
AcDbPlotSettings
  1

  2
none_device
  4
ANSI_A_(11.00_x_8.50_Inches)
  6

 40
6.35
 41
19.05
 42
6.35000508
 43
19.05000254
 44
279.4
 45
215.9
 46
133.34999746
 47
88.89999873
 48
0.0
 49
0.0
140
0.0
141
0.0
142
0.0187
143
1.0
 70
  1696
 72
     0
 73
     0
 74
     0
  7

 75
     0
 76
     0
 77
     2
 78
   300
147
0.0179189148
148
-1300.4909072572
149
0.0
100
AcDbLayout
  1
Model
 70
     1
 71
     0
 10
0.0
 20
0.0
 11
420.0
 21
297.0
 12
0.0
 22
0.0
 32
0.0
 14
-225.0
 24
-225.0
 34
0.0
 15
225.0
 25
225.0
 35
0.0
146
0.0
 13
0.0
 23
0.0
 33
0.0
 16
1.0
 26
0.0
 36
0.0
 17
0.0
 27
1.0
 37
0.0
 76
     0
330
1F
331
29
  0
MATERIAL
  5
45
102
{ACAD_REACTORS
330
43
102
}
330
43
100
AcDbMaterial
  1
ByBlock
 72
     1
 94
      127
  0
MATERIAL
  5
44
102
{ACAD_REACTORS
330
43
102
}
330
43
100
AcDbMaterial
  1
ByLayer
 72
     1
 94
      127
  0
MATERIAL
  5
46
102
{ACAD_REACTORS
330
43
102
}
330
43
100
AcDbMaterial
  1
Global
 72
     1
 94
      127
  0
MLEADERSTYLE
  5
6C
102
{ACAD_REACTORS
330
6B
102
}
330
6B
100
AcDbMLeaderStyle
170
     2
171
     1
172
     0
 90
        2
 40
0.0
 41
0.0
173
     1
 91
-1056964608
340
14
 92
       -2
290
     1
 42
2.0
291
     1
 43
8.0
  3
Standard
341
0
 44
4.0
300

342
11
174
     1
178
     6
175
     1
176
     0
 93
-1056964608
 45
4.0
292
     0
297
     0
 46
4.0
343
0
 94
-1056964608
 47
1.0
 49
1.0
140
1.0
293
     1
141
0.0
294
     1
177
     0
142
1.0
295
     0
296
     0
143
3.75
1001
ACAD_MLEADERVER
1070
     2
  0
MLINESTYLE
  5
18
102
{ACAD_REACTORS
330
17
102
}
330
17
100
AcDbMlineStyle
  2
Standard
 70
     0
  3

 62
   256
 51
90.0
 52
90.0
 71
     2
 49
0.5
 62
   256
  6
BYLAYER
 49
-0.5
 62
   256
  6
BYLAYER
  0
ACDBPLACEHOLDER
  5
F
102
{ACAD_REACTORS
330
E
102
}
330
E
  0
SCALE
  5
48
102
{ACAD_REACTORS
330
47
102
}
330
47
100
AcDbScale
 70
     0
300
1:1
140
1.0
141
1.0
290
     1
  0
SCALE
  5
49
102
{ACAD_REACTORS
330
47
102
}
330
47
100
AcDbScale
 70
     0
300
1:2
140
1.0
141
2.0
290
     0
  0
SCALE
  5
4A
102
{ACAD_REACTORS
330
47
102
}
330
47
100
AcDbScale
 70
     0
300
1:4
140
1.0
141
4.0
290
     0
  0
SCALE
  5
4B
102
{ACAD_REACTORS
330
47
102
}
330
47
100
AcDbScale
 70
     0
300
1:5
140
1.0
141
5.0
290
     0
  0
SCALE
  5
4C
102
{ACAD_REACTORS
330
47
102
}
330
47
100
AcDbScale
 70
     0
300
1:8
140
1.0
141
8.0
290
     0
  0
SCALE
  5
4D
102
{ACAD_REACTORS
330
47
102
}
330
47
100
AcDbScale
 70
     0
300
1:10
140
1.0
141
10.0
290
     0
  0
SCALE
  5
4E
102
{ACAD_REACTORS
330
47
102
}
330
47
100
AcDbScale
 70
     0
300
1:16
140
1.0
141
16.0
290
     0
  0
SCALE
  5
4F
102
{ACAD_REACTORS
330
47
102
}
330
47
100
AcDbScale
 70
     0
300
1:20
140
1.0
141
20.0
290
     0
  0
SCALE
  5
50
102
{ACAD_REACTORS
330
47
102
}
330
47
100
AcDbScale
 70
     0
300
1:30
140
1.0
141
30.0
290
     0
  0
SCALE
  5
51
102
{ACAD_REACTORS
330
47
102
}
330
47
100
AcDbScale
 70
     0
300
1:40
140
1.0
141
40.0
290
     0
  0
SCALE
  5
52
102
{ACAD_REACTORS
330
47
102
}
330
47
100
AcDbScale
 70
     0
300
1:50
140
1.0
141
50.0
290
     0
  0
SCALE
  5
53
102
{ACAD_REACTORS
330
47
102
}
330
47
100
AcDbScale
 70
     0
300
1:100
140
1.0
141
100.0
290
     0
  0
SCALE
  5
54
102
{ACAD_REACTORS
330
47
102
}
330
47
100
AcDbScale
 70
     0
300
2:1
140
2.0
141
1.0
290
     0
  0
SCALE
  5
55
102
{ACAD_REACTORS
330
47
102
}
330
47
100
AcDbScale
 70
     0
300
4:1
140
4.0
141
1.0
290
     0
  0
SCALE
  5
56
102
{ACAD_REACTORS
330
47
102
}
330
47
100
AcDbScale
 70
     0
300
8:1
140
8.0
141
1.0
290
     0
  0
SCALE
  5
57
102
{ACAD_REACTORS
330
47
102
}
330
47
100
AcDbScale
 70
     0
300
10:1
140
10.0
141
1.0
290
     0
  0
SCALE
  5
58
102
{ACAD_REACTORS
330
47
102
}
330
47
100
AcDbScale
 70
     0
300
100:1
140
100.0
141
1.0
290
     0
  0
SCALE
  5
59
102
{ACAD_REACTORS
330
47
102
}
330
47
100
AcDbScale
 70
     0
300
1/128" = 1'-0"
140
0.0078125
141
12.0
290
     0
  0
SCALE
  5
5A
102
{ACAD_REACTORS
330
47
102
}
330
47
100
AcDbScale
 70
     0
300
1/64" = 1'-0"
140
0.015625
141
12.0
290
     0
  0
SCALE
  5
5B
102
{ACAD_REACTORS
330
47
102
}
330
47
100
AcDbScale
 70
     0
300
1/32" = 1'-0"
140
0.03125
141
12.0
290
     0
  0
SCALE
  5
5C
102
{ACAD_REACTORS
330
47
102
}
330
47
100
AcDbScale
 70
     0
300
1/16" = 1'-0"
140
0.0625
141
12.0
290
     0
  0
SCALE
  5
5D
102
{ACAD_REACTORS
330
47
102
}
330
47
100
AcDbScale
 70
     0
300
3/32" = 1'-0"
140
0.09375
141
12.0
290
     0
  0
SCALE
  5
5E
102
{ACAD_REACTORS
330
47
102
}
330
47
100
AcDbScale
 70
     0
300
1/8" = 1'-0"
140
0.125
141
12.0
290
     0
  0
SCALE
  5
5F
102
{ACAD_REACTORS
330
47
102
}
330
47
100
AcDbScale
 70
     0
300
3/16" = 1'-0"
140
0.1875
141
12.0
290
     0
  0
SCALE
  5
60
102
{ACAD_REACTORS
330
47
102
}
330
47
100
AcDbScale
 70
     0
300
1/4" = 1'-0"
140
0.25
141
12.0
290
     0
  0
SCALE
  5
61
102
{ACAD_REACTORS
330
47
102
}
330
47
100
AcDbScale
 70
     0
300
3/8" = 1'-0"
140
0.375
141
12.0
290
     0
  0
SCALE
  5
62
102
{ACAD_REACTORS
330
47
102
}
330
47
100
AcDbScale
 70
     0
300
1/2" = 1'-0"
140
0.5
141
12.0
290
     0
  0
SCALE
  5
63
102
{ACAD_REACTORS
330
47
102
}
330
47
100
AcDbScale
 70
     0
300
3/4" = 1'-0"
140
0.75
141
12.0
290
     0
  0
SCALE
  5
64
102
{ACAD_REACTORS
330
47
102
}
330
47
100
AcDbScale
 70
     0
300
1" = 1'-0"
140
1.0
141
12.0
290
     0
  0
SCALE
  5
65
102
{ACAD_REACTORS
330
47
102
}
330
47
100
AcDbScale
 70
     0
300
1-1/2" = 1'-0"
140
1.5
141
12.0
290
     0
  0
SCALE
  5
66
102
{ACAD_REACTORS
330
47
102
}
330
47
100
AcDbScale
 70
     0
300
3" = 1'-0"
140
3.0
141
12.0
290
     0
  0
SCALE
  5
67
102
{ACAD_REACTORS
330
47
102
}
330
47
100
AcDbScale
 70
     0
300
6" = 1'-0"
140
6.0
141
12.0
290
     0
  0
SCALE
  5
68
102
{ACAD_REACTORS
330
47
102
}
330
47
100
AcDbScale
 70
     0
300
1'-0" = 1'-0"
140
12.0
141
12.0
290
     0
  0
TABLESTYLE
  5
6A
102
{ACAD_REACTORS
330
69
102
}
102
{ACAD_XDICTIONARY
360
204
102
}
330
69
100
AcDbTableStyle
  3
Standard
 70
     0
 71
     0
 40
0.06
 41
0.06
280
     0
281
     0
  7
STANDARD
140
4.5
170
     2
 62
     0
 63
   257
283
     0
 90
        4
 91
        0
  1

274
    -2
284
     1
 64
     0
275
    -2
285
     1
 65
     0
276
    -2
286
     1
 66
     0
277
    -2
287
     1
 67
     0
278
    -2
288
     1
 68
     0
279
    -2
289
     1
 69
     0
  7
STANDARD
140
6.0
170
     5
 62
     0
 63
   257
283
     0
 90
        4
 91
        0
  1

274
    -2
284
     1
 64
     0
275
    -2
285
     1
 65
     0
276
    -2
286
     1
 66
     0
277
    -2
287
     1
 67
     0
278
    -2
288
     1
 68
     0
279
    -2
289
     1
 69
     0
  7
STANDARD
140
4.5
170
     5
 62
     0
 63
   257
283
     0
 90
        4
 91
        0
  1

274
    -2
284
     1
 64
     0
275
    -2
285
     1
 65
     0
276
    -2
286
     1
 66
     0
277
    -2
287
     1
 67
     0
278
    -2
288
     1
 68
     0
279
    -2
289
     1
 69
     0
  0
VISUALSTYLE
  5
2F
102
{ACAD_REACTORS
330
2A
102
}
330
2A
100
AcDbVisualStyle
  2
2dWireframe
 70
     4
 71
     0
 72
     2
 73
     0
 90
        0
 40
0.6
 41
30.0
 62
     5
 63
     7
421
 16777215
 74
     1
 91
        4
 64
     7
 65
   257
 75
     1
175
     1
 42
1.0
 92
        0
 66
   257
 43
1.0
 76
     1
 77
     6
 78
     2
 67
     7
 79
     5
170
     0
171
     0
290
     0
174
     0
 93
        1
 44
0.0
173
     0
291
     0
 45
0.0
  0
VISUALSTYLE
  5
32
102
{ACAD_REACTORS
330
2A
102
}
330
2A
100
AcDbVisualStyle
  2
Basic
 70
     7
 71
     1
 72
     0
 73
     1
 90
        0
 40
0.6
 41
30.0
 62
     5
 63
     7
421
 16777215
 74
     0
 91
        4
 64
     7
 65
   257
 75
     1
175
     1
 42
1.0
 92
        8
 66
     7
 43
1.0
 76
     1
 77
     6
 78
     2
 67
     7
 79
     5
170
     0
171
     0
290
     0
174
     0
 93
        1
 44
0.0
173
     0
291
     1
 45
0.0
  0
VISUALSTYLE
  5
36
102
{ACAD_REACTORS
330
2A
102
}
330
2A
100
AcDbVisualStyle
  2
Brighten
 70
    12
 71
     2
 72
     2
 73
     0
 90
        0
 40
0.6
 41
30.0
 62
     5
 63
     7
421
 16777215
 74
     1
 91
        4
 64
     7
 65
   257
 75
     1
175
     1
 42
1.0
 92
        8
 66
     7
 43
1.0
 76
     1
 77
     6
 78
     2
 67
     7
 79
     5
170
     0
171
     0
290
     0
174
     0
 93
        1
 44
50.0
173
     0
291
     1
 45
0.0
  0
VISUALSTYLE
  5
3A
102
{ACAD_REACTORS
330
2A
102
}
330
2A
100
AcDbVisualStyle
  2
ColorChange
 70
    16
 71
     2
 72
     2
 73
     3
 90
        0
 40
0.6
 41
30.0
 62
     5
 63
     8
421
  8421504
 74
     1
 91
        4
 64
     7
 65
   257
 75
     1
175
     1
 42
1.0
 92
        8
 66
     8
424
  8421504
 43
1.0
 76
     1
 77
     6
 78
     2
 67
     7
 79
     5
170
     0
171
     0
290
     0
174
     0
 93
        1
 44
0.0
173
     0
291
     1
 45
0.0
  0
VISUALSTYLE
  5
34
102
{ACAD_REACTORS
330
2A
102
}
330
2A
100
AcDbVisualStyle
  2
Conceptual
 70
     9
 71
     3
 72
     2
 73
     0
 90
        0
 40
0.6
 41
30.0
 62
     5
 63
     7
421
 16777215
 74
     2
 91
        2
 64
     7
 65
   257
 75
     1
175
     1
 42
179.0
 92
        8
 66
     7
 43
1.0
 76
     1
 77
     6
 78
     2
 67
     7
 79
     3
170
     0
171
     0
290
     0
174
     0
 93
        1
 44
0.0
173
     0
291
     0
 45
0.0
  0
VISUALSTYLE
  5
35
102
{ACAD_REACTORS
330
2A
102
}
330
2A
100
AcDbVisualStyle
  2
Dim
 70
    11
 71
     2
 72
     2
 73
     0
 90
        0
 40
0.6
 41
30.0
 62
     5
 63
     7
421
 16777215
 74
     1
 91
        4
 64
     7
 65
   257
 75
     1
175
     1
 42
1.0
 92
        8
 66
     7
 43
1.0
 76
     1
 77
     6
 78
     2
 67
     7
 79
     5
170
     0
171
     0
290
     0
174
     0
 93
        1
 44
-50.0
173
     0
291
     1
 45
0.0
  0
VISUALSTYLE
  5
3D
102
{ACAD_REACTORS
330
2A
102
}
330
2A
100
AcDbVisualStyle
  2
EdgeColorOff
 70
    22
 71
     2
 72
     2
 73
     0
 90
        0
 40
0.6
 41
30.0
 62
     5
 63
     7
421
 16777215
 74
     1
 91
        4
 64
     7
 65
   257
 75
     1
175
     1
 42
1.0
 92
        8
 66
     7
 43
1.0
 76
     1
 77
     6
 78
     2
 67
     7
 79
     5
170
     0
171
     0
290
     0
174
     0
 93
        1
 44
0.0
173
     0
291
     1
 45
0.0
  0
VISUALSTYLE
  5
39
102
{ACAD_REACTORS
330
2A
102
}
330
2A
100
AcDbVisualStyle
  2
Facepattern
 70
    15
 71
     2
 72
     2
 73
     0
 90
        0
 40
0.6
 41
30.0
 62
     5
 63
     7
421
 16777215
 74
     1
 91
        4
 64
     7
 65
   257
 75
     1
175
     1
 42
1.0
 92
        8
 66
     7
 43
1.0
 76
     1
 77
     6
 78
     2
 67
     7
 79
     5
170
     0
171
     0
290
     0
174
     0
 93
        1
 44
0.0
173
     0
291
     1
 45
0.0
  0
VISUALSTYLE
  5
2B
102
{ACAD_REACTORS
330
2A
102
}
330
2A
100
AcDbVisualStyle
  2
Flat
 70
     0
 71
     2
 72
     1
 73
     1
 90
        2
 40
0.6
 41
30.0
 62
     5
 63
     7
421
 16777215
 74
     0
 91
        0
 64
     7
 65
   257
 75
     1
175
     1
 42
1.0
 92
        8
 66
     7
 43
1.0
 76
     1
 77
     6
 78
     2
 67
     7
 79
     5
170
     0
171
     0
290
     0
174
     0
 93
       13
 44
0.0
173
     0
291
     1
 45
0.0
  0
VISUALSTYLE
  5
2C
102
{ACAD_REACTORS
330
2A
102
}
330
2A
100
AcDbVisualStyle
  2
FlatWithEdges
 70
     1
 71
     2
 72
     1
 73
     1
 90
        2
 40
0.6
 41
30.0
 62
     5
 63
     7
421
 16777215
 74
     1
 91
        0
 64
     7
 65
   257
 75
     1
175
     1
 42
1.0
 92
        0
 66
   257
 43
1.0
 76
     1
 77
     6
 78
     2
 67
     7
 79
     5
170
     0
171
     0
290
     0
174
     0
 93
       13
 44
0.0
173
     0
291
     1
 45
0.0
  0
VISUALSTYLE
  5
2D
102
{ACAD_REACTORS
330
2A
102
}
330
2A
100
AcDbVisualStyle
  2
Gouraud
 70
     2
 71
     2
 72
     2
 73
     1
 90
        2
 40
0.6
 41
30.0
 62
     5
 63
     7
421
 16777215
 74
     0
 91
        0
 64
     7
 65
   257
 75
     1
175
     1
 42
1.0
 92
        0
 66
     7
 43
1.0
 76
     1
 77
     6
 78
     2
 67
     7
 79
     5
170
     0
171
     0
290
     0
174
     0
 93
       13
 44
0.0
173
     0
291
     1
 45
0.0
  0
VISUALSTYLE
  5
2E
102
{ACAD_REACTORS
330
2A
102
}
330
2A
100
AcDbVisualStyle
  2
GouraudWithEdges
 70
     3
 71
     2
 72
     2
 73
     1
 90
        2
 40
0.6
 41
30.0
 62
     5
 63
     7
421
 16777215
 74
     1
 91
        0
 64
     7
 65
   257
 75
     1
175
     1
 42
1.0
 92
        0
 66
   257
 43
1.0
 76
     1
 77
     6
 78
     2
 67
     7
 79
     5
170
     0
171
     0
290
     0
174
     0
 93
       13
 44
0.0
173
     0
291
     1
 45
0.0
  0
VISUALSTYLE
  5
31
102
{ACAD_REACTORS
330
2A
102
}
330
2A
100
AcDbVisualStyle
  2
Hidden
 70
     6
 71
     1
 72
     2
 73
     2
 90
        0
 40
0.6
 41
30.0
 62
     5
 63
     7
421
 16777215
 74
     2
 91
        2
 64
     7
 65
   257
 75
     2
175
     1
 42
40.0
 92
        0
 66
   257
 43
1.0
 76
     1
 77
     6
 78
     2
 67
     7
 79
     3
170
     0
171
     0
290
     0
174
     0
 93
        1
 44
0.0
173
     0
291
     0
 45
0.0
  0
VISUALSTYLE
  5
3B
102
{ACAD_REACTORS
330
2A
102
}
330
2A
100
AcDbVisualStyle
  2
JitterOff
 70
    20
 71
     2
 72
     2
 73
     0
 90
        0
 40
0.6
 41
30.0
 62
     5
 63
     7
421
 16777215
 74
     1
 91
        4
 64
     7
 65
   257
 75
     1
175
     1
 42
1.0
 92
       10
 66
     7
 43
1.0
 76
     1
 77
     6
 78
     2
 67
     7
 79
     5
170
     0
171
     0
290
     0
174
     0
 93
        1
 44
0.0
173
     0
291
     1
 45
0.0
  0
VISUALSTYLE
  5
38
102
{ACAD_REACTORS
330
2A
102
}
330
2A
100
AcDbVisualStyle
  2
Linepattern
 70
    14
 71
     2
 72
     2
 73
     0
 90
        0
 40
0.6
 41
30.0
 62
     5
 63
     7
421
 16777215
 74
     1
 91
        4
 64
     7
 65
   257
 75
     7
175
     7
 42
1.0
 92
        8
 66
     7
 43
1.0
 76
     1
 77
     6
 78
     2
 67
     7
 79
     5
170
     0
171
     0
290
     0
174
     0
 93
        1
 44
0.0
173
     0
291
     1
 45
0.0
  0
VISUALSTYLE
  5
3C
102
{ACAD_REACTORS
330
2A
102
}
330
2A
100
AcDbVisualStyle
  2
OverhangOff
 70
    21
 71
     2
 72
     2
 73
     0
 90
        0
 40
0.6
 41
30.0
 62
     5
 63
     7
421
 16777215
 74
     1
 91
        4
 64
     7
 65
   257
 75
     1
175
     1
 42
1.0
 92
        9
 66
     7
 43
1.0
 76
     1
 77
     6
 78
     2
 67
     7
 79
     5
170
     0
171
     0
290
     0
174
     0
 93
        1
 44
0.0
173
     0
291
     1
 45
0.0
  0
VISUALSTYLE
  5
33
102
{ACAD_REACTORS
330
2A
102
}
330
2A
100
AcDbVisualStyle
  2
Realistic
 70
     8
 71
     2
 72
     3
 73
     0
 90
        2
 40
0.6
 41
30.0
 62
     5
 63
     7
421
 16777215
 74
     0
 91
        0
 64
     7
 65
   257
 75
     1
175
     1
 42
1.0
 92
        8
 66
   257
 43
1.0
 76
     1
 77
     6
 78
     2
 67
     7
 79
     3
170
     0
171
     0
290
     0
174
     0
 93
       13
 44
0.0
173
     0
291
     0
 45
0.0
  0
VISUALSTYLE
  5
42
102
{ACAD_REACTORS
330
2A
102
}
330
2A
100
AcDbVisualStyle
  2
Shaded
 70
    27
 71
     2
 72
     2
 73
     1
 90
        2
 40
0.6
 41
30.0
 62
     5
 63
     7
421
 16777215
 74
     0
 91
        4
 64
     7
 65
   257
 75
     1
175
     1
 42
1.0
 92
        8
 66
   257
 43
1.0
 76
     1
 77
     6
 78
     2
 67
     8
425
  7895160
 79
     3
170
     0
171
     0
290
     0
174
     0
 93
        5
 44
0.0
173
     0
291
     0
 45
0.0
  0
VISUALSTYLE
  5
41
102
{ACAD_REACTORS
330
2A
102
}
330
2A
100
AcDbVisualStyle
  2
Shaded with edges
 70
    26
 71
     2
 72
     2
 73
     1
 90
        2
 40
0.6
 41
30.0
 62
     5
 63
     7
421
 16777215
 74
     1
 91
       10
 64
     7
 65
   257
 75
     2
175
     1
 42
1.0
 92
        8
 66
   257
 43
1.0
 76
     1
 77
     6
 78
     2
 67
     7
 79
     3
170
     0
171
     0
290
     0
174
     0
 93
        5
 44
0.0
173
     0
291
     0
 45
0.0
  0
VISUALSTYLE
  5
3E
102
{ACAD_REACTORS
330
2A
102
}
330
2A
100
AcDbVisualStyle
  2
Shades of Gray
 70
    23
 71
     2
 72
     2
 73
     3
 90
        0
 40
0.6
 41
30.0
 62
     5
 63
     7
421
 16777215
 74
     2
 91
        2
 64
     7
 65
     7
 75
     1
175
     1
 42
40.0
 92
        8
 66
     7
 43
1.0
 76
     1
 77
     6
 78
     2
 67
     7
 79
     3
170
     0
171
     0
290
     0
174
     0
 93
        1
 44
0.0
173
     0
291
     0
 45
0.0
  0
VISUALSTYLE
  5
3F
102
{ACAD_REACTORS
330
2A
102
}
330
2A
100
AcDbVisualStyle
  2
Sketchy
 70
    24
 71
     1
 72
     2
 73
     2
 90
        0
 40
0.6
 41
30.0
 62
     5
 63
     7
421
 16777215
 74
     2
 91
        2
 64
     7
 65
     7
 75
     1
175
     1
 42
40.0
 92
       11
 66
     7
 43
1.0
 76
     1
 77
     6
 78
     2
 67
     7
 79
     6
170
     0
171
     0
290
     0
174
     0
 93
        1
 44
0.0
173
     0
291
     0
 45
0.0
  0
VISUALSTYLE
  5
37
102
{ACAD_REACTORS
330
2A
102
}
330
2A
100
AcDbVisualStyle
  2
Thicken
 70
    13
 71
     2
 72
     2
 73
     0
 90
        0
 40
0.6
 41
30.0
 62
     5
 63
     7
421
 16777215
 74
     1
 91
        4
 64
     7
 65
   257
 75
     1
175
     1
 42
1.0
 92
       12
 66
     7
 43
1.0
 76
     1
 77
     6
 78
     2
 67
     7
 79
     5
170
     0
171
     0
290
     0
174
     0
 93
        1
 44
0.0
173
     0
291
     1
 45
0.0
  0
VISUALSTYLE
  5
30
102
{ACAD_REACTORS
330
2A
102
}
330
2A
100
AcDbVisualStyle
  2
Wireframe
 70
     5
 71
     0
 72
     2
 73
     0
 90
        0
 40
0.6
 41
30.0
 62
     5
 63
     7
421
 16777215
 74
     1
 91
        4
 64
     7
 65
   257
 75
     1
175
     1
 42
1.0
 92
        0
 66
   257
 43
1.0
 76
     1
 77
     6
 78
     2
 67
     7
 79
     3
170
     0
171
     0
290
     0
174
     0
 93
        1
 44
0.0
173
     0
291
     0
 45
0.0
  0
VISUALSTYLE
  5
40
102
{ACAD_REACTORS
330
2A
102
}
330
2A
100
AcDbVisualStyle
  2
X-Ray
 70
    25
 71
     2
 72
     2
 73
     1
 90
        1
 40
0.5
 41
30.0
 62
     5
 63
     7
421
 16777215
 74
     1
 91
        0
 64
     7
 65
   257
 75
     1
175
     1
 42
1.0
 92
        8
 66
     7
 43
1.0
 76
     1
 77
     6
 78
     2
 67
     7
 79
     3
170
     0
171
     0
290
     0
174
     0
 93
       13
 44
0.0
173
     0
291
     0
 45
0.0
  0
DICTIONARYVAR
  5
203
102
{ACAD_REACTORS
330
202
102
}
330
202
100
DictionaryVariables
280
     0
  1
1:1
  0
DICTIONARYVAR
  5
20C
102
{ACAD_REACTORS
330
202
102
}
330
202
100
DictionaryVariables
280
     0
  1
3.500000
  0
DICTIONARYVAR
  5
20D
102
{ACAD_REACTORS
330
202
102
}
330
202
100
DictionaryVariables
280
     0
  1
acadiso.lin
  0
DICTIONARYVAR
  5
209
102
{ACAD_REACTORS
330
202
102
}
330
202
100
DictionaryVariables
280
     0
  1
Standard
  0
DICTIONARYVAR
  5
208
102
{ACAD_REACTORS
330
202
102
}
330
202
100
DictionaryVariables
280
     0
  1
Standard
  0
DICTIONARY
  5
204
330
6A
100
AcDbDictionary
280
     1
281
     1
  3
ACAD_ROUNDTRIP_2008_TABLESTYLE_CELLSTYLEMAP
360
205
  0
CELLSTYLEMAP
  5
205
102
{ACAD_REACTORS
330
204
102
}
330
204
100
AcDbCellStyleMap
 90
        3
300
CELLSTYLE
  1
TABLEFORMAT_BEGIN
 90
        5
170
     1
 91
        0
 92
    32768
 62
   257
 93
        1
300
CONTENTFORMAT
  1
CONTENTFORMAT_BEGIN
 90
        0
 91
        0
 92
        4
 93
        0
300

 40
0.0
140
1.0
 94
        5
 62
     0
340
11
144
6.0
309
CONTENTFORMAT_END
171
     1
301
MARGIN
  1
CELLMARGIN_BEGIN
 40
1.5
 40
1.5
 40
1.5
 40
1.5
 40
1.5
 40
1.5
309
CELLMARGIN_END
 94
        6
 95
        1
302
GRIDFORMAT
  1
GRIDFORMAT_BEGIN
 90
        0
 91
        1
 62
     0
 92
       -2
340
14
 93
        0
 40
0.045
309
GRIDFORMAT_END
 95
        2
302
GRIDFORMAT
  1
GRIDFORMAT_BEGIN
 90
        0
 91
        1
 62
     0
 92
       -2
340
14
 93
        0
 40
0.045
309
GRIDFORMAT_END
 95
        4
302
GRIDFORMAT
  1
GRIDFORMAT_BEGIN
 90
        0
 91
        1
 62
     0
 92
       -2
340
14
 93
        0
 40
0.045
309
GRIDFORMAT_END
 95
        8
302
GRIDFORMAT
  1
GRIDFORMAT_BEGIN
 90
        0
 91
        1
 62
     0
 92
       -2
340
14
 93
        0
 40
0.045
309
GRIDFORMAT_END
 95
       16
302
GRIDFORMAT
  1
GRIDFORMAT_BEGIN
 90
        0
 91
        1
 62
     0
 92
       -2
340
14
 93
        0
 40
0.045
309
GRIDFORMAT_END
 95
       32
302
GRIDFORMAT
  1
GRIDFORMAT_BEGIN
 90
        0
 91
        1
 62
     0
 92
       -2
340
14
 93
        0
 40
0.045
309
GRIDFORMAT_END
309
TABLEFORMAT_END
  1
CELLSTYLE_BEGIN
 90
        1
 91
        1
300
_TITLE
309
CELLSTYLE_END
300
CELLSTYLE
  1
TABLEFORMAT_BEGIN
 90
        5
170
     1
 91
        0
 92
        0
 62
   257
 93
        1
300
CONTENTFORMAT
  1
CONTENTFORMAT_BEGIN
 90
        0
 91
        0
 92
        4
 93
        0
300

 40
0.0
140
1.0
 94
        5
 62
     0
340
11
144
4.5
309
CONTENTFORMAT_END
171
     1
301
MARGIN
  1
CELLMARGIN_BEGIN
 40
1.5
 40
1.5
 40
1.5
 40
1.5
 40
1.5
 40
1.5
309
CELLMARGIN_END
 94
        6
 95
        1
302
GRIDFORMAT
  1
GRIDFORMAT_BEGIN
 90
        0
 91
        1
 62
     0
 92
       -2
340
14
 93
        0
 40
0.045
309
GRIDFORMAT_END
 95
        2
302
GRIDFORMAT
  1
GRIDFORMAT_BEGIN
 90
        0
 91
        1
 62
     0
 92
       -2
340
14
 93
        0
 40
0.045
309
GRIDFORMAT_END
 95
        4
302
GRIDFORMAT
  1
GRIDFORMAT_BEGIN
 90
        0
 91
        1
 62
     0
 92
       -2
340
14
 93
        0
 40
0.045
309
GRIDFORMAT_END
 95
        8
302
GRIDFORMAT
  1
GRIDFORMAT_BEGIN
 90
        0
 91
        1
 62
     0
 92
       -2
340
14
 93
        0
 40
0.045
309
GRIDFORMAT_END
 95
       16
302
GRIDFORMAT
  1
GRIDFORMAT_BEGIN
 90
        0
 91
        1
 62
     0
 92
       -2
340
14
 93
        0
 40
0.045
309
GRIDFORMAT_END
 95
       32
302
GRIDFORMAT
  1
GRIDFORMAT_BEGIN
 90
        0
 91
        1
 62
     0
 92
       -2
340
14
 93
        0
 40
0.045
309
GRIDFORMAT_END
309
TABLEFORMAT_END
  1
CELLSTYLE_BEGIN
 90
        2
 91
        1
300
_HEADER
309
CELLSTYLE_END
300
CELLSTYLE
  1
TABLEFORMAT_BEGIN
 90
        5
170
     1
 91
        0
 92
        0
 62
   257
 93
        1
300
CONTENTFORMAT
  1
CONTENTFORMAT_BEGIN
 90
        0
 91
        0
 92
        4
 93
        0
300

 40
0.0
140
1.0
 94
        2
 62
     0
340
11
144
4.5
309
CONTENTFORMAT_END
171
     1
301
MARGIN
  1
CELLMARGIN_BEGIN
 40
1.5
 40
1.5
 40
1.5
 40
1.5
 40
1.5
 40
1.5
309
CELLMARGIN_END
 94
        6
 95
        1
302
GRIDFORMAT
  1
GRIDFORMAT_BEGIN
 90
        0
 91
        1
 62
     0
 92
       -2
340
14
 93
        0
 40
0.045
309
GRIDFORMAT_END
 95
        2
302
GRIDFORMAT
  1
GRIDFORMAT_BEGIN
 90
        0
 91
        1
 62
     0
 92
       -2
340
14
 93
        0
 40
0.045
309
GRIDFORMAT_END
 95
        4
302
GRIDFORMAT
  1
GRIDFORMAT_BEGIN
 90
        0
 91
        1
 62
     0
 92
       -2
340
14
 93
        0
 40
0.045
309
GRIDFORMAT_END
 95
        8
302
GRIDFORMAT
  1
GRIDFORMAT_BEGIN
 90
        0
 91
        1
 62
     0
 92
       -2
340
14
 93
        0
 40
0.045
309
GRIDFORMAT_END
 95
       16
302
GRIDFORMAT
  1
GRIDFORMAT_BEGIN
 90
        0
 91
        1
 62
     0
 92
       -2
340
14
 93
        0
 40
0.045
309
GRIDFORMAT_END
 95
       32
302
GRIDFORMAT
  1
GRIDFORMAT_BEGIN
 90
        0
 91
        1
 62
     0
 92
       -2
340
14
 93
        0
 40
0.045
309
GRIDFORMAT_END
309
TABLEFORMAT_END
  1
CELLSTYLE_BEGIN
 90
        3
 91
        2
300
_DATA
309
CELLSTYLE_END
  0
ENDSEC
  0
EOF
