  0
SECTION
  2
HEADER
  9
$ACADVER
  1
AC1021
  9
$ACADMAINTVER
 70
    25
  9
$DWGCODEPAGE
  3
ANSI_1252
  9
$INSBASE
 10
0.0
 20
0.0
 30
0.0
  9
$EXTMIN
 10
-225.0
 20
-225.0
 30
0.0
  9
$EXTMAX
 10
225.0
 20
225.0
 30
0.0
  9
$LIMMIN
 10
0.0
 20
0.0
  9
$LIMMAX
 10
420.0
 20
297.0
  9
$ORTHOMODE
 70
     0
  9
$REGENMODE
 70
     1
  9
$FILLMODE
 70
     1
  9
$QTEXTMODE
 70
     0
  9
$MIRRTEXT
 70
     1
  9
$LTSCALE
 40
1.0
  9
$ATTMODE
 70
     1
  9
$TEXTSIZE
 40
3.5
  9
$TRACEWID
 40
1.0
  9
$TEXTSTYLE
  7
STANDARD
  9
$CLAYER
  8
0
  9
$CELTYPE
  6
ByLayer
  9
$CECOLOR
 62
   256
  9
$CELTSCALE
 40
1.0
  9
$DISPSILH
 70
     0
  9
$DIMSCALE
 40
1.0
  9
$DIMASZ
 40
6.0
  9
$DIMEXO
 40
1.0
  9
$DIMDLI
 40
3.75
  9
$DIMRND
 40
0.0
  9
$DIMDLE
 40
0.0
  9
$DIMEXE
 40
1.0
  9
$DIMTP
 40
0.0
  9
$DIMTM
 40
0.0
  9
$DIMTXT
 40
3.5
  9
$DIMCEN
 40
2.5
  9
$DIMTSZ
 40
0.0
  9
$DIMTOL
 70
     0
  9
$DIMLIM
 70
     0
  9
$DIMTIH
 70
     1
  9
$DIMTOH
 70
     1
  9
$DIMSE1
 70
     0
  9
$DIMSE2
 70
     0
  9
$DIMTAD
 70
     1
  9
$DIMZIN
 70
     0
  9
$DIMBLK
  1

  9
$DIMASO
 70
     1
  9
$DIMSHO
 70
     1
  9
$DIMPOST
  1

  9
$DIMAPOST
  1

  9
$DIMALT
 70
     0
  9
$DIMALTD
 70
     3
  9
$DIMALTF
 40
0.0393700787
  9
$DIMLFAC
 40
1.0
  9
$DIMTOFL
 70
     1
  9
$DIMTVP
 40
0.0
  9
$DIMTIX
 70
     0
  9
$DIMSOXD
 70
     0
  9
$DIMSAH
 70
     0
  9
$DIMBLK1
  1

  9
$DIMBLK2
  1

  9
$DIMSTYLE
  2
ISO-25
  9
$DIMCLRD
 70
     0
  9
$DIMCLRE
 70
     0
  9
$DIMCLRT
 70
     0
  9
$DIMTFAC
 40
1.0
  9
$DIMGAP
 40
1.524
  9
$DIMJUST
 70
     0
  9
$DIMSD1
 70
     0
  9
$DIMSD2
 70
     0
  9
$DIMTOLJ
 70
     0
  9
$DIMTZIN
 70
     0
  9
$DIMALTZ
 70
     0
  9
$DIMALTTZ
 70
     0
  9
$DIMUPT
 70
     0
  9
$DIMDEC
 70
     2
  9
$DIMTDEC
 70
     2
  9
$DIMALTU
 70
     2
  9
$DIMALTTD
 70
     3
  9
$DIMTXSTY
  7
STANDARD
  9
$DIMAUNIT
 70
     0
  9
$DIMADEC
 70
     2
  9
$DIMALTRND
 40
0.0
  9
$DIMAZIN
 70
     0
  9
$DIMDSEP
 70
    44
  9
$DIMATFIT
 70
     3
  9
$DIMFRAC
 70
     0
  9
$DIMLDRBLK
  1

  9
$DIMLUNIT
 70
     2
  9
$DIMLWD
 70
    -2
  9
$DIMLWE
 70
    -2
  9
$DIMTMOVE
 70
     0
  9
$DIMFXL
 40
1.0
  9
$DIMFXLON
 70
     0
  9
$DIMJOGANG
 40
0.7853981634
  9
$DIMTFILL
 70
     0
  9
$DIMTFILLCLR
 70
     0
  9
$DIMARCSYM
 70
     0
  9
$DIMLTYPE
  6

  9
$DIMLTEX1
  6

  9
$DIMLTEX2
  6

  9
$LUNITS
 70
     2
  9
$LUPREC
 70
     2
  9
$SKETCHINC
 40
1.0
  9
$FILLETRAD
 40
10.0
  9
$AUNITS
 70
     0
  9
$AUPREC
 70
     2
  9
$MENU
  1
.
  9
$ELEVATION
 40
0.0
  9
$PELEVATION
 40
0.0
  9
$THICKNESS
 40
0.0
  9
$LIMCHECK
 70
     0
  9
$CHAMFERA
 40
0.0
  9
$CHAMFERB
 40
0.0
  9
$CHAMFERC
 40
0.0
  9
$CHAMFERD
 40
0.0
  9
$SKPOLY
 70
     0
  9
$TDCREATE
 40
2458535.486042998
  9
$TDUCREATE
 40
2458535.444376331
  9
$TDUPDATE
 40
2458535.486077026
  9
$TDUUPDATE
 40
2458535.444410359
  9
$TDINDWG
 40
0.0000000116
  9
$TDUSRTIMER
 40
0.0000000116
  9
$USRTIMER
 70
     1
  9
$ANGBASE
 50
0.0
  9
$ANGDIR
 70
     0
  9
$PDMODE
 70
     0
  9
$PDSIZE
 40
-1.0
  9
$PLINEWID
 40
0.0
  9
$SPLFRAME
 70
     0
  9
$SPLINETYPE
 70
     6
  9
$SPLINESEGS
 70
     8
  9
$HANDSEED
  5
1EE
  9
$SURFTAB1
 70
     6
  9
$SURFTAB2
 70
     6
  9
$SURFTYPE
 70
     6
  9
$SURFU
 70
     6
  9
$SURFV
 70
     6
  9
$UCSBASE
  2

  9
$UCSNAME
  2

  9
$UCSORG
 10
0.0
 20
0.0
 30
0.0
  9
$UCSXDIR
 10
1.0
 20
0.0
 30
0.0
  9
$UCSYDIR
 10
0.0
 20
1.0
 30
0.0
  9
$UCSORTHOREF
  2

  9
$UCSORTHOVIEW
 70
     0
  9
$UCSORGTOP
 10
0.0
 20
0.0
 30
0.0
  9
$UCSORGBOTTOM
 10
0.0
 20
0.0
 30
0.0
  9
$UCSORGLEFT
 10
0.0
 20
0.0
 30
0.0
  9
$UCSORGRIGHT
 10
0.0
 20
0.0
 30
0.0
  9
$UCSORGFRONT
 10
0.0
 20
0.0
 30
0.0
  9
$UCSORGBACK
 10
0.0
 20
0.0
 30
0.0
  9
$PUCSBASE
  2

  9
$PUCSNAME
  2

  9
$PUCSORG
 10
0.0
 20
0.0
 30
0.0
  9
$PUCSXDIR
 10
1.0
 20
0.0
 30
0.0
  9
$PUCSYDIR
 10
0.0
 20
1.0
 30
0.0
  9
$PUCSORTHOREF
  2

  9
$PUCSORTHOVIEW
 70
     0
  9
$PUCSORGTOP
 10
0.0
 20
0.0
 30
0.0
  9
$PUCSORGBOTTOM
 10
0.0
 20
0.0
 30
0.0
  9
$PUCSORGLEFT
 10
0.0
 20
0.0
 30
0.0
  9
$PUCSORGRIGHT
 10
0.0
 20
0.0
 30
0.0
  9
$PUCSORGFRONT
 10
0.0
 20
0.0
 30
0.0
  9
$PUCSORGBACK
 10
0.0
 20
0.0
 30
0.0
  9
$USERI1
 70
     0
  9
$USERI2
 70
     0
  9
$USERI3
 70
     0
  9
$USERI4
 70
     0
  9
$USERI5
 70
     0
  9
$USERR1
 40
0.0
  9
$USERR2
 40
0.0
  9
$USERR3
 40
0.0
  9
$USERR4
 40
0.0
  9
$USERR5
 40
0.0
  9
$WORLDVIEW
 70
     1
  9
$SHADEDGE
 70
     3
  9
$SHADEDIF
 70
    70
  9
$TILEMODE
 70
     1
  9
$MAXACTVP
 70
    64
  9
$PINSBASE
 10
0.0
 20
0.0
 30
0.0
  9
$PLIMCHECK
 70
     0
  9
$PEXTMIN
 10
-225.0
 20
-110.0
 30
0.0
  9
$PEXTMAX
 10
225.0
 20
0.0
 30
0.0
  9
$PLIMMIN
 10
-260.0194552529
 20
-123.1322957198
  9
$PLIMMAX
 10
260.0194552529
 20
244.5719844358
  9
$UNITMODE
 70
     0
  9
$VISRETAIN
 70
     1
  9
$PLINEGEN
 70
     0
  9
$PSLTSCALE
 70
     1
  9
$TREEDEPTH
 70
  3020
  9
$CMLSTYLE
  2
Standard
  9
$CMLJUST
 70
     0
  9
$CMLSCALE
 40
20.0
  9
$PROXYGRAPHICS
 70
     1
  9
$MEASUREMENT
 70
     1
  9
$CELWEIGHT
370
    -1
  9
$ENDCAPS
280
     0
  9
$JOINSTYLE
280
     0
  9
$LWDISPLAY
290
     1
  9
$INSUNITS
 70
     4
  9
$HYPERLINKBASE
  1

  9
$STYLESHEET
  1

  9
$XEDIT
290
     1
  9
$CEPSNTYPE
380
     0
  9
$PSTYLEMODE
290
     1
  9
$FINGERPRINTGUID
  2
{8bcb07fd-3e93-4b12-9571-4be8ddffe4e4}
  9
$VERSIONGUID
  2
{FAEB1C32-E019-11D5-929B-00C0DF256EC4}
  9
$EXTNAMES
290
     1
  9
$PSVPSCALE
 40
0.0
  9
$OLESTARTUP
290
     0
  9
$SORTENTS
280
   127
  9
$INDEXCTL
280
     0
  9
$HIDETEXT
280
     1
  9
$XCLIPFRAME
290
     0
  9
$HALOGAP
280
     0
  9
$OBSCOLOR
 70
   257
  9
$OBSLTYPE
280
     0
  9
$INTERSECTIONDISPLAY
280
     0
  9
$INTERSECTIONCOLOR
 70
   257
  9
$DIMASSOC
280
     2
  9
$PROJECTNAME
  1

  9
$CAMERADISPLAY
290
     0
  9
$LENSLENGTH
 40
50.0
  9
$CAMERAHEIGHT
 40
0.0
  9
$STEPSPERSEC
 40
2.0
  9
$STEPSIZE
 40
6.0
  9
$3DDWFPREC
 40
2.0
  9
$PSOLWIDTH
 40
5.0
  9
$PSOLHEIGHT
 40
80.0
  9
$LOFTANG1
 40
1.5707963268
  9
$LOFTANG2
 40
1.5707963268
  9
$LOFTMAG1
 40
0.0
  9
$LOFTMAG2
 40
0.0
  9
$LOFTPARAM
 70
     7
  9
$LOFTNORMALS
280
     1
  9
$LATITUDE
 40
37.795
  9
$LONGITUDE
 40
-122.394
  9
$NORTHDIRECTION
 40
0.0
  9
$TIMEZONE
 70
 -8000
  9
$LIGHTGLYPHDISPLAY
280
     1
  9
$TILEMODELIGHTSYNCH
280
     1
  9
$CMATERIAL
347
44
  9
$SOLIDHIST
280
     0
  9
$SHOWHIST
280
     1
  9
$DWFFRAME
280
     2
  9
$DGNFRAME
280
     2
  9
$REALWORLDSCALE
290
     1
  9
$INTERFERECOLOR
 62
   256
  9
$CSHADOW
280
     0
  9
$SHADOWPLANELOCATION
 40
0.0
  0
ENDSEC
  0
SECTION
  2
CLASSES
  0
CLASS
  1
ACDBDICTIONARYWDFLT
  2
AcDbDictionaryWithDefault
  3
ObjectDBX Classes
 90
        0
 91
        3
280
     0
281
     0
  0
CLASS
  1
VISUALSTYLE
  2
AcDbVisualStyle
  3
ObjectDBX Classes
 90
     4095
 91
        3
280
     0
281
     0
  0
CLASS
  1
MATERIAL
  2
AcDbMaterial
  3
ObjectDBX Classes
 90
     1153
 91
        3
280
     0
281
     0
  0
CLASS
  1
SCALE
  2
AcDbScale
  3
ObjectDBX Classes
 90
     1153
 91
        3
280
     0
281
     0
  0
CLASS
  1
TABLESTYLE
  2
AcDbTableStyle
  3
ObjectDBX Classes
 90
     4095
 91
        3
280
     0
281
     0
  0
CLASS
  1
MLEADERSTYLE
  2
AcDbMLeaderStyle
  3
ACDB_MLEADERSTYLE_CLASS
 90
     4095
 91
        3
280
     0
281
     0
  0
CLASS
  1
SUN
  2
AcDbSun
  3
SCENEOE
 90
     1153
 91
        3
280
     0
281
     0
  0
CLASS
  1
DICTIONARYVAR
  2
AcDbDictionaryVar
  3
ObjectDBX Classes
 90
        0
 91
        3
280
     0
281
     0
  0
CLASS
  1
CELLSTYLEMAP
  2
AcDbCellStyleMap
  3
ObjectDBX Classes
 90
     1152
 91
        3
280
     0
281
     0
  0
ENDSEC
  0
SECTION
  2
TABLES
  0
TABLE
  2
VPORT
  5
8
330
0
100
AcDbSymbolTable
 70
     1
  0
VPORT
  5
29
330
8
100
AcDbSymbolTableRecord
100
AcDbViewportTableRecord
  2
*Active
 70
     0
 10
0.0
 20
0.0
 11
1.0
 21
1.0
 12
0.0
 22
0.0
 13
0.0
 23
0.0
 14
10.0
 24
10.0
 15
10.0
 25
10.0
 16
0.0
 26
0.0
 36
1.0
 17
0.0
 27
0.0
 37
0.0
 40
459.0
 41
1.0
 42
50.0
 43
0.0
 44
0.0
 50
0.0
 51
0.0
 71
     0
 72
   100
 73
     1
 74
     3
 75
     0
 76
     0
 77
     0
 78
     0
281
     0
 65
     1
110
0.0
120
0.0
130
0.0
111
1.0
121
0.0
131
0.0
112
0.0
122
1.0
132
0.0
 79
     0
146
0.0
348
2F
 60
     3
 61
     5
292
     1
282
     1
141
0.0
142
0.0
 63
   250
361
6D
  0
ENDTAB
  0
TABLE
  2
LTYPE
  5
5
330
0
100
AcDbSymbolTable
 70
     6
  0
LTYPE
  5
14
330
5
100
AcDbSymbolTableRecord
100
AcDbLinetypeTableRecord
  2
ByBlock
 70
     0
  3

 72
    65
 73
     0
 40
0.0
  0
LTYPE
  5
15
330
5
100
AcDbSymbolTableRecord
100
AcDbLinetypeTableRecord
  2
ByLayer
 70
     0
  3

 72
    65
 73
     0
 40
0.0
  0
LTYPE
  5
16
330
5
100
AcDbSymbolTableRecord
100
AcDbLinetypeTableRecord
  2
Continuous
 70
     0
  3
Solid line
 72
    65
 73
     0
 40
0.0
  0
LTYPE
  5
6E
330
5
100
AcDbSymbolTableRecord
100
AcDbLinetypeTableRecord
  2
HIDDEN
 70
     0
  3
Hidden __ __ __ __ __ __ __ __ __ __ __ __ __ __
 72
    65
 73
     2
 40
1.905
 49
1.27
 74
     0
 49
-0.635
 74
     0
  0
LTYPE
  5
6F
330
5
100
AcDbSymbolTableRecord
100
AcDbLinetypeTableRecord
  2
PHANTOM
 70
     0
  3
Phantom ______  __  __  ______  __  __  ______
 72
    65
 73
     6
 40
12.7
 49
6.35
 74
     0
 49
-1.27
 74
     0
 49
1.27
 74
     0
 49
-1.27
 74
     0
 49
1.27
 74
     0
 49
-1.27
 74
     0
  0
LTYPE
  5
70
330
5
100
AcDbSymbolTableRecord
100
AcDbLinetypeTableRecord
  2
CENTER
 70
     0
  3
Center ____ _ ____ _ ____ _ ____ _ ____ _ ____
 72
    65
 73
     4
 40
10.16
 49
6.35
 74
     0
 49
-1.27
 74
     0
 49
1.27
 74
     0
 49
-1.27
 74
     0
  0
LTYPE
  5
71
330
5
100
AcDbSymbolTableRecord
100
AcDbLinetypeTableRecord
  2
CENTERX2
 70
     0
  3
Center (2x) ________  __  ________  __  _____
 72
    65
 73
     4
 40
20.32
 49
12.7
 74
     0
 49
-2.54
 74
     0
 49
2.54
 74
     0
 49
-2.54
 74
     0
  0
LTYPE
  5
72
330
5
100
AcDbSymbolTableRecord
100
AcDbLinetypeTableRecord
  2
DOT2
 70
     0
  3
Dot (.5x) ........................................
 72
    65
 73
     2
 40
0.635
 49
0.0
 74
     0
 49
-0.635
 74
     0
  0
ENDTAB
  0
TABLE
  2
LAYER
  5
2
330
0
100
AcDbSymbolTable
 70
     1
  0
LAYER
  5
10
330
2
100
AcDbSymbolTableRecord
100
AcDbLayerTableRecord
  2
0
 70
     0
 62
     7
  6
Continuous
370
    -3
390
F
347
46
  0
ENDTAB
  0
TABLE
  2
STYLE
  5
3
330
0
100
AcDbSymbolTable
 70
     1
  0
STYLE
  5
11
330
3
100
AcDbSymbolTableRecord
100
AcDbTextStyleTableRecord
  2
STANDARD
 70
     0
 40
0.0
 41
1.0
 50
0.0
 71
     0
 42
3.5
  3
GOTHIC.TTF
  4

1001
ACAD
1000
CENTURY GOTHIC
1071
       34
  0
ENDTAB
  0
TABLE
  2
VIEW
  5
6
330
0
100
AcDbSymbolTable
 70
     0
  0
ENDTAB
  0
TABLE
  2
UCS
  5
7
330
0
100
AcDbSymbolTable
 70
     0
  0
ENDTAB
  0
TABLE
  2
APPID
  5
9
330
0
100
AcDbSymbolTable
 70
     2
  0
APPID
  5
12
330
9
100
AcDbSymbolTableRecord
100
AcDbRegAppTableRecord
  2
ACAD
 70
     0
  0
APPID
  5
1E6
330
9
100
AcDbSymbolTableRecord
100
AcDbRegAppTableRecord
  2
ACAD_MLEADERVER
 70
     0
  0
ENDTAB
  0
TABLE
  2
DIMSTYLE
  5
A
330
0
100
AcDbSymbolTable
 70
     1
100
AcDbDimStyleTable
  0
DIMSTYLE
105
27
330
A
100
AcDbSymbolTableRecord
100
AcDbDimStyleTableRecord
  2
ISO-25
 70
     0
 41
2.5
 42
0.625
 43
3.75
 44
1.25
 73
     0
 74
     0
 77
     1
 78
     8
140
2.5
141
2.5
143
0.0393700787
147
0.625
171
     3
172
     1
178
     0
271
     2
272
     2
274
     3
278
    44
283
     0
284
     8
340
11
  0
ENDTAB
  0
TABLE
  2
BLOCK_RECORD
  5
1
330
0
100
AcDbSymbolTable
 70
     8
  0
BLOCK_RECORD
  5
1F
330
1
100
AcDbSymbolTableRecord
100
AcDbBlockTableRecord
  2
*Model_Space
340
22
 70
     0
280
     1
281
     0
  0
BLOCK_RECORD
  5
1B
330
1
100
AcDbSymbolTableRecord
100
AcDbBlockTableRecord
  2
*Paper_Space
340
1E
 70
     0
280
     1
281
     0
  0
BLOCK_RECORD
  5
23
330
1
100
AcDbSymbolTableRecord
100
AcDbBlockTableRecord
  2
*Paper_Space0
340
26
 70
     0
280
     1
281
     0
  0
BLOCK_RECORD
  5
CC
330
1
100
AcDbSymbolTableRecord
100
AcDbBlockTableRecord
  2
*Paper_Space1
340
CD
 70
     0
280
     1
281
     0
  0
BLOCK_RECORD
  5
FC
330
1
100
AcDbSymbolTableRecord
100
AcDbBlockTableRecord
  2
*Paper_Space2
340
FD
 70
     0
280
     1
281
     0
  0
BLOCK_RECORD
  5
128
330
1
100
AcDbSymbolTableRecord
100
AcDbBlockTableRecord
  2
*Paper_Space3
340
129
 70
     0
280
     1
281
     0
  0
BLOCK_RECORD
  5
154
330
1
100
AcDbSymbolTableRecord
100
AcDbBlockTableRecord
  2
*Paper_Space4
340
155
 70
     0
280
     1
281
     0
  0
BLOCK_RECORD
  5
15D
330
1
100
AcDbSymbolTableRecord
100
AcDbBlockTableRecord
  2
*Paper_Space5
340
15E
 70
     0
280
     1
281
     0
  0
BLOCK_RECORD
  5
181
330
1
100
AcDbSymbolTableRecord
100
AcDbBlockTableRecord
  2
*Paper_Space6
340
182
 70
     0
280
     1
281
     0
  0
BLOCK_RECORD
  5
1AE
330
1
100
AcDbSymbolTableRecord
100
AcDbBlockTableRecord
  2
*Paper_Space7
340
1AF
 70
     0
280
     1
281
     0
  0
ENDTAB
  0
ENDSEC
  0
SECTION
  2
BLOCKS
  0
BLOCK
  5
20
330
1F
100
AcDbEntity
  8
0
100
AcDbBlockBegin
  2
*Model_Space
 70
     0
 10
0.0
 20
0.0
 30
0.0
  3
*Model_Space
  1

  0
ENDBLK
  5
21
330
1F
100
AcDbEntity
  8
0
100
AcDbBlockEnd
  0
BLOCK
  5
1C
330
1B
100
AcDbEntity
 67
     1
  8
0
100
AcDbBlockBegin
  2
*Paper_Space
 70
     0
 10
0.0
 20
0.0
 30
0.0
  3
*Paper_Space
  1

  0
ENDBLK
  5
1D
330
1B
100
AcDbEntity
 67
     1
  8
0
100
AcDbBlockEnd
  0
BLOCK
  5
24
330
23
100
AcDbEntity
  8
0
100
AcDbBlockBegin
  2
*Paper_Space0
 70
     0
 10
0.0
 20
0.0
 30
0.0
  3
*Paper_Space0
  1

  0
LINE
  5
B8
330
23
100
AcDbEntity
  8
0
  6
Continuous
 62
     7
370
    25
100
AcDbLine
 10
-52.5
 20
-105.8844855625
 30
0.0
 11
-52.5
 21
-110.0
 31
0.0
  0
LINE
  5
B9
330
23
100
AcDbEntity
  8
0
  6
Continuous
 62
     7
370
    25
100
AcDbLine
 10
52.5
 20
-110.0
 30
0.0
 11
52.5
 21
-105.8844855625
 31
0.0
  0
LINE
  5
BA
330
23
100
AcDbEntity
  8
0
  6
Continuous
 62
     7
370
    25
100
AcDbLine
 10
-225.0
 20
0.0
 30
0.0
 11
225.0
 21
0.0
 31
0.0
  0
LINE
  5
BB
330
23
100
AcDbEntity
  8
0
  6
Continuous
 62
     7
370
    25
100
AcDbLine
 10
-52.5
 20
-110.0
 30
0.0
 11
52.5
 21
-110.0
 31
0.0
  0
LINE
  5
BC
330
23
100
AcDbEntity
  8
0
  6
HIDDEN
 62
     7
370
    18
100
AcDbLine
 10
-34.9175359259
 20
-90.0
 30
0.0
 11
34.9175359259
 21
-90.0
 31
0.0
  0
LINE
  5
BD
330
23
100
AcDbEntity
  8
0
  6
HIDDEN
 62
     7
370
    18
100
AcDbLine
 10
-23.0
 20
-100.0
 30
0.0
 11
23.0
 21
-100.0
 31
0.0
  0
LINE
  5
BE
330
23
100
AcDbEntity
  8
0
  6
HIDDEN
 62
     7
370
    18
100
AcDbLine
 10
-34.9175359259
 20
-90.0
 30
0.0
 11
-23.0
 21
-100.0
 31
0.0
  0
LINE
  5
BF
330
23
100
AcDbEntity
  8
0
  6
HIDDEN
 62
     7
370
    18
100
AcDbLine
 10
23.0
 20
-100.0
 30
0.0
 11
34.9175359259
 21
-90.0
 31
0.0
  0
LINE
  5
C0
330
23
100
AcDbEntity
  8
0
  6
HIDDEN
 62
     7
370
    18
100
AcDbLine
 10
-23.0
 20
-100.0
 30
0.0
 11
-23.0
 21
-110.0
 31
0.0
  0
LINE
  5
C1
330
23
100
AcDbEntity
  8
0
  6
HIDDEN
 62
     7
370
    18
100
AcDbLine
 10
23.0
 20
-110.0
 30
0.0
 11
23.0
 21
-100.0
 31
0.0
  0
ARC
  5
C2
330
23
100
AcDbEntity
  8
0
  6
Continuous
 62
     7
370
    25
100
AcDbCircle
 10
-118.5905387045
 20
34.3658708487
 30
0.0
 40
111.8212257685772
100
AcDbArc
 50
197.8983184772
 51
237.5285111071
  0
ARC
  5
C3
330
23
100
AcDbEntity
  8
0
  6
Continuous
 62
     7
370
    25
100
AcDbCircle
 10
118.5905387045
 20
34.3658708487
 30
0.0
 40
111.8212257685768
100
AcDbArc
 50
302.4714888929
 51
342.1016815228
  0
ARC
  5
C4
330
23
100
AcDbEntity
  8
0
  6
Continuous
 62
     7
370
    25
100
AcDbCircle
 10
-34.9175359259
 20
165.8505153243
 30
0.0
 40
267.6717410928925
100
AcDbArc
 50
237.5285111071
 51
265.2493661897
  0
ARC
  5
C5
330
23
100
AcDbEntity
  8
0
  6
Continuous
 62
     7
370
    25
100
AcDbCircle
 10
34.9175359259
 20
165.8505153243
 30
0.0
 40
267.6717410928941
100
AcDbArc
 50
274.7506338103
 51
302.4714888929
  0
ARC
  5
C6
330
23
100
AcDbEntity
  8
0
  6
Continuous
 62
     7
370
    25
100
AcDbCircle
 10
-57.5
 20
-105.8844855625
 30
0.0
 40
5.000000000000021
100
AcDbArc
 50
0.0
 51
85.2493661897
  0
ARC
  5
C7
330
23
100
AcDbEntity
  8
0
  6
Continuous
 62
     7
370
    25
100
AcDbCircle
 10
57.5
 20
-105.8844855625
 30
0.0
 40
5.000000000000005
100
AcDbArc
 50
94.7506338103
 51
180.0
  0
ARC
  5
C8
330
23
100
AcDbEntity
  8
0
  6
HIDDEN
 62
     7
370
    18
100
AcDbCircle
 10
-118.5905387045
 20
34.3658708487
 30
0.0
 40
100.0000000000008
100
AcDbArc
 50
200.0999398364
 51
237.5285111071
  0
ARC
  5
C9
330
23
100
AcDbEntity
  8
0
  6
HIDDEN
 62
     7
370
    18
100
AcDbCircle
 10
118.5905387045
 20
34.3658708487
 30
0.0
 40
100.0000000000008
100
AcDbArc
 50
302.4714888929
 51
339.9000601636
  0
ARC
  5
CA
330
23
100
AcDbEntity
  8
0
  6
HIDDEN
 62
     7
370
    18
100
AcDbCircle
 10
-34.9175359259
 20
165.8505153243
 30
0.0
 40
255.8505153243143
100
AcDbArc
 50
237.5285111071
 51
270.0
  0
ARC
  5
CB
330
23
100
AcDbEntity
  8
0
  6
HIDDEN
 62
     7
370
    18
100
AcDbCircle
 10
34.9175359259
 20
165.8505153243
 30
0.0
 40
255.8505153243146
100
AcDbArc
 50
270.0
 51
302.4714888929
  0
VIEWPORT
  5
1D2
330
23
100
AcDbEntity
  8
0
100
AcDbViewport
 10
0.0
 20
0.0
 30
0.0
 40
205.6
 41
156.0
 68
     1
 69
     1
 12
0.0
 22
0.0
 13
0.0
 23
0.0
 14
10.0
 24
10.0
 15
10.0
 25
10.0
 16
0.0
 26
0.0
 36
1.0
 17
0.0
 27
0.0
 37
0.0
 42
50.0
 43
0.0
 44
0.0
 45
459.0
 50
0.0
 51
0.0
 72
   100
 90
   557152
  1

281
     0
 71
     1
 74
     0
110
0.0
120
0.0
130
0.0
111
1.0
121
0.0
131
0.0
112
0.0
122
1.0
132
0.0
 79
     0
146
0.0
170
     0
 61
     5
348
2F
292
     1
282
     1
141
0.0
142
0.0
 63
   256
361
1D3
  0
ENDBLK
  5
25
330
23
100
AcDbEntity
  8
0
100
AcDbBlockEnd
  0
BLOCK
  5
CE
330
CC
100
AcDbEntity
  8
0
100
AcDbBlockBegin
  2
*Paper_Space1
 70
     0
 10
0.0
 20
0.0
 30
0.0
  3
*Paper_Space1
  1

  0
LINE
  5
E8
330
CC
100
AcDbEntity
  8
0
  6
Continuous
 62
     7
370
    25
100
AcDbLine
 10
-52.5
 20
-105.8844855625
 30
0.0
 11
-52.5
 21
-110.0
 31
0.0
  0
LINE
  5
E9
330
CC
100
AcDbEntity
  8
0
  6
Continuous
 62
     7
370
    25
100
AcDbLine
 10
52.5
 20
-110.0
 30
0.0
 11
52.5
 21
-105.8844855625
 31
0.0
  0
LINE
  5
EA
330
CC
100
AcDbEntity
  8
0
  6
Continuous
 62
     7
370
    25
100
AcDbLine
 10
-225.0
 20
0.0
 30
0.0
 11
225.0
 21
0.0
 31
0.0
  0
LINE
  5
EB
330
CC
100
AcDbEntity
  8
0
  6
Continuous
 62
     7
370
    25
100
AcDbLine
 10
-52.5
 20
-110.0
 30
0.0
 11
52.5
 21
-110.0
 31
0.0
  0
LINE
  5
EC
330
CC
100
AcDbEntity
  8
0
  6
HIDDEN
 62
     7
370
    18
100
AcDbLine
 10
-34.9175359259
 20
-90.0
 30
0.0
 11
34.9175359259
 21
-90.0
 31
0.0
  0
LINE
  5
ED
330
CC
100
AcDbEntity
  8
0
  6
HIDDEN
 62
     7
370
    18
100
AcDbLine
 10
-23.0
 20
-100.0
 30
0.0
 11
23.0
 21
-100.0
 31
0.0
  0
LINE
  5
EE
330
CC
100
AcDbEntity
  8
0
  6
HIDDEN
 62
     7
370
    18
100
AcDbLine
 10
-34.9175359259
 20
-90.0
 30
0.0
 11
-23.0
 21
-100.0
 31
0.0
  0
LINE
  5
EF
330
CC
100
AcDbEntity
  8
0
  6
HIDDEN
 62
     7
370
    18
100
AcDbLine
 10
23.0
 20
-100.0
 30
0.0
 11
34.9175359259
 21
-90.0
 31
0.0
  0
LINE
  5
F0
330
CC
100
AcDbEntity
  8
0
  6
HIDDEN
 62
     7
370
    18
100
AcDbLine
 10
-23.0
 20
-100.0
 30
0.0
 11
-23.0
 21
-110.0
 31
0.0
  0
LINE
  5
F1
330
CC
100
AcDbEntity
  8
0
  6
HIDDEN
 62
     7
370
    18
100
AcDbLine
 10
23.0
 20
-110.0
 30
0.0
 11
23.0
 21
-100.0
 31
0.0
  0
ARC
  5
F2
330
CC
100
AcDbEntity
  8
0
  6
Continuous
 62
     7
370
    25
100
AcDbCircle
 10
-118.5905387045
 20
34.3658708487
 30
0.0
 40
111.8212257685772
100
AcDbArc
 50
197.8983184772
 51
237.5285111071
  0
ARC
  5
F3
330
CC
100
AcDbEntity
  8
0
  6
Continuous
 62
     7
370
    25
100
AcDbCircle
 10
118.5905387045
 20
34.3658708487
 30
0.0
 40
111.8212257685768
100
AcDbArc
 50
302.4714888929
 51
342.1016815228
  0
ARC
  5
F4
330
CC
100
AcDbEntity
  8
0
  6
Continuous
 62
     7
370
    25
100
AcDbCircle
 10
-34.9175359259
 20
165.8505153243
 30
0.0
 40
267.6717410928925
100
AcDbArc
 50
237.5285111071
 51
265.2493661897
  0
ARC
  5
F5
330
CC
100
AcDbEntity
  8
0
  6
Continuous
 62
     7
370
    25
100
AcDbCircle
 10
34.9175359259
 20
165.8505153243
 30
0.0
 40
267.6717410928941
100
AcDbArc
 50
274.7506338103
 51
302.4714888929
  0
ARC
  5
F6
330
CC
100
AcDbEntity
  8
0
  6
Continuous
 62
     7
370
    25
100
AcDbCircle
 10
-57.5
 20
-105.8844855625
 30
0.0
 40
5.000000000000007
100
AcDbArc
 50
0.0
 51
85.2493661897
  0
ARC
  5
F7
330
CC
100
AcDbEntity
  8
0
  6
Continuous
 62
     7
370
    25
100
AcDbCircle
 10
57.5
 20
-105.8844855625
 30
0.0
 40
5.000000000000023
100
AcDbArc
 50
94.7506338103
 51
180.0
  0
ARC
  5
F8
330
CC
100
AcDbEntity
  8
0
  6
HIDDEN
 62
     7
370
    18
100
AcDbCircle
 10
-118.5905387045
 20
34.3658708487
 30
0.0
 40
100.0000000000013
100
AcDbArc
 50
200.0999398364
 51
237.5285111071
  0
ARC
  5
F9
330
CC
100
AcDbEntity
  8
0
  6
HIDDEN
 62
     7
370
    18
100
AcDbCircle
 10
118.5905387045
 20
34.3658708487
 30
0.0
 40
100.0000000000009
100
AcDbArc
 50
302.4714888929
 51
339.9000601636
  0
ARC
  5
FA
330
CC
100
AcDbEntity
  8
0
  6
HIDDEN
 62
     7
370
    18
100
AcDbCircle
 10
-34.9175359259
 20
165.8505153243
 30
0.0
 40
255.8505153243142
100
AcDbArc
 50
237.5285111071
 51
270.0
  0
ARC
  5
FB
330
CC
100
AcDbEntity
  8
0
  6
HIDDEN
 62
     7
370
    18
100
AcDbCircle
 10
34.9175359259
 20
165.8505153243
 30
0.0
 40
255.8505153243147
100
AcDbArc
 50
270.0
 51
302.4714888929
  0
VIEWPORT
  5
1D4
330
CC
100
AcDbEntity
  8
0
100
AcDbViewport
 10
0.0
 20
0.0
 30
0.0
 40
205.6
 41
156.0
 68
     1
 69
     1
 12
0.0
 22
0.0
 13
0.0
 23
0.0
 14
10.0
 24
10.0
 15
10.0
 25
10.0
 16
0.0
 26
0.0
 36
1.0
 17
0.0
 27
0.0
 37
0.0
 42
50.0
 43
0.0
 44
0.0
 45
459.0
 50
0.0
 51
0.0
 72
   100
 90
   557152
  1

281
     0
 71
     1
 74
     0
110
0.0
120
0.0
130
0.0
111
1.0
121
0.0
131
0.0
112
0.0
122
1.0
132
0.0
 79
     0
146
0.0
170
     0
 61
     5
348
2F
292
     1
282
     1
141
0.0
142
0.0
 63
   256
361
1D5
  0
ENDBLK
  5
CF
330
CC
100
AcDbEntity
  8
0
100
AcDbBlockEnd
  0
BLOCK
  5
FE
330
FC
100
AcDbEntity
  8
0
100
AcDbBlockBegin
  2
*Paper_Space2
 70
     0
 10
0.0
 20
0.0
 30
0.0
  3
*Paper_Space2
  1

  0
LINE
  5
114
330
FC
100
AcDbEntity
  8
0
  6
Continuous
 62
     7
370
    25
100
AcDbLine
 10
-52.5
 20
-105.8844855625
 30
0.0
 11
-52.5
 21
-110.0
 31
0.0
  0
LINE
  5
115
330
FC
100
AcDbEntity
  8
0
  6
Continuous
 62
     7
370
    25
100
AcDbLine
 10
52.5
 20
-110.0
 30
0.0
 11
52.5
 21
-105.8844855625
 31
0.0
  0
LINE
  5
116
330
FC
100
AcDbEntity
  8
0
  6
Continuous
 62
     7
370
    25
100
AcDbLine
 10
-225.0
 20
0.0
 30
0.0
 11
225.0
 21
0.0
 31
0.0
  0
LINE
  5
117
330
FC
100
AcDbEntity
  8
0
  6
Continuous
 62
     7
370
    25
100
AcDbLine
 10
-52.5
 20
-110.0
 30
0.0
 11
52.5
 21
-110.0
 31
0.0
  0
LINE
  5
118
330
FC
100
AcDbEntity
  8
0
  6
HIDDEN
 62
     7
370
    18
100
AcDbLine
 10
-34.9175359259
 20
-90.0
 30
0.0
 11
34.9175359259
 21
-90.0
 31
0.0
  0
LINE
  5
119
330
FC
100
AcDbEntity
  8
0
  6
HIDDEN
 62
     7
370
    18
100
AcDbLine
 10
-23.0
 20
-100.0
 30
0.0
 11
23.0
 21
-100.0
 31
0.0
  0
LINE
  5
11A
330
FC
100
AcDbEntity
  8
0
  6
HIDDEN
 62
     7
370
    18
100
AcDbLine
 10
-34.9175359259
 20
-90.0
 30
0.0
 11
-23.0
 21
-100.0
 31
0.0
  0
LINE
  5
11B
330
FC
100
AcDbEntity
  8
0
  6
HIDDEN
 62
     7
370
    18
100
AcDbLine
 10
23.0
 20
-100.0
 30
0.0
 11
34.9175359259
 21
-90.0
 31
0.0
  0
LINE
  5
11C
330
FC
100
AcDbEntity
  8
0
  6
HIDDEN
 62
     7
370
    18
100
AcDbLine
 10
-23.0
 20
-100.0
 30
0.0
 11
-23.0
 21
-110.0
 31
0.0
  0
LINE
  5
11D
330
FC
100
AcDbEntity
  8
0
  6
HIDDEN
 62
     7
370
    18
100
AcDbLine
 10
23.0
 20
-110.0
 30
0.0
 11
23.0
 21
-100.0
 31
0.0
  0
ARC
  5
11E
330
FC
100
AcDbEntity
  8
0
  6
Continuous
 62
     7
370
    25
100
AcDbCircle
 10
-118.5905387045
 20
34.3658708487
 30
0.0
 40
111.8212257685772
100
AcDbArc
 50
197.8983184772
 51
237.5285111071
  0
ARC
  5
11F
330
FC
100
AcDbEntity
  8
0
  6
Continuous
 62
     7
370
    25
100
AcDbCircle
 10
118.5905387045
 20
34.3658708487
 30
0.0
 40
111.8212257685768
100
AcDbArc
 50
302.4714888929
 51
342.1016815228
  0
ARC
  5
120
330
FC
100
AcDbEntity
  8
0
  6
Continuous
 62
     7
370
    25
100
AcDbCircle
 10
-34.9175359259
 20
165.8505153243
 30
0.0
 40
267.6717410928924
100
AcDbArc
 50
237.5285111071
 51
265.2493661897
  0
ARC
  5
121
330
FC
100
AcDbEntity
  8
0
  6
Continuous
 62
     7
370
    25
100
AcDbCircle
 10
34.9175359259
 20
165.8505153243
 30
0.0
 40
267.6717410928941
100
AcDbArc
 50
274.7506338103
 51
302.4714888929
  0
ARC
  5
122
330
FC
100
AcDbEntity
  8
0
  6
Continuous
 62
     7
370
    25
100
AcDbCircle
 10
-57.5
 20
-105.8844855625
 30
0.0
 40
5.000000000000006
100
AcDbArc
 50
0.0
 51
85.2493661897
  0
ARC
  5
123
330
FC
100
AcDbEntity
  8
0
  6
Continuous
 62
     7
370
    25
100
AcDbCircle
 10
57.5
 20
-105.8844855625
 30
0.0
 40
5.000000000000023
100
AcDbArc
 50
94.7506338103
 51
180.0
  0
ARC
  5
124
330
FC
100
AcDbEntity
  8
0
  6
HIDDEN
 62
     7
370
    18
100
AcDbCircle
 10
-118.5905387045
 20
34.3658708487
 30
0.0
 40
100.0000000000013
100
AcDbArc
 50
200.0999398364
 51
237.5285111071
  0
ARC
  5
125
330
FC
100
AcDbEntity
  8
0
  6
HIDDEN
 62
     7
370
    18
100
AcDbCircle
 10
118.5905387045
 20
34.3658708487
 30
0.0
 40
100.0000000000009
100
AcDbArc
 50
302.4714888929
 51
339.9000601636
  0
ARC
  5
126
330
FC
100
AcDbEntity
  8
0
  6
HIDDEN
 62
     7
370
    18
100
AcDbCircle
 10
-34.9175359259
 20
165.8505153243
 30
0.0
 40
255.8505153243143
100
AcDbArc
 50
237.5285111071
 51
270.0
  0
ARC
  5
127
330
FC
100
AcDbEntity
  8
0
  6
HIDDEN
 62
     7
370
    18
100
AcDbCircle
 10
34.9175359259
 20
165.8505153243
 30
0.0
 40
255.8505153243146
100
AcDbArc
 50
270.0
 51
302.4714888929
  0
VIEWPORT
  5
1D6
330
FC
100
AcDbEntity
  8
0
100
AcDbViewport
 10
0.0
 20
0.0
 30
0.0
 40
205.6
 41
156.0
 68
     1
 69
     1
 12
0.0
 22
0.0
 13
0.0
 23
0.0
 14
10.0
 24
10.0
 15
10.0
 25
10.0
 16
0.0
 26
0.0
 36
1.0
 17
0.0
 27
0.0
 37
0.0
 42
50.0
 43
0.0
 44
0.0
 45
459.0
 50
0.0
 51
0.0
 72
   100
 90
   557152
  1

281
     0
 71
     1
 74
     0
110
0.0
120
0.0
130
0.0
111
1.0
121
0.0
131
0.0
112
0.0
122
1.0
132
0.0
 79
     0
146
0.0
170
     0
 61
     5
348
2F
292
     1
282
     1
141
0.0
142
0.0
 63
   256
361
1D7
  0
ENDBLK
  5
FF
330
FC
100
AcDbEntity
  8
0
100
AcDbBlockEnd
  0
BLOCK
  5
12A
330
128
100
AcDbEntity
  8
0
100
AcDbBlockBegin
  2
*Paper_Space3
 70
     0
 10
0.0
 20
0.0
 30
0.0
  3
*Paper_Space3
  1

  0
LINE
  5
140
330
128
100
AcDbEntity
  8
0
  6
Continuous
 62
     7
370
    25
100
AcDbLine
 10
-52.5
 20
-105.8844855625
 30
0.0
 11
-52.5
 21
-110.0
 31
0.0
  0
LINE
  5
141
330
128
100
AcDbEntity
  8
0
  6
Continuous
 62
     7
370
    25
100
AcDbLine
 10
52.5
 20
-110.0
 30
0.0
 11
52.5
 21
-105.8844855625
 31
0.0
  0
LINE
  5
142
330
128
100
AcDbEntity
  8
0
  6
Continuous
 62
     7
370
    25
100
AcDbLine
 10
-225.0
 20
0.0
 30
0.0
 11
225.0
 21
0.0
 31
0.0
  0
LINE
  5
143
330
128
100
AcDbEntity
  8
0
  6
Continuous
 62
     7
370
    25
100
AcDbLine
 10
-52.5
 20
-110.0
 30
0.0
 11
52.5
 21
-110.0
 31
0.0
  0
LINE
  5
144
330
128
100
AcDbEntity
  8
0
  6
HIDDEN
 62
     7
370
    18
100
AcDbLine
 10
-34.9175358767
 20
-90.0
 30
0.0
 11
34.9175359259
 21
-90.0
 31
0.0
  0
LINE
  5
145
330
128
100
AcDbEntity
  8
0
  6
HIDDEN
 62
     7
370
    18
100
AcDbLine
 10
-23.0
 20
-100.0
 30
0.0
 11
23.0
 21
-100.0
 31
0.0
  0
LINE
  5
146
330
128
100
AcDbEntity
  8
0
  6
HIDDEN
 62
     7
370
    18
100
AcDbLine
 10
-34.9175359259
 20
-90.0
 30
0.0
 11
-23.0
 21
-100.0
 31
0.0
  0
LINE
  5
147
330
128
100
AcDbEntity
  8
0
  6
HIDDEN
 62
     7
370
    18
100
AcDbLine
 10
23.0
 20
-100.0
 30
0.0
 11
34.9175359259
 21
-90.0
 31
0.0
  0
LINE
  5
148
330
128
100
AcDbEntity
  8
0
  6
HIDDEN
 62
     7
370
    18
100
AcDbLine
 10
-23.0
 20
-100.0
 30
0.0
 11
-23.0
 21
-110.0
 31
0.0
  0
LINE
  5
149
330
128
100
AcDbEntity
  8
0
  6
HIDDEN
 62
     7
370
    18
100
AcDbLine
 10
23.0
 20
-110.0
 30
0.0
 11
23.0
 21
-100.0
 31
0.0
  0
ARC
  5
14A
330
128
100
AcDbEntity
  8
0
  6
Continuous
 62
     7
370
    25
100
AcDbCircle
 10
-118.5905387045
 20
34.3658708487
 30
0.0
 40
111.8212257685772
100
AcDbArc
 50
197.8983184772
 51
237.5285111071
  0
ARC
  5
14B
330
128
100
AcDbEntity
  8
0
  6
Continuous
 62
     7
370
    25
100
AcDbCircle
 10
118.5905387045
 20
34.3658708487
 30
0.0
 40
111.8212257685768
100
AcDbArc
 50
302.4714888929
 51
342.1016815228
  0
ARC
  5
14C
330
128
100
AcDbEntity
  8
0
  6
Continuous
 62
     7
370
    25
100
AcDbCircle
 10
-34.9175359259
 20
165.8505153243
 30
0.0
 40
267.6717410928925
100
AcDbArc
 50
237.5285111071
 51
265.2493661897
  0
ARC
  5
14D
330
128
100
AcDbEntity
  8
0
  6
Continuous
 62
     7
370
    25
100
AcDbCircle
 10
34.9175359259
 20
165.8505153243
 30
0.0
 40
267.6717410928941
100
AcDbArc
 50
274.7506338103
 51
302.4714888929
  0
ARC
  5
14E
330
128
100
AcDbEntity
  8
0
  6
Continuous
 62
     7
370
    25
100
AcDbCircle
 10
-57.5
 20
-105.8844855625
 30
0.0
 40
5.000000000000021
100
AcDbArc
 50
0.0
 51
85.2493661897
  0
ARC
  5
14F
330
128
100
AcDbEntity
  8
0
  6
Continuous
 62
     7
370
    25
100
AcDbCircle
 10
57.5
 20
-105.8844855625
 30
0.0
 40
5.000000000000005
100
AcDbArc
 50
94.7506338103
 51
180.0
  0
ARC
  5
150
330
128
100
AcDbEntity
  8
0
  6
HIDDEN
 62
     7
370
    18
100
AcDbCircle
 10
-118.5905387045
 20
34.3658708487
 30
0.0
 40
100.0000000000008
100
AcDbArc
 50
200.0999398364
 51
237.5285111071
  0
ARC
  5
151
330
128
100
AcDbEntity
  8
0
  6
HIDDEN
 62
     7
370
    18
100
AcDbCircle
 10
118.5905387045
 20
34.3658708487
 30
0.0
 40
100.0000000000008
100
AcDbArc
 50
302.4714888929
 51
339.9000601636
  0
ARC
  5
152
330
128
100
AcDbEntity
  8
0
  6
HIDDEN
 62
     7
370
    18
100
AcDbCircle
 10
-34.9175359259
 20
165.8505153243
 30
0.0
 40
255.8505153243143
100
AcDbArc
 50
237.5285111071
 51
270.0
  0
ARC
  5
153
330
128
100
AcDbEntity
  8
0
  6
HIDDEN
 62
     7
370
    18
100
AcDbCircle
 10
34.9175359259
 20
165.8505153243
 30
0.0
 40
255.8505153243146
100
AcDbArc
 50
270.0
 51
302.4714888929
  0
VIEWPORT
  5
1D8
330
128
100
AcDbEntity
  8
0
100
AcDbViewport
 10
0.0
 20
0.0
 30
0.0
 40
205.6
 41
156.0
 68
     1
 69
     1
 12
0.0
 22
0.0
 13
0.0
 23
0.0
 14
10.0
 24
10.0
 15
10.0
 25
10.0
 16
0.0
 26
0.0
 36
1.0
 17
0.0
 27
0.0
 37
0.0
 42
50.0
 43
0.0
 44
0.0
 45
459.0
 50
0.0
 51
0.0
 72
   100
 90
   557152
  1

281
     0
 71
     1
 74
     0
110
0.0
120
0.0
130
0.0
111
1.0
121
0.0
131
0.0
112
0.0
122
1.0
132
0.0
 79
     0
146
0.0
170
     0
 61
     5
348
2F
292
     1
282
     1
141
0.0
142
0.0
 63
   256
361
1D9
  0
ENDBLK
  5
12B
330
128
100
AcDbEntity
  8
0
100
AcDbBlockEnd
  0
BLOCK
  5
156
330
154
100
AcDbEntity
  8
0
100
AcDbBlockBegin
  2
*Paper_Space4
 70
     0
 10
0.0
 20
0.0
 30
0.0
  3
*Paper_Space4
  1

  0
CIRCLE
  5
158
330
154
100
AcDbEntity
  8
0
  6
Continuous
 62
     7
370
    25
100
AcDbCircle
 10
0.0
 20
0.0
 30
0.0
 40
23.00000000000002
  0
CIRCLE
  5
159
330
154
100
AcDbEntity
  8
0
  6
Continuous
 62
     7
370
    25
100
AcDbCircle
 10
0.0
 20
0.0
 30
0.0
 40
52.50000000000001
  0
CIRCLE
  5
15A
330
154
100
AcDbEntity
  8
0
  6
Continuous
 62
     7
370
    25
100
AcDbCircle
 10
0.0
 20
0.0
 30
0.0
 40
225.0000000000002
  0
CIRCLE
  5
15B
330
154
100
AcDbEntity
  8
0
  6
HIDDEN
 62
     7
370
    18
100
AcDbCircle
 10
0.0
 20
0.0
 30
0.0
 40
34.91753592594218
  0
CIRCLE
  5
15C
330
154
100
AcDbEntity
  8
0
  6
HIDDEN
 62
     7
370
    18
100
AcDbCircle
 10
0.0
 20
0.0
 30
0.0
 40
212.5
  0
VIEWPORT
  5
1DA
330
154
100
AcDbEntity
  8
0
100
AcDbViewport
 10
0.0
 20
0.0
 30
0.0
 40
205.6
 41
156.0
 68
     1
 69
     1
 12
0.0
 22
0.0
 13
0.0
 23
0.0
 14
10.0
 24
10.0
 15
10.0
 25
10.0
 16
0.0
 26
0.0
 36
1.0
 17
0.0
 27
0.0
 37
0.0
 42
50.0
 43
0.0
 44
0.0
 45
459.0
 50
0.0
 51
0.0
 72
   100
 90
   557152
  1

281
     0
 71
     1
 74
     0
110
0.0
120
0.0
130
0.0
111
1.0
121
0.0
131
0.0
112
0.0
122
1.0
132
0.0
 79
     0
146
0.0
170
     0
 61
     5
348
2F
292
     1
282
     1
141
0.0
142
0.0
 63
   256
361
1DB
  0
ENDBLK
  5
157
330
154
100
AcDbEntity
  8
0
100
AcDbBlockEnd
  0
BLOCK
  5
15F
330
15D
100
AcDbEntity
  8
0
100
AcDbBlockBegin
  2
*Paper_Space5
 70
     0
 10
0.0
 20
0.0
 30
0.0
  3
*Paper_Space5
  1

  0
SPLINE
  5
161
330
15D
100
AcDbEntity
  8
0
  6
Continuous
 62
     7
370
    25
100
AcDbSpline
210
0.0
220
0.0
230
1.0
 70
     8
 71
     3
 72
    24
 73
    20
 74
     0
 42
0.000000001
 43
0.00000001
 40
0.0
 40
0.0
 40
0.0
 40
0.0
 40
0.047733865043892
 40
0.1056412280117518
 40
0.1638499407188839
 40
0.2224098471865533
 40
0.2813719613663461
 40
0.3407878872632739
 40
0.4007089451329722
 40
0.4611849418650072
 40
0.5222625309544008
 40
0.5839831299674295
 40
0.6463804084579436
 40
0.7094774337020138
 40
0.7732836678136324
 40
0.8377921395247965
 40
0.9029772410125109
 40
0.9687936771761434
 40
1.0
 40
1.0
 40
1.0
 40
1.0
 10
-218.9982118441036
 20
-29.74311451439199
 30
0.0
 10
-218.2655971300973
 20
-31.51279639905284
 30
0.0
 10
-216.6442258462945
 20
-35.42933169980458
 30
0.0
 10
-213.7958222220504
 20
-41.35014709430382
 30
0.0
 10
-210.5207032404287
 20
-47.53365666932408
 30
0.0
 10
-206.9560610029672
 20
-53.59858488904531
 30
0.0
 10
-203.1147331321388
 20
-59.54345485013114
 30
0.0
 10
-198.9961474894515
 20
-65.3614465524875
 30
0.0
 10
-194.6029527770008
 20
-71.04748275880873
 30
0.0
 10
-189.9365758263384
 20
-76.59616256154283
 30
0.0
 10
-184.9985515974577
 20
-82.00214404320367
 30
0.0
 10
-179.7903789986263
 20
-87.25985350534516
 30
0.0
 10
-174.313847924444
 20
-92.36333854645196
 30
0.0
 10
-168.5714225243601
 20
-97.30622475524915
 30
0.0
 10
-162.5663562454265
 20
-102.0812015073339
 30
0.0
 10
-156.3042012885951
 20
-106.681548734321
 30
0.0
 10
-149.7891036024746
 20
-111.095239378911
 30
0.0
 10
-144.2425668250077
 20
-114.5733468551749
 30
0.0
 10
-140.8525920589103
 20
-116.5536916532886
 30
0.0
 10
-139.7622432786905
 20
-117.1906481748038
 30
0.0
  0
SPLINE
  5
162
330
15D
100
AcDbEntity
  8
0
  6
Continuous
 62
     7
370
    25
100
AcDbSpline
210
0.0
220
0.0
230
1.0
 70
     8
 71
     3
 72
    58
 73
    54
 74
     0
 42
0.000000001
 43
0.00000001
 40
0.0
 40
0.0
 40
0.0
 40
0.0
 40
0.0129947773151212
 40
0.0332441568735029
 40
0.0535341943836082
 40
0.0739097589401535
 40
0.0943404594859547
 40
0.1147962765564245
 40
0.1352487380720953
 40
0.1556800473947571
 40
0.1760773014803921
 40
0.196432338142135
 40
0.216741285369645
 40
0.2370039715015699
 40
0.2572232965059992
 40
0.2774046306030195
 40
0.2975552760217995
 40
0.3176840047781164
 40
0.3378006701373273
 40
0.3579158803324122
 40
0.3780407181776904
 40
0.3981829812774422
 40
0.4183537672533754
 40
0.4385642145461394
 40
0.4588249795266766
 40
0.479145907485483
 40
0.4995356344794292
 40
0.5200011019501376
 40
0.5405469722660989
 40
0.5611749455283659
 40
0.5818829988058443
 40
0.6026646004146288
 40
0.6235079932697744
 40
0.6443956865025919
 40
0.6652982804078404
 40
0.6861824541849103
 40
0.7070141675766493
 40
0.727757641500695
 40
0.7483777010448547
 40
0.7688421550379028
 40
0.7891238020578285
 40
0.8092017664727643
 40
0.8290620445762464
 40
0.8486973233180434
 40
0.8681062593737159
 40
0.8872924508203978
 40
0.9062633116820129
 40
0.9250290024026866
 40
0.943601505707392
 40
0.961993884550128
 40
0.9802197228729848
 40
0.9982927295893168
 40
1.0
 40
1.0
 40
1.0
 40
1.0
 10
-139.7622432786905
 20
-117.1906481748038
 30
0.0
 10
-138.2438587766738
 20
-118.0531434193924
 30
0.0
 10
-134.3594203322686
 20
-120.2596396538749
 30
0.0
 10
-127.9559688111643
 20
-123.6002561862893
 30
0.0
 10
-120.5207133929257
 20
-127.1737541088261
 30
0.0
 10
-112.9095922010367
 20
-130.5127150366542
 30
0.0
 10
-105.1354895149081
 20
-133.6201674991599
 30
0.0
 10
-97.21687869655666
 20
-136.4900271311146
 30
0.0
 10
-89.17271266148477
 20
-139.1194939092126
 30
0.0
 10
-81.0201737216471
 20
-141.5069090015358
 30
0.0
 10
-72.77444391885876
 20
-143.6520723233494
 30
0.0
 10
-64.44927960604844
 20
-145.5555542856439
 30
0.0
 10
-56.0570711884828
 20
-147.2184738309683
 30
0.0
 10
-47.60895388497637
 20
-148.6422494351729
 30
0.0
 10
-39.11497343056665
 20
-149.8284004949891
 30
0.0
 10
-30.58426505334495
 20
-150.7783856714508
 30
0.0
 10
-22.02522963023958
 20
-151.4934800926183
 30
0.0
 10
-13.44569562287126
 20
-151.9746844753799
 30
0.0
 10
-4.853063245389907
 20
-152.2226598436216
 30
0.0
 10
3.745568263151533
 20
-152.2376816031654
 30
0.0
 10
12.3427873568495
 20
-152.019620755959
 30
0.0
 10
20.93124090272783
 20
-151.5679733510878
 30
0.0
 10
29.50358488264006
 20
-150.8818503175618
 30
0.0
 10
38.05288378913796
 20
-149.9598993314306
 30
0.0
 10
46.57202739251294
 20
-148.8003183723558
 30
0.0
 10
55.05355840059408
 20
-147.4008803862071
 30
0.0
 10
63.48951144962881
 20
-145.7589781783578
 30
0.0
 10
71.87122531346117
 20
-143.8716995797738
 30
0.0
 10
80.18912851513865
 20
-141.7359427272232
 30
0.0
 10
88.43250468602818
 20
-139.3485817819494
 30
0.0
 10
96.58925307746769
 20
-136.7066917484765
 30
0.0
 10
104.6456715015427
 20
-133.8078359277347
 30
0.0
 10
112.5863020797969
 20
-130.6504097918027
 30
0.0
 10
120.3931375155947
 20
-127.2343500472551
 30
0.0
 10
128.0460177249812
 20
-123.5615570919552
 30
0.0
 10
135.5234797886462
 20
-119.636089170457
 30
0.0
 10
142.8041254446213
 20
-115.4638840944499
 30
0.0
 10
149.8672160915292
 20
-111.0526958388786
 30
0.0
 10
156.6931307286268
 20
-106.4120186256544
 30
0.0
 10
163.2641017198677
 20
-101.552679592741
 30
0.0
 10
169.5647467425985
 20
-96.48634714821158
 30
0.0
 10
175.5823270799821
 20
-91.22504521784116
 30
0.0
 10
181.3067255936795
 20
-85.7807495518529
 30
0.0
 10
186.7302099017087
 20
-80.16511774979232
 30
0.0
 10
191.8470221114165
 20
-74.38934505831575
 30
0.0
 10
196.6530447024907
 20
-68.46419320573078
 30
0.0
 10
201.1450220253585
 20
-62.39991269500722
 30
0.0
 10
205.3215518874916
 20
-56.20691608636567
 30
0.0
 10
209.1778985458788
 20
-49.89387920094658
 30
0.0
 10
212.723904039922
 20
-43.47533570013465
 30
0.0
 10
215.9173220248125
 20
-36.94429370723058
 30
0.0
 10
218.013791968927
 20
-32.33950141861831
 30
0.0
 10
218.9557553219683
 20
-29.88015945213882
 30
0.0
 10
219.0370578310417
 20
-29.66788933366876
 30
0.0
  0
LWPOLYLINE
  5
163
330
15D
100
AcDbEntity
  8
0
  6
Continuous
 62
     7
370
    25
100
AcDbPolyline
 90
      160
 70
   128
 43
0.0
 10
-159.099025767
 20
-91.8459125801
 10
-152.6893563265
 20
-95.4027294969
 10
-146.0412805814
 20
-98.8105863765
 10
-139.1651787128
 20
-102.0641622551
 10
-132.0717869376
 20
-105.1583770601
 10
-124.7721807449
 20
-108.0883995423
 10
-117.2777576034
 20
-110.8496548195
 10
-109.600219165
 20
-113.4378315194
 10
-101.7515529948
 20
-115.8488885112
 10
-93.7440138532
 20
-118.0790612157
 10
-85.590104562
 20
-120.1248674829
 10
-77.3025564827
 20
-121.9831130293
 10
-68.8943096379
 20
-123.6508964249
 10
-60.3784925068
 20
-125.125613624
 10
-51.768401527
 20
-126.4049620307
 10
-43.0774803335
 20
-127.4869440944
 10
-34.319298768
 20
-128.3698704285
 10
-25.5075316915
 20
-129.0523624483
 10
-16.6559376322
 20
-129.5333545236
 10
-7.7783373034
 20
-129.8120956424
 10
1.1114079757
 20
-129.8881505834
 10
9.9994179232
 20
-129.761400596
 10
18.8718149666
 20
-129.4320435851
 10
27.7147459111
 20
-128.9005938027
 10
36.5144035699
 20
-128.1678810445
 10
45.257048322
 20
-127.2350493544
 10
53.9290295655
 20
-126.1035552385
 10
62.5168070311
 20
-124.7751653905
 10
71.0069719237
 20
-123.2519539335
 10
79.3862678586
 20
-121.5362991812
 10
87.6416115601
 20
-119.6308799251
 10
95.7601132887
 20
-117.5386712509
 10
103.7290969679
 20
-115.2629398943
 10
111.5361199755
 20
-112.8072391396
 10
119.1689925719
 20
-110.1754032719
 10
126.6157969327
 20
-107.3715415907
 10
133.8649057567
 20
-104.4000319931
 10
140.9050004211
 20
-101.2655141385
 10
147.7250886538
 20
-97.9728822045
 10
154.3145216966
 20
-94.5272772451
 10
160.6630109319
 20
-90.9340791633
 10
166.7606439476
 20
-87.1988983114
 10
172.5979000134
 20
-83.3275667309
 10
178.165664947
 20
-79.3261290466
 10
183.4552453442
 20
-75.2008330283
 10
188.4583821533
 20
-70.9581198361
 10
193.1672635701
 20
-66.6046139631
 10
197.5745372351
 20
-62.1471128918
 10
201.6733217137
 20
-57.592576481
 10
205.4572172405
 20
-52.9481160986
 10
208.9203157119
 20
-48.2209835184
 10
212.0572099106
 20
-43.4185595965
 10
214.8630019487
 20
-38.5483427479
 10
217.333310915
 20
-33.6179372381
 10
219.4642797154
 20
-28.6350413099
 10
221.252581095
 20
-23.607435164
 10
222.6954228335
 20
-18.5429688104
 10
223.7905521047
 20
-13.4495498122
 10
224.5362589944
 20
-8.3351309385
 10
224.9313791697
 20
-3.2076977473
 10
224.9752956974
 20
1.9247438832
 10
224.667940007
 20
7.0541802545
 10
224.009791998
 20
12.1726023608
 10
223.0018792904
 20
17.2720183935
 10
221.6457756202
 20
22.3444662198
 10
219.9435983823
 20
27.3820258145
 10
217.8980053243
 20
32.3768316263
 10
215.5121903972
 20
37.3210848589
 10
212.7898787675
 20
42.2070656478
 10
209.7353210018
 20
47.027145114
 10
206.3532864295
 20
51.7737972755
 10
202.649055696
 20
56.4396107985
 10
198.628412518
 20
61.017300569
 10
194.2976346524
 20
65.4997190679
 10
189.6634840948
 20
69.8798675307
 10
184.7331965212
 20
74.1509068756
 10
179.5144699904
 20
78.3061683817
 10
174.0154529243
 20
82.3391641013
 10
168.2447313854
 20
86.2435969905
 10
162.2113156703
 20
90.0133707407
 10
155.9246262414
 20
93.6425992977
 10
149.394479018
 20
97.1256160519
 10
142.6310700498
 20
100.4569826862
 10
135.644959597
 20
103.631497667
 10
128.4470556419
 20
106.644204366
 10
121.0485968569
 20
109.4903987992
 10
113.4611350573
 20
112.1656369721
 10
105.696517164
 20
114.6657418177
 10
97.766866706
 20
116.9868097191
 10
89.6845648913
 20
119.1252166042
 10
81.4622312747
 20
121.0776236047
 10
73.1127040542
 20
122.8409822687
 10
64.6490200252
 20
124.4125393209
 10
56.0843942258
 20
125.7898409617
 10
47.4321993024
 20
126.970736698
 10
38.7059446303
 20
127.9533827012
 10
29.9192552204
 20
128.7362446863
 10
21.0858504451
 20
129.3181003073
 10
12.2195226174
 20
129.6980410656
 10
3.3341154556
 20
129.8754737289
 10
-5.5564975317
 20
129.8501212571
 10
-14.4384347077
 20
129.6220232351
 10
-23.2978279818
 20
129.1915358109
 10
-32.1208444631
 20
128.5593311395
 10
-40.8937080588
 20
127.7263963334
 10
-49.6027209838
 20
126.6940319214
 10
-58.2342851481
 20
125.4638498181
 10
-66.7749233889
 20
124.0377708068
 10
-75.2113005136
 20
122.4180215405
 10
-83.5302441207
 20
120.6071310655
 10
-91.7187651671
 20
118.6079268722
 10
-99.7640782495
 20
116.4235304808
 10
-107.6536215663
 20
114.0573525668
 10
-115.3750765324
 20
111.5130876362
 10
-122.9163870123
 20
108.7947082566
 10
-130.2657781449
 20
105.9064588549
 10
-137.4117747284
 20
102.8528490894
 10
-144.3432191374
 20
99.6386468095
 10
-151.0492887444
 20
96.2688706104
 10
-157.5195128176
 20
92.7487819977
 10
-163.7437888702
 20
89.0838771718
 10
-169.712398434
 20
85.2798784466
 10
-175.4160222338
 20
81.3427253145
 10
-180.845754738
 20
77.2785651728
 10
-185.9931180638
 20
73.0937437252
 10
-190.8500752145
 20
68.7947950734
 10
-195.409042628
 20
64.3884315156
 10
-199.6629020179
 20
59.8815330653
 10
-203.6050114878
 20
55.2811367095
 10
-207.2292159015
 20
50.594425421
 10
-210.5298564942
 20
45.8287169431
 10
-213.5017797074
 20
40.9914523639
 10
-216.1403452358
 20
36.0901844979
 10
-218.4414332725
 20
31.1325660929
 10
-220.4014509416
 20
26.1263378816
 10
-222.0173379084
 20
21.079316495
 10
-223.2865711571
 20
15.9993822581
 10
-224.2071689306
 20
10.894466885
 10
-224.7776938248
 20
5.7725410951
 10
-224.9972550328
 20
0.6416021675
 10
-224.8655097359
 20
-4.4903385457
 10
-224.3826636387
 20
-9.6152681283
 10
-223.549470648
 20
-14.7251846112
 10
-222.3672316958
 20
-19.8121094662
 10
-220.8377927079
 20
-24.8681000641
 10
-218.9635417218
 20
-29.8852620758
 10
-216.7474051577
 20
-34.8557617984
 10
-214.19284325
 20
-39.7718383866
 10
-211.3038446438
 20
-44.6258159703
 10
-208.0849201674
 20
-49.4101156398
 10
-204.5410957893
 20
-54.117267279
 10
-200.6779047707
 20
-58.7399212295
 10
-196.5013790256
 20
-63.2708597658
 10
-192.0180397034
 20
-67.7030083654
 10
-187.234887006
 20
-72.0294467542
 10
-182.1593892587
 20
-76.2434197122
 10
-176.7994712487
 20
-80.3383476211
 10
-171.1635018517
 20
-84.3078367369
 10
-165.2602809649
 20
-88.1456891735
 10
-159.099025767
 20
-91.8459125801
  0
LWPOLYLINE
  5
164
330
15D
100
AcDbEntity
  8
0
  6
Continuous
 62
     7
370
    25
100
AcDbPolyline
 90
      155
 70
   128
 43
0.0
 10
-150.2601910021
 20
-86.7433618812
 10
-144.0062436404
 20
-90.2093130799
 10
-137.5126120979
 20
-93.5251197797
 10
-130.7901043837
 20
-96.6852631476
 10
-123.8499094482
 20
-99.6844834367
 10
-116.7035785611
 20
-102.5177887409
 10
-109.3630060849
 20
-105.1804633032
 10
-101.840409678
 20
-107.6680753645
 10
-94.1483099597
 20
-109.97648454
 10
-86.299509671
 20
-112.1018487104
 10
-78.3070723652
 20
-114.040630417
 10
-70.1843006655
 20
-115.7896027487
 10
-61.9447141238
 20
-117.3458547139
 10
-53.6020267186
 20
-118.7067960847
 10
-45.17012403
 20
-119.8701617085
 10
-36.6630401277
 20
-120.8340152779
 10
-28.0949342134
 20
-121.596752554
 10
-19.4800670537
 20
-122.1571040357
 10
-10.8327772449
 20
-122.5141370734
 10
-2.1674573475
 20
-122.6672574207
 10
6.5014700688
 20
-122.6162102239
 10
15.1595764298
 20
-122.3610804461
 10
23.792451172
 20
-121.9022927257
 10
32.3857257272
 20
-121.2406106694
 10
40.925097438
 20
-120.3771355818
 10
49.396353363
 20
-119.3133046319
 10
57.7853939328
 20
-118.0508884614
 10
66.0782564171
 20
-116.5919882375
 10
74.2611381648
 20
-114.9390321554
 10
82.3204195768
 20
-113.0947713976
 10
90.2426867746
 20
-111.062275554
 10
98.0147539262
 20
-108.8449275134
 10
105.6236851929
 20
-106.4464178328
 10
113.0568162595
 20
-103.8707385947
 10
120.3017754129
 20
-101.1221767633
 10
127.3465041337
 20
-98.2053070482
 10
134.179277166
 20
-95.1249842914
 10
140.7887220335
 20
-91.886335386
 10
147.1638379675
 20
-88.4947507436
 10
153.2940142167
 20
-84.955875322
 10
159.1690477077
 20
-81.2755992302
 10
164.779160027
 20
-77.4600479244
 10
170.1150136964
 20
-73.5155720134
 10
175.167727714
 20
-69.448736688
 10
179.928892336
 20
-65.2663107941
 10
184.3905830737
 20
-60.9752555671
 10
188.5453738833
 20
-56.5827130447
 10
192.3863495254
 20
-52.0959941806
 10
195.9071170751
 20
-47.5225666754
 10
199.1018165624
 20
-42.870042548
 10
201.9651307253
 20
-38.1461654656
 10
204.4922938598
 20
-33.3587978554
 10
206.6790997523
 20
-28.5159078183
 10
208.5219086803
 20
-23.6255558669
 10
210.0176534702
 20
-18.6958815093
 10
211.1638446023
 20
-13.735089702
 10
211.9585743547
 20
-8.7514371934
 10
212.400519978
 20
-3.7532187812
 10
212.4889458975
 20
1.2512464932
 10
212.2237049369
 20
6.2536291912
 10
211.6052385637
 20
11.2456033407
 10
210.6345761539
 20
16.2188602932
 10
209.3133332795
 20
21.1651225534
 10
207.6437090189
 20
26.0761575559
 10
205.6284822967
 20
30.9437913676
 10
203.2710072591
 20
35.7599222923
 10
200.5752076905
 20
40.5165343555
 10
197.5455704834
 20
45.2057106458
 10
194.1871381697
 20
49.8196464921
 10
190.5055005288
 20
54.3506624534
 10
186.506785283
 20
58.7912171009
 10
182.1976478994
 20
63.1339195696
 10
177.5852605117
 20
67.3715418598
 10
172.6772999837
 20
71.4970308674
 10
167.4819351312
 20
75.5035201231
 10
162.0078131264
 20
79.3843412209
 10
156.264045105
 20
83.1330349172
 10
150.2601910021
 20
86.7433618812
 10
144.0062436404
 20
90.2093130799
 10
137.5126120979
 20
93.5251197797
 10
130.7901043837
 20
96.6852631476
 10
123.8499094482
 20
99.6844834367
 10
116.7035785611
 20
102.5177887409
 10
109.3630060849
 20
105.1804633032
 10
101.840409678
 20
107.6680753645
 10
94.1483099597
 20
109.97648454
 10
86.299509671
 20
112.1018487104
 10
78.3070723652
 20
114.040630417
 10
70.1843006655
 20
115.7896027487
 10
61.9447141238
 20
117.3458547139
 10
53.6020267186
 20
118.7067960847
 10
45.17012403
 20
119.8701617085
 10
36.6630401277
 20
120.8340152779
 10
28.0949342134
 20
121.596752554
 10
19.4800670537
 20
122.1571040357
 10
10.8327772449
 20
122.5141370734
 10
2.1674573475
 20
122.6672574207
 10
-6.5014700688
 20
122.6162102239
 10
-15.1595764298
 20
122.3610804461
 10
-23.792451172
 20
121.9022927257
 10
-32.3857257272
 20
121.2406106694
 10
-40.925097438
 20
120.3771355818
 10
-49.396353363
 20
119.3133046319
 10
-57.7853939328
 20
118.0508884614
 10
-66.0782564171
 20
116.5919882375
 10
-74.2611381648
 20
114.9390321554
 10
-82.3204195768
 20
113.0947713976
 10
-90.2426867746
 20
111.062275554
 10
-98.0147539262
 20
108.8449275134
 10
-105.6236851929
 20
106.4464178328
 10
-113.0568162595
 20
103.8707385947
 10
-120.3017754129
 20
101.1221767633
 10
-127.3465041337
 20
98.2053070482
 10
-134.179277166
 20
95.1249842914
 10
-140.7887220335
 20
91.886335386
 10
-147.1638379675
 20
88.4947507436
 10
-153.2940142167
 20
84.955875322
 10
-159.1690477077
 20
81.2755992302
 10
-164.779160027
 20
77.4600479244
 10
-170.1150136964
 20
73.5155720134
 10
-175.167727714
 20
69.448736688
 10
-179.928892336
 20
65.2663107941
 10
-184.3905830737
 20
60.9752555671
 10
-188.5453738833
 20
56.5827130447
 10
-192.3863495254
 20
52.0959941806
 10
-195.9071170751
 20
47.5225666754
 10
-199.1018165625
 20
42.870042548
 10
-201.9651307253
 20
38.1461654656
 10
-204.4922938598
 20
33.3587978554
 10
-206.6790997523
 20
28.5159078183
 10
-208.5219086803
 20
23.6255558669
 10
-210.0176534702
 20
18.6958815093
 10
-211.1638446023
 20
13.735089702
 10
-211.9585743547
 20
8.7514371934
 10
-212.400519978
 20
3.7532187812
 10
-212.4889458975
 20
-1.2512464932
 10
-212.2237049369
 20
-6.2536291913
 10
-211.6052385637
 20
-11.2456033407
 10
-210.6345761539
 20
-16.2188602932
 10
-209.3133332795
 20
-21.1651225534
 10
-207.6437090189
 20
-26.0761575559
 10
-205.6284822967
 20
-30.9437913676
 10
-203.2710072591
 20
-35.7599222923
 10
-200.5752076905
 20
-40.5165343555
 10
-197.5455704834
 20
-45.2057106458
 10
-194.1871381697
 20
-49.8196464921
 10
-190.5055005288
 20
-54.3506624534
 10
-186.506785283
 20
-58.7912171009
 10
-182.1976478994
 20
-63.1339195696
 10
-177.5852605117
 20
-67.3715418598
 10
-172.6772999837
 20
-71.4970308674
 10
-167.4819351312
 20
-75.5035201231
 10
-162.0078131264
 20
-79.3843412209
 10
-156.264045105
 20
-83.1330349172
 10
-150.2601910021
 20
-86.7433618812
  0
LWPOLYLINE
  5
165
330
15D
100
AcDbEntity
  8
0
  6
Continuous
 62
     7
370
    25
100
AcDbPolyline
 90
       63
 70
   128
 43
0.0
 10
-24.6904264356
 20
-87.7421528571
 10
-22.0658588306
 20
-89.1110234944
 10
-19.2148656541
 20
-90.3195876758
 10
-16.1667019541
 20
-91.3554438976
 10
-12.9526460151
 20
-92.207962873
 10
-9.6056784002
 20
-92.8683966038
 10
-6.1601435264
 20
-93.3299681462
 10
-2.6513972439
 20
-93.5879411516
 10
0.8845559621
 20
-93.6396684678
 10
4.411432427
 20
-93.4846193025
 10
7.8930416256
 20
-93.1243846701
 10
11.2936575361
 20
-92.5626610652
 10
14.5783852375
 20
-91.8052125323
 10
17.7135189787
 20
-90.8598115183
 10
20.6668880449
 20
-89.7361591169
 10
23.4081868731
 20
-88.4457855223
 10
25.9092860275
 20
-87.0019317137
 10
28.1445208465
 20
-85.4194135851
 10
30.0909547959
 20
-83.7144699139
 10
31.7286148296
 20
-81.9045957294
 10
33.0406963395
 20
-80.0083627898
 10
34.0137355937
 20
-78.0452290112
 10
34.6377478927
 20
-76.0353388025
 10
34.9063300261
 20
-73.9993163573
 10
34.8167259775
 20
-71.9580540209
 10
34.3698552059
 20
-69.9324979073
 10
33.57030321
 20
-67.943432963
 10
32.4262744753
 20
-66.0112696862
 10
30.9495082847
 20
-64.1558346866
 10
29.1551582578
 20
-62.3961672382
 10
27.0616368538
 20
-60.7503239102
 10
24.6904264356
 20
-59.2351932823
 10
22.0658588306
 20
-57.8663226451
 10
19.2148656541
 20
-56.6577584636
 10
16.1667019541
 20
-55.6219022419
 10
12.9526460151
 20
-54.7693832664
 10
9.6056784002
 20
-54.1089495356
 10
6.1601435264
 20
-53.6473779932
 10
2.6513972439
 20
-53.3894049878
 10
-0.8845559621
 20
-53.3376776717
 10
-4.411432427
 20
-53.4927268369
 10
-7.8930416256
 20
-53.8529614694
 10
-11.2936575361
 20
-54.4146850742
 10
-14.5783852375
 20
-55.1721336071
 10
-17.7135189787
 20
-56.1175346211
 10
-20.6668880449
 20
-57.2411870225
 10
-23.4081868731
 20
-58.5315606171
 10
-25.9092860275
 20
-59.9754144257
 10
-28.1445208465
 20
-61.5579325543
 10
-30.0909547959
 20
-63.2628762255
 10
-31.7286148296
 20
-65.07275041
 10
-33.0406963395
 20
-66.9689833496
 10
-34.0137355937
 20
-68.9321171283
 10
-34.6377478927
 20
-70.9420073369
 10
-34.9063300261
 20
-72.9780297821
 10
-34.8167259775
 20
-75.0192921185
 10
-34.3698552059
 20
-77.0448482322
 10
-33.57030321
 20
-79.0339131764
 10
-32.4262744753
 20
-80.9660764532
 10
-30.9495082847
 20
-82.8215114528
 10
-29.1551582578
 20
-84.5811789012
 10
-27.0616368538
 20
-86.2270222292
 10
-24.6904264356
 20
-87.7421528571
  0
LWPOLYLINE
  5
167
330
15D
100
AcDbEntity
  8
0
  6
Continuous
 62
     7
370
    25
100
AcDbPolyline
 90
       41
 70
   128
 43
0.0
 10
15.1249855841
 20
-91.6569099963
 10
15.2101729024
 20
-91.6137689621
 10
17.2525546015
 20
-90.4347271039
 10
19.0228532083
 20
-89.1172092142
 10
20.4931500563
 20
-87.6819933373
 10
21.6402576859
 20
-86.151713685
 10
22.4460855246
 20
-84.5505036814
 10
22.8979251859
 20
-82.9036153649
 10
22.9886508884
 20
-81.237021148
 10
22.7168318337
 20
-79.577004217
 10
22.0867547706
 20
-77.9497440307
 10
21.1083563907
 20
-76.3809034543
 10
19.7970666211
 20
-74.8952240407
 10
18.1735652846
 20
-73.5161358419
 10
16.2634559673
 20
-72.2653879026
 10
14.096862234
 20
-71.162705265
 10
11.7079525623
 20
-70.2254778929
 10
9.1344014846
 20
-69.4684864219
 10
6.4167954389
 20
-68.9036690597
 10
3.5979926959
 20
-68.5399333135
 10
0.7224474588
 20
-68.3830155133
 10
-2.1644912063
 20
-68.4353903465
 10
-5.0172945521
 20
-68.6962318308
 10
-7.7909721656
 20
-69.1614263401
 10
-10.441781494
 20
-69.8236374791
 10
-12.9279176906
 20
-70.6724217826
 10
-15.2101729024
 20
-71.694393415
 10
-17.2525546015
 20
-72.8734352733
 10
-19.0228532083
 20
-74.1909531629
 10
-20.4931500563
 20
-75.6261690398
 10
-21.6402576859
 20
-77.1564486921
 10
-22.4460855246
 20
-78.7576586957
 10
-22.8979251859
 20
-80.4045470122
 10
-22.9886508884
 20
-82.0711412292
 10
-22.7168318337
 20
-83.7311581601
 10
-22.0867547706
 20
-85.3584183464
 10
-21.1083563907
 20
-86.9272589229
 10
-19.7970666211
 20
-88.4129383364
 10
-18.1735652846
 20
-89.7920265352
 10
-16.2634559673
 20
-91.0427744745
 10
-16.2634559673
 20
-91.0427744745
  0
LWPOLYLINE
  5
168
330
15D
100
AcDbEntity
  8
0
  6
Continuous
 62
     7
370
    25
100
AcDbPolyline
 90
       22
 70
   128
 43
0.0
 10
21.8856972598
 20
-85.736785248
 10
21.1083563907
 20
-84.5463115731
 10
19.7970666211
 20
-83.0606321596
 10
18.1735652846
 20
-81.6815439608
 10
16.2634559673
 20
-80.4307960215
 10
14.096862234
 20
-79.3281133838
 10
11.7079525623
 20
-78.3908860117
 10
9.1344014846
 20
-77.6338945407
 10
6.4167954389
 20
-77.0690771785
 10
3.5979926959
 20
-76.7053414323
 10
0.7224474588
 20
-76.5484236321
 10
-2.1644912063
 20
-76.6007984654
 10
-5.0172945521
 20
-76.8616399497
 10
-7.7909721656
 20
-77.326834459
 10
-10.441781494
 20
-77.989045598
 10
-12.9279176906
 20
-78.8378299015
 10
-15.2101729024
 20
-79.8598015339
 10
-17.2525546015
 20
-81.0388433922
 10
-19.0228532083
 20
-82.3563612818
 10
-20.4931500563
 20
-83.7915771587
 10
-21.6402576859
 20
-85.321856811
 10
-21.8856972598
 20
-85.736785248
  0
LWPOLYLINE
  5
16A
330
15D
100
AcDbEntity
  8
0
  6
HIDDEN
 62
     7
370
    18
100
AcDbPolyline
 90
       77
 70
   128
 43
0.0
 10
-37.1231060123
 20
-111.2502022428
 10
-33.9307099877
 20
-112.9467397401
 10
-30.5065328086
 20
-114.4852946662
 10
-26.8739650772
 20
-115.8553571309
 10
-23.0578209145
 20
-117.0475682184
 10
-19.0841684546
 20
-118.053783918
 10
-14.9801517731
 20
-118.8671307562
 10
-10.7738054653
 20
-119.4820527494
 10
-6.4938631416
 20
-119.8943493569
 10
-2.1695611481
 20
-120.1012041746
 10
2.1695611481
 20
-120.1012041746
 10
6.4938631416
 20
-119.8943493569
 10
10.7738054653
 20
-119.4820527494
 10
14.9801517731
 20
-118.8671307562
 10
19.0841684546
 20
-118.053783918
 10
23.0578209145
 20
-117.0475682184
 10
26.8739650772
 20
-115.8553571309
 10
30.5065328086
 20
-114.4852946662
 10
33.9307099877
 20
-112.9467397401
 10
37.1231060123
 20
-111.2502022428
 10
40.0619135805
 20
-109.4072712457
 10
42.7270576567
 20
-107.4305358362
 10
45.1003326044
 20
-105.3334991215
 10
47.1655265493
 20
-103.1304859888
 10
48.9085321227
 20
-100.8365452516
 10
50.3174428291
 20
-98.4673468512
 10
51.3826343797
 20
-96.0390748149
 10
52.0968304362
 20
-93.5683167031
 10
52.4551523153
 20
-91.0719502988
 10
52.4551523153
 20
-88.567028316
 10
52.0968304362
 20
-86.0706619118
 10
51.3826343797
 20
-83.5999037999
 10
50.3174428291
 20
-81.1716317637
 10
48.9085321227
 20
-78.8024333632
 10
47.1655265493
 20
-76.508492626
 10
45.1003326044
 20
-74.3054794933
 10
42.7270576567
 20
-72.2084427787
 10
40.0619135805
 20
-70.2317073692
 10
37.1231060123
 20
-68.3887763721
 10
33.9307099877
 20
-66.6922388748
 10
30.5065328086
 20
-65.1536839487
 10
26.8739650772
 20
-63.7836214839
 10
23.0578209145
 20
-62.5914103965
 10
19.0841684546
 20
-61.5851946969
 10
14.9801517731
 20
-60.7718478587
 10
10.7738054653
 20
-60.1569258655
 10
6.4938631416
 20
-59.744629258
 10
2.1695611481
 20
-59.5377744402
 10
-2.1695611481
 20
-59.5377744402
 10
-6.4938631416
 20
-59.744629258
 10
-10.7738054653
 20
-60.1569258655
 10
-14.9801517731
 20
-60.7718478587
 10
-19.0841684546
 20
-61.5851946969
 10
-23.0578209145
 20
-62.5914103965
 10
-26.8739650772
 20
-63.7836214839
 10
-30.5065328086
 20
-65.1536839487
 10
-33.9307099877
 20
-66.6922388748
 10
-37.1231060123
 20
-68.3887763721
 10
-40.0619135805
 20
-70.2317073692
 10
-42.7270576567
 20
-72.2084427787
 10
-45.1003326044
 20
-74.3054794933
 10
-47.1655265493
 20
-76.508492626
 10
-48.9085321227
 20
-78.8024333632
 10
-50.3174428291
 20
-81.1716317637
 10
-51.3826343797
 20
-83.5999037999
 10
-52.0968304362
 20
-86.0706619118
 10
-52.4551523153
 20
-88.567028316
 10
-52.4551523153
 20
-91.0719502988
 10
-52.0968304362
 20
-93.5683167031
 10
-51.3826343797
 20
-96.0390748149
 10
-50.3174428291
 20
-98.4673468512
 10
-48.9085321227
 20
-100.8365452516
 10
-47.1655265493
 20
-103.1304859888
 10
-45.1003326044
 20
-105.3334991215
 10
-42.7270576567
 20
-107.4305358362
 10
-40.0619135805
 20
-109.4072712457
 10
-37.1231060123
 20
-111.2502022428
  0
LWPOLYLINE
  5
16C
330
15D
100
AcDbEntity
  8
0
  6
HIDDEN
 62
     7
370
    18
100
AcDbPolyline
 90
       23
 70
   128
 43
0.0
 10
-16.2634559673
 20
-99.2081825934
 10
-14.096862234
 20
-100.310865231
 10
-11.7079525623
 20
-101.2480926031
 10
-9.1344014846
 20
-102.0050840741
 10
-6.4167954389
 20
-102.5699014363
 10
-3.5979926959
 20
-102.9336371825
 10
-0.7224474588
 20
-103.0905549827
 10
2.1644912063
 20
-103.0381801495
 10
5.0172945521
 20
-102.7773386652
 10
7.7909721656
 20
-102.3121441559
 10
10.441781494
 20
-101.6499330169
 10
12.9279176906
 20
-100.8011487134
 10
15.2101729024
 20
-99.779177081
 10
17.2525546015
 20
-98.6001352227
 10
19.0228532083
 20
-97.2826173331
 10
20.4931500563
 20
-95.8474014562
 10
21.6402576859
 20
-94.3171218039
 10
22.4460855246
 20
-92.7159118003
 10
22.8979251859
 20
-91.0690234838
 10
22.9886508884
 20
-89.4024292668
 10
22.7168318337
 20
-87.7424123359
 10
22.0867547706
 20
-86.1151521496
 10
21.8856972598
 20
-85.736785248
  0
LWPOLYLINE
  5
16D
330
15D
100
AcDbEntity
  8
0
  6
HIDDEN
 62
     7
370
    18
100
AcDbPolyline
 90
       10
 70
   128
 43
0.0
 10
-21.8856972598
 20
-85.736785248
 10
-22.4460855246
 20
-86.9230668146
 10
-22.8979251859
 20
-88.5699551311
 10
-22.9886508884
 20
-90.236549348
 10
-22.7168318337
 20
-91.896566279
 10
-22.0867547706
 20
-93.5238264653
 10
-21.1083563907
 20
-95.0926670417
 10
-19.7970666211
 20
-96.5783464553
 10
-18.1735652846
 20
-97.9574346541
 10
-16.2634559673
 20
-99.2081825934
  0
SPLINE
  5
16E
330
15D
100
AcDbEntity
  8
0
  6
HIDDEN
 62
     7
370
    18
100
AcDbSpline
210
0.0
220
0.0
230
1.0
 70
     8
 71
     3
 72
    23
 73
    19
 74
     0
 42
0.000000001
 43
0.00000001
 40
0.0
 40
0.0
 40
0.0
 40
0.0
 40
0.0354499932348147
 40
0.0994158628381111
 40
0.1638087795983795
 40
0.2286910194540593
 40
0.294124895503098
 40
0.3601714568827271
 40
0.4268887028504911
 40
0.4943292576349296
 40
0.562537497340148
 40
0.6315462014189855
 40
0.7013729240947961
 40
0.7720164404399069
 40
0.8434537911145857
 40
0.9156385738810481
 40
0.9862553019442525
 40
1.0
 40
1.0
 40
1.0
 40
1.0
 10
-205.2220390886496
 20
-31.74158162328384
 30
0.0
 10
-204.7032485261011
 20
-32.87225752467722
 30
0.0
 10
-203.2483537094394
 20
-36.0431218907919
 30
0.0
 10
-200.5510267431726
 20
-41.11609322085678
 30
0.0
 10
-197.1555821884246
 20
-46.97360198492838
 30
0.0
 10
-193.4658207728581
 20
-52.70767742632522
 30
0.0
 10
-189.5005036881228
 20
-58.32085805402626
 30
0.0
 10
-185.2567112183119
 20
-63.8054421777365
 30
0.0
 10
-180.737075932922
 20
-69.15657525214144
 30
0.0
 10
-175.9425756083347
 20
-74.36849275255685
 30
0.0
 10
-170.8747749027762
 20
-79.4353243699431
 30
0.0
 10
-165.5355948655135
 20
-84.35064740931172
 30
0.0
 10
-159.9278985905434
 20
-89.10747918070481
 30
0.0
 10
-154.0557560197443
 20
-93.69797001688195
 30
0.0
 10
-147.9254551993589
 20
-98.1142244869521
 30
0.0
 10
-141.6100122825496
 20
-102.3014858696078
 30
0.0
 10
-136.8707245697743
 20
-105.2014002563196
 30
0.0
 10
-134.2750194575531
 20
-106.7075049299092
 30
0.0
 10
-133.8521107343301
 20
-106.9528890459821
 30
0.0
  0
SPLINE
  5
16F
330
15D
100
AcDbEntity
  8
0
  6
HIDDEN
 62
     7
370
    18
100
AcDbSpline
210
0.0
220
0.0
230
1.0
 70
     8
 71
     3
 72
    56
 73
    52
 74
     0
 42
0.000000001
 43
0.00000001
 40
0.0
 40
0.0
 40
0.0
 40
0.0
 40
0.0132287261030377
 40
0.0343252971611253
 40
0.0554575168174767
 40
0.0766682594286752
 40
0.0979250528199638
 40
0.1191934750999346
 40
0.1404486486663373
 40
0.1616736858139333
 40
0.1828570125618955
 40
0.2039919696535101
 40
0.2250761919920139
 40
0.2461109094983423
 40
0.2671002604403332
 40
0.2880506698641229
 40
0.3089703157602222
 40
0.3298686852957783
 40
0.3507562112725849
 40
0.3716439725067362
 40
0.3925427939792835
 40
0.4134611046519153
 40
0.4344105388989523
 40
0.4554024966209544
 40
0.476447871973718
 40
0.4975567270708911
 40
0.5187378876661951
 40
0.5399984401801968
 40
0.5613431150155409
 40
0.5827735531012445
 40
0.6042874742935411
 40
0.6258778004938935
 40
0.6475318333934459
 40
0.6692306407709673
 40
0.6909417016266856
 40
0.7126291682201469
 40
0.7342557389549691
 40
0.7557821340681499
 40
0.777169751871977
 40
0.7983833840114648
 40
0.8193935077883137
 40
0.8401778000549556
 40
0.8607217296098303
 40
0.8810183059572974
 40
0.9010672120842512
 40
0.920873598776985
 40
0.9404467871337661
 40
0.9597990542786162
 40
0.9789446003739568
 40
0.9978987331208745
 40
1.0
 40
1.0
 40
1.0
 40
1.0
 10
-133.8521107343301
 20
-106.9528890459821
 30
0.0
 10
-132.413274861881
 20
-107.7701734706727
 30
0.0
 10
-128.6798489444329
 20
-109.8908259450044
 30
0.0
 10
-122.49981194724
 20
-113.1115914087473
 30
0.0
 10
-115.2787061476066
 20
-116.5720645143742
 30
0.0
 10
-107.8832234443839
 20
-119.8006674528306
 30
0.0
 10
-100.3274795038685
 20
-122.8002278152856
 30
0.0
 10
-92.62997479186943
 20
-125.565198428853
 30
0.0
 10
-84.8094519694697
 20
-128.0932708072628
 30
0.0
 10
-76.88230517948058
 20
-130.3833376219655
 30
0.0
 10
-68.86333442457243
 20
-132.4354922716797
 30
0.0
 10
-60.76593819270818
 20
-134.250498042844
 30
0.0
 10
-52.60222865376961
 20
-135.829567955502
 30
0.0
 10
-44.38317400996551
 20
-137.1741312232682
 30
0.0
 10
-36.1187770061195
 20
-138.285655181542
 30
0.0
 10
-27.8182526578479
 20
-139.1655054904124
 30
0.0
 10
-19.49019395720075
 20
-139.8148435510426
 30
0.0
 10
-11.14271820886061
 20
-140.2345527680664
 30
0.0
 10
-2.783593385039265
 20
-140.4251868048289
 30
0.0
 10
5.579566751448578
 20
-140.3869340377878
 30
0.0
 10
13.93886569202701
 20
-140.1196167282131
 30
0.0
 10
22.28647612945843
 20
-139.6227132263824
 30
0.0
 10
30.61465464449509
 20
-138.8953357865877
 30
0.0
 10
38.91599388967722
 20
-137.9361596560069
 30
0.0
 10
47.18288821513624
 20
-136.7434417771235
 30
0.0
 10
55.40740728571406
 20
-135.3150401605308
 30
0.0
 10
63.58114515212318
 20
-133.6484540512916
 30
0.0
 10
71.69504064210706
 20
-131.7408935761738
 30
0.0
 10
79.7391686108392
 20
-129.5893893996204
 30
0.0
 10
87.7025075538896
 20
-127.1909537386279
 30
0.0
 10
95.5726981608096
 20
-124.542802807275
 30
0.0
 10
103.3358196841725
 20
-121.6426459072223
 30
0.0
 10
110.9762251017241
 20
-118.4890365453888
 30
0.0
 10
118.4756649928172
 20
-115.0821395418038
 30
0.0
 10
125.8138097952636
 20
-111.4241246752532
 30
0.0
 10
132.9690411963413
 20
-107.5193963972247
 30
0.0
 10
139.9198919450304
 20
-103.3742727786109
 30
0.0
 10
146.6455475847258
 20
-98.99698953512987
 30
0.0
 10
153.1263956637744
 20
-94.39758500320634
 30
0.0
 10
159.3447900706589
 20
-89.58746294666369
 30
0.0
 10
165.2855938928737
 20
-84.57886431586546
 30
0.0
 10
170.9364370370971
 20
-79.38435275534849
 30
0.0
 10
176.2876447622895
 20
-74.01637915837281
 30
0.0
 10
181.3320545842353
 20
-68.48704891228185
 30
0.0
 10
186.0642439707101
 20
-62.8078300547323
 30
0.0
 10
190.4813632479101
 20
-56.9901683960485
 30
0.0
 10
194.5779579256443
 20
-51.04333849064977
 30
0.0
 10
198.363023806894
 20
-44.98279680864786
 30
0.0
 10
201.7958499625993
 20
-38.80016792491918
 30
0.0
 10
204.0750506470727
 20
-34.39968940611907
 30
0.0
 10
205.120231048188
 20
-32.02350120178978
 30
0.0
 10
205.2245369743912
 20
-31.78636461635303
 30
0.0
  0
SPLINE
  5
170
330
15D
100
AcDbEntity
  8
0
  6
HIDDEN
 62
     7
370
    18
100
AcDbSpline
210
0.0
220
0.0
230
1.0
 70
     8
 71
     3
 72
    39
 73
    35
 74
     0
 42
0.000000001
 43
0.00000001
 40
0.0
 40
0.0
 40
0.0
 40
0.0
 40
0.0085435556416805
 40
0.0442875687346483
 40
0.0797998485370214
 40
0.1144086894062858
 40
0.1480148066596312
 40
0.1808161128787907
 40
0.2130672396793671
 40
0.2449806831239316
 40
0.2767098527700804
 40
0.3083578280064523
 40
0.3399880526029929
 40
0.3716310616905704
 40
0.4033135898865018
 40
0.4350487142880003
 40
0.4668405980730405
 40
0.4986877357484597
 40
0.5305851152107843
 40
0.5625256265759513
 40
0.594500955467214
 40
0.6265021290175778
 40
0.6585198324247109
 40
0.6905445784540261
 40
0.7225658071074282
 40
0.7545716728765249
 40
0.7865525293745484
 40
0.8184987848202999
 40
0.8504010473611849
 40
0.8822504052277342
 40
0.9140389171121547
 40
0.9457604210211483
 40
0.9774118135889637
 40
1.0
 40
1.0
 40
1.0
 40
1.0
 10
52.47208336402909
 20
-86.43463846977464
 30
0.0
 10
52.48078515147739
 20
-86.60283556629554
 30
0.0
 10
52.52589295271308
 20
-87.47472553641492
 30
0.0
 10
52.30063038864849
 20
-89.04626372358204
 30
0.0
 10
51.77803061762743
 20
-91.14915020895737
 30
0.0
 10
50.92193574005681
 20
-93.22943860248294
 30
0.0
 10
49.77849368458078
 20
-95.26649320218813
 30
0.0
 10
48.35210658173545
 20
-97.25109433491868
 30
0.0
 10
46.65284542262005
 20
-99.17796747781478
 30
0.0
 10
44.68625908927785
 20
-101.0406368242481
 30
0.0
 10
42.45917936304567
 20
-102.8301913927675
 30
0.0
 10
39.98027159431908
 20
-104.535757208796
 30
0.0
 10
37.26098820875052
 20
-106.1452846744427
 30
0.0
 10
34.31523810464724
 20
-107.6466068044971
 30
0.0
 10
31.15912298865971
 20
-109.0280000179607
 30
0.0
 10
27.81039504941622
 20
-110.2785957744253
 30
0.0
 10
24.28865834916722
 20
-111.3884034665536
 30
0.0
 10
20.61508453435671
 20
-112.3485093488549
 30
0.0
 10
16.81214162401616
 20
-113.1512018299172
 30
0.0
 10
12.90334402667221
 20
-113.7900473359565
 30
0.0
 10
8.91302479623646
 20
-114.2599344985628
 30
0.0
 10
4.866127785198407
 20
-114.5570988628741
 30
0.0
 10
0.7880159189115437
 20
-114.6791363519902
 30
0.0
 10
-3.295666442647102
 20
-114.6250112568716
 30
0.0
 10
-7.359114671948802
 20
-114.3950744499193
 30
0.0
 10
-11.37663003303471
 20
-113.9910792868607
 30
0.0
 10
-15.322847998585
 20
-113.4161814989129
 30
0.0
 10
-19.17291868486107
 20
-112.6749029855917
 30
0.0
 10
-22.90274407216952
 20
-111.7732071737216
 30
0.0
 10
-26.4886092721448
 20
-110.7182545605396
 30
0.0
 10
-29.90948823238709
 20
-109.5193108193287
 30
0.0
 10
-33.13949482764856
 20
-108.184321609218
 30
0.0
 10
-35.88937653245598
 20
-106.8700480811138
 30
0.0
 10
-37.49159559714757
 20
-105.973755595551
 30
0.0
 10
-38.15884308663639
 20
-105.6004927103321
 30
0.0
  0
SPLINE
  5
171
330
15D
100
AcDbEntity
  8
0
  6
HIDDEN
 62
     7
370
    18
100
AcDbSpline
210
0.0
220
0.0
230
1.0
 70
     8
 71
     3
 72
    18
 73
    14
 74
     0
 42
0.000000001
 43
0.00000001
 40
0.0
 40
0.0
 40
0.0
 40
0.0
 40
0.0504731803440638
 40
0.1468053030981064
 40
0.2430385799647255
 40
0.3392830342701346
 40
0.4357193800131513
 40
0.5326464743625251
 40
0.6304988287506239
 40
0.7298645305891479
 40
0.8314515098549838
 40
0.9359098539028206
 40
0.9999999999999999
 40
0.9999999999999999
 40
0.9999999999999999
 40
0.9999999999999999
 10
-38.15884308663639
 20
-105.6004927103321
 30
0.0
 10
-38.63178661552204
 20
-105.3209607991689
 30
0.0
 10
-40.00738089416772
 20
-104.5079197610538
 30
0.0
 10
-42.10493854114618
 20
-103.0876131164496
 30
0.0
 10
-44.35535020829798
 20
-101.3249749216693
 30
0.0
 10
-46.33742069290826
 20
-99.49720531568789
 30
0.0
 10
-48.04855623259069
 20
-97.62060482752956
 30
0.0
 10
-49.48509924904751
 20
-95.70728396298288
 30
0.0
 10
-50.64625668189849
 20
-93.76641460890606
 30
0.0
 10
-51.5374000976694
 20
-91.80164863162489
 30
0.0
 10
-52.14284367762009
 20
-89.81024896797267
 30
0.0
 10
-52.46601058741909
 20
-88.06439929592926
 30
0.0
 10
-52.4637966386173
 20
-86.9794918509013
 30
0.0
 10
-52.46295479006656
 20
-86.56695848086673
 30
0.0
  0
LINE
  5
178
330
15D
100
AcDbEntity
  8
0
  6
Continuous
 62
     7
370
    25
100
AcDbLine
 10
-16.2634559673
 20
-91.0427744745
 30
0.0
 11
-15.1249855841
 21
-91.6569099963
 31
0.0
  0
LINE
  5
179
330
15D
100
AcDbEntity
  8
0
  6
HIDDEN
 62
     7
370
    18
100
AcDbLine
 10
-52.5
 20
-86.4590038073
 30
0.0
 11
-52.4994921639
 21
-86.5923091917
 31
0.0
  0
LINE
  5
17A
330
15D
100
AcDbEntity
  8
0
  6
HIDDEN
 62
     7
370
    18
100
AcDbLine
 10
-52.5
 20
-86.4590038073
 30
0.0
 11
-52.5
 21
-89.8194893074
 31
0.0
  0
LINE
  5
17B
330
15D
100
AcDbEntity
  8
0
  6
HIDDEN
 62
     7
370
    18
100
AcDbLine
 10
52.5
 20
-89.8194893074
 30
0.0
 11
52.5
 21
-86.4590038073
 31
0.0
  0
LINE
  5
17C
330
15D
100
AcDbEntity
  8
0
  6
HIDDEN
 62
     7
370
    18
100
AcDbLine
 10
-18.8066666864
 20
-90.4725482316
 30
0.0
 11
-12.3878539054
 21
-92.841271761
 31
0.0
  0
LINE
  5
17D
330
15D
100
AcDbEntity
  8
0
  6
HIDDEN
 62
     7
370
    18
100
AcDbLine
 10
12.3878539054
 20
-92.841271761
 30
0.0
 11
18.8066666864
 21
-90.4725482316
 31
0.0
  0
LINE
  5
17E
330
15D
100
AcDbEntity
  8
0
  6
HIDDEN
 62
     7
370
    18
100
AcDbLine
 10
-23.0
 20
-81.6540811886
 30
0.0
 11
-23.0
 21
-89.8194893074
 31
0.0
  0
LINE
  5
17F
330
15D
100
AcDbEntity
  8
0
  6
HIDDEN
 62
     7
370
    18
100
AcDbLine
 10
23.0
 20
-89.8194893074
 30
0.0
 11
23.0
 21
-81.6540811886
 31
0.0
  0
ARC
  5
180
330
15D
100
AcDbEntity
  8
0
  6
HIDDEN
 62
     7
370
    18
100
AcDbCircle
 10
0.0
 20
-58.9941160511
 30
0.0
 40
35.99476763682099
100
AcDbArc
 50
245.1528127077
 51
294.8471872923
  0
VIEWPORT
  5
1DC
330
15D
100
AcDbEntity
  8
0
100
AcDbViewport
 10
0.0
 20
0.0
 30
0.0
 40
205.6
 41
156.0
 68
     1
 69
     1
 12
0.0
 22
0.0
 13
0.0
 23
0.0
 14
10.0
 24
10.0
 15
10.0
 25
10.0
 16
0.0
 26
0.0
 36
1.0
 17
0.0
 27
0.0
 37
0.0
 42
50.0
 43
0.0
 44
0.0
 45
459.0
 50
0.0
 51
0.0
 72
   100
 90
   557152
  1

281
     0
 71
     1
 74
     0
110
0.0
120
0.0
130
0.0
111
1.0
121
0.0
131
0.0
112
0.0
122
1.0
132
0.0
 79
     0
146
0.0
170
     0
 61
     5
348
2F
292
     1
282
     1
141
0.0
142
0.0
 63
   256
361
1DD
  0
ENDBLK
  5
160
330
15D
100
AcDbEntity
  8
0
100
AcDbBlockEnd
  0
BLOCK
  5
183
330
181
100
AcDbEntity
  8
0
100
AcDbBlockBegin
  2
*Paper_Space6
 70
     0
 10
0.0
 20
0.0
 30
0.0
  3
*Paper_Space6
  1

  0
SPLINE
  5
185
330
181
100
AcDbEntity
  8
0
  6
Continuous
 62
     7
370
    25
100
AcDbSpline
210
0.0
220
0.0
230
1.0
 70
     8
 71
     3
 72
    32
 73
    28
 74
     0
 42
0.000000001
 43
0.00000001
 40
0.0
 40
0.0
 40
0.0
 40
0.0
 40
0.0183361906967364
 40
0.0553177605529759
 40
0.0924664325982921
 40
0.129819272962797
 40
0.1674158370554012
 40
0.2052982054680715
 40
0.2435108549079271
 40
0.2821002885132872
 40
0.3211143290013834
 40
0.3606009581877617
 40
0.4006065740943938
 40
0.4411735443220017
 40
0.482336981298191
 40
0.52412077805686
 40
0.5665331483185712
 40
0.6095622163264742
 40
0.653172547492759
 40
0.6973037564798353
 40
0.7418722538052314
 40
0.7867766144346424
 40
0.8319060303113933
 40
0.8771476427491933
 40
0.9223740764958317
 40
0.9675086238777851
 40
1.0
 40
1.0
 40
1.0
 40
1.0
 10
-220.6590484958421
 20
-22.54836905493034
 30
0.0
 10
-220.2666161503599
 20
-23.58891490439914
 30
0.0
 10
-219.0827018423304
 20
-26.7280983420776
 30
0.0
 10
-216.8023845437006
 20
-31.84427309214127
 30
0.0
 10
-213.8394942258192
 20
-37.89980662432873
 30
0.0
 10
-210.5838456971683
 20
-43.83463151084969
 30
0.0
 10
-207.0575471017115
 20
-49.65107734785127
 30
0.0
 10
-203.2580273710417
 20
-55.34202856010128
 30
0.0
 10
-199.1885603008486
 20
-60.90368171054773
 30
0.0
 10
-194.8499077044399
 20
-66.33197414168026
 30
0.0
 10
-190.2425415848624
 20
-71.62337826761093
 30
0.0
 10
-185.3660896951523
 20
-76.77445481781197
 30
0.0
 10
-180.2196631148977
 20
-81.78168375588005
 30
0.0
 10
-174.8021137241733
 20
-86.64116700044724
 30
0.0
 10
-169.112518131133
 20
-91.34833244239363
 30
0.0
 10
-163.1508277122499
 20
-95.89764116568126
 30
0.0
 10
-156.9186841443186
 20
-100.2823562158555
 30
0.0
 10
-150.4203228221272
 20
-104.4944377073009
 30
0.0
 10
-143.6634262998774
 20
-108.5246306654173
 30
0.0
 10
-136.6597427785011
 20
-112.3628116314542
 30
0.0
 10
-129.4252371935246
 20
-115.9985334472328
 30
0.0
 10
-121.9797497248999
 20
-119.4219234503055
 30
0.0
 10
-114.3458896052056
 20
-122.6238664966792
 30
0.0
 10
-106.5500561806069
 20
-125.5981681882125
 30
0.0
 10
-98.61538123302545
 20
-128.3352729514454
 30
0.0
 10
-91.31644301502182
 20
-130.6183762270993
 30
0.0
 10
-86.63285264428775
 20
-131.9227937832904
 30
0.0
 10
-84.67247279348014
 20
-132.4687753256079
 30
0.0
  0
SPLINE
  5
186
330
181
100
AcDbEntity
  8
0
  6
Continuous
 62
     7
370
    25
100
AcDbSpline
210
0.0
220
0.0
230
1.0
 70
     8
 71
     3
 72
    34
 73
    30
 74
     0
 42
0.000000001
 43
0.00000001
 40
0.0
 40
0.0
 40
0.0
 40
0.0
 40
0.0231073930751852
 40
0.0621280590243726
 40
0.1013911275971715
 40
0.1409127215165252
 40
0.1807001337281108
 40
0.220748604122946
 40
0.2610377145668066
 40
0.3015278975152993
 40
0.3421579216804475
 40
0.3828227321398337
 40
0.4234044904401219
 40
0.4637873284449838
 40
0.5038574435391193
 40
0.5435139767377567
 40
0.5826775388098241
 40
0.6212945835818723
 40
0.6593374395446953
 40
0.6968010709580905
 40
0.7336981378472874
 40
0.7700537423530679
 40
0.805900752383709
 40
0.8412761005755928
 40
0.8762181130900025
 40
0.9107647405933453
 40
0.9449524979582868
 40
0.9788159193620217
 40
1.0
 40
1.0
 40
1.0
 40
1.0
 10
58.03343795352711
 20
-138.3870054769153
 30
0.0
 10
59.69503903133607
 20
-138.0958388699482
 30
0.0
 10
64.162529132932
 20
-137.3129891523392
 30
0.0
 10
71.35939746081749
 20
-135.7895263403981
 30
0.0
 10
79.63755378083891
 20
-133.8329283084968
 30
0.0
 10
87.85792625910993
 20
-131.6268479995973
 30
0.0
 10
96.01512643581239
 20
-129.1777920959671
 30
0.0
 10
104.0955876520685
 20
-126.4764785014637
 30
0.0
 10
112.0844266818238
 20
-123.5186070595506
 30
0.0
 10
119.9630022313963
 20
-120.3000561292186
 30
0.0
 10
127.7079101556653
 20
-116.8197474052226
 30
0.0
 10
135.2916865492105
 20
-113.0800322752201
 30
0.0
 10
142.6847391484035
 20
-109.087046559133
 30
0.0
 10
149.8583346091714
 20
-104.8498605156287
 30
0.0
 10
156.786109984033
 20
-100.3799411555641
 30
0.0
 10
163.4450681969281
 20
-95.69055857447373
 30
0.0
 10
169.8166690772385
 20
-90.7957168857795
 30
0.0
 10
175.8871679198895
 20
-85.70919387831218
 30
0.0
 10
181.6472530591955
 20
-80.44388481452239
 30
0.0
 10
187.0912228644343
 20
-75.01151629405726
 30
0.0
 10
192.2159705083734
 20
-69.42267185225445
 30
0.0
 10
197.0200746785865
 20
-63.68704649758425
 30
0.0
 10
201.5028885619336
 20
-57.81371280815407
 30
0.0
 10
205.6645513780063
 20
-51.81168216440887
 30
0.0
 10
209.5036815345692
 20
-45.68934727145281
 30
0.0
 10
213.0245173587259
 20
-39.45776791383136
 30
0.0
 10
216.2101343842891
 20
-33.11951278646695
 30
0.0
 10
218.7660132489047
 20
-27.49149000289504
 30
0.0
 10
220.1312341157085
 20
-23.92582265627961
 30
0.0
 10
220.6566157925939
 20
-22.55363714744999
 30
0.0
  0
SPLINE
  5
187
330
181
100
AcDbEntity
  8
0
  6
Continuous
 62
     7
370
    25
100
AcDbSpline
210
0.0
220
0.0
230
1.0
 70
     8
 71
     3
 72
    11
 73
     7
 74
     0
 42
0.000000001
 43
0.00000001
 40
0.0
 40
0.0
 40
0.0
 40
0.0
 40
0.1768842558593814
 40
0.4873064029182227
 40
0.796000162905678
 40
0.9999999999999999
 40
0.9999999999999999
 40
0.9999999999999999
 40
0.9999999999999999
 10
-84.67247279348014
 20
-132.4687753256079
 30
0.0
 10
-83.1244597222082
 20
-132.8814296314814
 30
0.0
 10
-78.85976879329009
 20
-134.0182695637123
 30
0.0
 10
-71.80392737272592
 20
-135.6885525259949
 30
0.0
 10
-64.43782738138782
 20
-137.2589840401634
 30
0.0
 10
-59.78880540519156
 20
-138.0793783552206
 30
0.0
 10
-57.93896813164221
 20
-138.4058117407307
 30
0.0
  0
SPLINE
  5
188
330
181
100
AcDbEntity
  8
0
  6
Continuous
 62
     7
370
    25
100
AcDbSpline
210
0.0
220
0.0
230
1.0
 70
     8
 71
     3
 72
    20
 73
    16
 74
     0
 42
0.000000001
 43
0.00000001
 40
0.0
 40
0.0
 40
0.0
 40
0.0
 40
0.0031391626633966
 40
0.0870441623283333
 40
0.1712126225139302
 40
0.2556181406404944
 40
0.3402550924298097
 40
0.4251302992627105
 40
0.5102618073262137
 40
0.5956755526408933
 40
0.6813950918023007
 40
0.7674441663795918
 40
0.8538425056744372
 40
0.9405967696492641
 40
1.0
 40
1.0
 40
1.0
 40
1.0
 10
-58.3378469771846
 20
-138.355560553826
 30
0.0
 10
-58.21743315681793
 20
-138.3787916704623
 30
0.0
 10
-54.87854274225384
 20
-139.0229548771483
 30
0.0
 10
-48.25843607486208
 20
-140.0226354725248
 30
0.0
 10
-38.47512861533232
 20
-141.331407797982
 30
0.0
 10
-28.61952089692547
 20
-142.3174927395218
 30
0.0
 10
-18.71039761752667
 20
-143.0213314602877
 30
0.0
 10
-8.754110901295672
 20
-143.4291217815833
 30
0.0
 10
1.241050628486146
 20
-143.5414436533182
 30
0.0
 10
11.26811165832656
 20
-143.3549628873804
 30
0.0
 10
21.31966042651653
 20
-142.8656679200705
 30
0.0
 10
31.38885656229676
 20
-142.0738695218273
 30
0.0
 10
41.46444401728859
 20
-140.9608680917893
 30
0.0
 10
50.47399654661674
 20
-139.7254683270459
 30
0.0
 10
56.09682978578795
 20
-138.7247630447969
 30
0.0
 10
58.38213482383311
 20
-138.3180433848236
 30
0.0
  0
LWPOLYLINE
  5
189
330
181
100
AcDbEntity
  8
0
  6
Continuous
 62
     7
370
    25
100
AcDbPolyline
 90
      160
 70
   128
 43
0.0
 10
-105.0064625093
 20
-102.489526531
 10
-97.0629045935
 20
-104.5461230028
 10
-88.9677944742
 20
-106.439483114
 10
-80.733771705
 20
-108.1666506074
 10
-72.3736927349
 20
-109.724928716
 10
-63.9006108349
 20
-111.1118843736
 10
-55.3277557165
 20
-112.3253520135
 10
-46.6685128754
 20
-113.3634369501
 10
-37.9364026913
 20
-114.2245183369
 10
-29.1450593177
 20
-114.9072516976
 10
-20.3082093938
 20
-115.410571025
 10
-11.4396506116
 20
-115.7336904459
 10
-2.5532301729
 20
-115.8761054476
 10
6.3371768316
 20
-115.8375936659
 10
15.2176890867
 20
-115.6182152325
 10
24.0744407268
 20
-115.2183126807
 10
32.8936029855
 20
-114.6385104109
 10
41.6614057878
 20
-113.8797137154
 10
50.3641592505
 20
-112.9431073654
 10
58.9882750571
 20
-111.8301537604
 10
67.5202876746
 20
-110.5425906452
 10
75.946875378
 20
-109.082428397
 10
84.2548810509
 20
-107.4519468858
 10
92.4313327287
 20
-105.6536919147
 10
100.4634638527
 20
-103.6904712456
 10
108.3387332036
 20
-101.5653502145
 10
116.0448444833
 20
-99.2816469455
 10
123.5697655136
 20
-96.8429271702
 10
130.9017470237
 20
-94.2529986602
 10
138.0293409947
 20
-91.5159052812
 10
144.9414185349
 20
-88.6359206797
 10
151.6271872556
 20
-85.6175416098
 10
158.0762081227
 20
-82.4654809121
 10
164.2784117555
 20
-79.1846601552
 10
170.2241141494
 20
-75.7802019512
 10
175.9040317959
 20
-72.2574219575
 10
181.3092961778
 20
-68.6218205769
 10
186.4314676164
 20
-64.8790743694
 10
191.2625484491
 20
-61.0350271889
 10
195.7949955166
 20
-57.0956810587
 10
200.0217319409
 20
-53.0671868002
 10
203.9361581748
 20
-48.955834429
 10
207.5321623063
 20
-44.7680433337
 10
210.804129602
 20
-40.510352253
 10
213.7469512733
 20
-36.1894090662
 10
216.3560324534
 20
-31.811960413
 10
218.6272993718
 20
-27.38484116
 10
220.5572057149
 20
-22.9149637283
 10
222.142738163
 20
-18.4093073009
 10
223.3814210954
 20
-13.8749069254
 10
224.2713204557
 20
-9.3188425298
 10
224.8110467718
 20
-4.7482278679
 10
224.9997573249
 20
-0.1701994117
 10
224.8371574661
 20
4.4080947906
 10
224.3235010757
 20
8.9795062761
 10
223.4595901672
 20
13.5368973286
 10
222.2467736348
 20
18.0731521228
 10
220.6869451477
 20
22.5811878353
 10
218.7825401929
 20
27.0539657036
 10
216.5365322726
 20
31.484502016
 10
213.9524282616
 20
35.8658790159
 10
211.0342629316
 20
40.1912557033
 10
207.7865926513
 20
44.4538785158
 10
204.2144882722
 20
48.6470918741
 10
200.3235272115
 20
52.7643485731
 10
196.1197847429
 20
56.7992200054
 10
191.6098245112
 20
60.7454061981
 10
186.800688284
 20
64.5967456499
 10
181.6998849566
 20
68.3472249515
 10
176.3153788279
 20
71.9909881746
 10
170.6555771651
 20
75.5223460156
 10
164.7293170766
 20
78.9357846783
 10
158.545851714
 20
82.2259744834
 10
152.1148358245
 20
85.3877781902
 10
145.4463106759
 20
88.4162590175
 10
138.5506883788
 20
91.306688352
 10
131.4387356287
 20
94.0545531314
 10
124.1215568956
 20
96.655562891
 10
116.6105770856
 20
99.1056564628
 10
108.9175237019
 20
101.4010083167
 10
101.0544085343
 20
103.5380345331
 10
93.0335089036
 20
105.5133983992
 10
84.8673484926
 20
107.324015619
 10
76.5686777912
 20
108.9670591285
 10
68.1504541887
 20
110.4399635103
 10
59.6258217419
 20
111.7404289991
 10
51.0080906525
 20
112.8664250725
 10
42.3107164845
 20
113.8161936211
 10
33.5472791554
 20
114.5882516942
 10
24.7314617321
 20
115.1813938147
 10
15.8770290672
 20
115.5946938616
 10
6.997806306
 20
115.827506516
 10
-1.8923426989
 20
115.8794682685
 10
-10.7795370354
 20
115.750497987
 10
-19.6499004044
 20
115.4407970433
 10
-28.4895827866
 20
114.9508489987
 10
-37.2847820671
 20
114.2814188489
 10
-46.0217655863
 20
113.4335518295
 10
-54.6868915818
 20
112.4085717844
 10
-63.2666304877
 20
111.2080790981
 10
-71.7475860604
 20
109.8339481975
 10
-80.1165162943
 20
108.2883246248
 10
-88.3603540985
 20
106.5736216879
 10
-96.4662276988
 20
104.6925166917
 10
-104.4214807357
 20
102.6479467585
 10
-112.2136920261
 20
100.4431042414
 10
-119.8306949569
 20
98.0814317404
 10
-127.2605964823
 20
95.5666167267
 10
-134.491795693
 20
92.9025857854
 10
-141.5130019299
 20
90.0934984846
 10
-148.3132524129
 20
87.1437408807
 10
-154.881929358
 20
84.05791867
 10
-161.2087765561
 20
80.8408499975
 10
-167.2839153862
 20
77.4975579341
 10
-173.0978602403
 20
74.0332626336
 10
-178.6415333335
 20
70.4533731817
 10
-183.9062788785
 20
66.763479151
 10
-188.8838765999
 20
62.9693418728
 10
-193.56655457
 20
59.0768854422
 10
-197.9470013428
 20
55.0921874678
 10
-202.0183773707
 20
51.0214695826
 10
-205.7743256834
 20
46.8710877292
 10
-209.2089818134
 20
42.6475222362
 10
-212.3169829529
 20
38.3573676999
 10
-215.0934763271
 20
34.0073226871
 10
-217.5341267711
 20
29.604179277
 10
-219.635123499
 20
25.154812455
 10
-221.3931860539
 20
20.6661693795
 10
-222.8055694296
 20
16.1452585338
 10
-223.8700683574
 20
11.5991387834
 10
-224.5850207483
 20
7.0349083547
 10
-224.9493102892
 20
2.4596937516
 10
-224.9623681852
 20
-2.1193613712
 10
-224.6241740479
 20
-6.6951073628
 10
-223.9352559273
 20
-11.260399739
 10
-222.8966894873
 20
-15.8081103378
 10
-221.5100963261
 20
-20.3311384488
 10
-219.7776414443
 20
-24.8224219005
 10
-217.7020298646
 20
-29.2749480871
 10
-215.286502408
 20
-33.6817649173
 10
-212.534830634
 20
-38.0359916699
 10
-209.4513109513
 20
-42.3308297367
 10
-206.0407579099
 20
-46.5595732377
 10
-202.3084966836
 20
-50.7156194922
 10
-198.2603547552
 20
-54.7924793271
 10
-193.9026528177
 20
-58.7837872098
 10
-189.2421949055
 20
-62.6833111868
 10
-184.2862577704
 20
-66.4849626143
 10
-179.0425795198
 20
-70.182805665
 10
-173.5193475349
 20
-73.7710665959
 10
-167.7251856869
 20
-77.2441427633
 10
-161.6691408716
 20
-80.5966113713
 10
-155.3606688841
 20
-83.8232379381
 10
-148.8096196545
 20
-86.9189844692
 10
-142.0262218687
 20
-89.879017324
 10
-135.0210669969
 20
-92.6987147625
 10
-127.8050927569
 20
-95.3736741619
 10
-120.389566036
 20
-97.8997188906
 10
-112.7860652989
 20
-100.2729048297
 10
-105.0064625093
 20
-102.489526531
  0
LWPOLYLINE
  5
18C
330
181
100
AcDbEntity
  8
0
  6
Continuous
 62
     7
370
    25
100
AcDbPolyline
 90
      155
 70
   128
 43
0.0
 10
-99.1727701476
 20
-96.7956639459
 10
-91.4244785108
 20
-98.7984998395
 10
-83.5240198522
 20
-100.6368953805
 10
-75.4845437054
 20
-102.3077907409
 10
-67.3194309851
 20
-103.8084048802
 10
-59.0422717156
 20
-105.1362401744
 10
-50.6668424117
 20
-106.2890865727
 10
-42.2070831489
 20
-107.2650252759
 10
-33.6770743616
 20
-108.0624319304
 10
-25.0910134075
 20
-108.6799793316
 10
-16.4631909379
 20
-109.1166396328
 10
-7.8079671116
 20
-109.3716860558
 10
0.8602523053
 20
-109.4446941013
 10
9.5270399172
 20
-109.3355422544
 10
18.1779707113
 20
-109.0444121877
 10
26.7986460672
 20
-108.5717884584
 10
35.3747177214
 20
-107.918457702
 10
43.8919116491
 20
-107.0855073232
 10
52.3360518215
 20
-106.0743236857
 10
60.6930838006
 20
-104.8865898047
 10
68.9490981315
 20
-103.5242825462
 10
77.0903534931
 20
-101.9896693361
 10
85.1032995693
 20
-100.2853043867
 10
92.9745996021
 20
-98.4140244452
 10
100.6911525895
 20
-96.3789440724
 10
108.2401150905
 20
-94.1834504588
 10
115.6089226021
 20
-91.8311977867
 10
122.7853104713
 20
-89.3261011487
 10
129.7573343089
 20
-86.6723300309
 10
136.5133898691
 20
-83.8743013733
 10
143.0422323643
 20
-80.9366722186
 10
149.3329951804
 20
-77.8643319605
 10
155.3752079636
 20
-74.6623942063
 10
161.158814047
 20
-71.3361882652
 10
166.6741871891
 20
-67.891250279
 10
171.9121475955
 20
-64.3333140067
 10
176.8639771981
 20
-60.6683012823
 10
181.5214341652
 20
-56.9023121577
 10
185.8767666194
 20
-53.0416147502
 10
189.9227255395
 20
-49.0926348095
 10
193.6525768263
 20
-45.0619450231
 10
197.0601125104
 20
-40.9562540764
 10
200.1396610849
 20
-36.7823954867
 10
202.8860969451
 20
-32.5473162297
 10
205.2948489196
 20
-28.2580651769
 10
207.3619078785
 20
-23.9217813634
 10
209.0838334061
 20
-19.5456821057
 10
210.4577595273
 20
-15.137050989
 10
211.4813994776
 20
-10.7032257448
 10
212.1530495095
 20
-6.2515860376
 10
212.4715917277
 20
-1.7895411825
 10
212.43649595
 20
2.6754821873
 10
212.0478205901
 20
7.1360524811
 10
211.3062125596
 20
11.5847455198
 10
210.2129061919
 20
16.0141568928
 10
208.7697211876
 20
20.4169142821
 10
206.9790595857
 20
24.7856897326
 10
204.8439017657
 20
29.1132118485
 10
202.367801487
 20
33.3922778965
 10
199.5548799744
 20
37.6157657933
 10
196.4098190579
 20
41.7766459603
 10
192.9378533811
 20
45.867993023
 10
189.1447616882
 20
49.882997338
 10
185.0368572061
 20
53.8149763268
 10
180.6209771362
 20
57.6573855985
 10
175.9044712752
 20
61.403829842
 10
170.8951897817
 20
65.0480734706
 10
165.6014701103
 20
68.5840510004
 10
160.032123135
 20
72.0058771459
 10
154.1964184841
 20
75.3078566151
 10
148.1040691122
 20
78.484493589
 10
141.7652151335
 20
81.5305008689
 10
135.1904069449
 20
84.4408086763
 10
128.3905876658
 20
87.210573091
 10
121.3770749243
 20
89.8351841136
 10
114.1615420201
 20
92.3102733379
 10
106.7559984958
 20
94.6317212223
 10
99.1727701476
 20
96.7956639459
 10
91.4244785108
 20
98.7984998395
 10
83.5240198522
 20
100.6368953805
 10
75.4845437054
 20
102.3077907409
 10
67.3194309851
 20
103.8084048802
 10
59.0422717156
 20
105.1362401744
 10
50.6668424117
 20
106.2890865727
 10
42.2070831489
 20
107.2650252759
 10
33.6770743616
 20
108.0624319304
 10
25.0910134075
 20
108.6799793316
 10
16.4631909378
 20
109.1166396328
 10
7.8079671116
 20
109.3716860558
 10
-0.8602523053
 20
109.4446941013
 10
-9.5270399172
 20
109.3355422544
 10
-18.1779707113
 20
109.0444121877
 10
-26.7986460672
 20
108.5717884584
 10
-35.3747177214
 20
107.918457702
 10
-43.8919116491
 20
107.0855073232
 10
-52.3360518215
 20
106.0743236857
 10
-60.6930838006
 20
104.8865898047
 10
-68.9490981315
 20
103.5242825462
 10
-77.0903534931
 20
101.9896693361
 10
-85.1032995693
 20
100.2853043867
 10
-92.9745996021
 20
98.4140244452
 10
-100.6911525895
 20
96.3789440724
 10
-108.2401150905
 20
94.1834504588
 10
-115.6089226021
 20
91.8311977867
 10
-122.7853104713
 20
89.3261011487
 10
-129.7573343089
 20
86.6723300309
 10
-136.5133898691
 20
83.8743013733
 10
-143.0422323643
 20
80.9366722186
 10
-149.3329951804
 20
77.8643319605
 10
-155.3752079636
 20
74.6623942063
 10
-161.158814047
 20
71.3361882652
 10
-166.6741871891
 20
67.891250279
 10
-171.9121475955
 20
64.3333140067
 10
-176.8639771981
 20
60.6683012823
 10
-181.5214341652
 20
56.9023121577
 10
-185.8767666194
 20
53.0416147502
 10
-189.9227255395
 20
49.0926348095
 10
-193.6525768263
 20
45.0619450231
 10
-197.0601125104
 20
40.9562540764
 10
-200.1396610849
 20
36.7823954867
 10
-202.8860969451
 20
32.5473162297
 10
-205.2948489196
 20
28.2580651769
 10
-207.3619078785
 20
23.9217813634
 10
-209.0838334061
 20
19.5456821057
 10
-210.4577595273
 20
15.137050989
 10
-211.4813994776
 20
10.7032257448
 10
-212.1530495095
 20
6.2515860376
 10
-212.4715917277
 20
1.7895411825
 10
-212.43649595
 20
-2.6754821873
 10
-212.0478205901
 20
-7.1360524811
 10
-211.3062125596
 20
-11.5847455198
 10
-210.2129061919
 20
-16.0141568928
 10
-208.7697211876
 20
-20.4169142821
 10
-206.9790595857
 20
-24.7856897326
 10
-204.8439017657
 20
-29.1132118485
 10
-202.367801487
 20
-33.3922778965
 10
-199.5548799744
 20
-37.6157657933
 10
-196.4098190579
 20
-41.7766459603
 10
-192.9378533811
 20
-45.867993023
 10
-189.1447616882
 20
-49.882997338
 10
-185.0368572061
 20
-53.8149763268
 10
-180.6209771362
 20
-57.6573855985
 10
-175.9044712752
 20
-61.403829842
 10
-170.8951897817
 20
-65.0480734706
 10
-165.6014701103
 20
-68.5840510004
 10
-160.032123135
 20
-72.0058771459
 10
-154.1964184841
 20
-75.3078566151
 10
-148.1040691122
 20
-78.484493589
 10
-141.7652151335
 20
-81.5305008689
 10
-135.1904069449
 20
-84.4408086763
 10
-128.3905876658
 20
-87.210573091
 10
-121.3770749243
 20
-89.8351841136
 10
-114.1615420201
 20
-92.3102733379
 10
-106.7559984958
 20
-94.6317212223
 10
-99.1727701476
 20
-96.7956639459
  0
LWPOLYLINE
  5
18D
330
181
100
AcDbEntity
  8
0
  6
Continuous
 62
     7
370
    25
100
AcDbPolyline
 90
       63
 70
   128
 43
0.0
 10
-16.2958530094
 20
-93.0503091729
 10
-13.087994333
 20
-93.8178086529
 10
-9.7458351237
 20
-94.4142231397
 10
-6.3036704579
 20
-94.8334326137
 10
-2.796821603
 20
-95.0711354183
 10
0.7387264263
 20
-95.1248924012
 10
4.2666941228
 20
-94.9941519429
 10
7.7508797639
 20
-94.6802556174
 10
11.1555308899
 20
-94.1864244259
 10
14.4457111732
 20
-93.5177257445
 10
17.5876589117
 20
-92.6810213267
 10
20.5491334698
 20
-91.6848968921
 10
23.2997461111
 20
-90.5395740253
 10
25.8112718277
 20
-89.2568052887
 10
28.0579389671
 20
-87.8497536256
 10
30.0166936843
 20
-86.33285729
 10
31.6674365052
 20
-84.7216816909
 10
32.9932285747
 20
-83.0327596704
 10
33.980465472
 20
-81.2834218537
 10
34.6190168106
 20
-79.4916188143
 10
34.9023301898
 20
-77.6757368758
 10
34.8274984308
 20
-75.8544094444
 10
34.3952894088
 20
-74.046325804
 10
33.6101381732
 20
-72.2700393396
 10
32.4801014381
 20
-70.543777154
 10
31.0167749097
 20
-68.8852530333
 10
29.2351742983
 20
-67.3114856791
 10
27.1535812371
 20
-65.8386240744
 10
24.7933556877
 20
-64.4817817721
 10
22.1787167583
 20
-63.2548818105
 10
19.3364941822
 20
-62.1705138434
 10
16.2958530094
 20
-61.2398049535
 10
13.087994333
 20
-60.4723054735
 10
9.7458351237
 20
-59.8758909867
 10
6.3036704579
 20
-59.4566815127
 10
2.796821603
 20
-59.218978708
 10
-0.7387264263
 20
-59.1652217252
 10
-4.2666941228
 20
-59.2959621835
 10
-7.7508797639
 20
-59.609858509
 10
-11.1555308899
 20
-60.1036897005
 10
-14.4457111732
 20
-60.7723883819
 10
-17.5876589117
 20
-61.6090927996
 10
-20.5491334698
 20
-62.6052172343
 10
-23.2997461111
 20
-63.7505401011
 10
-25.8112718277
 20
-65.0333088376
 10
-28.0579389671
 20
-66.4403605008
 10
-30.0166936843
 20
-67.9572568364
 10
-31.6674365052
 20
-69.5684324355
 10
-32.9932285747
 20
-71.257354456
 10
-33.980465472
 20
-73.0066922726
 10
-34.6190168106
 20
-74.7984953121
 10
-34.9023301898
 20
-76.6143772506
 10
-34.8274984308
 20
-78.435704682
 10
-34.3952894088
 20
-80.2437883224
 10
-33.6101381732
 20
-82.0200747868
 10
-32.4801014381
 20
-83.7463369724
 10
-31.0167749097
 20
-85.4048610931
 10
-29.2351742983
 20
-86.9786284472
 10
-27.1535812371
 20
-88.451490052
 10
-24.7933556877
 20
-89.8083323543
 10
-22.1787167583
 20
-91.0352323159
 10
-19.3364941822
 20
-92.119600283
 10
-16.2958530094
 20
-93.0503091729
  0
LWPOLYLINE
  5
18E
330
181
100
AcDbEntity
  8
0
  6
Continuous
 62
     7
370
    25
100
AcDbPolyline
 90
       36
 70
   128
 43
0.0
 10
19.3612885557
 20
-92.111099526
 10
19.627484208
 20
-91.892074468
 10
20.9754703209
 20
-90.5763986973
 10
21.9926607367
 20
-89.1840830494
 10
22.6630137549
 20
-87.7370851738
 10
22.975957508
 20
-86.2582250912
 10
22.926556686
 20
-84.7708253087
 10
22.5155903694
 20
-83.2983430093
 10
21.7495397425
 20
-81.8640001186
 10
20.6404858813
 20
-80.4904170807
 10
19.2059192278
 20
-79.1992561206
 10
17.468463755
 20
-78.0108796182
 10
15.4555201736
 20
-76.9440289806
 10
13.1988338063
 20
-76.0155290797
 10
10.7339939454
 20
-75.2400229137
 10
8.0998725878
 20
-74.629740678
 10
5.3380114008
 20
-74.1943068881
 10
2.4919665852
 20
-73.940588595
 10
-0.393378032
 20
-73.8725870876
 10
-3.2725188427
 20
-73.9913747904
 10
-6.1000500763
 20
-74.2950783503
 10
-8.8313798762
 20
-74.7789081809
 10
-11.4234335398
 20
-75.4352339966
 10
-13.8353328325
 20
-76.2537051472
 10
-16.0290406616
 20
-77.2214138538
 10
-17.9699609442
 20
-78.323098772
 10
-19.627484208
 20
-79.5413856725
 10
-20.9754703209
 20
-80.8570614431
 10
-21.9926607367
 20
-82.249377091
 10
-22.6630137549
 20
-83.6963749667
 10
-22.975957508
 20
-85.1752350492
 10
-22.926556686
 20
-86.6626348318
 10
-22.5155903694
 20
-88.1351171311
 10
-21.7495397425
 20
-89.5694600219
 10
-20.6404858813
 20
-90.9430430598
 10
-19.3612885557
 20
-92.111099526
  0
LWPOLYLINE
  5
18F
330
181
100
AcDbEntity
  8
0
  6
Continuous
 62
     7
370
    25
100
AcDbPolyline
 90
       21
 70
   128
 43
0.0
 10
21.4418829657
 20
-90.0025665737
 10
20.6404858813
 20
-89.0620900877
 10
19.2059192278
 20
-87.7709291277
 10
17.468463755
 20
-86.5825526252
 10
15.4555201736
 20
-85.5157019876
 10
13.1988338063
 20
-84.5872020868
 10
10.7339939454
 20
-83.8116959207
 10
8.0998725878
 20
-83.2014136851
 10
5.3380114008
 20
-82.7659798951
 10
2.4919665852
 20
-82.512261602
 10
-0.393378032
 20
-82.4442600946
 10
-3.2725188427
 20
-82.5630477974
 10
-6.1000500763
 20
-82.8667513574
 10
-8.8313798762
 20
-83.3505811879
 10
-11.4234335398
 20
-84.0069070036
 10
-13.8353328325
 20
-84.8253781542
 10
-16.0290406616
 20
-85.7930868608
 10
-17.9699609442
 20
-86.894771779
 10
-19.627484208
 20
-88.1130586795
 10
-20.9754703209
 20
-89.4287344501
 10
-21.4418829657
 20
-90.0025665737
  0
LWPOLYLINE
  5
192
330
181
100
AcDbEntity
  8
0
  6
HIDDEN
 62
     7
370
    18
100
AcDbPolyline
 90
       77
 70
   128
 43
0.0
 10
-24.5015079188
 20
-118.2026259345
 10
-20.5835026926
 20
-119.1630327975
 10
-16.5248912715
 20
-119.9535207171
 10
-12.353398087
 20
-120.5686898591
 10
-8.0975186675
 20
-121.0043379945
 10
-3.7863249846
 20
-121.2574892048
 10
0.5507331372
 20
-121.3264142105
 10
4.8840291932
 20
-121.2106421841
 10
9.1839623775
 20
-120.9109639657
 10
13.4211597863
 20
-120.4294266616
 10
17.5666770649
 20
-119.7693196597
 10
21.5921961268
 20
-118.9351521603
 10
25.470218595
 20
-117.9326223731
 10
29.1742536437
 20
-116.7685785933
 10
32.6789989576
 20
-115.45097242
 10
35.9605135727
 20
-113.9888044396
 10
38.9963814165
 20
-112.392062742
 10
41.7658644335
 20
-110.6716546919
 10
44.2500442464
 20
-108.839332421
 10
46.4319513881
 20
-106.9076125481
 10
48.2966812204
 20
-104.8896906789
 10
49.8314957478
 20
-102.7993512658
 10
51.0259106308
 20
-100.6508734466
 10
51.8717668046
 20
-98.4589335033
 10
52.3632862138
 20
-96.2385046083
 10
52.4971112825
 20
-94.0047545425
 10
52.2723278498
 20
-91.7729420838
 10
51.6904714145
 20
-89.5583127743
 10
50.7555166459
 20
-87.3759947778
 10
49.4738502332
 20
-85.2408955391
 10
47.8542272576
 20
-83.167599951
 10
45.9077113863
 20
-81.1702707245
 10
43.6475992964
 20
-79.2625516437
 10
41.0893298452
 20
-77.4574743641
 10
38.2503786071
 20
-75.767369394
 10
35.1501384978
 20
-74.203781864
 10
31.8097873008
 20
-72.7773926625
 10
28.2521430018
 20
-71.4979454739
 10
24.5015079188
 20
-70.37418022
 10
20.5835026926
 20
-69.4137733569
 10
16.5248912715
 20
-68.6232854374
 10
12.353398087
 20
-68.0081162954
 10
8.0975186674
 20
-67.57246816
 10
3.7863249846
 20
-67.3193169497
 10
-0.5507331372
 20
-67.2503919439
 10
-4.8840291932
 20
-67.3661639704
 10
-9.1839623775
 20
-67.6658421887
 10
-13.4211597863
 20
-68.1473794929
 10
-17.5666770649
 20
-68.8074864947
 10
-21.5921961268
 20
-69.6416539942
 10
-25.470218595
 20
-70.6441837813
 10
-29.1742536437
 20
-71.8082275612
 10
-32.6789989576
 20
-73.1258337344
 10
-35.9605135727
 20
-74.5880017148
 10
-38.9963814165
 20
-76.1847434125
 10
-41.7658644335
 20
-77.9051514625
 10
-44.2500442464
 20
-79.7374737335
 10
-46.4319513881
 20
-81.6691936063
 10
-48.2966812204
 20
-83.6871154756
 10
-49.8314957478
 20
-85.7774548887
 10
-51.0259106308
 20
-87.9259327079
 10
-51.8717668046
 20
-90.1178726512
 10
-52.3632862138
 20
-92.3383015462
 10
-52.4971112825
 20
-94.572051612
 10
-52.2723278498
 20
-96.8038640707
 10
-51.6904714145
 20
-99.0184933802
 10
-50.7555166459
 20
-101.2008113766
 10
-49.4738502332
 20
-103.3359106153
 10
-47.8542272576
 20
-105.4092062035
 10
-45.9077113863
 20
-107.4065354299
 10
-43.6475992964
 20
-109.3142545108
 10
-41.0893298452
 20
-111.1193317904
 10
-38.2503786071
 20
-112.8094367605
 10
-35.1501384978
 20
-114.3730242905
 10
-31.8097873008
 20
-115.799413492
 10
-28.2521430018
 20
-117.0788606806
 10
-24.5015079188
 20
-118.2026259345
  0
LWPOLYLINE
  5
193
330
181
100
AcDbEntity
  8
0
  6
HIDDEN
 62
     7
370
    18
100
AcDbPolyline
 90
       13
 70
   128
 43
0.0
 10
-10.7339939454
 20
-96.1934372267
 10
-8.0998725878
 20
-96.8037194624
 10
-5.3380114008
 20
-97.2391532523
 10
-2.4919665852
 20
-97.4928715455
 10
0.393378032
 20
-97.5608730528
 10
3.2725188427
 20
-97.44208535
 10
6.1000500763
 20
-97.1383817901
 10
8.8313798762
 20
-96.6545519595
 10
11.4234335398
 20
-95.9982261439
 10
13.8353328325
 20
-95.1797549932
 10
16.0290406616
 20
-94.2120462866
 10
17.9699609442
 20
-93.1103613685
 10
19.3612885557
 20
-92.111099526
  0
LWPOLYLINE
  5
195
330
181
100
AcDbEntity
  8
0
  6
HIDDEN
 62
     7
370
    18
100
AcDbPolyline
 90
       21
 70
   128
 43
0.0
 10
-10.7339939454
 20
-104.7651102337
 10
-8.0998725878
 20
-105.3753924694
 10
-5.3380114008
 20
-105.8108262593
 10
-2.4919665852
 20
-106.0645445525
 10
0.393378032
 20
-106.1325460599
 10
3.2725188427
 20
-106.0137583571
 10
6.1000500763
 20
-105.7100547971
 10
8.8313798762
 20
-105.2262249666
 10
11.4234335398
 20
-104.5698991509
 10
13.8353328325
 20
-103.7514280003
 10
16.0290406616
 20
-102.7837192937
 10
17.9699609442
 20
-101.6820343755
 10
19.627484208
 20
-100.463747475
 10
20.9754703209
 20
-99.1480717044
 10
21.9926607367
 20
-97.7557560565
 10
22.6630137549
 20
-96.3087581808
 10
22.975957508
 20
-94.8298980982
 10
22.926556686
 20
-93.3424983157
 10
22.5155903694
 20
-91.8700160163
 10
21.7495397425
 20
-90.4356731256
 10
21.4418829657
 20
-90.0025665737
  0
LWPOLYLINE
  5
196
330
181
100
AcDbEntity
  8
0
  6
HIDDEN
 62
     7
370
    18
100
AcDbPolyline
 90
       13
 70
   128
 43
0.0
 10
-21.4418829657
 20
-90.0025665737
 10
-21.9926607367
 20
-90.821050098
 10
-22.6630137549
 20
-92.2680479737
 10
-22.975957508
 20
-93.7469080563
 10
-22.926556686
 20
-95.2343078388
 10
-22.5155903694
 20
-96.7067901381
 10
-21.7495397425
 20
-98.1411330289
 10
-20.6404858813
 20
-99.5147160668
 10
-19.2059192278
 20
-100.8058770268
 10
-17.468463755
 20
-101.9942535293
 10
-15.4555201736
 20
-103.0611041669
 10
-13.1988338063
 20
-103.9896040677
 10
-10.7339939454
 20
-104.7651102337
  0
SPLINE
  5
197
330
181
100
AcDbEntity
  8
0
  6
HIDDEN
 62
     7
370
    18
100
AcDbSpline
210
0.0
220
0.0
230
1.0
 70
     8
 71
     3
 72
    31
 73
    27
 74
     0
 42
0.000000001
 43
0.00000001
 40
0.0
 40
0.0
 40
0.0
 40
0.0
 40
0.0060864197871791
 40
0.0455584346646151
 40
0.0852692573987431
 40
0.1252665131333672
 40
0.1656006194700113
 40
0.2063245270433488
 40
0.2474931210658927
 40
0.2891621546775766
 40
0.3313865633720938
 40
0.3742180042788402
 40
0.417701494991202
 40
0.4618711244241387
 40
0.5067450086986738
 40
0.5523199906194535
 40
0.5985670010604066
 40
0.6454283792957973
 40
0.6928185319788766
 40
0.7406288217802768
 40
0.7887364609297828
 40
0.8370158236983839
 40
0.8853264104925356
 40
0.933563799915214
 40
0.9816584716495094
 40
1.0
 40
1.0
 40
1.0
 40
1.0
 10
-207.2521428276552
 20
-24.12382236245049
 30
0.0
 10
-207.1244419426464
 20
-24.43088859479806
 30
0.0
 10
-206.1685676142699
 20
-26.72935918560161
 30
0.0
 10
-204.1163768563129
 20
-30.90596925986751
 30
0.0
 10
-201.0822666628851
 20
-36.64400489031444
 30
0.0
 10
-197.7448049417051
 20
-42.25459863783546
 30
0.0
 10
-194.139656997855
 20
-47.74837170490331
 30
0.0
 10
-190.2593624030415
 20
-53.11678441182864
 30
0.0
 10
-186.1071331357589
 20
-58.35712977041155
 30
0.0
 10
-181.6822455215166
 20
-63.46553944957449
 30
0.0
 10
-176.9841092301688
 20
-68.43860206299915
 30
0.0
 10
-172.0114203461621
 20
-73.27257535317884
 30
0.0
 10
-166.7628597956312
 20
-77.96320196343753
 30
0.0
 10
-161.2376115199002
 20
-82.50533982568896
 30
0.0
 10
-155.4361756979681
 20
-86.89267704809497
 30
0.0
 10
-149.3612947540439
 20
-91.11753741394327
 30
0.0
 10
-143.0189084152435
 20
-95.1708731521287
 30
0.0
 10
-136.4189369844678
 20
-99.04250718319973
 30
0.0
 10
-129.5756752188386
 20
-102.7216628066743
 30
0.0
 10
-122.5075897356351
 20
-106.1976902922486
 30
0.0
 10
-115.2365392843909
 20
-109.4610088699083
 30
0.0
 10
-107.7874635183247
 20
-112.5030150848113
 30
0.0
 10
-100.1866328388876
 20
-115.3184947309386
 30
0.0
 10
-92.45707755193433
 20
-117.9010109724639
 30
0.0
 10
-86.23063551251501
 20
-119.7778089178716
 30
0.0
 10
-82.58002698539667
 20
-120.7836513579284
 30
0.0
 10
-81.5721767514695
 20
-121.0613416473623
 30
0.0
  0
SPLINE
  5
198
330
181
100
AcDbEntity
  8
0
  6
HIDDEN
 62
     7
370
    18
100
AcDbSpline
210
0.0
220
0.0
230
1.0
 70
     8
 71
     3
 72
    32
 73
    28
 74
     0
 42
0.000000001
 43
0.00000001
 40
0.0
 40
0.0
 40
0.0
 40
0.0
 40
0.0275555277646574
 40
0.0689700314439068
 40
0.11063795893635
 40
0.152577423091065
 40
0.1947977956711611
 40
0.2372962532417714
 40
0.2800537654353031
 40
0.3230309813373416
 40
0.3661648956115717
 40
0.4093476256872387
 40
0.4524477015448918
 40
0.4953365029305899
 40
0.537885415404132
 40
0.5799786337978952
 40
0.6215237655039
 40
0.6624577508391212
 40
0.7027475483555222
 40
0.7423867007177564
 40
0.7813896579702558
 40
0.8197855949218765
 40
0.8576128645872856
 40
0.8949146083080258
 40
0.9317356034848334
 40
0.9681201961801889
 40
1.0
 40
1.0
 40
1.0
 40
1.0
 10
56.46734480459672
 20
-126.6615443662066
 30
0.0
 10
58.2782060274433
 20
-126.3380113857889
 30
0.0
 10
62.81069607978301
 20
-125.5282254138732
 30
0.0
 10
69.98164343293453
 20
-123.9832179542699
 30
0.0
 10
77.99628593445017
 20
-122.0508411427992
 30
0.0
 10
85.94756957087024
 20
-119.8762578012661
 30
0.0
 10
93.82968655250697
 20
-117.4643457395667
 30
0.0
 10
101.6294101521205
 20
-114.8064165202029
 30
0.0
 10
109.3322184083589
 20
-111.8980183555813
 30
0.0
 10
116.9199966402865
 20
-108.7349171457364
 30
0.0
 10
124.3701237878279
 20
-105.3156696392755
 30
0.0
 10
131.6556049942856
 20
-101.6423064313941
 30
0.0
 10
138.7470767652464
 20
-97.72070838470518
 30
0.0
 10
145.6155248815596
 20
-93.55999843361371
 30
0.0
 10
152.2342529168128
 20
-89.17182830840107
 30
0.0
 10
158.5798249276583
 20
-84.56987685598968
 30
0.0
 10
164.6332989878035
 20
-79.76871868946493
 30
0.0
 10
170.3806793706255
 20
-74.78277124813268
 30
0.0
 10
175.8125955896804
 20
-69.62554956665231
 30
0.0
 10
180.9234866611897
 20
-64.3093385180981
 30
0.0
 10
185.7104551284847
 20
-58.84516581492139
 30
0.0
 10
190.1725900413464
 20
-53.24321535848599
 30
0.0
 10
194.3089510077197
 20
-47.51259972967136
 30
0.0
 10
198.1224198640688
 20
-41.66385731054891
 30
0.0
 10
201.6032519449549
 20
-35.70144507917817
 30
0.0
 10
204.668067295819
 20
-29.88029031179934
 30
0.0
 10
206.4233364496348
 20
-25.97551858980267
 30
0.0
 10
207.2430556463348
 20
-24.15197128237511
 30
0.0
  0
SPLINE
  5
199
330
181
100
AcDbEntity
  8
0
  6
HIDDEN
 62
     7
370
    18
100
AcDbSpline
210
0.0
220
0.0
230
1.0
 70
     8
 71
     3
 72
    11
 73
     7
 74
     0
 42
0.000000001
 43
0.00000001
 40
0.0
 40
0.0
 40
0.0
 40
0.0
 40
0.1756569864203235
 40
0.4872318561060936
 40
0.7970837372989735
 40
0.9999999999999999
 40
0.9999999999999999
 40
0.9999999999999999
 40
0.9999999999999999
 10
-81.5721767514695
 20
-121.0613416473623
 30
0.0
 10
-80.08700125061233
 20
-121.4572419902415
 30
0.0
 10
-75.96746788804845
 20
-122.5553779814426
 30
0.0
 10
-69.13730497992222
 20
-124.1710059196211
 30
0.0
 10
-62.00251269077646
 20
-125.6895231439428
 30
0.0
 10
-57.50265174889878
 20
-126.4804765277998
 30
0.0
 10
-55.72193472138184
 20
-126.7934782353633
 30
0.0
  0
SPLINE
  5
19A
330
181
100
AcDbEntity
  8
0
  6
HIDDEN
 62
     7
370
    18
100
AcDbSpline
210
0.0
220
0.0
230
1.0
 70
     8
 71
     3
 72
    20
 73
    16
 74
     0
 42
0.000000001
 43
0.00000001
 40
0.0
 40
0.0
 40
0.0
 40
0.0
 40
0.0056788237726823
 40
0.0908540908745524
 40
0.1762903469612716
 40
0.2619630342874134
 40
0.3478673796263492
 40
0.4340128580403557
 40
0.5204214788629602
 40
0.6071237676947329
 40
0.6941455312216791
 40
0.7815150930601437
 40
0.8692544826281672
 40
0.9573704794466404
 40
1.0
 40
1.0
 40
1.0
 40
1.0
 10
-56.21720218460277
 20
-126.7220953536134
 30
0.0
 10
-56.00672514859599
 20
-126.762607153587
 30
0.0
 10
-52.63935533367839
 20
-127.410745377914
 30
0.0
 10
-46.05235248332065
 20
-128.3988809416175
 30
0.0
 10
-36.45448929556463
 20
-129.6640680038244
 30
0.0
 10
-26.78624648745868
 20
-130.6089825661022
 30
0.0
 10
-17.06593618533379
 20
-131.2718872100268
 30
0.0
 10
-7.29998264456666
 20
-131.6396543502468
 30
0.0
 10
2.503490080734819
 20
-131.7126723038636
 30
0.0
 10
12.3376190175484
 20
-131.4877158209211
 30
0.0
 10
22.19500996699013
 20
-130.960200928986
 30
0.0
 10
32.06919124176228
 20
-130.1319734384775
 30
0.0
 10
41.94756998750557
 20
-128.9777854128998
 30
0.0
 10
50.12025418301791
 20
-127.8166528665401
 30
0.0
 10
54.97410663339079
 20
-126.9221211845988
 30
0.0
 10
56.55670316867153
 20
-126.6304595086386
 30
0.0
  0
SPLINE
  5
19B
330
181
100
AcDbEntity
  8
0
  6
HIDDEN
 62
     7
370
    18
100
AcDbSpline
210
0.0
220
0.0
230
1.0
 70
     8
 71
     3
 72
    35
 73
    31
 74
     0
 42
0.000000001
 43
0.00000001
 40
0.0
 40
0.0
 40
0.0
 40
0.0
 40
0.0350099206066283
 40
0.0777123510239752
 40
0.1143698605149994
 40
0.1532627332045605
 40
0.1907325347629352
 40
0.2273192236908023
 40
0.2634424878870588
 40
0.2993626364293969
 40
0.3352338560374667
 40
0.3711212284186082
 40
0.4070799506240398
 40
0.4431367646569271
 40
0.4793000418845315
 40
0.5155673800710054
 40
0.5519303320318107
 40
0.5883772943664214
 40
0.6248952191208277
 40
0.6614705783773324
 40
0.6980898602614642
 40
0.7347397754664906
 40
0.7714072885692687
 40
0.8080795468941812
 40
0.8447404822784608
 40
0.8813761900806082
 40
0.9179734686611057
 40
0.9545187478062046
 40
0.9890436428383694
 40
1.0
 40
1.0
 40
1.0
 40
1.0
 10
52.47826041776461
 20
-90.7810440769395
 30
0.0
 10
52.46603732376136
 20
-91.26885134148392
 30
0.0
 10
52.43890543213404
 20
-92.35164869484737
 30
0.0
 10
52.04009840198856
 20
-93.97463509704522
 30
0.0
 10
51.35983737091375
 20
-95.70200248070788
 30
0.0
 10
50.40892267239737
 20
-97.3971069054256
 30
0.0
 10
49.14708375166936
 20
-99.12010974407318
 30
0.0
 10
47.61266885923764
 20
-100.8067682264576
 30
0.0
 10
45.80860249555116
 20
-102.4530135913606
 30
0.0
 10
43.73754628958707
 20
-104.0508879558951
 30
0.0
 10
41.4059317628058
 20
-105.5889749280144
 30
0.0
 10
38.82350660236787
 20
-107.0546278201223
 30
0.0
 10
36.00309772344317
 20
-108.4350815764741
 30
0.0
 10
32.95951262130338
 20
-109.7183240127122
 30
0.0
 10
29.70997079154056
 20
-110.8930397194833
 30
0.0
 10
26.27374695790375
 20
-111.9488858413812
 30
0.0
 10
22.67180401823288
 20
-112.8766602592851
 30
0.0
 10
18.9264714248367
 20
-113.6683872530871
 30
0.0
 10
15.06116824608024
 20
-114.3173547966673
 30
0.0
 10
11.10016469269963
 20
-114.8181250830254
 30
0.0
 10
7.068373908076457
 20
-115.1665322049166
 30
0.0
 10
2.991168349444635
 20
-115.3596736882466
 30
0.0
 10
-1.105792619670223
 20
-115.3959062806312
 30
0.0
 10
-5.196581901470488
 20
-115.2748316572757
 30
0.0
 10
-9.255302608538235
 20
-114.9973640684964
 30
0.0
 10
-13.25605795972218
 20
-114.565558971228
 30
0.0
 10
-17.17405765658356
 20
-113.9832697785442
 30
0.0
 10
-20.91466795211411
 20
-113.266671199724
 30
0.0
 10
-23.6772346563325
 20
-112.6209056185095
 30
0.0
 10
-25.16520850700702
 20
-112.2232918583479
 30
0.0
 10
-25.5236589051115
 20
-112.1275073722447
 30
0.0
  0
SPLINE
  5
19C
330
181
100
AcDbEntity
  8
0
  6
HIDDEN
 62
     7
370
    18
100
AcDbSpline
210
0.0
220
0.0
230
1.0
 70
     8
 71
     3
 72
    22
 73
    18
 74
     0
 42
0.000000001
 43
0.00000001
 40
0.0
 40
0.0
 40
0.0
 40
0.0
 40
0.0365830768478918
 40
0.1061807951763033
 40
0.175597143227667
 40
0.2447918922950351
 40
0.3137515132922959
 40
0.3824776774049438
 40
0.450998417463997
 40
0.5193854237634494
 40
0.5877551778483258
 40
0.656286883420217
 40
0.7253303020940812
 40
0.7954360671904722
 40
0.8674146766876564
 40
0.9423170161161541
 40
1.0
 40
1.0
 40
1.0
 40
1.0
 10
-25.5236589051115
 20
-112.1275073722447
 30
0.0
 10
-26.14151777262559
 20
-111.9547696322884
 30
0.0
 10
-27.93482635987627
 20
-111.4534058278775
 30
0.0
 10
-30.77804824798838
 20
-110.5257437560298
 30
0.0
 10
-33.9722368066602
 20
-109.3132004976102
 30
0.0
 10
-36.95084493064854
 20
-107.9937365111401
 30
0.0
 10
-39.69805780911673
 20
-106.5824070637093
 30
0.0
 10
-42.19746796102917
 20
-105.0925944901424
 30
0.0
 10
-44.4362441096936
 20
-103.5395933004012
 30
0.0
 10
-46.40441739374087
 20
-101.939413936313
 30
0.0
 10
-48.09546212931141
 20
-100.3086593023937
 30
0.0
 10
-49.50758566880045
 20
-98.66303340684048
 30
0.0
 10
-50.64294949312728
 20
-97.0151017674494
 30
0.0
 10
-51.51147617430478
 20
-95.37071135302664
 30
0.0
 10
-52.1103691991376
 20
-93.72529533846867
 30
0.0
 10
-52.45057504775188
 20
-92.2153196168245
 30
0.0
 10
-52.46513330984109
 20
-91.25130741176929
 30
0.0
 10
-52.47146707270782
 20
-90.83190125806533
 30
0.0
  0
LINE
  5
1A3
330
181
100
AcDbEntity
  8
0
  6
Continuous
 62
     7
370
    25
100
AcDbLine
 10
-58.3720676199
 20
-138.3548315923
 30
0.0
 11
-57.9759031243
 21
-138.4251143202
 31
0.0
  0
LINE
  5
1A4
330
181
100
AcDbEntity
  8
0
  6
Continuous
 62
     7
370
    25
100
AcDbLine
 10
58.0688123907
 20
-138.4086795272
 30
0.0
 11
58.4206896083
 21
-138.3461687581
 31
0.0
  0
LINE
  5
1A5
330
181
100
AcDbEntity
  8
0
  6
HIDDEN
 62
     7
370
    18
100
AcDbLine
 10
-56.2539082739
 20
-126.7248281924
 30
0.0
 11
-55.7603603028
 21
-126.8122131878
 31
0.0
  0
LINE
  5
1A6
330
181
100
AcDbEntity
  8
0
  6
HIDDEN
 62
     7
370
    18
100
AcDbLine
 10
-52.5
 20
-90.7607186759
 30
0.0
 11
-52.4996709134
 21
-90.8564575705
 31
0.0
  0
LINE
  5
1A7
330
181
100
AcDbEntity
  8
0
  6
HIDDEN
 62
     7
370
    18
100
AcDbLine
 10
-52.5
 20
-90.7607186759
 30
0.0
 11
-52.5
 21
-94.2884030772
 31
0.0
  0
LINE
  5
1A8
330
181
100
AcDbEntity
  8
0
  6
HIDDEN
 62
     7
370
    18
100
AcDbLine
 10
52.5
 20
-94.2884030772
 30
0.0
 11
52.5
 21
-90.7607186759
 31
0.0
  0
LINE
  5
1A9
330
181
100
AcDbEntity
  8
0
  6
HIDDEN
 62
     7
370
    18
100
AcDbLine
 10
-24.3731549843
 20
-90.0229003387
 30
0.0
 11
-16.0544709062
 21
-94.1992987132
 31
0.0
  0
LINE
  5
1AA
330
181
100
AcDbEntity
  8
0
  6
HIDDEN
 62
     7
370
    18
100
AcDbLine
 10
16.0544709062
 20
-94.1992987132
 30
0.0
 11
24.3731549843
 21
-90.0229003387
 31
0.0
  0
LINE
  5
1AB
330
181
100
AcDbEntity
  8
0
  6
HIDDEN
 62
     7
370
    18
100
AcDbLine
 10
-23.0
 20
-85.7167300702
 30
0.0
 11
-23.0
 21
-94.2884030772
 31
0.0
  0
LINE
  5
1AC
330
181
100
AcDbEntity
  8
0
  6
HIDDEN
 62
     7
370
    18
100
AcDbLine
 10
23.0
 20
-94.2884030772
 30
0.0
 11
23.0
 21
-85.7167300702
 31
0.0
  0
ARC
  5
1AD
330
181
100
AcDbEntity
  8
0
  6
HIDDEN
 62
     7
370
    18
100
AcDbCircle
 10
-5.2503100093
 20
-73.4473514367
 30
0.0
 40
23.39776075348352
100
AcDbArc
 50
232.9084047243
 51
256.4456347114
  0
VIEWPORT
  5
1DE
330
181
100
AcDbEntity
  8
0
100
AcDbViewport
 10
0.0
 20
0.0
 30
0.0
 40
205.6
 41
156.0
 68
     1
 69
     1
 12
0.0
 22
0.0
 13
0.0
 23
0.0
 14
10.0
 24
10.0
 15
10.0
 25
10.0
 16
0.0
 26
0.0
 36
1.0
 17
0.0
 27
0.0
 37
0.0
 42
50.0
 43
0.0
 44
0.0
 45
459.0
 50
0.0
 51
0.0
 72
   100
 90
   557152
  1

281
     0
 71
     1
 74
     0
110
0.0
120
0.0
130
0.0
111
1.0
121
0.0
131
0.0
112
0.0
122
1.0
132
0.0
 79
     0
146
0.0
170
     0
 61
     5
348
2F
292
     1
282
     1
141
0.0
142
0.0
 63
   256
361
1DF
  0
ENDBLK
  5
184
330
181
100
AcDbEntity
  8
0
100
AcDbBlockEnd
  0
BLOCK
  5
1B0
330
1AE
100
AcDbEntity
  8
0
100
AcDbBlockBegin
  2
*Paper_Space7
 70
     0
 10
0.0
 20
0.0
 30
0.0
  3
*Paper_Space7
  1

  0
SPLINE
  5
1B2
330
1AE
100
AcDbEntity
  8
0
  6
Continuous
 62
     7
370
    25
100
AcDbSpline
210
0.0
220
0.0
230
1.0
 70
     8
 71
     3
 72
    26
 73
    22
 74
     0
 42
0.000000001
 43
0.00000001
 40
0.0
 40
0.0
 40
0.0
 40
0.0
 40
0.0144966900891165
 40
0.0667224990370759
 40
0.1189716360776768
 40
0.1712845091997793
 40
0.2237067713116201
 40
0.2762908135932
 40
0.3290976306172054
 40
0.3821991240855803
 40
0.4356808975717464
 40
0.4896455613659499
 40
0.5442165058694147
 40
0.5995419998852942
 40
0.6557992979683047
 40
0.7131981367727526
 40
0.7719824364225996
 40
0.8324279629307156
 40
0.8948317904785152
 40
0.9594863212036913
 40
1.0
 40
1.0
 40
1.0
 40
1.0
 10
-223.4843349485917
 20
-8.599688261377212
 30
0.0
 10
-223.3066329298914
 20
-9.141380234568848
 30
0.0
 10
-222.4887412112491
 20
-11.63457295218138
 30
0.0
 10
-220.752120735242
 20
-15.96940835900691
 30
0.0
 10
-218.2773469821016
 20
-21.5853483888071
 30
0.0
 10
-215.5221328115294
 20
-27.05909786916503
 30
0.0
 10
-212.5218670565481
 20
-32.39307023913532
 30
0.0
 10
-209.2772943894355
 20
-37.57755423966595
 30
0.0
 10
-205.7980064994951
 20
-42.60769956999806
 30
0.0
 10
-202.0903450637397
 20
-47.4791309332437
 30
0.0
 10
-198.1601388023504
 20
-52.18930685622942
 30
0.0
 10
-194.0113265903359
 20
-56.73731781891805
 30
0.0
 10
-189.6455603653283
 20
-61.12405885739897
 30
0.0
 10
-185.0614382581606
 20
-65.35225626381282
 30
0.0
 10
-180.2537058170474
 20
-69.42632200147456
 30
0.0
 10
-175.2126353934432
 20
-73.35247349435514
 30
0.0
 10
-169.9227958707853
 20
-77.13706574597407
 30
0.0
 10
-164.3651094183293
 20
-80.79078202212955
 30
0.0
 10
-158.508457406026
 20
-84.30844947653873
 30
0.0
 10
-153.1919933912476
 20
-87.2712692867235
 30
0.0
 10
-149.7776937168578
 20
-88.96382210626531
 30
0.0
 10
-148.4624118369823
 20
-89.61583987464516
 30
0.0
  0
SPLINE
  5
1B3
330
1AE
100
AcDbEntity
  8
0
  6
Continuous
 62
     7
370
    25
100
AcDbSpline
210
0.0
220
0.0
230
1.0
 70
     8
 71
     3
 72
    25
 73
    21
 74
     0
 42
0.000000001
 43
0.00000001
 40
0.0
 40
0.0
 40
0.0
 40
0.0
 40
0.0279825021792159
 40
0.0936970037518985
 40
0.1570524202571504
 40
0.2182647785710905
 40
0.2776100108010566
 40
0.3353680578007669
 40
0.3917962318299801
 40
0.4471190034130578
 40
0.5015262123624185
 40
0.5551753055653799
 40
0.6081952880097041
 40
0.6666100607112893
 40
0.7244180569046416
 40
0.7815557592792148
 40
0.8380977773351984
 40
0.8941069914878839
 40
0.949635213232885
 40
1.0
 40
1.0
 40
1.0
 40
1.0
 10
148.3441634972499
 20
-89.67346680708118
 30
0.0
 10
149.2568568429497
 20
-89.22844053591318
 30
0.0
 10
152.3129320748451
 20
-87.73830831213036
 30
0.0
 10
157.3165923574766
 20
-84.98708283109929
 30
0.0
 10
163.29227199638
 20
-81.4622546111927
 30
0.0
 10
168.9489359032699
 20
-77.80042314836878
 30
0.0
 10
174.3186593730527
 20
-74.01569999935772
 30
0.0
 10
179.4211223823441
 20
-70.09821634224784
 30
0.0
 10
184.2742392405673
 20
-66.04328946169207
 30
0.0
 10
188.8902688943489
 20
-61.84557280393349
 30
0.0
 10
193.2769573368251
 20
-57.50151622673449
 30
0.0
 10
197.4380013098462
 20
-53.00921629788789
 30
0.0
 10
201.5202177284366
 20
-48.19619967293699
 30
0.0
 10
205.4923684505263
 20
-43.04313030019532
 30
0.0
 10
209.3131341666361
 20
-37.53990193045376
 30
0.0
 10
212.8300721004389
 20
-31.88669868876107
 30
0.0
 10
216.0381208360262
 20
-26.1014113671041
 30
0.0
 10
218.9235815226134
 20
-20.19346519068927
 30
0.0
 10
221.4443198276309
 20
-14.36132324868283
 30
0.0
 10
222.8456505790227
 20
-10.43736736983991
 30
0.0
 10
223.5121509030359
 20
-8.57105717714312
 30
0.0
  0
SPLINE
  5
1B4
330
1AE
100
AcDbEntity
  8
0
  6
Continuous
 62
     7
370
    25
100
AcDbSpline
210
0.0
220
0.0
230
1.0
 70
     8
 71
     3
 72
    20
 73
    16
 74
     0
 42
0.000000001
 43
0.00000001
 40
0.0
 40
0.0
 40
0.0
 40
0.0
 40
0.0199239522776967
 40
0.1029450952906393
 40
0.1864169278728846
 40
0.2704626087696108
 40
0.3552183865082496
 40
0.4408245123490746
 40
0.5274075136321777
 40
0.6150511122472567
 40
0.7037562989107863
 40
0.793399635043448
 40
0.8836869721121975
 40
0.9741009713260713
 40
1.0
 40
1.0
 40
1.0
 40
1.0
 10
-148.4790375984732
 20
-89.61612133956429
 30
0.0
 10
-147.8421323067127
 20
-89.94215610673848
 30
0.0
 10
-144.5513055150425
 20
-91.62674557508302
 30
0.0
 10
-138.4755705578554
 20
-94.43330736574664
 30
0.0
 10
-130.2383571874588
 20
-98.03110011010116
 30
0.0
 10
-121.8334557040216
 20
-101.3810381832445
 30
0.0
 10
-113.2662182466592
 20
-104.5092575944476
 30
0.0
 10
-104.5253197844026
 20
-107.4083506454858
 30
0.0
 10
-95.60479943994302
 20
-110.0782842903722
 30
0.0
 10
-86.50169976297099
 20
-112.5146563440513
 30
0.0
 10
-77.22161267366084
 20
-114.7111527345837
 30
0.0
 10
-67.78339050592017
 20
-116.6601969825017
 30
0.0
 10
-58.224180370041
 20
-118.3492617782413
 30
0.0
 10
-50.87832328972227
 20
-119.4424520566383
 30
0.0
 10
-46.72826114237876
 20
-119.9756797487246
 30
0.0
 10
-45.80418083508664
 20
-120.0944117561176
 30
0.0
  0
SPLINE
  5
1B5
330
1AE
100
AcDbEntity
  8
0
  6
Continuous
 62
     7
370
    25
100
AcDbSpline
210
0.0
220
0.0
230
1.0
 70
     8
 71
     3
 72
    28
 73
    24
 74
     0
 42
0.000000001
 43
0.00000001
 40
0.0
 40
0.0
 40
0.0
 40
0.0
 40
0.033069403211192
 40
0.08174595788176
 40
0.129932070221188
 40
0.1778626289384993
 40
0.2256851150354618
 40
0.2736057494613736
 40
0.3218295628774478
 40
0.3705597262677961
 40
0.4200387673196633
 40
0.4704724987289158
 40
0.5219899221717755
 40
0.5745962046596674
 40
0.6281376856774177
 40
0.6762483740199757
 40
0.7239936603240004
 40
0.7712841636150837
 40
0.818103639299117
 40
0.8644795534261435
 40
0.910461115433159
 40
0.9561042934037719
 40
1.0
 40
1.0
 40
1.0
 40
1.0
 10
-45.80418083508664
 20
-120.0944117561176
 30
0.0
 10
-43.62055193916039
 20
-120.357322141508
 30
0.0
 10
-38.22272741188354
 20
-121.0072238392662
 30
0.0
 10
-29.60564586600616
 20
-121.8031428856851
 30
0.0
 10
-19.97488536241309
 20
-122.4511289770532
 30
0.0
 10
-10.37901577636632
 20
-122.8418826029367
 30
0.0
 10
-0.789857138852948
 20
-122.9858790555459
 30
0.0
 10
8.819795000528458
 20
-122.8825921437959
 30
0.0
 10
18.48039740387116
 20
-122.5286199259749
 30
0.0
 10
28.22474378128548
 20
-121.9151013344109
 30
0.0
 10
38.08542072765287
 20
-121.0279611147897
 30
0.0
 10
48.08972581619517
 20
-119.8479956165974
 30
0.0
 10
58.24881514869976
 20
-118.3529483654657
 30
0.0
 10
68.54978470941975
 20
-116.5209565585471
 30
0.0
 10
78.55803104876271
 20
-114.4177583744065
 30
0.0
 10
88.17810685096444
 20
-112.0879068833463
 30
0.0
 10
97.32351563191145
 20
-109.5869636367386
 30
0.0
 10
106.3085843795609
 20
-106.8413545329326
 30
0.0
 10
115.1228458968557
 20
-103.8567295836397
 30
0.0
 10
123.7653857894814
 20
-100.6389849117992
 30
0.0
 10
132.2352048100544
 20
-97.18373353312587
 30
0.0
 10
140.458891065182
 20
-93.55666927474293
 30
0.0
 10
145.7973580593087
 20
-90.9493911351088
 30
0.0
 10
148.4144978861166
 20
-89.67119432948854
 30
0.0
  0
LWPOLYLINE
  5
1B6
330
1AE
100
AcDbEntity
  8
0
  6
Continuous
 62
     7
370
    25
100
AcDbPolyline
 90
      160
 70
   128
 43
0.0
 10
-79.5495128652
 20
-70.1560759876
 10
-71.1725242185
 20
-71.148882848
 10
-62.6844081238
 20
-72.0305991737
 10
-54.098417767
 20
-72.7998482694
 10
-45.4279591527
 20
-73.4554290438
 10
-36.6865701727
 20
-73.9963178855
 10
-27.8878994685
 20
-74.4216702607
 10
-19.0456851196
 20
-74.7308220321
 10
-10.1737331944
 20
-74.9232904961
 10
-1.2858961924
 20
-74.9987751358
 10
7.6039485838
 20
-74.9571580911
 10
16.4819206969
 20
-74.798504342
 10
25.3341582474
 20
-74.5230616074
 10
34.1468395172
 20
-74.1312599586
 10
42.9062045505
 20
-73.6237111473
 10
51.5985766386
 20
-73.0012076506
 10
60.2103836745
 20
-72.264721434
 10
68.7281793437
 20
-71.4154024332
 10
77.1386641193
 20
-70.454576759
 10
85.4287060278
 20
-69.3837446267
 10
93.5853611529
 20
-68.2045780135
 10
101.5958938458
 20
-66.9189180481
 10
109.4477966106
 20
-65.5287721359
 10
117.1288096332
 20
-64.0363108247
 10
124.6269399236
 20
-62.4438644158
 10
131.9304800415
 20
-60.7539193251
 10
139.0280263758
 20
-58.9691142013
 10
145.9084969506
 20
-57.0922358057
 10
152.5611487277
 20
-55.1262146612
 10
158.9755943812
 20
-53.0741204764
 10
165.1418185157
 20
-50.9391573527
 10
171.050193304
 20
-48.7246587817
 10
176.6914935204
 20
-46.4340824399
 10
182.0569109442
 20
-44.0710047904
 10
187.1380681129
 20
-41.6391154986
 10
191.927031403
 20
-39.1422116707
 10
196.4163234167
 20
-36.5841919258
 10
200.5989346573
 20
-33.969050308
 10
204.468334474
 20
-31.3008700504
 10
208.0184812583
 20
-28.5838172
 10
211.2438318773
 20
-25.8221341121
 10
214.1393503291
 20
-23.020132827
 10
216.7005156052
 20
-20.1821883372
 10
218.92332875
 20
-17.3127317561
 10
220.8043191048
 20
-14.4162433995
 10
222.3405497263
 20
-11.4972457901
 10
223.5296219729
 20
-8.5602965962
 10
224.3696792493
 20
-5.6099815154
 10
224.8594099059
 20
-2.6509071144
 10
224.9980492863
 20
0.3123063634
 10
224.7853809216
 20
3.2750322119
 10
224.2217368682
 20
6.2326444864
 10
223.3079971894
 20
9.1805252263
 10
222.0455885813
 20
12.1140716659
 10
220.436482145
 20
15.0287034207
 10
218.4831903092
 20
17.919869639
 10
216.1887629073
 20
20.7830561082
 10
213.5567824153
 20
23.6137923023
 10
210.5913583582
 20
26.4076583628
 10
207.2971208937
 20
29.1602919996
 10
203.6792135826
 20
31.867395302
 10
199.7432853577
 20
34.5247414495
 10
195.4954817037
 20
37.1281813116
 10
190.9424350616
 20
39.6736499259
 10
186.0912544735
 20
42.1571728454
 10
180.9495144819
 20
44.5748723439
 10
175.5252433034
 20
46.9229734706
 10
169.8269102935
 20
49.1978099442
 10
163.863412723
 20
51.3958298778
 10
157.6440618852
 20
53.5136013241
 10
151.1785685582
 20
55.5478176344
 10
144.4770278425
 20
57.4953026213
 10
137.5499033982
 20
59.3530155183
 10
130.4080111079
 20
61.1180557272
 10
123.0625021886
 20
62.7876673473
 10
115.5248457806
 20
64.3592434781
 10
107.8068110395
 20
65.8303302901
 10
99.9204487604
 20
67.1986308559
 10
91.8780725618
 20
68.4620087366
 10
83.6922396595
 20
69.6184913176
 10
75.3757312598
 20
70.6662728886
 10
66.9415326035
 20
71.603717463
 10
58.4028126904
 20
72.4293613326
 10
49.7729037181
 20
73.1419153522
 10
41.065280265
 20
73.7402669536
 10
32.2935382516
 20
74.2234818816
 10
23.4713737117
 20
74.5908056534
 10
14.6125614079
 20
74.8416647367
 10
5.7309333241
 20
74.9756674448
 10
-3.1596429318
 20
74.9926045483
 10
-12.0452857803
 20
74.892449602
 10
-20.9121213449
 20
74.6753589858
 10
-29.7463051145
 20
74.3416716611
 10
-38.5340435597
 20
73.891908641
 10
-47.2616156702
 20
73.3267721771
 10
-55.9153943781
 20
72.6471446628
 10
-64.4818678352
 20
71.8540872559
 10
-72.9476605102
 20
70.9488382213
 10
-81.2995540727
 20
69.9328109979
 10
-89.5245080323
 20
68.8075919917
 10
-97.6096800999
 20
67.5749380986
 10
-105.5424462389
 20
66.2367739612
 10
-113.3104203768
 20
64.7951889641
 10
-120.901473744
 20
63.2524339711
 10
-128.3037538118
 20
61.6109178109
 10
-135.5057027987
 20
59.8732035162
 10
-142.4960757161
 20
58.0420043217
 10
-149.2639579266
 20
56.1201794273
 10
-155.7987821854
 20
54.1107295347
 10
-162.0903451403
 20
52.0167921612
 10
-168.1288232626
 20
49.8416367416
 10
-173.9047881854
 20
47.5886595227
 10
-179.4092214253
 20
45.2613782611
 10
-184.633528463
 20
42.8634267301
 10
-189.5695521633
 20
40.3985490466
 10
-194.2095855112
 20
37.8705938243
 10
-198.5463836454
 20
35.2835081652
 10
-202.5731751704
 20
32.6413314966
 10
-206.2836727293
 20
29.9481892635
 10
-209.6720828205
 20
27.208286488
 10
-212.733114844
 20
24.425901203
 10
-215.4619893616
 20
21.6053777728
 10
-217.8544455597
 20
18.7511201099
 10
-219.9067479019
 20
15.8675847988
 10
-221.6156919618
 20
12.9592741377
 10
-222.978609426
 20
10.0307291084
 10
-223.9933722608
 20
7.0865222862
 10
-224.6583960344
 20
4.1312507008
 10
-224.9726423912
 20
1.1695286578
 10
-224.9356206727
 20
-1.7940194654
 10
-224.547388684
 20
-4.7547664402
 10
-223.8085526032
 20
-7.7080894115
 10
-222.7202660353
 20
-10.6493771163
 10
-221.2842282104
 20
-13.5740370828
 10
-219.5026813312
 20
-16.4775028018
 10
-217.3784070716
 20
-19.3552408562
 10
-214.9147222337
 20
-22.2027579996
 10
-212.115473569
 20
-25.0156081719
 10
-208.985031772
 20
-27.7893994417
 10
-205.5282846558
 20
-30.519800863
 10
-201.7506295208
 20
-33.2025492382
 10
-197.6579647271
 20
-35.8334557741
 10
-193.2566804849
 20
-38.4084126225
 10
-188.553648877
 20
-40.923399294
 10
-183.5562131291
 20
-43.3744889354
 10
-178.2721761438
 20
-45.7578544612
 10
-172.7097883176
 20
-48.069774529
 10
-166.8777346589
 20
-50.3066393501
 10
-160.7851212271
 20
-52.4649563256
 10
-154.4414609148
 20
-54.5413554998
 10
-147.8566585946
 20
-56.5325948218
 10
-141.0409956537
 20
-58.4355652078
 10
-134.0051139406
 20
-60.2472953955
 10
-126.7599991494
 20
-61.9649565832
 10
-119.3169636669
 20
-63.5858668468
 10
-111.6876289095
 20
-65.1074953275
 10
-103.8839071776
 20
-66.527466183
 10
-95.9179830564
 20
-67.8435622973
 10
-87.8022943908
 20
-69.0537287426
 10
-79.5495128652
 20
-70.1560759876
  0
LWPOLYLINE
  5
1B7
330
1AE
100
AcDbEntity
  8
0
  6
Continuous
 62
     7
370
    25
100
AcDbPolyline
 90
      155
 70
   128
 43
0.0
 10
-75.1300954838
 20
-66.2585162105
 10
-66.9597985949
 20
-67.2248592848
 10
-58.6780537294
 20
-68.0793132152
 10
-50.2986450344
 20
-68.8204558474
 10
-41.8355192086
 20
-69.4470536227
 10
-33.3027622899
 20
-69.9580636309
 10
-24.7145762099
 20
-70.3526353463
 10
-16.0852551569
 20
-70.6301120432
 10
-7.4291617841
 20
-70.7900318891
 10
1.2392966953
 20
-70.8321287131
 10
9.9056924877
 20
-70.7563324492
 10
18.5556012325
 20
-70.5627692528
 10
27.1746260102
 20
-70.2517612907
 10
35.7484213049
 20
-69.8238262051
 10
44.2627168802
 20
-69.2796762517
 10
52.7033415316
 20
-68.6202171142
 10
61.0562466722
 20
-67.8465463975
 10
69.3075297158
 20
-66.9599518
 10
77.4434572161
 20
-65.9619089709
 10
85.4504877247
 20
-64.8540790541
 10
93.3152943296
 20
-63.6383059231
 10
101.0247868362
 20
-62.3166131123
 10
108.5661335552
 20
-60.8912004489
 10
115.9267826591
 20
-59.3644403917
 10
123.0944830741
 20
-57.7388740821
 10
130.0573048701
 20
-56.0172071148
 10
136.8036591174
 20
-54.2023050345
 10
143.3223171751
 20
-52.2971885667
 10
149.6024293802
 20
-50.3050285897
 10
155.6335431058
 20
-48.2291408572
 10
161.4056201582
 20
-46.0729804794
 10
166.9090534848
 20
-43.8401361724
 10
172.1346831641
 20
-41.5343242854
 10
177.073811651
 20
-39.1593826146
 10
181.7182182537
 20
-36.719264016
 10
186.0601728158
 20
-34.2180298263
 10
190.0924485823
 20
-31.6598431029
 10
193.8083342282
 20
-29.0489616951
 10
197.2016450286
 20
-26.3897311574
 10
200.2667331525
 20
-23.6865775166
 10
202.9984970632
 20
-20.9439999051
 10
205.3923900093
 20
-18.1665630727
 10
207.4444275922
 20
-15.3588897889
 10
209.151194398
 20
-12.5256531488
 10
210.5098496816
 20
-9.6715687952
 10
211.5181320954
 20
-6.8013870698
 10
212.174363453
 20
-3.9198851068
 10
212.4774515219
 20
-1.031858882
 10
212.4268918419
 20
1.8578847702
 10
212.0227685647
 20
4.7445361565
 10
211.2657543136
 20
7.6232907305
 10
210.1571090641
 20
10.4893570895
 10
208.6986780467
 20
13.3379649489
 10
206.8928886761
 20
16.1643730818
 10
204.7427465103
 20
18.9638772111
 10
202.2518302488
 20
21.7318178382
 10
199.424285776
 20
24.4635879992
 10
196.2648192605
 20
27.1546409323
 10
192.7786893226
 20
29.8004976455
 10
188.9716982815
 20
32.3967543713
 10
184.850182498
 20
34.9390898966
 10
180.4210018285
 20
37.4232727549
 10
175.691528207
 20
39.845168269
 10
170.6696333757
 20
42.2007454328
 10
165.3636757828
 20
44.4860836206
 10
159.7824866712
 20
46.6973791125
 10
153.9353553794
 20
48.8309514254
 10
147.8320138803
 20
50.8832494387
 10
141.4826205835
 20
52.850857305
 10
134.8977434275
 20
54.7305001351
 10
128.0883422906
 20
56.519049449
 10
121.0657507488
 20
58.2135283829
 10
113.8416572128
 20
59.8111166439
 10
106.4280854733
 20
61.3091552039
 10
98.8373746889
 20
62.7051507257
 10
91.0821588484
 20
63.9967797124
 10
83.1753457434
 20
65.181892375
 10
75.1300954838
 20
66.2585162105
 10
66.9597985949
 20
67.2248592848
 10
58.6780537294
 20
68.0793132152
 10
50.2986450344
 20
68.8204558474
 10
41.8355192086
 20
69.4470536227
 10
33.3027622899
 20
69.9580636309
 10
24.7145762099
 20
70.3526353463
 10
16.0852551569
 20
70.6301120432
 10
7.4291617841
 20
70.7900318891
 10
-1.2392966953
 20
70.8321287131
 10
-9.9056924877
 20
70.7563324492
 10
-18.5556012325
 20
70.5627692528
 10
-27.1746260102
 20
70.2517612907
 10
-35.7484213049
 20
69.8238262051
 10
-44.2627168802
 20
69.2796762517
 10
-52.7033415316
 20
68.6202171142
 10
-61.0562466722
 20
67.8465463975
 10
-69.3075297158
 20
66.9599518
 10
-77.4434572161
 20
65.9619089709
 10
-85.4504877247
 20
64.8540790541
 10
-93.3152943296
 20
63.6383059231
 10
-101.0247868362
 20
62.3166131123
 10
-108.5661335552
 20
60.8912004489
 10
-115.9267826591
 20
59.3644403917
 10
-123.0944830741
 20
57.7388740821
 10
-130.0573048701
 20
56.0172071148
 10
-136.8036591174
 20
54.2023050345
 10
-143.3223171751
 20
52.2971885667
 10
-149.6024293802
 20
50.3050285897
 10
-155.6335431058
 20
48.2291408572
 10
-161.4056201582
 20
46.0729804794
 10
-166.9090534848
 20
43.8401361724
 10
-172.1346831641
 20
41.5343242854
 10
-177.073811651
 20
39.1593826146
 10
-181.7182182537
 20
36.719264016
 10
-186.0601728158
 20
34.2180298263
 10
-190.0924485823
 20
31.6598431029
 10
-193.8083342282
 20
29.0489616951
 10
-197.2016450286
 20
26.3897311574
 10
-200.2667331525
 20
23.6865775166
 10
-202.9984970632
 20
20.9439999051
 10
-205.3923900093
 20
18.1665630727
 10
-207.4444275922
 20
15.3588897889
 10
-209.151194398
 20
12.5256531488
 10
-210.5098496816
 20
9.6715687952
 10
-211.5181320954
 20
6.8013870698
 10
-212.174363453
 20
3.9198851068
 10
-212.4774515219
 20
1.031858882
 10
-212.4268918419
 20
-1.8578847702
 10
-212.0227685647
 20
-4.7445361565
 10
-211.2657543136
 20
-7.6232907305
 10
-210.1571090641
 20
-10.4893570895
 10
-208.6986780467
 20
-13.3379649489
 10
-206.8928886761
 20
-16.1643730818
 10
-204.7427465103
 20
-18.9638772111
 10
-202.2518302488
 20
-21.7318178382
 10
-199.424285776
 20
-24.4635879992
 10
-196.2648192605
 20
-27.1546409323
 10
-192.7786893226
 20
-29.8004976455
 10
-188.9716982815
 20
-32.3967543713
 10
-184.850182498
 20
-34.9390898966
 10
-180.4210018285
 20
-37.4232727549
 10
-175.691528207
 20
-39.845168269
 10
-170.6696333757
 20
-42.2007454328
 10
-165.3636757828
 20
-44.4860836206
 10
-159.7824866712
 20
-46.6973791125
 10
-153.9353553794
 20
-48.8309514254
 10
-147.8320138803
 20
-50.8832494387
 10
-141.4826205835
 20
-52.850857305
 10
-134.8977434275
 20
-54.7305001351
 10
-128.0883422906
 20
-56.519049449
 10
-121.0657507488
 20
-58.2135283829
 10
-113.8416572128
 20
-59.8111166439
 10
-106.4280854733
 20
-61.3091552039
 10
-98.8373746889
 20
-62.7051507257
 10
-91.0821588484
 20
-63.9967797124
 10
-83.1753457434
 20
-65.181892375
 10
-75.1300954838
 20
-66.2585162105
  0
LWPOLYLINE
  5
1B8
330
1AE
100
AcDbEntity
  8
0
  6
HIDDEN
 62
     7
370
    18
100
AcDbPolyline
 90
       63
 70
   128
 43
0.0
 10
-12.3452132149
 20
-95.7402684281
 10
-8.9774773545
 20
-96.1007232541
 10
-5.5176204278
 20
-96.3457593077
 10
-2.0011452491
 20
-96.4728621874
 10
1.5358643879
 20
-96.4807276456
 10
5.0571139779
 20
-96.3692749721
 10
8.5264707351
 20
-96.1396478222
 10
11.9083343644
 20
-95.7942024811
 10
15.1680023686
 20
-95.3364836855
 10
18.2720261429
 20
-94.7711882497
 10
21.188554203
 20
-94.1041168697
 10
23.8876590242
 20
-93.3421146006
 10
26.3416441387
 20
-92.493000617
 10
28.5253283384
 20
-91.5654879771
 10
30.4163040684
 20
-90.569094216
 10
31.9951673589
 20
-89.5140436818
 10
33.2457169358
 20
-88.4111626209
 10
34.1551204684
 20
-87.2717680853
 10
34.7140462456
 20
-86.1075518047
 10
34.9167589328
 20
-84.9304602138
 10
34.7611784234
 20
-83.752571865
 10
34.248901184
 20
-82.5859734867
 10
33.3851838723
 20
-81.4426359571
 10
32.1788893967
 20
-80.3342914662
 10
30.6423959708
 20
-79.2723131285
 10
28.7914700966
 20
-78.2675982787
 10
26.645104778
 20
-77.3304566508
 10
24.2253246279
 20
-76.470504586
 10
21.5569598649
 20
-75.6965663564
 10
18.6673915225
 20
-75.0165836153
 10
15.5862704821
 20
-74.4375339058
 10
12.3452132149
 20
-73.9653590617
 10
8.9774773545
 20
-73.6049042357
 10
5.5176204278
 20
-73.3598681821
 10
2.0011452491
 20
-73.2327653024
 10
-1.5358643879
 20
-73.2248998442
 10
-5.0571139779
 20
-73.3363525177
 10
-8.5264707351
 20
-73.5659796676
 10
-11.9083343644
 20
-73.9114250087
 10
-15.1680023686
 20
-74.3691438043
 10
-18.2720261429
 20
-74.9344392401
 10
-21.188554203
 20
-75.6015106201
 10
-23.8876590242
 20
-76.3635128892
 10
-26.3416441387
 20
-77.2126268729
 10
-28.5253283384
 20
-78.1401395127
 10
-30.4163040684
 20
-79.1365332738
 10
-31.9951673589
 20
-80.191583808
 10
-33.2457169358
 20
-81.2944648689
 10
-34.1551204684
 20
-82.4338594046
 10
-34.7140462456
 20
-83.5980756851
 10
-34.9167589328
 20
-84.775167276
 10
-34.7611784234
 20
-85.9530556248
 10
-34.248901184
 20
-87.1196540031
 10
-33.3851838723
 20
-88.2629915328
 10
-32.1788893967
 20
-89.3713360236
 10
-30.6423959708
 20
-90.4333143614
 10
-28.7914700966
 20
-91.4380292112
 10
-26.645104778
 20
-92.375170839
 10
-24.2253246279
 20
-93.2351229038
 10
-21.5569598649
 20
-94.0090611335
 10
-18.6673915225
 20
-94.6890438746
 10
-15.5862704821
 20
-95.268093584
 10
-12.3452132149
 20
-95.7402684281
  0
LWPOLYLINE
  5
1B9
330
1AE
100
AcDbEntity
  8
0
  6
HIDDEN
 62
     7
370
    18
100
AcDbPolyline
 90
       77
 70
   128
 43
0.0
 10
-18.5615530019
 20
-120.0787456409
 10
-14.4427459017
 20
-120.5337682741
 10
-10.2252802022
 20
-120.873860643
 10
-5.9379654706
 20
-121.0966995716
 10
-1.6100884139
 20
-121.2007628442
 10
2.7287871794
 20
-121.1853396031
 10
7.0490223892
 20
-121.0505352048
 10
11.3211056285
 20
-120.7972704998
 10
15.5158542369
 20
-120.427275543
 10
19.604613828
 20
-119.9430777751
 10
23.5594540278
 20
-119.3479847579
 10
27.3533592677
 20
-118.6460615799
 10
30.9604133278
 20
-117.8421030884
 10
34.3559763714
 20
-116.9416011349
 10
37.51685326
 20
-115.9507070609
 10
40.4214519991
 20
-114.8761896778
 10
43.0499312343
 20
-113.7253890287
 10
45.3843357871
 20
-112.506166249
 10
47.4087193074
 20
-111.2268498666
 10
49.109253203
 20
-109.8961789096
 10
50.4743211031
 20
-108.5232432099
 10
51.4945982098
 20
-107.1174213104
 10
52.1631149958
 20
-105.6883164002
 10
52.4753048138
 20
-104.2456907149
 10
52.4290350906
 20
-102.7993988509
 10
52.0246218954
 20
-101.3593204479
 10
51.2648277803
 20
-99.9352927018
 10
50.1548429097
 20
-98.537043166
 10
48.7022496057
 20
-97.1741233027
 10
46.9169705534
 20
-95.8558432364
 10
44.8112010191
 20
-94.5912081567
 10
42.3993255438
 20
-93.3888568036
 10
39.6978196828
 20
-92.257002456
 10
36.7251374602
 20
-91.2033768268
 10
33.50158531
 20
-90.2351772473
 10
30.0491833619
 20
-89.3590175024
 10
26.3915150221
 20
-88.5808826517
 10
22.5535658739
 20
-87.9060881451
 10
18.5615530019
 20
-87.3392435133
 10
14.4427459017
 20
-86.8842208801
 10
10.2252802022
 20
-86.5441285113
 10
5.9379654706
 20
-86.3212895826
 10
1.6100884139
 20
-86.21722631
 10
-2.7287871794
 20
-86.2326495511
 10
-7.0490223892
 20
-86.3674539494
 10
-11.3211056285
 20
-86.6207186544
 10
-15.5158542369
 20
-86.9907136112
 10
-19.604613828
 20
-87.4749113791
 10
-23.5594540278
 20
-88.0700043964
 10
-27.3533592677
 20
-88.7719275743
 10
-30.9604133278
 20
-89.5758860659
 10
-34.3559763714
 20
-90.4763880193
 10
-37.51685326
 20
-91.4672820933
 10
-40.4214519991
 20
-92.5417994764
 10
-43.0499312343
 20
-93.6926001255
 10
-45.3843357871
 20
-94.9118229052
 10
-47.4087193074
 20
-96.1911392876
 10
-49.109253203
 20
-97.5218102446
 10
-50.4743211031
 20
-98.8947459444
 10
-51.4945982098
 20
-100.3005678439
 10
-52.1631149958
 20
-101.729672754
 10
-52.4753048138
 20
-103.1722984393
 10
-52.4290350906
 20
-104.6185903033
 10
-52.0246218954
 20
-106.0586687063
 10
-51.2648277803
 20
-107.4826964524
 10
-50.1548429097
 20
-108.8809459882
 10
-48.7022496057
 20
-110.2438658516
 10
-46.9169705534
 20
-111.5621459179
 10
-44.8112010191
 20
-112.8267809975
 10
-42.3993255438
 20
-114.0291323506
 10
-39.6978196828
 20
-115.1609866982
 10
-36.7251374602
 20
-116.2146123275
 10
-33.50158531
 20
-117.1828119069
 10
-30.0491833619
 20
-118.0589716518
 10
-26.3915150221
 20
-118.8371065026
 10
-22.5535658739
 20
-119.5119010092
 10
-18.5615530019
 20
-120.0787456409
  0
LWPOLYLINE
  5
1BA
330
1AE
100
AcDbEntity
  8
0
  6
HIDDEN
 62
     7
370
    18
100
AcDbPolyline
 90
       51
 70
   128
 43
0.0
 10
-8.1317279818
 20
-101.4524141509
 10
-5.3711212675
 20
-101.7355899066
 10
-2.5258087622
 20
-101.901200815
 10
0.359337256
 20
-101.9466350929
 10
3.2388163111
 20
-101.8711762148
 10
6.0672172982
 20
-101.6760142122
 10
8.7999346441
 20
-101.3642269064
 10
11.3938717639
 20
-100.9407313696
 10
13.8081207195
 20
-100.4122063794
 10
16.0046073629
 20
-99.7869870904
 10
17.9486917874
 20
-99.0749335845
 10
19.6097146204
 20
-98.2872753708
 10
20.9614805396
 20
-97.4364342898
 10
21.9826713889
 20
-96.5358286137
 10
22.6571823786
 20
-95.5996614319
 10
22.9743760674
 20
-94.6426966601
 10
22.9292501214
 20
-93.6800262046
 10
22.5225162038
 20
-92.7268319533
 10
21.7605887513
 20
-91.7981463491
 10
20.655483815
 20
-90.9086153188
 10
19.22462956
 20
-90.072267298
 10
17.4905914126
 20
-89.3022919946
 10
15.4807161902
 20
-88.6108323792
 10
13.2267008258
 20
-88.0087931829
 10
10.7640924882
 20
-87.5056689235
 10
8.1317279818
 20
-87.1093941712
 10
5.3711212675
 20
-86.8262184154
 10
2.5258087622
 20
-86.6606075071
 10
-0.359337256
 20
-86.6151732291
 10
-3.2388163111
 20
-86.6906321072
 10
-6.0672172982
 20
-86.8857941098
 10
-8.7999346441
 20
-87.1975814156
 10
-11.3938717639
 20
-87.6210769524
 10
-13.8081207195
 20
-88.1496019427
 10
-16.0046073629
 20
-88.7748212316
 10
-17.9486917874
 20
-89.4868747375
 10
-19.6097146204
 20
-90.2745329512
 10
-20.9614805396
 20
-91.1253740322
 10
-21.9826713889
 20
-92.0259797084
 10
-22.6571823786
 20
-92.9621468901
 10
-22.9743760674
 20
-93.9191116619
 10
-22.9292501214
 20
-94.8817821175
 10
-22.5225162038
 20
-95.8349763687
 10
-21.7605887513
 20
-96.7636619729
 10
-20.655483815
 20
-97.6531930032
 10
-19.22462956
 20
-98.4895410241
 10
-17.4905914126
 20
-99.2595163274
 10
-15.4807161902
 20
-99.9509759428
 10
-13.2267008258
 20
-100.5530151391
 10
-10.7640924882
 20
-101.0561393985
 10
-8.1317279818
 20
-101.4524141509
  0
LWPOLYLINE
  5
1BC
330
1AE
100
AcDbEntity
  8
0
  6
HIDDEN
 62
     7
370
    18
100
AcDbPolyline
 90
       47
 70
   128
 43
0.0
 10
6.0770307538
 20
-111.10320926
 10
8.7999346441
 20
-110.7923173225
 10
11.3938717639
 20
-110.3688217857
 10
13.8081207195
 20
-109.8402967955
 10
16.0046073629
 20
-109.2150775065
 10
17.9486917874
 20
-108.5030240006
 10
19.6097146204
 20
-107.7153657869
 10
20.9614805396
 20
-106.8645247059
 10
21.9826713889
 20
-105.9639190298
 10
22.6571823786
 20
-105.027751848
 10
22.9743760674
 20
-104.0707870762
 10
22.9292501214
 20
-103.1081166207
 10
22.5225162038
 20
-102.1549223694
 10
21.7605887513
 20
-101.2262367652
 10
20.655483815
 20
-100.3367057349
 10
19.22462956
 20
-99.5003577141
 10
17.4905914126
 20
-98.7303824107
 10
15.4807161902
 20
-98.0389227953
 10
13.2267008258
 20
-97.436883599
 10
10.7640924882
 20
-96.9337593396
 10
8.1317279818
 20
-96.5374845873
 10
5.3711212675
 20
-96.2543088315
 10
2.5258087622
 20
-96.0886979232
 10
-0.359337256
 20
-96.0432636452
 10
-3.2388163111
 20
-96.1187225233
 10
-6.0672172982
 20
-96.3138845259
 10
-8.7999346441
 20
-96.6256718317
 10
-11.3938717639
 20
-97.0491673685
 10
-13.8081207195
 20
-97.5776923588
 10
-16.0046073629
 20
-98.2029116477
 10
-17.9486917874
 20
-98.9149651536
 10
-19.6097146204
 20
-99.7026233673
 10
-20.9614805396
 20
-100.5534644483
 10
-21.9826713889
 20
-101.4540701245
 10
-22.6571823786
 20
-102.3902373062
 10
-22.9743760674
 20
-103.347202078
 10
-22.9292501214
 20
-104.3098725336
 10
-22.5225162038
 20
-105.2630667848
 10
-21.7605887513
 20
-106.191752389
 10
-20.655483815
 20
-107.0812834193
 10
-19.22462956
 20
-107.9176314402
 10
-17.4905914126
 20
-108.6876067435
 10
-15.4807161902
 20
-109.3790663589
 10
-13.2267008258
 20
-109.9811055552
 10
-10.7640924882
 20
-110.4842298146
 10
-8.1317279818
 20
-110.880504567
 10
-8.1317279818
 20
-110.880504567
  0
SPLINE
  5
1BD
330
1AE
100
AcDbEntity
  8
0
  6
HIDDEN
 62
     7
370
    18
100
AcDbSpline
210
0.0
220
0.0
230
1.0
 70
     8
 71
     3
 72
    25
 73
    21
 74
     0
 42
0.000000001
 43
0.00000001
 40
0.0
 40
0.0
 40
0.0
 40
0.0
 40
0.0175359498545155
 40
0.0737584603777413
 40
0.130082050822827
 40
0.1865678136827846
 40
0.2432861862970499
 40
0.3003195498211528
 40
0.3577653990400151
 40
0.4157401170087695
 40
0.4743833223391781
 40
0.5338626445023622
 40
0.5943785931758551
 40
0.6561688534927539
 40
0.7195107153920561
 40
0.7847191549916661
 40
0.8521358856738209
 40
0.9221010524196583
 40
0.9948947550531974
 40
1.0
 40
1.0
 40
1.0
 40
1.0
 10
-210.6738057308241
 20
-9.180004938197616
 30
0.0
 10
-210.4601677871904
 20
-9.74999895998608
 30
0.0
 10
-209.561579120399
 20
-12.14746712227146
 30
0.0
 10
-207.7049832743197
 20
-16.24885982949963
 30
0.0
 10
-205.1110555703152
 20
-21.46901494342885
 30
0.0
 10
-202.2472414872419
 20
-26.5399757502817
 30
0.0
 10
-199.1465550776108
 20
-31.4663715942191
 30
0.0
 10
-195.809811449446
 20
-36.24010664395983
 30
0.0
 10
-192.2452548857264
 20
-40.85859469753591
 30
0.0
 10
-188.4572262873258
 20
-45.32002982126505
 30
0.0
 10
-184.4484372094082
 20
-49.62481609278156
 30
0.0
 10
-180.2184277545619
 20
-53.77524585155599
 30
0.0
 10
-175.7629894125897
 20
-57.77560383735447
 30
0.0
 10
-171.0731660360683
 20
-61.63174101253458
 30
0.0
 10
-166.1349632318405
 20
-65.35149892113496
 30
0.0
 10
-160.927360959347
 20
-68.94086262263649
 30
0.0
 10
-155.4290655518896
 20
-72.41513563722903
 30
0.0
 10
-149.5958172928348
 20
-75.74883008366903
 30
0.0
 10
-145.4456326138557
 20
-77.99235614262551
 30
0.0
 10
-143.2011343960992
 20
-79.05981997817756
 30
0.0
 10
-143.0540372460063
 20
-79.129778103693
 30
0.0
  0
SPLINE
  5
1BE
330
1AE
100
AcDbEntity
  8
0
  6
HIDDEN
 62
     7
370
    18
100
AcDbSpline
210
0.0
220
0.0
230
1.0
 70
     8
 71
     3
 72
    24
 73
    20
 74
     0
 42
0.000000001
 43
0.00000001
 40
0.0
 40
0.0
 40
0.0
 40
0.0
 40
0.0461157918708958
 40
0.1181017843385386
 40
0.1873521976853803
 40
0.2541003497359601
 40
0.3186625133536171
 40
0.381365400714298
 40
0.4425113801206975
 40
0.5023649439963315
 40
0.561150006857296
 40
0.6190523422590618
 40
0.6762242016240625
 40
0.7391224941875566
 40
0.8013036350933432
 40
0.8627130196500318
 40
0.923440028952512
 40
0.9835598746475185
 40
1.0
 40
1.0
 40
1.0
 40
1.0
 10
143.105436269199
 20
-79.07742500500215
 30
0.0
 10
144.4220510757339
 20
-78.42499047372657
 30
0.0
 10
147.7938799358701
 20
-76.75411637221616
 30
0.0
 10
153.0104360909221
 20
-73.83375883270973
 30
0.0
 10
158.7045974877135
 20
-70.38487644207046
 30
0.0
 10
164.0758720220517
 20
-66.80963359833588
 30
0.0
 10
169.1544557091875
 20
-63.1167381056677
 30
0.0
 10
173.9613140658812
 20
-59.29758530070738
 30
0.0
 10
178.5147835400745
 20
-55.34685095002751
 30
0.0
 10
182.8275234625077
 20
-51.25904749596628
 30
0.0
 10
186.9073930999831
 20
-47.03046623949322
 30
0.0
 10
190.7580921254396
 20
-42.65924605416916
 30
0.0
 10
194.5133830830423
 20
-37.97904893177512
 30
0.0
 10
198.1417549839039
 20
-32.97257513876261
 30
0.0
 10
201.5989363898744
 20
-27.63071990178527
 30
0.0
 10
204.7545887035871
 20
-22.15288640217695
 30
0.0
 10
207.5711728689514
 20
-16.54293777621636
 30
0.0
 10
209.5387845715393
 20
-12.2227931807166
 30
0.0
 10
210.4654484280007
 20
-9.734354945607635
 30
0.0
 10
210.6644358329253
 20
-9.199999512117154
 30
0.0
  0
SPLINE
  5
1BF
330
1AE
100
AcDbEntity
  8
0
  6
HIDDEN
 62
     7
370
    18
100
AcDbSpline
210
0.0
220
0.0
230
1.0
 70
     8
 71
     3
 72
    19
 73
    15
 74
     0
 42
0.000000001
 43
0.00000001
 40
0.0
 40
0.0
 40
0.0
 40
0.0
 40
0.0665934166782064
 40
0.1512795453500655
 40
0.2365368245899779
 40
0.3225094577725412
 40
0.4093500133249273
 40
0.4972027183960063
 40
0.5861743662489654
 40
0.6762917699929071
 40
0.7674529814563824
 40
0.8593945951124933
 40
0.9515438188573129
 40
0.9999999999999999
 40
0.9999999999999999
 40
0.9999999999999999
 40
0.9999999999999999
 10
-143.1197151593752
 20
-79.08182752387982
 30
0.0
 10
-141.0574821408192
 20
-80.1012094037023
 30
0.0
 10
-136.3727296680551
 20
-82.41692820910346
 30
0.0
 10
-128.9138769793173
 20
-85.74358953180172
 30
0.0
 10
-120.7542812914933
 20
-89.12071381059519
 30
0.0
 10
-112.4262665069749
 20
-92.26472573882744
 30
0.0
 10
-103.9260355092739
 20
-95.18535529397698
 30
0.0
 10
-95.24433292080683
 20
-97.87850688233826
 30
0.0
 10
-86.37693967387217
 20
-100.3415337233464
 30
0.0
 10
-77.32680550555877
 20
-102.5680209912312
 30
0.0
 10
-68.10952461777553
 20
-104.5510612584275
 30
0.0
 10
-58.76044719728277
 20
-106.2759685941802
 30
0.0
 10
-50.81586241528321
 20
-107.5191584112216
 30
0.0
 10
-45.98973371172426
 20
-108.1488836574465
 30
0.0
 10
-44.32652761474191
 20
-108.3659029151742
 30
0.0
  0
SPLINE
  5
1C0
330
1AE
100
AcDbEntity
  8
0
  6
HIDDEN
 62
     7
370
    18
100
AcDbSpline
210
0.0
220
0.0
230
1.0
 70
     8
 71
     3
 72
    28
 73
    24
 74
     0
 42
0.000000001
 43
0.00000001
 40
0.0
 40
0.0
 40
0.0
 40
0.0
 40
0.0331226803403999
 40
0.0824955714324968
 40
0.131336227305399
 40
0.1798924893829529
 40
0.228326699645523
 40
0.276860806646602
 40
0.3257096439383728
 40
0.37509305435204
 40
0.425269149793979
 40
0.4764579096365997
 40
0.5287979576797637
 40
0.5822941146679794
 40
0.6367770290721273
 40
0.6856451653470884
 40
0.7341079630152363
 40
0.7820765227667087
 40
0.8295408587443619
 40
0.8765361253757845
 40
0.9231185645366162
 40
0.9693497584484588
 40
0.9999999999999999
 40
0.9999999999999999
 40
0.9999999999999999
 40
0.9999999999999999
 10
-44.32652761474189
 20
-108.3659029151742
 30
0.0
 10
-42.21511689841009
 20
-108.620106194827
 30
0.0
 10
-36.95642310363167
 20
-109.2532266005266
 30
0.0
 10
-28.54683227867467
 20
-110.0284960204909
 30
0.0
 10
-19.12063947179487
 20
-110.6582365354331
 30
0.0
 10
-9.732760747695066
 20
-111.0334539650369
 30
0.0
 10
-0.3538319354174646
 20
-111.1648130341535
 30
0.0
 10
9.044417734943162
 20
-111.0518770429091
 30
0.0
 10
18.49350791056269
 20
-110.6911143010447
 30
0.0
 10
28.02720955502675
 20
-110.0733473823818
 30
0.0
 10
37.67936248945441
 20
-109.1839319809057
 30
0.0
 10
47.47822537560108
 20
-108.0028660364395
 30
0.0
 10
57.43543452020167
 20
-106.5069268451591
 30
0.0
 10
67.53749868574832
 20
-104.6733242550747
 30
0.0
 10
77.3489897761733
 20
-102.5686881540856
 30
0.0
 10
86.77136310972969
 20
-100.2387191959767
 30
0.0
 10
95.71605366857754
 20
-97.74057122634359
 30
0.0
 10
104.4953369969744
 20
-95.00001361928298
 30
0.0
 10
113.0996283611834
 20
-92.02227527592203
 30
0.0
 10
121.5298608132257
 20
-88.8146985026163
 30
0.0
 10
129.7830801345982
 20
-85.3668103384026
 30
0.0
 10
136.9926603644066
 20
-82.12772969485097
 30
0.0
 10
141.3991948909027
 20
-79.9304504650895
 30
0.0
 10
143.1559434066955
 20
-79.05446345024708
 30
0.0
  0
SPLINE
  5
1C1
330
1AE
100
AcDbEntity
  8
0
  6
HIDDEN
 62
     7
370
    18
100
AcDbSpline
210
0.0
220
0.0
230
1.0
 70
     8
 71
     3
 72
    35
 73
    31
 74
     0
 42
0.000000001
 43
0.00000001
 40
0.0
 40
0.0
 40
0.0
 40
0.0
 40
0.0021130305185821
 40
0.0496641022812687
 40
0.0865207837791949
 40
0.1210453515022702
 40
0.1577018775664334
 40
0.1931895074988285
 40
0.2285326920724959
 40
0.2640805097520066
 40
0.3000432673418705
 40
0.336469635166571
 40
0.3733374849860106
 40
0.4105961327746088
 40
0.4481870986218691
 40
0.4860539357243274
 40
0.5241462788076907
 40
0.5624209241135613
 40
0.6008415000707766
 40
0.6393775636354048
 40
0.6780035417144776
 40
0.7166977079514775
 40
0.7554412652300616
 40
0.794217545236988
 40
0.8330113095832354
 40
0.8718078435558817
 40
0.9105884948002825
 40
0.9493385220668814
 40
0.9880420736173808
 40
1.0
 40
1.0
 40
1.0
 40
1.0
 10
52.4976847517088
 20
-99.82031685824225
 30
0.0
 10
52.49847312456132
 20
-99.82658472646709
 30
0.0
 10
52.51700282852881
 20
-99.9739030192537
 30
0.0
 10
52.46496594282134
 20
-100.2009808639435
 30
0.0
 10
52.27456465085167
 20
-100.730566159771
 30
0.0
 10
51.88032584640409
 20
-101.3810971019586
 30
0.0
 10
51.2261432931943
 20
-102.1714812520674
 30
0.0
 10
50.26570508598599
 20
-103.0709804145352
 30
0.0
 10
49.02094728093113
 20
-104.0201610432853
 30
0.0
 10
47.48408132581373
 20
-104.9995125427481
 30
0.0
 10
45.65480692944023
 20
-105.989630880749
 30
0.0
 10
43.537170956357
 20
-106.9729925745614
 30
0.0
 10
41.14082582957822
 20
-107.9333418494423
 30
0.0
 10
38.47963956812662
 20
-108.8561941933866
 30
0.0
 10
35.57061561796156
 20
-109.7289377162396
 30
0.0
 10
32.43305194973874
 20
-110.5407434298359
 30
0.0
 10
29.08792799258301
 20
-111.2824014305479
 30
0.0
 10
25.55747218644924
 20
-111.9461411811168
 30
0.0
 10
21.86486095476244
 20
-112.5254666423813
 30
0.0
 10
18.03400472988216
 20
-113.0150182937269
 30
0.0
 10
14.08938726940423
 20
-113.4104645100441
 30
0.0
 10
10.05593697795474
 20
-113.7084186116508
 30
0.0
 10
5.958910313540539
 20
-113.9063812634125
 30
0.0
 10
1.823799980495366
 20
-114.0026892575535
 30
0.0
 10
-2.323804997652671
 20
-113.9965221861815
 30
0.0
 10
-6.45798810789267
 20
-113.8877644120863
 30
0.0
 10
-10.5534427975166
 20
-113.6774908023805
 30
0.0
 10
-14.58304297827525
 20
-113.3661939868438
 30
0.0
 10
-17.62099199557336
 20
-113.0536699295154
 30
0.0
 10
-19.30648349114028
 20
-112.8458860671345
 30
0.0
 10
-19.70431995475722
 20
-112.7968416209159
 30
0.0
  0
SPLINE
  5
1C2
330
1AE
100
AcDbEntity
  8
0
  6
HIDDEN
 62
     7
370
    18
100
AcDbSpline
210
0.0
220
0.0
230
1.0
 70
     8
 71
     3
 72
    25
 73
    21
 74
     0
 42
0.000000001
 43
0.00000001
 40
0.0
 40
0.0
 40
0.0
 40
0.0
 40
0.0326769790026823
 40
0.0946451507433704
 40
0.1564680350876327
 40
0.2180811260055713
 40
0.2794325778663286
 40
0.3404603917797039
 40
0.4010909437745473
 40
0.4612386568637818
 40
0.5208084603941174
 40
0.5797042284724959
 40
0.6378490047552721
 40
0.6952271801762983
 40
0.7519664450098555
 40
0.8084939354490477
 40
0.8654342400982222
 40
0.9245684683272308
 40
0.9902463565812513
 40
1.0
 40
1.0
 40
1.0
 40
1.0
 10
-19.70431995475722
 20
-112.7968416209159
 30
0.0
 10
-20.37564778076753
 20
-112.7092406060071
 30
0.0
 10
-22.32007242558397
 20
-112.4555142361176
 30
0.0
 10
-25.44030763911964
 20
-111.9654612228371
 30
0.0
 10
-28.99438992401579
 20
-111.3019673377991
 30
0.0
 10
-32.36545190427477
 20
-110.5571424090961
 30
0.0
 10
-35.53239982386147
 20
-109.7399809569336
 30
0.0
 10
-38.47311323941213
 20
-108.8587887453397
 30
0.0
 10
-41.1671864012192
 20
-107.9241456964953
 30
0.0
 10
-43.59547666511092
 20
-106.9485980210723
 30
0.0
 10
-45.74084472135377
 20
-105.9473328185008
 30
0.0
 10
-47.58894282297744
 20
-104.9387023897036
 30
0.0
 10
-49.12959382915688
 20
-103.9448455731907
 30
0.0
 10
-50.35868561531405
 20
-102.9920209731056
 30
0.0
 10
-51.28141662183366
 20
-102.1106129008985
 30
0.0
 10
-51.91297508389979
 20
-101.3343455603395
 30
0.0
 10
-52.29122783120464
 20
-100.697066118167
 30
0.0
 10
-52.45929104430443
 20
-100.2049809636365
 30
0.0
 10
-52.51599734992604
 20
-99.98053790668286
 30
0.0
 10
-52.49461253131251
 20
-99.8377549196962
 30
0.0
 10
-52.49184737606897
 20
-99.81929242383475
 30
0.0
  0
LINE
  5
1C9
330
1AE
100
AcDbEntity
  8
0
  6
HIDDEN
 62
     7
370
    18
100
AcDbLine
 10
-8.1317279818
 20
-110.880504567
 30
0.0
 11
-6.1535222099
 21
-111.096176901
 31
0.0
  0
LINE
  5
1CA
330
1AE
100
AcDbEntity
  8
0
  6
HIDDEN
 62
     7
370
    18
100
AcDbLine
 10
-52.5
 20
-99.8288503546
 30
0.0
 11
-52.5
 21
-103.7089945771
 31
0.0
  0
LINE
  5
1CB
330
1AE
100
AcDbEntity
  8
0
  6
HIDDEN
 62
     7
370
    18
100
AcDbLine
 10
52.5
 20
-103.7089945771
 30
0.0
 11
52.5
 21
-99.8288503546
 31
0.0
  0
LINE
  5
1CC
330
1AE
100
AcDbEntity
  8
0
  6
HIDDEN
 62
     7
370
    18
100
AcDbLine
 10
-31.6666712082
 20
-89.756964477
 30
0.0
 11
-20.8586722538
 21
-97.5112428389
 31
0.0
  0
LINE
  5
1CD
330
1AE
100
AcDbEntity
  8
0
  6
HIDDEN
 62
     7
370
    18
100
AcDbLine
 10
20.8586722538
 20
-97.5112428389
 30
0.0
 11
31.6666712082
 21
-89.756964477
 31
0.0
  0
LINE
  5
1CE
330
1AE
100
AcDbEntity
  8
0
  6
HIDDEN
 62
     7
370
    18
100
AcDbLine
 10
-23.0
 20
-94.280904161
 30
0.0
 11
-23.0
 21
-103.7089945771
 31
0.0
  0
LINE
  5
1CF
330
1AE
100
AcDbEntity
  8
0
  6
HIDDEN
 62
     7
370
    18
100
AcDbLine
 10
23.0
 20
-103.7089945771
 30
0.0
 11
23.0
 21
-94.280904161
 31
0.0
  0
VIEWPORT
  5
1E0
330
1AE
100
AcDbEntity
  8
0
100
AcDbViewport
 10
0.0
 20
0.0
 30
0.0
 40
205.6
 41
156.0
 68
     1
 69
     1
 12
0.0
 22
0.0
 13
0.0
 23
0.0
 14
10.0
 24
10.0
 15
10.0
 25
10.0
 16
0.0
 26
0.0
 36
1.0
 17
0.0
 27
0.0
 37
0.0
 42
50.0
 43
0.0
 44
0.0
 45
459.0
 50
0.0
 51
0.0
 72
   100
 90
   557152
  1

281
     0
 71
     1
 74
     0
110
0.0
120
0.0
130
0.0
111
1.0
121
0.0
131
0.0
112
0.0
122
1.0
132
0.0
 79
     0
146
0.0
170
     0
 61
     5
348
2F
292
     1
282
     1
141
0.0
142
0.0
 63
   256
361
1E1
  0
ENDBLK
  5
1B1
330
1AE
100
AcDbEntity
  8
0
100
AcDbBlockEnd
  0
ENDSEC
  0
SECTION
  2
ENTITIES
  0
CIRCLE
  5
73
330
1F
100
AcDbEntity
  8
0
  6
Continuous
 62
     7
370
    25
100
AcDbCircle
 10
0.0
 20
0.0
 30
0.0
 40
212.5
  0
CIRCLE
  5
74
330
1F
100
AcDbEntity
  8
0
  6
Continuous
 62
     7
370
    25
100
AcDbCircle
 10
0.0
 20
0.0
 30
0.0
 40
225.0000000000002
  0
CIRCLE
  5
75
330
1F
100
AcDbEntity
  8
0
  6
Continuous
 62
     7
370
    25
100
AcDbCircle
 10
0.0
 20
0.0
 30
0.0
 40
34.91753592594218
  0
CIRCLE
  5
76
330
1F
100
AcDbEntity
  8
0
  6
Continuous
 62
     7
370
    25
100
AcDbCircle
 10
0.0
 20
0.0
 30
0.0
 40
23.00000000000002
  0
CIRCLE
  5
77
330
1F
100
AcDbEntity
  8
0
  6
HIDDEN
 62
     7
370
    18
100
AcDbCircle
 10
0.0
 20
0.0
 30
0.0
 40
52.50000000000003
  0
LINE
  5
90
330
1B
100
AcDbEntity
 67
     1
  8
0
  6
Continuous
 62
     7
370
    25
100
AcDbLine
 10
-52.5
 20
-105.8844855625
 30
0.0
 11
-52.5
 21
-110.0
 31
0.0
  0
LINE
  5
91
330
1B
100
AcDbEntity
 67
     1
  8
0
  6
Continuous
 62
     7
370
    25
100
AcDbLine
 10
52.5
 20
-110.0
 30
0.0
 11
52.5
 21
-105.8844855625
 31
0.0
  0
LINE
  5
92
330
1B
100
AcDbEntity
 67
     1
  8
0
  6
Continuous
 62
     7
370
    25
100
AcDbLine
 10
-225.0
 20
0.0
 30
0.0
 11
225.0
 21
0.0
 31
0.0
  0
LINE
  5
93
330
1B
100
AcDbEntity
 67
     1
  8
0
  6
Continuous
 62
     7
370
    25
100
AcDbLine
 10
-52.5
 20
-110.0
 30
0.0
 11
52.5
 21
-110.0
 31
0.0
  0
LINE
  5
94
330
1B
100
AcDbEntity
 67
     1
  8
0
  6
HIDDEN
 62
     7
370
    18
100
AcDbLine
 10
-34.9175359259
 20
-90.0
 30
0.0
 11
34.9175359259
 21
-90.0
 31
0.0
  0
LINE
  5
95
330
1B
100
AcDbEntity
 67
     1
  8
0
  6
HIDDEN
 62
     7
370
    18
100
AcDbLine
 10
-23.0
 20
-100.0
 30
0.0
 11
23.0
 21
-100.0
 31
0.0
  0
LINE
  5
96
330
1B
100
AcDbEntity
 67
     1
  8
0
  6
HIDDEN
 62
     7
370
    18
100
AcDbLine
 10
-34.9175359259
 20
-90.0
 30
0.0
 11
-23.0
 21
-100.0
 31
0.0
  0
LINE
  5
97
330
1B
100
AcDbEntity
 67
     1
  8
0
  6
HIDDEN
 62
     7
370
    18
100
AcDbLine
 10
23.0
 20
-100.0
 30
0.0
 11
34.9175359259
 21
-90.0
 31
0.0
  0
LINE
  5
98
330
1B
100
AcDbEntity
 67
     1
  8
0
  6
HIDDEN
 62
     7
370
    18
100
AcDbLine
 10
-23.0
 20
-100.0
 30
0.0
 11
-23.0
 21
-110.0
 31
0.0
  0
LINE
  5
99
330
1B
100
AcDbEntity
 67
     1
  8
0
  6
HIDDEN
 62
     7
370
    18
100
AcDbLine
 10
23.0
 20
-110.0
 30
0.0
 11
23.0
 21
-100.0
 31
0.0
  0
ARC
  5
9A
330
1B
100
AcDbEntity
 67
     1
  8
0
  6
Continuous
 62
     7
370
    25
100
AcDbCircle
 10
-118.5905387045
 20
34.3658708487
 30
0.0
 40
111.8212257685772
100
AcDbArc
 50
197.8983184772
 51
237.5285111071
  0
ARC
  5
9B
330
1B
100
AcDbEntity
 67
     1
  8
0
  6
Continuous
 62
     7
370
    25
100
AcDbCircle
 10
118.5905387045
 20
34.3658708487
 30
0.0
 40
111.8212257685768
100
AcDbArc
 50
302.4714888929
 51
342.1016815228
  0
ARC
  5
9C
330
1B
100
AcDbEntity
 67
     1
  8
0
  6
Continuous
 62
     7
370
    25
100
AcDbCircle
 10
-34.9175359259
 20
165.8505153243
 30
0.0
 40
267.6717410928925
100
AcDbArc
 50
237.5285111071
 51
265.2493661897
  0
ARC
  5
9D
330
1B
100
AcDbEntity
 67
     1
  8
0
  6
Continuous
 62
     7
370
    25
100
AcDbCircle
 10
34.9175359259
 20
165.8505153243
 30
0.0
 40
267.6717410928941
100
AcDbArc
 50
274.7506338103
 51
302.4714888929
  0
ARC
  5
9E
330
1B
100
AcDbEntity
 67
     1
  8
0
  6
Continuous
 62
     7
370
    25
100
AcDbCircle
 10
-57.5
 20
-105.8844855625
 30
0.0
 40
5.000000000000007
100
AcDbArc
 50
0.0
 51
85.2493661897
  0
ARC
  5
9F
330
1B
100
AcDbEntity
 67
     1
  8
0
  6
Continuous
 62
     7
370
    25
100
AcDbCircle
 10
57.5
 20
-105.8844855625
 30
0.0
 40
5.000000000000023
100
AcDbArc
 50
94.7506338103
 51
180.0
  0
ARC
  5
A0
330
1B
100
AcDbEntity
 67
     1
  8
0
  6
HIDDEN
 62
     7
370
    18
100
AcDbCircle
 10
-118.5905387045
 20
34.3658708487
 30
0.0
 40
100.0000000000013
100
AcDbArc
 50
200.0999398364
 51
237.5285111071
  0
ARC
  5
A1
330
1B
100
AcDbEntity
 67
     1
  8
0
  6
HIDDEN
 62
     7
370
    18
100
AcDbCircle
 10
118.5905387045
 20
34.3658708487
 30
0.0
 40
100.0000000000009
100
AcDbArc
 50
302.4714888929
 51
339.9000601636
  0
ARC
  5
A2
330
1B
100
AcDbEntity
 67
     1
  8
0
  6
HIDDEN
 62
     7
370
    18
100
AcDbCircle
 10
-34.9175359259
 20
165.8505153243
 30
0.0
 40
255.8505153243142
100
AcDbArc
 50
237.5285111071
 51
270.0
  0
ARC
  5
A3
330
1B
100
AcDbEntity
 67
     1
  8
0
  6
HIDDEN
 62
     7
370
    18
100
AcDbCircle
 10
34.9175359259
 20
165.8505153243
 30
0.0
 40
255.8505153243147
100
AcDbArc
 50
270.0
 51
302.4714888929
  0
VIEWPORT
  5
1D0
330
1B
100
AcDbEntity
 67
     1
  8
0
100
AcDbViewport
 10
0.0
 20
0.0
 30
0.0
 40
205.6
 41
156.0
 68
     1
 69
     1
 12
0.0
 22
0.0
 13
0.0
 23
0.0
 14
10.0
 24
10.0
 15
10.0
 25
10.0
 16
0.0
 26
0.0
 36
1.0
 17
0.0
 27
0.0
 37
0.0
 42
50.0
 43
0.0
 44
0.0
 45
459.0
 50
0.0
 51
0.0
 72
   100
 90
   557152
  1

281
     0
 71
     1
 74
     0
110
0.0
120
0.0
130
0.0
111
1.0
121
0.0
131
0.0
112
0.0
122
1.0
132
0.0
 79
     0
146
0.0
170
     0
 61
     5
348
2F
292
     1
282
     1
141
0.0
142
0.0
 63
   256
361
1D1
  0
ENDSEC
  0
SECTION
  2
OBJECTS
  0
DICTIONARY
  5
C
330
0
100
AcDbDictionary
281
     1
  3
ACAD_DETAILVIEWSTYLE
350
1EA
  3
ACAD_GROUP
350
D
  3
ACAD_LAYOUT
350
1A
  3
ACAD_MATERIAL
350
43
  3
ACAD_MLEADERSTYLE
350
6B
  3
ACAD_MLINESTYLE
350
17
  3
ACAD_PLOTSETTINGS
350
19
  3
ACAD_PLOTSTYLENAME
350
E
  3
ACAD_SCALELIST
350
47
  3
ACAD_SECTIONVIEWSTYLE
350
1EB
  3
ACAD_TABLESTYLE
350
69
  3
ACAD_VISUALSTYLE
350
2A
  3
ACDB_RECOMPOSE_DATA
350
1E7
  3
AcDbVariableDictionary
350
1E2
  0
SUN
  5
6D
330
29
100
AcDbSun
 90
        1
290
     0
 63
     7
421
 16777215
 40
1.0
291
     1
 91
  2455826
 92
 54000000
292
     0
 70
     2
 71
   256
280
     1
  0
SUN
  5
1D3
330
1D2
100
AcDbSun
 90
        1
290
     0
 63
     7
421
 16777215
 40
1.0
291
     1
 91
  2455826
 92
 54000000
292
     0
 70
     2
 71
   256
280
     1
  0
SUN
  5
1D5
330
1D4
100
AcDbSun
 90
        1
290
     0
 63
     7
421
 16777215
 40
1.0
291
     1
 91
  2455826
 92
 54000000
292
     0
 70
     2
 71
   256
280
     1
  0
SUN
  5
1D7
330
1D6
100
AcDbSun
 90
        1
290
     0
 63
     7
421
 16777215
 40
1.0
291
     1
 91
  2455826
 92
 54000000
292
     0
 70
     2
 71
   256
280
     1
  0
SUN
  5
1D9
330
1D8
100
AcDbSun
 90
        1
290
     0
 63
     7
421
 16777215
 40
1.0
291
     1
 91
  2455826
 92
 54000000
292
     0
 70
     2
 71
   256
280
     1
  0
SUN
  5
1DB
330
1DA
100
AcDbSun
 90
        1
290
     0
 63
     7
421
 16777215
 40
1.0
291
     1
 91
  2455826
 92
 54000000
292
     0
 70
     2
 71
   256
280
     1
  0
SUN
  5
1DD
330
1DC
100
AcDbSun
 90
        1
290
     0
 63
     7
421
 16777215
 40
1.0
291
     1
 91
  2455826
 92
 54000000
292
     0
 70
     2
 71
   256
280
     1
  0
SUN
  5
1DF
330
1DE
100
AcDbSun
 90
        1
290
     0
 63
     7
421
 16777215
 40
1.0
291
     1
 91
  2455826
 92
 54000000
292
     0
 70
     2
 71
   256
280
     1
  0
SUN
  5
1E1
330
1E0
100
AcDbSun
 90
        1
290
     0
 63
     7
421
 16777215
 40
1.0
291
     1
 91
  2455826
 92
 54000000
292
     0
 70
     2
 71
   256
280
     1
  0
SUN
  5
1D1
330
1D0
100
AcDbSun
 90
        1
290
     0
 63
     7
421
 16777215
 40
1.0
291
     1
 91
  2455826
 92
 54000000
292
     0
 70
     2
 71
   256
280
     1
  0
DICTIONARY
  5
1EA
102
{ACAD_REACTORS
330
C
102
}
330
C
100
AcDbDictionary
281
     1
  0
DICTIONARY
  5
D
102
{ACAD_REACTORS
330
C
102
}
330
C
100
AcDbDictionary
281
     1
  0
DICTIONARY
  5
1A
102
{ACAD_REACTORS
330
C
102
}
330
C
100
AcDbDictionary
281
     1
  3
_Dimetrisch
350
1AF
  3
_Isometrisch
350
15E
  3
_Links
350
129
  3
_Normal auf
350
CD
  3
_Rechts
350
26
  3
_Rückseite
350
FD
  3
_Trimetrisch
350
182
  3
_Unten
350
155
  3
_Vorderseite
350
1E
  3
Model
350
22
  0
DICTIONARY
  5
43
102
{ACAD_REACTORS
330
C
102
}
330
C
100
AcDbDictionary
281
     1
  3
ByBlock
350
45
  3
ByLayer
350
44
  3
Global
350
46
  0
DICTIONARY
  5
6B
102
{ACAD_REACTORS
330
C
102
}
330
C
100
AcDbDictionary
281
     1
  3
Standard
350
6C
  0
DICTIONARY
  5
17
102
{ACAD_REACTORS
330
C
102
}
330
C
100
AcDbDictionary
281
     1
  3
Standard
350
18
  0
DICTIONARY
  5
19
102
{ACAD_REACTORS
330
C
102
}
330
C
100
AcDbDictionary
281
     1
  0
ACDBDICTIONARYWDFLT
  5
E
102
{ACAD_REACTORS
330
C
102
}
330
C
100
AcDbDictionary
281
     1
  3
Normal
350
F
100
AcDbDictionaryWithDefault
340
F
  0
DICTIONARY
  5
47
102
{ACAD_REACTORS
330
C
102
}
330
C
100
AcDbDictionary
281
     1
  3
A0
350
48
  3
A1
350
49
  3
A2
350
4A
  3
A3
350
4B
  3
A4
350
4C
  3
A5
350
4D
  3
A6
350
4E
  3
A7
350
4F
  3
A8
350
50
  3
A9
350
51
  3
B0
350
52
  3
B1
350
53
  3
B2
350
54
  3
B3
350
55
  3
B4
350
56
  3
B5
350
57
  3
B6
350
58
  3
B7
350
59
  3
B8
350
5A
  3
B9
350
5B
  3
C0
350
5C
  3
C1
350
5D
  3
C2
350
5E
  3
C3
350
5F
  3
C4
350
60
  3
C5
350
61
  3
C6
350
62
  3
C7
350
63
  3
C8
350
64
  3
C9
350
65
  3
D0
350
66
  3
D1
350
67
  3
D2
350
68
  0
DICTIONARY
  5
1EB
102
{ACAD_REACTORS
330
C
102
}
330
C
100
AcDbDictionary
281
     1
  0
DICTIONARY
  5
69
102
{ACAD_REACTORS
330
C
102
}
330
C
100
AcDbDictionary
281
     1
  3
Standard
350
6A
  0
DICTIONARY
  5
2A
102
{ACAD_REACTORS
330
C
102
}
330
C
100
AcDbDictionary
281
     1
  3
2dWireframe
350
2F
  3
Basic
350
32
  3
Brighten
350
36
  3
ColorChange
350
3A
  3
Conceptual
350
34
  3
Dim
350
35
  3
EdgeColorOff
350
3D
  3
Facepattern
350
39
  3
Flat
350
2B
  3
FlatWithEdges
350
2C
  3
Gouraud
350
2D
  3
GouraudWithEdges
350
2E
  3
Hidden
350
31
  3
JitterOff
350
3B
  3
Linepattern
350
38
  3
OverhangOff
350
3C
  3
Realistic
350
33
  3
Shaded
350
42
  3
Shaded with edges
350
41
  3
Shades of Gray
350
3E
  3
Sketchy
350
3F
  3
Thicken
350
37
  3
Wireframe
350
30
  3
X-Ray
350
40
  0
XRECORD
  5
1E7
102
{ACAD_REACTORS
330
C
102
}
330
C
100
AcDbXrecord
280
     1
 90
        1
330
6A
  0
DICTIONARY
  5
1E2
102
{ACAD_REACTORS
330
C
102
}
330
C
100
AcDbDictionary
281
     1
  3
CANNOSCALE
350
1E3
  3
CENTEREXE
350
1EC
  3
CENTERLTYPEFILE
350
1ED
  3
CMLEADERSTYLE
350
1E9
  3
CTABLESTYLE
350
1E8
  0
LAYOUT
  5
1AF
102
{ACAD_REACTORS
330
1A
102
}
330
1A
100
AcDbPlotSettings
  1

  2
none_device
  4
ISO_A4_(210.00_x_297.00_MM)
  6

 40
7.5
 41
20.0
 42
7.5
 43
20.0
 44
210.0
 45
297.0
 46
0.0
 47
0.0
 48
0.0
 49
0.0
140
0.0
141
0.0
142
1.0
143
1.7509727626
 70
   688
 72
     1
 73
     1
 74
     1
  7

 75
     0
 76
     0
 77
     2
 78
   300
147
0.5711111111
148
225.0
149
110.0
100
AcDbLayout
  1
_Dimetrisch
 70
     1
 71
     9
 10
0.0
 20
0.0
 11
0.0
 21
0.0
 12
0.0
 22
0.0
 32
0.0
 14
0.0
 24
0.0
 34
0.0
 15
0.0
 25
0.0
 35
0.0
146
0.0
 13
0.0
 23
0.0
 33
0.0
 16
1.0
 26
0.0
 36
0.0
 17
0.0
 27
1.0
 37
0.0
 76
     0
330
1AE
331
1E0
  0
LAYOUT
  5
15E
102
{ACAD_REACTORS
330
1A
102
}
330
1A
100
AcDbPlotSettings
  1

  2
none_device
  4
ISO_A4_(210.00_x_297.00_MM)
  6

 40
7.5
 41
20.0
 42
7.5
 43
20.0
 44
210.0
 45
297.0
 46
0.0
 47
0.0
 48
0.0
 49
0.0
140
0.0
141
0.0
142
1.0
143
1.7509727626
 70
   688
 72
     1
 73
     1
 74
     1
  7

 75
     0
 76
     0
 77
     2
 78
   300
147
0.5711111111
148
225.0
149
110.0
100
AcDbLayout
  1
_Isometrisch
 70
     1
 71
     7
 10
0.0
 20
0.0
 11
0.0
 21
0.0
 12
0.0
 22
0.0
 32
0.0
 14
0.0
 24
0.0
 34
0.0
 15
0.0
 25
0.0
 35
0.0
146
0.0
 13
0.0
 23
0.0
 33
0.0
 16
1.0
 26
0.0
 36
0.0
 17
0.0
 27
1.0
 37
0.0
 76
     0
330
15D
331
1DC
  0
LAYOUT
  5
129
102
{ACAD_REACTORS
330
1A
102
}
330
1A
100
AcDbPlotSettings
  1

  2
none_device
  4
ISO_A4_(210.00_x_297.00_MM)
  6

 40
7.5
 41
20.0
 42
7.5
 43
20.0
 44
210.0
 45
297.0
 46
0.0
 47
0.0
 48
0.0
 49
0.0
140
0.0
141
0.0
142
1.0
143
1.7509727626
 70
   688
 72
     1
 73
     1
 74
     1
  7

 75
     0
 76
     0
 77
     2
 78
   300
147
0.5711111111
148
225.0
149
110.0
100
AcDbLayout
  1
_Links
 70
     1
 71
     5
 10
0.0
 20
0.0
 11
0.0
 21
0.0
 12
0.0
 22
0.0
 32
0.0
 14
0.0
 24
0.0
 34
0.0
 15
0.0
 25
0.0
 35
0.0
146
0.0
 13
0.0
 23
0.0
 33
0.0
 16
1.0
 26
0.0
 36
0.0
 17
0.0
 27
1.0
 37
0.0
 76
     0
330
128
331
1D8
  0
LAYOUT
  5
CD
102
{ACAD_REACTORS
330
1A
102
}
330
1A
100
AcDbPlotSettings
  1

  2
none_device
  4
ISO_A4_(210.00_x_297.00_MM)
  6

 40
7.5
 41
20.0
 42
7.5
 43
20.0
 44
210.0
 45
297.0
 46
0.0
 47
0.0
 48
0.0
 49
0.0
140
0.0
141
0.0
142
1.0
143
1.7509727626
 70
   688
 72
     1
 73
     1
 74
     1
  7

 75
     0
 76
     0
 77
     2
 78
   300
147
0.5711111111
148
225.0
149
110.0
100
AcDbLayout
  1
_Normal auf
 70
     1
 71
     3
 10
0.0
 20
0.0
 11
0.0
 21
0.0
 12
0.0
 22
0.0
 32
0.0
 14
0.0
 24
0.0
 34
0.0
 15
0.0
 25
0.0
 35
0.0
146
0.0
 13
0.0
 23
0.0
 33
0.0
 16
1.0
 26
0.0
 36
0.0
 17
0.0
 27
1.0
 37
0.0
 76
     0
330
CC
331
1D4
  0
LAYOUT
  5
26
102
{ACAD_REACTORS
330
1A
102
}
330
1A
100
AcDbPlotSettings
  1

  2
none_device
  4
ISO_A4_(210.00_x_297.00_MM)
  6

 40
7.5
 41
20.0
 42
7.5
 43
20.0
 44
210.0
 45
297.0
 46
0.0
 47
0.0
 48
0.0
 49
0.0
140
0.0
141
0.0
142
1.0
143
1.7509727626
 70
   688
 72
     1
 73
     1
 74
     1
  7

 75
     0
 76
     0
 77
     2
 78
   300
147
0.5711111111
148
225.0
149
110.0
100
AcDbLayout
  1
_Rechts
 70
     1
 71
     2
 10
0.0
 20
0.0
 11
0.0
 21
0.0
 12
0.0
 22
0.0
 32
0.0
 14
0.0
 24
0.0
 34
0.0
 15
0.0
 25
0.0
 35
0.0
146
0.0
 13
0.0
 23
0.0
 33
0.0
 16
1.0
 26
0.0
 36
0.0
 17
0.0
 27
1.0
 37
0.0
 76
     0
330
23
331
1D2
  0
LAYOUT
  5
FD
102
{ACAD_REACTORS
330
1A
102
}
330
1A
100
AcDbPlotSettings
  1

  2
none_device
  4
ISO_A4_(210.00_x_297.00_MM)
  6

 40
7.5
 41
20.0
 42
7.5
 43
20.0
 44
210.0
 45
297.0
 46
0.0
 47
0.0
 48
0.0
 49
0.0
140
0.0
141
0.0
142
1.0
143
1.7509727626
 70
   688
 72
     1
 73
     1
 74
     1
  7

 75
     0
 76
     0
 77
     2
 78
   300
147
0.5711111111
148
225.0
149
110.0
100
AcDbLayout
  1
_Rückseite
 70
     1
 71
     4
 10
0.0
 20
0.0
 11
0.0
 21
0.0
 12
0.0
 22
0.0
 32
0.0
 14
0.0
 24
0.0
 34
0.0
 15
0.0
 25
0.0
 35
0.0
146
0.0
 13
0.0
 23
0.0
 33
0.0
 16
1.0
 26
0.0
 36
0.0
 17
0.0
 27
1.0
 37
0.0
 76
     0
330
FC
331
1D6
  0
LAYOUT
  5
182
102
{ACAD_REACTORS
330
1A
102
}
330
1A
100
AcDbPlotSettings
  1

  2
none_device
  4
ISO_A4_(210.00_x_297.00_MM)
  6

 40
7.5
 41
20.0
 42
7.5
 43
20.0
 44
210.0
 45
297.0
 46
0.0
 47
0.0
 48
0.0
 49
0.0
140
0.0
141
0.0
142
1.0
143
1.7509727626
 70
   688
 72
     1
 73
     1
 74
     1
  7

 75
     0
 76
     0
 77
     2
 78
   300
147
0.5711111111
148
225.0
149
110.0
100
AcDbLayout
  1
_Trimetrisch
 70
     1
 71
     8
 10
0.0
 20
0.0
 11
0.0
 21
0.0
 12
0.0
 22
0.0
 32
0.0
 14
0.0
 24
0.0
 34
0.0
 15
0.0
 25
0.0
 35
0.0
146
0.0
 13
0.0
 23
0.0
 33
0.0
 16
1.0
 26
0.0
 36
0.0
 17
0.0
 27
1.0
 37
0.0
 76
     0
330
181
331
1DE
  0
LAYOUT
  5
155
102
{ACAD_REACTORS
330
1A
102
}
330
1A
100
AcDbPlotSettings
  1

  2
none_device
  4
ISO_A4_(210.00_x_297.00_MM)
  6

 40
7.5
 41
20.0
 42
7.5
 43
20.0
 44
210.0
 45
297.0
 46
0.0
 47
0.0
 48
0.0
 49
0.0
140
0.0
141
0.0
142
1.0
143
1.7509727626
 70
   688
 72
     1
 73
     1
 74
     1
  7

 75
     0
 76
     0
 77
     2
 78
   300
147
0.5711111111
148
225.0
149
110.0
100
AcDbLayout
  1
_Unten
 70
     1
 71
     6
 10
0.0
 20
0.0
 11
0.0
 21
0.0
 12
0.0
 22
0.0
 32
0.0
 14
0.0
 24
0.0
 34
0.0
 15
0.0
 25
0.0
 35
0.0
146
0.0
 13
0.0
 23
0.0
 33
0.0
 16
1.0
 26
0.0
 36
0.0
 17
0.0
 27
1.0
 37
0.0
 76
     0
330
154
331
1DA
  0
LAYOUT
  5
1E
102
{ACAD_REACTORS
330
1A
102
}
330
1A
100
AcDbPlotSettings
  1

  2
none_device
  4
ISO_A4_(210.00_x_297.00_MM)
  6

 40
7.5
 41
20.0
 42
7.5
 43
20.0
 44
210.0
 45
297.0
 46
0.0
 47
0.0
 48
0.0
 49
0.0
140
0.0
141
0.0
142
1.0
143
1.7509727626
 70
   688
 72
     1
 73
     1
 74
     1
  7

 75
     0
 76
     0
 77
     2
 78
   300
147
0.5711111111
148
225.0
149
110.0
100
AcDbLayout
  1
_Vorderseite
 70
     1
 71
     1
 10
-260.0194552529
 20
-123.1322957198
 11
260.0194552529
 21
244.5719844358
 12
0.0
 22
0.0
 32
0.0
 14
-225.0
 24
-110.0
 34
0.0
 15
225.0
 25
0.0
 35
0.0
146
0.0
 13
0.0
 23
0.0
 33
0.0
 16
1.0
 26
0.0
 36
0.0
 17
0.0
 27
1.0
 37
0.0
 76
     0
330
1B
331
1D0
  0
LAYOUT
  5
22
102
{ACAD_REACTORS
330
1A
102
}
330
1A
100
AcDbPlotSettings
  1

  2
none_device
  4
ANSI_A_(11.00_x_8.50_Inches)
  6

 40
6.35
 41
19.05
 42
6.35000508
 43
19.05000254
 44
279.4
 45
215.9
 46
133.34999746
 47
88.89999873
 48
0.0
 49
0.0
140
0.0
141
0.0
142
0.0187
143
1.0
 70
  1696
 72
     0
 73
     0
 74
     0
  7

 75
     0
 76
     0
 77
     2
 78
   300
147
0.0179189148
148
-1300.4909072572
149
0.0
100
AcDbLayout
  1
Model
 70
     1
 71
     0
 10
0.0
 20
0.0
 11
420.0
 21
297.0
 12
0.0
 22
0.0
 32
0.0
 14
-225.0
 24
-225.0
 34
0.0
 15
225.0
 25
225.0
 35
0.0
146
0.0
 13
0.0
 23
0.0
 33
0.0
 16
1.0
 26
0.0
 36
0.0
 17
0.0
 27
1.0
 37
0.0
 76
     0
330
1F
331
29
  0
MATERIAL
  5
45
102
{ACAD_REACTORS
330
43
102
}
330
43
100
AcDbMaterial
  1
ByBlock
 72
     1
 94
      127
  0
MATERIAL
  5
44
102
{ACAD_REACTORS
330
43
102
}
330
43
100
AcDbMaterial
  1
ByLayer
 72
     1
 94
      127
  0
MATERIAL
  5
46
102
{ACAD_REACTORS
330
43
102
}
330
43
100
AcDbMaterial
  1
Global
 72
     1
 94
      127
  0
MLEADERSTYLE
  5
6C
102
{ACAD_REACTORS
330
6B
102
}
330
6B
100
AcDbMLeaderStyle
170
     2
171
     1
172
     0
 90
        2
 40
0.0
 41
0.0
173
     1
 91
-1056964608
340
14
 92
       -2
290
     1
 42
2.0
291
     1
 43
8.0
  3
Standard
341
0
 44
4.0
300

342
11
174
     1
178
     6
175
     1
176
     0
 93
-1056964608
 45
4.0
292
     0
297
     0
 46
4.0
343
0
 94
-1056964608
 47
1.0
 49
1.0
140
1.0
293
     1
141
0.0
294
     1
177
     0
142
1.0
295
     0
296
     0
143
3.75
1001
ACAD_MLEADERVER
1070
     2
  0
MLINESTYLE
  5
18
102
{ACAD_REACTORS
330
17
102
}
330
17
100
AcDbMlineStyle
  2
Standard
 70
     0
  3

 62
   256
 51
90.0
 52
90.0
 71
     2
 49
0.5
 62
   256
  6
BYLAYER
 49
-0.5
 62
   256
  6
BYLAYER
  0
ACDBPLACEHOLDER
  5
F
102
{ACAD_REACTORS
330
E
102
}
330
E
  0
SCALE
  5
48
102
{ACAD_REACTORS
330
47
102
}
330
47
100
AcDbScale
 70
     0
300
1:1
140
1.0
141
1.0
290
     1
  0
SCALE
  5
49
102
{ACAD_REACTORS
330
47
102
}
330
47
100
AcDbScale
 70
     0
300
1:2
140
1.0
141
2.0
290
     0
  0
SCALE
  5
4A
102
{ACAD_REACTORS
330
47
102
}
330
47
100
AcDbScale
 70
     0
300
1:4
140
1.0
141
4.0
290
     0
  0
SCALE
  5
4B
102
{ACAD_REACTORS
330
47
102
}
330
47
100
AcDbScale
 70
     0
300
1:5
140
1.0
141
5.0
290
     0
  0
SCALE
  5
4C
102
{ACAD_REACTORS
330
47
102
}
330
47
100
AcDbScale
 70
     0
300
1:8
140
1.0
141
8.0
290
     0
  0
SCALE
  5
4D
102
{ACAD_REACTORS
330
47
102
}
330
47
100
AcDbScale
 70
     0
300
1:10
140
1.0
141
10.0
290
     0
  0
SCALE
  5
4E
102
{ACAD_REACTORS
330
47
102
}
330
47
100
AcDbScale
 70
     0
300
1:16
140
1.0
141
16.0
290
     0
  0
SCALE
  5
4F
102
{ACAD_REACTORS
330
47
102
}
330
47
100
AcDbScale
 70
     0
300
1:20
140
1.0
141
20.0
290
     0
  0
SCALE
  5
50
102
{ACAD_REACTORS
330
47
102
}
330
47
100
AcDbScale
 70
     0
300
1:30
140
1.0
141
30.0
290
     0
  0
SCALE
  5
51
102
{ACAD_REACTORS
330
47
102
}
330
47
100
AcDbScale
 70
     0
300
1:40
140
1.0
141
40.0
290
     0
  0
SCALE
  5
52
102
{ACAD_REACTORS
330
47
102
}
330
47
100
AcDbScale
 70
     0
300
1:50
140
1.0
141
50.0
290
     0
  0
SCALE
  5
53
102
{ACAD_REACTORS
330
47
102
}
330
47
100
AcDbScale
 70
     0
300
1:100
140
1.0
141
100.0
290
     0
  0
SCALE
  5
54
102
{ACAD_REACTORS
330
47
102
}
330
47
100
AcDbScale
 70
     0
300
2:1
140
2.0
141
1.0
290
     0
  0
SCALE
  5
55
102
{ACAD_REACTORS
330
47
102
}
330
47
100
AcDbScale
 70
     0
300
4:1
140
4.0
141
1.0
290
     0
  0
SCALE
  5
56
102
{ACAD_REACTORS
330
47
102
}
330
47
100
AcDbScale
 70
     0
300
8:1
140
8.0
141
1.0
290
     0
  0
SCALE
  5
57
102
{ACAD_REACTORS
330
47
102
}
330
47
100
AcDbScale
 70
     0
300
10:1
140
10.0
141
1.0
290
     0
  0
SCALE
  5
58
102
{ACAD_REACTORS
330
47
102
}
330
47
100
AcDbScale
 70
     0
300
100:1
140
100.0
141
1.0
290
     0
  0
SCALE
  5
59
102
{ACAD_REACTORS
330
47
102
}
330
47
100
AcDbScale
 70
     0
300
1/128" = 1'-0"
140
0.0078125
141
12.0
290
     0
  0
SCALE
  5
5A
102
{ACAD_REACTORS
330
47
102
}
330
47
100
AcDbScale
 70
     0
300
1/64" = 1'-0"
140
0.015625
141
12.0
290
     0
  0
SCALE
  5
5B
102
{ACAD_REACTORS
330
47
102
}
330
47
100
AcDbScale
 70
     0
300
1/32" = 1'-0"
140
0.03125
141
12.0
290
     0
  0
SCALE
  5
5C
102
{ACAD_REACTORS
330
47
102
}
330
47
100
AcDbScale
 70
     0
300
1/16" = 1'-0"
140
0.0625
141
12.0
290
     0
  0
SCALE
  5
5D
102
{ACAD_REACTORS
330
47
102
}
330
47
100
AcDbScale
 70
     0
300
3/32" = 1'-0"
140
0.09375
141
12.0
290
     0
  0
SCALE
  5
5E
102
{ACAD_REACTORS
330
47
102
}
330
47
100
AcDbScale
 70
     0
300
1/8" = 1'-0"
140
0.125
141
12.0
290
     0
  0
SCALE
  5
5F
102
{ACAD_REACTORS
330
47
102
}
330
47
100
AcDbScale
 70
     0
300
3/16" = 1'-0"
140
0.1875
141
12.0
290
     0
  0
SCALE
  5
60
102
{ACAD_REACTORS
330
47
102
}
330
47
100
AcDbScale
 70
     0
300
1/4" = 1'-0"
140
0.25
141
12.0
290
     0
  0
SCALE
  5
61
102
{ACAD_REACTORS
330
47
102
}
330
47
100
AcDbScale
 70
     0
300
3/8" = 1'-0"
140
0.375
141
12.0
290
     0
  0
SCALE
  5
62
102
{ACAD_REACTORS
330
47
102
}
330
47
100
AcDbScale
 70
     0
300
1/2" = 1'-0"
140
0.5
141
12.0
290
     0
  0
SCALE
  5
63
102
{ACAD_REACTORS
330
47
102
}
330
47
100
AcDbScale
 70
     0
300
3/4" = 1'-0"
140
0.75
141
12.0
290
     0
  0
SCALE
  5
64
102
{ACAD_REACTORS
330
47
102
}
330
47
100
AcDbScale
 70
     0
300
1" = 1'-0"
140
1.0
141
12.0
290
     0
  0
SCALE
  5
65
102
{ACAD_REACTORS
330
47
102
}
330
47
100
AcDbScale
 70
     0
300
1-1/2" = 1'-0"
140
1.5
141
12.0
290
     0
  0
SCALE
  5
66
102
{ACAD_REACTORS
330
47
102
}
330
47
100
AcDbScale
 70
     0
300
3" = 1'-0"
140
3.0
141
12.0
290
     0
  0
SCALE
  5
67
102
{ACAD_REACTORS
330
47
102
}
330
47
100
AcDbScale
 70
     0
300
6" = 1'-0"
140
6.0
141
12.0
290
     0
  0
SCALE
  5
68
102
{ACAD_REACTORS
330
47
102
}
330
47
100
AcDbScale
 70
     0
300
1'-0" = 1'-0"
140
12.0
141
12.0
290
     0
  0
TABLESTYLE
  5
6A
102
{ACAD_REACTORS
330
69
102
}
102
{ACAD_XDICTIONARY
360
1E4
102
}
330
69
100
AcDbTableStyle
  3
Standard
 70
     0
 71
     0
 40
0.06
 41
0.06
280
     0
281
     0
  7
STANDARD
140
4.5
170
     2
 62
     0
 63
   257
283
     0
 90
        4
 91
        0
  1

274
    -2
284
     1
 64
     0
275
    -2
285
     1
 65
     0
276
    -2
286
     1
 66
     0
277
    -2
287
     1
 67
     0
278
    -2
288
     1
 68
     0
279
    -2
289
     1
 69
     0
  7
STANDARD
140
6.0
170
     5
 62
     0
 63
   257
283
     0
 90
        4
 91
        0
  1

274
    -2
284
     1
 64
     0
275
    -2
285
     1
 65
     0
276
    -2
286
     1
 66
     0
277
    -2
287
     1
 67
     0
278
    -2
288
     1
 68
     0
279
    -2
289
     1
 69
     0
  7
STANDARD
140
4.5
170
     5
 62
     0
 63
   257
283
     0
 90
        4
 91
        0
  1

274
    -2
284
     1
 64
     0
275
    -2
285
     1
 65
     0
276
    -2
286
     1
 66
     0
277
    -2
287
     1
 67
     0
278
    -2
288
     1
 68
     0
279
    -2
289
     1
 69
     0
  0
VISUALSTYLE
  5
2F
102
{ACAD_REACTORS
330
2A
102
}
330
2A
100
AcDbVisualStyle
  2
2dWireframe
 70
     4
 71
     0
 72
     2
 73
     0
 90
        0
 40
0.6
 41
30.0
 62
     5
 63
     7
421
 16777215
 74
     1
 91
        4
 64
     7
 65
   257
 75
     1
175
     1
 42
1.0
 92
        0
 66
   257
 43
1.0
 76
     1
 77
     6
 78
     2
 67
     7
 79
     5
170
     0
171
     0
290
     0
174
     0
 93
        1
 44
0.0
173
     0
291
     0
 45
0.0
  0
VISUALSTYLE
  5
32
102
{ACAD_REACTORS
330
2A
102
}
330
2A
100
AcDbVisualStyle
  2
Basic
 70
     7
 71
     1
 72
     0
 73
     1
 90
        0
 40
0.6
 41
30.0
 62
     5
 63
     7
421
 16777215
 74
     0
 91
        4
 64
     7
 65
   257
 75
     1
175
     1
 42
1.0
 92
        8
 66
     7
 43
1.0
 76
     1
 77
     6
 78
     2
 67
     7
 79
     5
170
     0
171
     0
290
     0
174
     0
 93
        1
 44
0.0
173
     0
291
     1
 45
0.0
  0
VISUALSTYLE
  5
36
102
{ACAD_REACTORS
330
2A
102
}
330
2A
100
AcDbVisualStyle
  2
Brighten
 70
    12
 71
     2
 72
     2
 73
     0
 90
        0
 40
0.6
 41
30.0
 62
     5
 63
     7
421
 16777215
 74
     1
 91
        4
 64
     7
 65
   257
 75
     1
175
     1
 42
1.0
 92
        8
 66
     7
 43
1.0
 76
     1
 77
     6
 78
     2
 67
     7
 79
     5
170
     0
171
     0
290
     0
174
     0
 93
        1
 44
50.0
173
     0
291
     1
 45
0.0
  0
VISUALSTYLE
  5
3A
102
{ACAD_REACTORS
330
2A
102
}
330
2A
100
AcDbVisualStyle
  2
ColorChange
 70
    16
 71
     2
 72
     2
 73
     3
 90
        0
 40
0.6
 41
30.0
 62
     5
 63
     8
421
  8421504
 74
     1
 91
        4
 64
     7
 65
   257
 75
     1
175
     1
 42
1.0
 92
        8
 66
     8
424
  8421504
 43
1.0
 76
     1
 77
     6
 78
     2
 67
     7
 79
     5
170
     0
171
     0
290
     0
174
     0
 93
        1
 44
0.0
173
     0
291
     1
 45
0.0
  0
VISUALSTYLE
  5
34
102
{ACAD_REACTORS
330
2A
102
}
330
2A
100
AcDbVisualStyle
  2
Conceptual
 70
     9
 71
     3
 72
     2
 73
     0
 90
        0
 40
0.6
 41
30.0
 62
     5
 63
     7
421
 16777215
 74
     2
 91
        2
 64
     7
 65
   257
 75
     1
175
     1
 42
179.0
 92
        8
 66
     7
 43
1.0
 76
     1
 77
     6
 78
     2
 67
     7
 79
     3
170
     0
171
     0
290
     0
174
     0
 93
        1
 44
0.0
173
     0
291
     0
 45
0.0
  0
VISUALSTYLE
  5
35
102
{ACAD_REACTORS
330
2A
102
}
330
2A
100
AcDbVisualStyle
  2
Dim
 70
    11
 71
     2
 72
     2
 73
     0
 90
        0
 40
0.6
 41
30.0
 62
     5
 63
     7
421
 16777215
 74
     1
 91
        4
 64
     7
 65
   257
 75
     1
175
     1
 42
1.0
 92
        8
 66
     7
 43
1.0
 76
     1
 77
     6
 78
     2
 67
     7
 79
     5
170
     0
171
     0
290
     0
174
     0
 93
        1
 44
-50.0
173
     0
291
     1
 45
0.0
  0
VISUALSTYLE
  5
3D
102
{ACAD_REACTORS
330
2A
102
}
330
2A
100
AcDbVisualStyle
  2
EdgeColorOff
 70
    22
 71
     2
 72
     2
 73
     0
 90
        0
 40
0.6
 41
30.0
 62
     5
 63
     7
421
 16777215
 74
     1
 91
        4
 64
     7
 65
   257
 75
     1
175
     1
 42
1.0
 92
        8
 66
     7
 43
1.0
 76
     1
 77
     6
 78
     2
 67
     7
 79
     5
170
     0
171
     0
290
     0
174
     0
 93
        1
 44
0.0
173
     0
291
     1
 45
0.0
  0
VISUALSTYLE
  5
39
102
{ACAD_REACTORS
330
2A
102
}
330
2A
100
AcDbVisualStyle
  2
Facepattern
 70
    15
 71
     2
 72
     2
 73
     0
 90
        0
 40
0.6
 41
30.0
 62
     5
 63
     7
421
 16777215
 74
     1
 91
        4
 64
     7
 65
   257
 75
     1
175
     1
 42
1.0
 92
        8
 66
     7
 43
1.0
 76
     1
 77
     6
 78
     2
 67
     7
 79
     5
170
     0
171
     0
290
     0
174
     0
 93
        1
 44
0.0
173
     0
291
     1
 45
0.0
  0
VISUALSTYLE
  5
2B
102
{ACAD_REACTORS
330
2A
102
}
330
2A
100
AcDbVisualStyle
  2
Flat
 70
     0
 71
     2
 72
     1
 73
     1
 90
        2
 40
0.6
 41
30.0
 62
     5
 63
     7
421
 16777215
 74
     0
 91
        0
 64
     7
 65
   257
 75
     1
175
     1
 42
1.0
 92
        8
 66
     7
 43
1.0
 76
     1
 77
     6
 78
     2
 67
     7
 79
     5
170
     0
171
     0
290
     0
174
     0
 93
       13
 44
0.0
173
     0
291
     1
 45
0.0
  0
VISUALSTYLE
  5
2C
102
{ACAD_REACTORS
330
2A
102
}
330
2A
100
AcDbVisualStyle
  2
FlatWithEdges
 70
     1
 71
     2
 72
     1
 73
     1
 90
        2
 40
0.6
 41
30.0
 62
     5
 63
     7
421
 16777215
 74
     1
 91
        0
 64
     7
 65
   257
 75
     1
175
     1
 42
1.0
 92
        0
 66
   257
 43
1.0
 76
     1
 77
     6
 78
     2
 67
     7
 79
     5
170
     0
171
     0
290
     0
174
     0
 93
       13
 44
0.0
173
     0
291
     1
 45
0.0
  0
VISUALSTYLE
  5
2D
102
{ACAD_REACTORS
330
2A
102
}
330
2A
100
AcDbVisualStyle
  2
Gouraud
 70
     2
 71
     2
 72
     2
 73
     1
 90
        2
 40
0.6
 41
30.0
 62
     5
 63
     7
421
 16777215
 74
     0
 91
        0
 64
     7
 65
   257
 75
     1
175
     1
 42
1.0
 92
        0
 66
     7
 43
1.0
 76
     1
 77
     6
 78
     2
 67
     7
 79
     5
170
     0
171
     0
290
     0
174
     0
 93
       13
 44
0.0
173
     0
291
     1
 45
0.0
  0
VISUALSTYLE
  5
2E
102
{ACAD_REACTORS
330
2A
102
}
330
2A
100
AcDbVisualStyle
  2
GouraudWithEdges
 70
     3
 71
     2
 72
     2
 73
     1
 90
        2
 40
0.6
 41
30.0
 62
     5
 63
     7
421
 16777215
 74
     1
 91
        0
 64
     7
 65
   257
 75
     1
175
     1
 42
1.0
 92
        0
 66
   257
 43
1.0
 76
     1
 77
     6
 78
     2
 67
     7
 79
     5
170
     0
171
     0
290
     0
174
     0
 93
       13
 44
0.0
173
     0
291
     1
 45
0.0
  0
VISUALSTYLE
  5
31
102
{ACAD_REACTORS
330
2A
102
}
330
2A
100
AcDbVisualStyle
  2
Hidden
 70
     6
 71
     1
 72
     2
 73
     2
 90
        0
 40
0.6
 41
30.0
 62
     5
 63
     7
421
 16777215
 74
     2
 91
        2
 64
     7
 65
   257
 75
     2
175
     1
 42
40.0
 92
        0
 66
   257
 43
1.0
 76
     1
 77
     6
 78
     2
 67
     7
 79
     3
170
     0
171
     0
290
     0
174
     0
 93
        1
 44
0.0
173
     0
291
     0
 45
0.0
  0
VISUALSTYLE
  5
3B
102
{ACAD_REACTORS
330
2A
102
}
330
2A
100
AcDbVisualStyle
  2
JitterOff
 70
    20
 71
     2
 72
     2
 73
     0
 90
        0
 40
0.6
 41
30.0
 62
     5
 63
     7
421
 16777215
 74
     1
 91
        4
 64
     7
 65
   257
 75
     1
175
     1
 42
1.0
 92
       10
 66
     7
 43
1.0
 76
     1
 77
     6
 78
     2
 67
     7
 79
     5
170
     0
171
     0
290
     0
174
     0
 93
        1
 44
0.0
173
     0
291
     1
 45
0.0
  0
VISUALSTYLE
  5
38
102
{ACAD_REACTORS
330
2A
102
}
330
2A
100
AcDbVisualStyle
  2
Linepattern
 70
    14
 71
     2
 72
     2
 73
     0
 90
        0
 40
0.6
 41
30.0
 62
     5
 63
     7
421
 16777215
 74
     1
 91
        4
 64
     7
 65
   257
 75
     7
175
     7
 42
1.0
 92
        8
 66
     7
 43
1.0
 76
     1
 77
     6
 78
     2
 67
     7
 79
     5
170
     0
171
     0
290
     0
174
     0
 93
        1
 44
0.0
173
     0
291
     1
 45
0.0
  0
VISUALSTYLE
  5
3C
102
{ACAD_REACTORS
330
2A
102
}
330
2A
100
AcDbVisualStyle
  2
OverhangOff
 70
    21
 71
     2
 72
     2
 73
     0
 90
        0
 40
0.6
 41
30.0
 62
     5
 63
     7
421
 16777215
 74
     1
 91
        4
 64
     7
 65
   257
 75
     1
175
     1
 42
1.0
 92
        9
 66
     7
 43
1.0
 76
     1
 77
     6
 78
     2
 67
     7
 79
     5
170
     0
171
     0
290
     0
174
     0
 93
        1
 44
0.0
173
     0
291
     1
 45
0.0
  0
VISUALSTYLE
  5
33
102
{ACAD_REACTORS
330
2A
102
}
330
2A
100
AcDbVisualStyle
  2
Realistic
 70
     8
 71
     2
 72
     3
 73
     0
 90
        2
 40
0.6
 41
30.0
 62
     5
 63
     7
421
 16777215
 74
     0
 91
        0
 64
     7
 65
   257
 75
     1
175
     1
 42
1.0
 92
        8
 66
   257
 43
1.0
 76
     1
 77
     6
 78
     2
 67
     7
 79
     3
170
     0
171
     0
290
     0
174
     0
 93
       13
 44
0.0
173
     0
291
     0
 45
0.0
  0
VISUALSTYLE
  5
42
102
{ACAD_REACTORS
330
2A
102
}
330
2A
100
AcDbVisualStyle
  2
Shaded
 70
    27
 71
     2
 72
     2
 73
     1
 90
        2
 40
0.6
 41
30.0
 62
     5
 63
     7
421
 16777215
 74
     0
 91
        4
 64
     7
 65
   257
 75
     1
175
     1
 42
1.0
 92
        8
 66
   257
 43
1.0
 76
     1
 77
     6
 78
     2
 67
     8
425
  7895160
 79
     3
170
     0
171
     0
290
     0
174
     0
 93
        5
 44
0.0
173
     0
291
     0
 45
0.0
  0
VISUALSTYLE
  5
41
102
{ACAD_REACTORS
330
2A
102
}
330
2A
100
AcDbVisualStyle
  2
Shaded with edges
 70
    26
 71
     2
 72
     2
 73
     1
 90
        2
 40
0.6
 41
30.0
 62
     5
 63
     7
421
 16777215
 74
     1
 91
       10
 64
     7
 65
   257
 75
     2
175
     1
 42
1.0
 92
        8
 66
   257
 43
1.0
 76
     1
 77
     6
 78
     2
 67
     7
 79
     3
170
     0
171
     0
290
     0
174
     0
 93
        5
 44
0.0
173
     0
291
     0
 45
0.0
  0
VISUALSTYLE
  5
3E
102
{ACAD_REACTORS
330
2A
102
}
330
2A
100
AcDbVisualStyle
  2
Shades of Gray
 70
    23
 71
     2
 72
     2
 73
     3
 90
        0
 40
0.6
 41
30.0
 62
     5
 63
     7
421
 16777215
 74
     2
 91
        2
 64
     7
 65
     7
 75
     1
175
     1
 42
40.0
 92
        8
 66
     7
 43
1.0
 76
     1
 77
     6
 78
     2
 67
     7
 79
     3
170
     0
171
     0
290
     0
174
     0
 93
        1
 44
0.0
173
     0
291
     0
 45
0.0
  0
VISUALSTYLE
  5
3F
102
{ACAD_REACTORS
330
2A
102
}
330
2A
100
AcDbVisualStyle
  2
Sketchy
 70
    24
 71
     1
 72
     2
 73
     2
 90
        0
 40
0.6
 41
30.0
 62
     5
 63
     7
421
 16777215
 74
     2
 91
        2
 64
     7
 65
     7
 75
     1
175
     1
 42
40.0
 92
       11
 66
     7
 43
1.0
 76
     1
 77
     6
 78
     2
 67
     7
 79
     6
170
     0
171
     0
290
     0
174
     0
 93
        1
 44
0.0
173
     0
291
     0
 45
0.0
  0
VISUALSTYLE
  5
37
102
{ACAD_REACTORS
330
2A
102
}
330
2A
100
AcDbVisualStyle
  2
Thicken
 70
    13
 71
     2
 72
     2
 73
     0
 90
        0
 40
0.6
 41
30.0
 62
     5
 63
     7
421
 16777215
 74
     1
 91
        4
 64
     7
 65
   257
 75
     1
175
     1
 42
1.0
 92
       12
 66
     7
 43
1.0
 76
     1
 77
     6
 78
     2
 67
     7
 79
     5
170
     0
171
     0
290
     0
174
     0
 93
        1
 44
0.0
173
     0
291
     1
 45
0.0
  0
VISUALSTYLE
  5
30
102
{ACAD_REACTORS
330
2A
102
}
330
2A
100
AcDbVisualStyle
  2
Wireframe
 70
     5
 71
     0
 72
     2
 73
     0
 90
        0
 40
0.6
 41
30.0
 62
     5
 63
     7
421
 16777215
 74
     1
 91
        4
 64
     7
 65
   257
 75
     1
175
     1
 42
1.0
 92
        0
 66
   257
 43
1.0
 76
     1
 77
     6
 78
     2
 67
     7
 79
     3
170
     0
171
     0
290
     0
174
     0
 93
        1
 44
0.0
173
     0
291
     0
 45
0.0
  0
VISUALSTYLE
  5
40
102
{ACAD_REACTORS
330
2A
102
}
330
2A
100
AcDbVisualStyle
  2
X-Ray
 70
    25
 71
     2
 72
     2
 73
     1
 90
        1
 40
0.5
 41
30.0
 62
     5
 63
     7
421
 16777215
 74
     1
 91
        0
 64
     7
 65
   257
 75
     1
175
     1
 42
1.0
 92
        8
 66
     7
 43
1.0
 76
     1
 77
     6
 78
     2
 67
     7
 79
     3
170
     0
171
     0
290
     0
174
     0
 93
       13
 44
0.0
173
     0
291
     0
 45
0.0
  0
DICTIONARYVAR
  5
1E3
102
{ACAD_REACTORS
330
1E2
102
}
330
1E2
100
DictionaryVariables
280
     0
  1
1:1
  0
DICTIONARYVAR
  5
1EC
102
{ACAD_REACTORS
330
1E2
102
}
330
1E2
100
DictionaryVariables
280
     0
  1
3.500000
  0
DICTIONARYVAR
  5
1ED
102
{ACAD_REACTORS
330
1E2
102
}
330
1E2
100
DictionaryVariables
280
     0
  1
acadiso.lin
  0
DICTIONARYVAR
  5
1E9
102
{ACAD_REACTORS
330
1E2
102
}
330
1E2
100
DictionaryVariables
280
     0
  1
Standard
  0
DICTIONARYVAR
  5
1E8
102
{ACAD_REACTORS
330
1E2
102
}
330
1E2
100
DictionaryVariables
280
     0
  1
Standard
  0
DICTIONARY
  5
1E4
330
6A
100
AcDbDictionary
280
     1
281
     1
  3
ACAD_ROUNDTRIP_2008_TABLESTYLE_CELLSTYLEMAP
360
1E5
  0
CELLSTYLEMAP
  5
1E5
102
{ACAD_REACTORS
330
1E4
102
}
330
1E4
100
AcDbCellStyleMap
 90
        3
300
CELLSTYLE
  1
TABLEFORMAT_BEGIN
 90
        5
170
     1
 91
        0
 92
    32768
 62
   257
 93
        1
300
CONTENTFORMAT
  1
CONTENTFORMAT_BEGIN
 90
        0
 91
        0
 92
        4
 93
        0
300

 40
0.0
140
1.0
 94
        5
 62
     0
340
11
144
6.0
309
CONTENTFORMAT_END
171
     1
301
MARGIN
  1
CELLMARGIN_BEGIN
 40
1.5
 40
1.5
 40
1.5
 40
1.5
 40
1.5
 40
1.5
309
CELLMARGIN_END
 94
        6
 95
        1
302
GRIDFORMAT
  1
GRIDFORMAT_BEGIN
 90
        0
 91
        1
 62
     0
 92
       -2
340
14
 93
        0
 40
0.045
309
GRIDFORMAT_END
 95
        2
302
GRIDFORMAT
  1
GRIDFORMAT_BEGIN
 90
        0
 91
        1
 62
     0
 92
       -2
340
14
 93
        0
 40
0.045
309
GRIDFORMAT_END
 95
        4
302
GRIDFORMAT
  1
GRIDFORMAT_BEGIN
 90
        0
 91
        1
 62
     0
 92
       -2
340
14
 93
        0
 40
0.045
309
GRIDFORMAT_END
 95
        8
302
GRIDFORMAT
  1
GRIDFORMAT_BEGIN
 90
        0
 91
        1
 62
     0
 92
       -2
340
14
 93
        0
 40
0.045
309
GRIDFORMAT_END
 95
       16
302
GRIDFORMAT
  1
GRIDFORMAT_BEGIN
 90
        0
 91
        1
 62
     0
 92
       -2
340
14
 93
        0
 40
0.045
309
GRIDFORMAT_END
 95
       32
302
GRIDFORMAT
  1
GRIDFORMAT_BEGIN
 90
        0
 91
        1
 62
     0
 92
       -2
340
14
 93
        0
 40
0.045
309
GRIDFORMAT_END
309
TABLEFORMAT_END
  1
CELLSTYLE_BEGIN
 90
        1
 91
        1
300
_TITLE
309
CELLSTYLE_END
300
CELLSTYLE
  1
TABLEFORMAT_BEGIN
 90
        5
170
     1
 91
        0
 92
        0
 62
   257
 93
        1
300
CONTENTFORMAT
  1
CONTENTFORMAT_BEGIN
 90
        0
 91
        0
 92
        4
 93
        0
300

 40
0.0
140
1.0
 94
        5
 62
     0
340
11
144
4.5
309
CONTENTFORMAT_END
171
     1
301
MARGIN
  1
CELLMARGIN_BEGIN
 40
1.5
 40
1.5
 40
1.5
 40
1.5
 40
1.5
 40
1.5
309
CELLMARGIN_END
 94
        6
 95
        1
302
GRIDFORMAT
  1
GRIDFORMAT_BEGIN
 90
        0
 91
        1
 62
     0
 92
       -2
340
14
 93
        0
 40
0.045
309
GRIDFORMAT_END
 95
        2
302
GRIDFORMAT
  1
GRIDFORMAT_BEGIN
 90
        0
 91
        1
 62
     0
 92
       -2
340
14
 93
        0
 40
0.045
309
GRIDFORMAT_END
 95
        4
302
GRIDFORMAT
  1
GRIDFORMAT_BEGIN
 90
        0
 91
        1
 62
     0
 92
       -2
340
14
 93
        0
 40
0.045
309
GRIDFORMAT_END
 95
        8
302
GRIDFORMAT
  1
GRIDFORMAT_BEGIN
 90
        0
 91
        1
 62
     0
 92
       -2
340
14
 93
        0
 40
0.045
309
GRIDFORMAT_END
 95
       16
302
GRIDFORMAT
  1
GRIDFORMAT_BEGIN
 90
        0
 91
        1
 62
     0
 92
       -2
340
14
 93
        0
 40
0.045
309
GRIDFORMAT_END
 95
       32
302
GRIDFORMAT
  1
GRIDFORMAT_BEGIN
 90
        0
 91
        1
 62
     0
 92
       -2
340
14
 93
        0
 40
0.045
309
GRIDFORMAT_END
309
TABLEFORMAT_END
  1
CELLSTYLE_BEGIN
 90
        2
 91
        1
300
_HEADER
309
CELLSTYLE_END
300
CELLSTYLE
  1
TABLEFORMAT_BEGIN
 90
        5
170
     1
 91
        0
 92
        0
 62
   257
 93
        1
300
CONTENTFORMAT
  1
CONTENTFORMAT_BEGIN
 90
        0
 91
        0
 92
        4
 93
        0
300

 40
0.0
140
1.0
 94
        2
 62
     0
340
11
144
4.5
309
CONTENTFORMAT_END
171
     1
301
MARGIN
  1
CELLMARGIN_BEGIN
 40
1.5
 40
1.5
 40
1.5
 40
1.5
 40
1.5
 40
1.5
309
CELLMARGIN_END
 94
        6
 95
        1
302
GRIDFORMAT
  1
GRIDFORMAT_BEGIN
 90
        0
 91
        1
 62
     0
 92
       -2
340
14
 93
        0
 40
0.045
309
GRIDFORMAT_END
 95
        2
302
GRIDFORMAT
  1
GRIDFORMAT_BEGIN
 90
        0
 91
        1
 62
     0
 92
       -2
340
14
 93
        0
 40
0.045
309
GRIDFORMAT_END
 95
        4
302
GRIDFORMAT
  1
GRIDFORMAT_BEGIN
 90
        0
 91
        1
 62
     0
 92
       -2
340
14
 93
        0
 40
0.045
309
GRIDFORMAT_END
 95
        8
302
GRIDFORMAT
  1
GRIDFORMAT_BEGIN
 90
        0
 91
        1
 62
     0
 92
       -2
340
14
 93
        0
 40
0.045
309
GRIDFORMAT_END
 95
       16
302
GRIDFORMAT
  1
GRIDFORMAT_BEGIN
 90
        0
 91
        1
 62
     0
 92
       -2
340
14
 93
        0
 40
0.045
309
GRIDFORMAT_END
 95
       32
302
GRIDFORMAT
  1
GRIDFORMAT_BEGIN
 90
        0
 91
        1
 62
     0
 92
       -2
340
14
 93
        0
 40
0.045
309
GRIDFORMAT_END
309
TABLEFORMAT_END
  1
CELLSTYLE_BEGIN
 90
        3
 91
        2
300
_DATA
309
CELLSTYLE_END
  0
ENDSEC
  0
EOF
