  0
SECTION
  2
HEADER
  9
$ACADVER
  1
AC1021
  9
$ACADMAINTVER
 70
    25
  9
$DWGCODEPAGE
  3
ANSI_1252
  9
$INSBASE
 10
0.0
 20
0.0
 30
0.0
  9
$EXTMIN
 10
-202.4753478616
 20
-33.2385906231
 30
0.0
  9
$EXTMAX
 10
202.4972608241
 20
329.199791495
 30
0.0
  9
$LIMMIN
 10
0.0
 20
0.0
  9
$LIMMAX
 10
420.0
 20
297.0
  9
$ORTHOMODE
 70
     0
  9
$REGENMODE
 70
     1
  9
$FILLMODE
 70
     1
  9
$QTEXTMODE
 70
     0
  9
$MIRRTEXT
 70
     1
  9
$LTSCALE
 40
1.0
  9
$ATTMODE
 70
     1
  9
$TEXTSIZE
 40
3.5
  9
$TRACEWID
 40
1.0
  9
$TEXTSTYLE
  7
Standard
  9
$CLAYER
  8
0
  9
$CELTYPE
  6
ByLayer
  9
$CECOLOR
 62
   256
  9
$CELTSCALE
 40
1.0
  9
$DISPSILH
 70
     0
  9
$DIMSCALE
 40
1.0
  9
$DIMASZ
 40
8.0
  9
$DIMEXO
 40
1.0
  9
$DIMDLI
 40
3.75
  9
$DIMRND
 40
0.0
  9
$DIMDLE
 40
0.0
  9
$DIMEXE
 40
1.0
  9
$DIMTP
 40
0.0
  9
$DIMTM
 40
0.0
  9
$DIMTXT
 40
16.9333333333
  9
$DIMCEN
 40
2.5
  9
$DIMTSZ
 40
0.0
  9
$DIMTOL
 70
     0
  9
$DIMLIM
 70
     0
  9
$DIMTIH
 70
     1
  9
$DIMTOH
 70
     1
  9
$DIMSE1
 70
     0
  9
$DIMSE2
 70
     0
  9
$DIMTAD
 70
     1
  9
$DIMZIN
 70
     0
  9
$DIMBLK
  1

  9
$DIMASO
 70
     1
  9
$DIMSHO
 70
     1
  9
$DIMPOST
  1

  9
$DIMAPOST
  1

  9
$DIMALT
 70
     0
  9
$DIMALTD
 70
     3
  9
$DIMALTF
 40
0.0393700787
  9
$DIMLFAC
 40
1.0
  9
$DIMTOFL
 70
     1
  9
$DIMTVP
 40
0.0
  9
$DIMTIX
 70
     0
  9
$DIMSOXD
 70
     0
  9
$DIMSAH
 70
     0
  9
$DIMBLK1
  1

  9
$DIMBLK2
  1

  9
$DIMSTYLE
  2
ISO-25
  9
$DIMCLRD
 70
     0
  9
$DIMCLRE
 70
     0
  9
$DIMCLRT
 70
     0
  9
$DIMTFAC
 40
1.0
  9
$DIMGAP
 40
1.524
  9
$DIMJUST
 70
     0
  9
$DIMSD1
 70
     0
  9
$DIMSD2
 70
     0
  9
$DIMTOLJ
 70
     0
  9
$DIMTZIN
 70
     0
  9
$DIMALTZ
 70
     0
  9
$DIMALTTZ
 70
     0
  9
$DIMUPT
 70
     0
  9
$DIMDEC
 70
     2
  9
$DIMTDEC
 70
     2
  9
$DIMALTU
 70
     2
  9
$DIMALTTD
 70
     3
  9
$DIMTXSTY
  7
Standard
  9
$DIMAUNIT
 70
     0
  9
$DIMADEC
 70
     2
  9
$DIMALTRND
 40
0.0
  9
$DIMAZIN
 70
     0
  9
$DIMDSEP
 70
    44
  9
$DIMATFIT
 70
     3
  9
$DIMFRAC
 70
     0
  9
$DIMLDRBLK
  1

  9
$DIMLUNIT
 70
     2
  9
$DIMLWD
 70
    -2
  9
$DIMLWE
 70
    -2
  9
$DIMTMOVE
 70
     0
  9
$DIMFXL
 40
1.0
  9
$DIMFXLON
 70
     0
  9
$DIMJOGANG
 40
0.7853981634
  9
$DIMTFILL
 70
     0
  9
$DIMTFILLCLR
 70
     0
  9
$DIMARCSYM
 70
     0
  9
$DIMLTYPE
  6

  9
$DIMLTEX1
  6

  9
$DIMLTEX2
  6

  9
$LUNITS
 70
     2
  9
$LUPREC
 70
     2
  9
$SKETCHINC
 40
1.0
  9
$FILLETRAD
 40
10.0
  9
$AUNITS
 70
     0
  9
$AUPREC
 70
     2
  9
$MENU
  1
.
  9
$ELEVATION
 40
0.0
  9
$PELEVATION
 40
0.0
  9
$THICKNESS
 40
0.0
  9
$LIMCHECK
 70
     0
  9
$CHAMFERA
 40
0.0
  9
$CHAMFERB
 40
0.0
  9
$CHAMFERC
 40
0.0
  9
$CHAMFERD
 40
0.0
  9
$SKPOLY
 70
     0
  9
$TDCREATE
 40
2458221.654992893
  9
$TDUCREATE
 40
2458221.57165956
  9
$TDUPDATE
 40
2458221.655020023
  9
$TDUUPDATE
 40
2458221.57168669
  9
$TDINDWG
 40
0.0000000116
  9
$TDUSRTIMER
 40
0.0000000116
  9
$USRTIMER
 70
     1
  9
$ANGBASE
 50
0.0
  9
$ANGDIR
 70
     0
  9
$PDMODE
 70
     0
  9
$PDSIZE
 40
-1.0
  9
$PLINEWID
 40
0.0
  9
$SPLFRAME
 70
     0
  9
$SPLINETYPE
 70
     6
  9
$SPLINESEGS
 70
     8
  9
$HANDSEED
  5
213
  9
$SURFTAB1
 70
     6
  9
$SURFTAB2
 70
     6
  9
$SURFTYPE
 70
     6
  9
$SURFU
 70
     6
  9
$SURFV
 70
     6
  9
$UCSBASE
  2

  9
$UCSNAME
  2

  9
$UCSORG
 10
0.0
 20
0.0
 30
0.0
  9
$UCSXDIR
 10
1.0
 20
0.0
 30
0.0
  9
$UCSYDIR
 10
0.0
 20
1.0
 30
0.0
  9
$UCSORTHOREF
  2

  9
$UCSORTHOVIEW
 70
     0
  9
$UCSORGTOP
 10
0.0
 20
0.0
 30
0.0
  9
$UCSORGBOTTOM
 10
0.0
 20
0.0
 30
0.0
  9
$UCSORGLEFT
 10
0.0
 20
0.0
 30
0.0
  9
$UCSORGRIGHT
 10
0.0
 20
0.0
 30
0.0
  9
$UCSORGFRONT
 10
0.0
 20
0.0
 30
0.0
  9
$UCSORGBACK
 10
0.0
 20
0.0
 30
0.0
  9
$PUCSBASE
  2

  9
$PUCSNAME
  2

  9
$PUCSORG
 10
0.0
 20
0.0
 30
0.0
  9
$PUCSXDIR
 10
1.0
 20
0.0
 30
0.0
  9
$PUCSYDIR
 10
0.0
 20
1.0
 30
0.0
  9
$PUCSORTHOREF
  2

  9
$PUCSORTHOVIEW
 70
     0
  9
$PUCSORGTOP
 10
0.0
 20
0.0
 30
0.0
  9
$PUCSORGBOTTOM
 10
0.0
 20
0.0
 30
0.0
  9
$PUCSORGLEFT
 10
0.0
 20
0.0
 30
0.0
  9
$PUCSORGRIGHT
 10
0.0
 20
0.0
 30
0.0
  9
$PUCSORGFRONT
 10
0.0
 20
0.0
 30
0.0
  9
$PUCSORGBACK
 10
0.0
 20
0.0
 30
0.0
  9
$USERI1
 70
     0
  9
$USERI2
 70
     0
  9
$USERI3
 70
     0
  9
$USERI4
 70
     0
  9
$USERI5
 70
     0
  9
$USERR1
 40
0.0
  9
$USERR2
 40
0.0
  9
$USERR3
 40
0.0
  9
$USERR4
 40
0.0
  9
$USERR5
 40
0.0
  9
$WORLDVIEW
 70
     1
  9
$SHADEDGE
 70
     3
  9
$SHADEDIF
 70
    70
  9
$TILEMODE
 70
     1
  9
$MAXACTVP
 70
    64
  9
$PINSBASE
 10
0.0
 20
0.0
 30
0.0
  9
$PLIMCHECK
 70
     0
  9
$PEXTMIN
 10
-202.5
 20
-202.5
 30
0.0
  9
$PEXTMAX
 10
202.5
 20
202.5
 30
0.0
  9
$PLIMMIN
 10
-244.0384615385
 20
-218.0769230769
  9
$PLIMMAX
 10
372.8076923077
 20
218.0769230769
  9
$UNITMODE
 70
     0
  9
$VISRETAIN
 70
     1
  9
$PLINEGEN
 70
     0
  9
$PSLTSCALE
 70
     1
  9
$TREEDEPTH
 70
  3020
  9
$CMLSTYLE
  2
Standard
  9
$CMLJUST
 70
     0
  9
$CMLSCALE
 40
20.0
  9
$PROXYGRAPHICS
 70
     1
  9
$MEASUREMENT
 70
     1
  9
$CELWEIGHT
370
    -1
  9
$ENDCAPS
280
     0
  9
$JOINSTYLE
280
     0
  9
$LWDISPLAY
290
     1
  9
$INSUNITS
 70
     4
  9
$HYPERLINKBASE
  1

  9
$STYLESHEET
  1

  9
$XEDIT
290
     1
  9
$CEPSNTYPE
380
     0
  9
$PSTYLEMODE
290
     1
  9
$FINGERPRINTGUID
  2
{10484464-F867-4083-86B3-6349E97AF021}
  9
$VERSIONGUID
  2
{FAEB1C32-E019-11D5-929B-00C0DF256EC4}
  9
$EXTNAMES
290
     1
  9
$PSVPSCALE
 40
0.0
  9
$OLESTARTUP
290
     0
  9
$SORTENTS
280
   127
  9
$INDEXCTL
280
     0
  9
$HIDETEXT
280
     1
  9
$XCLIPFRAME
290
     0
  9
$HALOGAP
280
     0
  9
$OBSCOLOR
 70
   257
  9
$OBSLTYPE
280
     0
  9
$INTERSECTIONDISPLAY
280
     0
  9
$INTERSECTIONCOLOR
 70
   257
  9
$DIMASSOC
280
     2
  9
$PROJECTNAME
  1

  9
$CAMERADISPLAY
290
     0
  9
$LENSLENGTH
 40
50.0
  9
$CAMERAHEIGHT
 40
0.0
  9
$STEPSPERSEC
 40
2.0
  9
$STEPSIZE
 40
6.0
  9
$3DDWFPREC
 40
2.0
  9
$PSOLWIDTH
 40
5.0
  9
$PSOLHEIGHT
 40
80.0
  9
$LOFTANG1
 40
1.5707963268
  9
$LOFTANG2
 40
1.5707963268
  9
$LOFTMAG1
 40
0.0
  9
$LOFTMAG2
 40
0.0
  9
$LOFTPARAM
 70
     7
  9
$LOFTNORMALS
280
     1
  9
$LATITUDE
 40
37.795
  9
$LONGITUDE
 40
-122.394
  9
$NORTHDIRECTION
 40
0.0
  9
$TIMEZONE
 70
 -8000
  9
$LIGHTGLYPHDISPLAY
280
     1
  9
$TILEMODELIGHTSYNCH
280
     1
  9
$CMATERIAL
347
44
  9
$SOLIDHIST
280
     0
  9
$SHOWHIST
280
     1
  9
$DWFFRAME
280
     2
  9
$DGNFRAME
280
     2
  9
$REALWORLDSCALE
290
     1
  9
$INTERFERECOLOR
 62
   256
  9
$CSHADOW
280
     0
  9
$SHADOWPLANELOCATION
 40
0.0
  0
ENDSEC
  0
SECTION
  2
CLASSES
  0
CLASS
  1
ACDBDICTIONARYWDFLT
  2
AcDbDictionaryWithDefault
  3
ObjectDBX Classes
 90
        0
 91
        4
280
     0
281
     0
  0
CLASS
  1
VISUALSTYLE
  2
AcDbVisualStyle
  3
ObjectDBX Classes
 90
     4095
 91
        4
280
     0
281
     0
  0
CLASS
  1
MATERIAL
  2
AcDbMaterial
  3
ObjectDBX Classes
 90
     1153
 91
        4
280
     0
281
     0
  0
CLASS
  1
SCALE
  2
AcDbScale
  3
ObjectDBX Classes
 90
     1153
 91
        4
280
     0
281
     0
  0
CLASS
  1
TABLESTYLE
  2
AcDbTableStyle
  3
ObjectDBX Classes
 90
     4095
 91
        4
280
     0
281
     0
  0
CLASS
  1
MLEADERSTYLE
  2
AcDbMLeaderStyle
  3
ACDB_MLEADERSTYLE_CLASS
 90
     4095
 91
        4
280
     0
281
     0
  0
CLASS
  1
SUN
  2
AcDbSun
  3
SCENEOE
 90
     1153
 91
        4
280
     0
281
     0
  0
CLASS
  1
DICTIONARYVAR
  2
AcDbDictionaryVar
  3
ObjectDBX Classes
 90
        0
 91
        4
280
     0
281
     0
  0
CLASS
  1
CELLSTYLEMAP
  2
AcDbCellStyleMap
  3
ObjectDBX Classes
 90
     1152
 91
        4
280
     0
281
     0
  0
ENDSEC
  0
SECTION
  2
TABLES
  0
TABLE
  2
VPORT
  5
8
330
0
100
AcDbSymbolTable
 70
     1
  0
VPORT
  5
29
330
8
100
AcDbSymbolTableRecord
100
AcDbViewportTableRecord
  2
*Active
 70
     0
 10
0.0
 20
0.0
 11
1.0
 21
1.0
 12
0.0109564813
 22
147.980600436
 13
0.0
 23
0.0
 14
10.0
 24
10.0
 15
10.0
 25
10.0
 16
0.0
 26
0.0
 36
1.0
 17
0.0
 27
0.0
 37
0.0
 40
369.6871497605
 41
1.1173557456
 42
50.0
 43
0.0
 44
0.0
 50
0.0
 51
0.0
 71
     0
 72
   100
 73
     1
 74
     3
 75
     0
 76
     0
 77
     0
 78
     0
281
     0
 65
     1
110
0.0
120
0.0
130
0.0
111
1.0
121
0.0
131
0.0
112
0.0
122
1.0
132
0.0
 79
     0
146
0.0
348
2F
 60
     3
 61
     5
292
     1
282
     1
141
0.0
142
0.0
 63
   250
361
6D
  0
ENDTAB
  0
TABLE
  2
LTYPE
  5
5
330
0
100
AcDbSymbolTable
 70
     6
  0
LTYPE
  5
14
330
5
100
AcDbSymbolTableRecord
100
AcDbLinetypeTableRecord
  2
ByBlock
 70
     0
  3

 72
    65
 73
     0
 40
0.0
  0
LTYPE
  5
15
330
5
100
AcDbSymbolTableRecord
100
AcDbLinetypeTableRecord
  2
ByLayer
 70
     0
  3

 72
    65
 73
     0
 40
0.0
  0
LTYPE
  5
16
330
5
100
AcDbSymbolTableRecord
100
AcDbLinetypeTableRecord
  2
Continuous
 70
     0
  3
Solid line
 72
    65
 73
     0
 40
0.0
  0
LTYPE
  5
6E
330
5
100
AcDbSymbolTableRecord
100
AcDbLinetypeTableRecord
  2
HIDDEN
 70
     0
  3
Hidden __ __ __ __ __ __ __ __ __ __ __ __ __ __
 72
    65
 73
     2
 40
1.905
 49
1.27
 74
     0
 49
-0.635
 74
     0
  0
LTYPE
  5
6F
330
5
100
AcDbSymbolTableRecord
100
AcDbLinetypeTableRecord
  2
PHANTOM
 70
     0
  3
Phantom ______  __  __  ______  __  __  ______
 72
    65
 73
     6
 40
12.7
 49
6.35
 74
     0
 49
-1.27
 74
     0
 49
1.27
 74
     0
 49
-1.27
 74
     0
 49
1.27
 74
     0
 49
-1.27
 74
     0
  0
LTYPE
  5
70
330
5
100
AcDbSymbolTableRecord
100
AcDbLinetypeTableRecord
  2
CENTER
 70
     0
  3
Center ____ _ ____ _ ____ _ ____ _ ____ _ ____
 72
    65
 73
     4
 40
10.16
 49
6.35
 74
     0
 49
-1.27
 74
     0
 49
1.27
 74
     0
 49
-1.27
 74
     0
  0
LTYPE
  5
71
330
5
100
AcDbSymbolTableRecord
100
AcDbLinetypeTableRecord
  2
CENTERX2
 70
     0
  3
Center (2x) ________  __  ________  __  _____
 72
    65
 73
     4
 40
20.32
 49
12.7
 74
     0
 49
-2.54
 74
     0
 49
2.54
 74
     0
 49
-2.54
 74
     0
  0
LTYPE
  5
72
330
5
100
AcDbSymbolTableRecord
100
AcDbLinetypeTableRecord
  2
DOT2
 70
     0
  3
Dot (.5x) ........................................
 72
    65
 73
     2
 40
0.635
 49
0.0
 74
     0
 49
-0.635
 74
     0
  0
ENDTAB
  0
TABLE
  2
LAYER
  5
2
330
0
100
AcDbSymbolTable
 70
     1
  0
LAYER
  5
10
330
2
100
AcDbSymbolTableRecord
100
AcDbLayerTableRecord
  2
0
 70
     0
 62
     7
  6
Continuous
370
    -3
390
F
347
46
  0
ENDTAB
  0
TABLE
  2
STYLE
  5
3
330
0
100
AcDbSymbolTable
 70
     1
  0
STYLE
  5
11
330
3
100
AcDbSymbolTableRecord
100
AcDbTextStyleTableRecord
  2
Standard
 70
     0
 40
0.0
 41
1.0
 50
0.0
 71
     0
 42
3.5
  3
txt
  4

  0
ENDTAB
  0
TABLE
  2
VIEW
  5
6
330
0
100
AcDbSymbolTable
 70
     0
  0
ENDTAB
  0
TABLE
  2
UCS
  5
7
330
0
100
AcDbSymbolTable
 70
     0
  0
ENDTAB
  0
TABLE
  2
APPID
  5
9
330
0
100
AcDbSymbolTable
 70
     2
  0
APPID
  5
12
330
9
100
AcDbSymbolTableRecord
100
AcDbRegAppTableRecord
  2
ACAD
 70
     0
  0
APPID
  5
20D
330
9
100
AcDbSymbolTableRecord
100
AcDbRegAppTableRecord
  2
ACAD_MLEADERVER
 70
     0
  0
ENDTAB
  0
TABLE
  2
DIMSTYLE
  5
A
330
0
100
AcDbSymbolTable
 70
     1
100
AcDbDimStyleTable
  0
DIMSTYLE
105
27
330
A
100
AcDbSymbolTableRecord
100
AcDbDimStyleTableRecord
  2
ISO-25
 70
     0
 41
2.5
 42
0.625
 43
3.75
 44
1.25
 73
     0
 74
     0
 77
     1
 78
     8
140
2.5
141
2.5
143
0.0393700787
147
0.625
171
     3
172
     1
178
     0
271
     2
272
     2
274
     3
278
    44
283
     0
284
     8
340
11
  0
ENDTAB
  0
TABLE
  2
BLOCK_RECORD
  5
1
330
0
100
AcDbSymbolTable
 70
    11
  0
BLOCK_RECORD
  5
1F
330
1
100
AcDbSymbolTableRecord
100
AcDbBlockTableRecord
  2
*Model_Space
340
22
 70
     0
280
     1
281
     0
  0
BLOCK_RECORD
  5
1B
330
1
100
AcDbSymbolTableRecord
100
AcDbBlockTableRecord
  2
*Paper_Space
340
1E
 70
     0
280
     1
281
     0
  0
BLOCK_RECORD
  5
23
330
1
100
AcDbSymbolTableRecord
100
AcDbBlockTableRecord
  2
*Paper_Space0
340
26
 70
     0
280
     1
281
     0
  0
BLOCK_RECORD
  5
AA
330
1
100
AcDbSymbolTableRecord
100
AcDbBlockTableRecord
  2
*Paper_Space1
340
AB
 70
     0
280
     1
281
     0
  0
BLOCK_RECORD
  5
D4
330
1
100
AcDbSymbolTableRecord
100
AcDbBlockTableRecord
  2
*Paper_Space2
340
D5
 70
     0
280
     1
281
     0
  0
BLOCK_RECORD
  5
FE
330
1
100
AcDbSymbolTableRecord
100
AcDbBlockTableRecord
  2
*Paper_Space3
340
FF
 70
     0
280
     1
281
     0
  0
BLOCK_RECORD
  5
128
330
1
100
AcDbSymbolTableRecord
100
AcDbBlockTableRecord
  2
*Paper_Space4
340
129
 70
     0
280
     1
281
     0
  0
BLOCK_RECORD
  5
152
330
1
100
AcDbSymbolTableRecord
100
AcDbBlockTableRecord
  2
*Paper_Space5
340
153
 70
     0
280
     1
281
     0
  0
BLOCK_RECORD
  5
183
330
1
100
AcDbSymbolTableRecord
100
AcDbBlockTableRecord
  2
*Paper_Space6
340
184
 70
     0
280
     1
281
     0
  0
BLOCK_RECORD
  5
1AD
330
1
100
AcDbSymbolTableRecord
100
AcDbBlockTableRecord
  2
*Paper_Space7
340
1AE
 70
     0
280
     1
281
     0
  0
BLOCK_RECORD
  5
1B8
330
1
100
AcDbSymbolTableRecord
100
AcDbBlockTableRecord
  2
*Paper_Space8
340
1B9
 70
     0
280
     1
281
     0
  0
BLOCK_RECORD
  5
1C8
330
1
100
AcDbSymbolTableRecord
100
AcDbBlockTableRecord
  2
*Paper_Space9
340
1C9
 70
     0
280
     1
281
     0
  0
BLOCK_RECORD
  5
1D8
330
1
100
AcDbSymbolTableRecord
100
AcDbBlockTableRecord
  2
*Paper_Space10
340
1D9
 70
     0
280
     1
281
     0
  0
ENDTAB
  0
ENDSEC
  0
SECTION
  2
BLOCKS
  0
BLOCK
  5
20
330
1F
100
AcDbEntity
  8
0
100
AcDbBlockBegin
  2
*Model_Space
 70
     0
 10
0.0
 20
0.0
 30
0.0
  3
*Model_Space
  1

  0
ENDBLK
  5
21
330
1F
100
AcDbEntity
  8
0
100
AcDbBlockEnd
  0
BLOCK
  5
1C
330
1B
100
AcDbEntity
 67
     1
  8
0
100
AcDbBlockBegin
  2
*Paper_Space
 70
     0
 10
0.0
 20
0.0
 30
0.0
  3
*Paper_Space
  1

  0
ENDBLK
  5
1D
330
1B
100
AcDbEntity
 67
     1
  8
0
100
AcDbBlockEnd
  0
BLOCK
  5
24
330
23
100
AcDbEntity
  8
0
100
AcDbBlockBegin
  2
*Paper_Space0
 70
     0
 10
0.0
 20
0.0
 30
0.0
  3
*Paper_Space0
  1

  0
LINE
  5
97
330
23
100
AcDbEntity
  8
0
  6
Continuous
 62
     7
370
    25
100
AcDbLine
 10
190.0
 20
149.1182631843
 30
0.0
 11
190.0
 21
170.0
 31
0.0
  0
LINE
  5
98
330
23
100
AcDbEntity
  8
0
  6
Continuous
 62
     7
370
    25
100
AcDbLine
 10
-190.0
 20
170.0
 30
0.0
 11
-190.0
 21
149.1182631843
 31
0.0
  0
LINE
  5
99
330
23
100
AcDbEntity
  8
0
  6
Continuous
 62
     7
370
    25
100
AcDbLine
 10
50.0
 20
0.0
 30
0.0
 11
50.0
 21
2.4352894524
 31
0.0
  0
LINE
  5
9A
330
23
100
AcDbEntity
  8
0
  6
Continuous
 62
     7
370
    25
100
AcDbLine
 10
-50.0
 20
2.4352894524
 30
0.0
 11
-50.0
 21
0.0
 31
0.0
  0
LINE
  5
9B
330
23
100
AcDbEntity
  8
0
  6
Continuous
 62
     7
370
    25
100
AcDbLine
 10
202.5
 20
260.0
 30
0.0
 11
-202.5
 21
260.0
 31
0.0
  0
LINE
  5
9C
330
23
100
AcDbEntity
  8
0
  6
Continuous
 62
     7
370
    25
100
AcDbLine
 10
195.3977947205
 20
170.0
 30
0.0
 11
-195.3977947205
 21
170.0
 31
0.0
  0
LINE
  5
9D
330
23
100
AcDbEntity
  8
0
  6
Continuous
 62
     7
370
    25
100
AcDbLine
 10
190.0
 20
149.1182631843
 30
0.0
 11
-190.0
 21
149.1182631843
 31
0.0
  0
LINE
  5
9E
330
23
100
AcDbEntity
  8
0
  6
Continuous
 62
     7
370
    25
100
AcDbLine
 10
50.0
 20
0.0
 30
0.0
 11
-50.0
 21
0.0
 31
0.0
  0
LINE
  5
9F
330
23
100
AcDbEntity
  8
0
  6
Continuous
 62
     1
370
    25
100
AcDbLine
 10
198.5817961995
 20
190.0
 30
0.0
 11
-198.5817961995
 21
190.0
 31
0.0
  0
LINE
  5
A0
330
23
100
AcDbEntity
  8
0
  6
Continuous
 62
     1
370
    25
100
AcDbLine
 10
53.3323570267
 20
7.1489893701
 30
0.0
 11
-53.3323570267
 21
7.1489893701
 31
0.0
  0
LINE
  5
A1
330
23
100
AcDbEntity
  8
0
  6
Continuous
 62
     1
370
    25
100
AcDbLine
 10
50.0
 20
2.4352894524
 30
0.0
 11
-50.0
 21
2.4352894524
 31
0.0
  0
ARC
  5
A2
330
23
100
AcDbEntity
  8
0
  6
Continuous
 62
     7
370
    25
100
AcDbCircle
 10
424.7456170316
 20
260.0
 30
0.0
 40
627.2456170316415
100
AcDbArc
 50
180.0
 51
186.4075006316
  0
ARC
  5
A3
330
23
100
AcDbEntity
  8
0
  6
Continuous
 62
     7
370
    25
100
AcDbCircle
 10
-424.7456170315
 20
260.0
 30
0.0
 40
627.2456170315442
100
AcDbArc
 50
353.5924993684
 51
0.0
  0
ARC
  5
A4
330
23
100
AcDbEntity
  8
0
  6
Continuous
 62
     7
370
    25
100
AcDbCircle
 10
20.0439337973
 20
214.5517857468
 30
0.0
 40
219.9999999999538
100
AcDbArc
 50
186.4075006316
 51
191.6836653439
  0
ARC
  5
A5
330
23
100
AcDbEntity
  8
0
  6
Continuous
 62
     7
370
    25
100
AcDbCircle
 10
-20.0439337973
 20
214.5517857468
 30
0.0
 40
219.9999999999772
100
AcDbArc
 50
348.3163346561
 51
353.5924993684
  0
ARC
  5
A6
330
23
100
AcDbEntity
  8
0
  6
Continuous
 62
     7
370
    25
100
AcDbCircle
 10
20.0439337973
 20
214.5517857468
 30
0.0
 40
219.9999999999988
100
AcDbArc
 50
197.3030142665
 51
250.5169126366
  0
ARC
  5
A7
330
23
100
AcDbEntity
  8
0
  6
Continuous
 62
     7
370
    25
100
AcDbCircle
 10
-20.0439337973
 20
214.5517857468
 30
0.0
 40
219.999999999999
100
AcDbArc
 50
289.4830873634
 51
342.6969857336
  0
ARC
  5
A8
330
23
100
AcDbEntity
  8
0
  6
Continuous
 62
     7
370
    25
100
AcDbCircle
 10
55.0
 20
2.4352894524
 30
0.0
 40
5.000000000000007
100
AcDbArc
 50
109.4830873634
 51
180.0
  0
ARC
  5
A9
330
23
100
AcDbEntity
  8
0
  6
Continuous
 62
     7
370
    25
100
AcDbCircle
 10
-55.0
 20
2.4352894524
 30
0.0
 40
5.000000000000007
100
AcDbArc
 50
0.0
 51
70.5169126366
  0
VIEWPORT
  5
1F3
330
23
100
AcDbEntity
  8
0
100
AcDbViewport
 10
0.0
 20
0.0
 30
0.0
 40
205.6
 41
156.0
 68
     1
 69
     1
 12
0.0109564813
 22
147.980600436
 13
0.0
 23
0.0
 14
10.0
 24
10.0
 15
10.0
 25
10.0
 16
0.0
 26
0.0
 36
1.0
 17
0.0
 27
0.0
 37
0.0
 42
50.0
 43
0.0
 44
0.0
 45
369.6871497605
 50
0.0
 51
0.0
 72
   100
 90
   557152
  1

281
     0
 71
     1
 74
     0
110
0.0
120
0.0
130
0.0
111
1.0
121
0.0
131
0.0
112
0.0
122
1.0
132
0.0
 79
     0
146
0.0
170
     0
 61
     5
348
2F
292
     1
282
     1
141
0.0
142
0.0
 63
   256
361
1F4
  0
ENDBLK
  5
25
330
23
100
AcDbEntity
  8
0
100
AcDbBlockEnd
  0
BLOCK
  5
AC
330
AA
100
AcDbEntity
  8
0
100
AcDbBlockBegin
  2
*Paper_Space1
 70
     0
 10
0.0
 20
0.0
 30
0.0
  3
*Paper_Space1
  1

  0
LINE
  5
C1
330
AA
100
AcDbEntity
  8
0
  6
Continuous
 62
     7
370
    25
100
AcDbLine
 10
190.0
 20
149.1182631843
 30
0.0
 11
190.0
 21
170.0
 31
0.0
  0
LINE
  5
C2
330
AA
100
AcDbEntity
  8
0
  6
Continuous
 62
     7
370
    25
100
AcDbLine
 10
-190.0
 20
170.0
 30
0.0
 11
-190.0
 21
149.1182631843
 31
0.0
  0
LINE
  5
C3
330
AA
100
AcDbEntity
  8
0
  6
Continuous
 62
     7
370
    25
100
AcDbLine
 10
50.0
 20
0.0
 30
0.0
 11
50.0
 21
2.4352894524
 31
0.0
  0
LINE
  5
C4
330
AA
100
AcDbEntity
  8
0
  6
Continuous
 62
     7
370
    25
100
AcDbLine
 10
-50.0
 20
2.4352894524
 30
0.0
 11
-50.0
 21
0.0
 31
0.0
  0
LINE
  5
C5
330
AA
100
AcDbEntity
  8
0
  6
Continuous
 62
     7
370
    25
100
AcDbLine
 10
202.5
 20
260.0
 30
0.0
 11
-202.5
 21
260.0
 31
0.0
  0
LINE
  5
C6
330
AA
100
AcDbEntity
  8
0
  6
Continuous
 62
     7
370
    25
100
AcDbLine
 10
195.3977947205
 20
170.0
 30
0.0
 11
-195.3977947205
 21
170.0
 31
0.0
  0
LINE
  5
C7
330
AA
100
AcDbEntity
  8
0
  6
Continuous
 62
     7
370
    25
100
AcDbLine
 10
190.0
 20
149.1182631843
 30
0.0
 11
-190.0
 21
149.1182631843
 31
0.0
  0
LINE
  5
C8
330
AA
100
AcDbEntity
  8
0
  6
Continuous
 62
     7
370
    25
100
AcDbLine
 10
50.0
 20
0.0
 30
0.0
 11
-50.0
 21
0.0
 31
0.0
  0
LINE
  5
C9
330
AA
100
AcDbEntity
  8
0
  6
Continuous
 62
     1
370
    25
100
AcDbLine
 10
198.5817961995
 20
190.0
 30
0.0
 11
-198.5817961995
 21
190.0
 31
0.0
  0
LINE
  5
CA
330
AA
100
AcDbEntity
  8
0
  6
Continuous
 62
     1
370
    25
100
AcDbLine
 10
53.3323570267
 20
7.1489893701
 30
0.0
 11
-53.3323570267
 21
7.1489893701
 31
0.0
  0
LINE
  5
CB
330
AA
100
AcDbEntity
  8
0
  6
Continuous
 62
     1
370
    25
100
AcDbLine
 10
50.0
 20
2.4352894524
 30
0.0
 11
-50.0
 21
2.4352894524
 31
0.0
  0
ARC
  5
CC
330
AA
100
AcDbEntity
  8
0
  6
Continuous
 62
     7
370
    25
100
AcDbCircle
 10
424.7456170316
 20
260.0
 30
0.0
 40
627.2456170316415
100
AcDbArc
 50
180.0
 51
186.4075006316
  0
ARC
  5
CD
330
AA
100
AcDbEntity
  8
0
  6
Continuous
 62
     7
370
    25
100
AcDbCircle
 10
-424.7456170315
 20
260.0
 30
0.0
 40
627.2456170315442
100
AcDbArc
 50
353.5924993684
 51
0.0
  0
ARC
  5
CE
330
AA
100
AcDbEntity
  8
0
  6
Continuous
 62
     7
370
    25
100
AcDbCircle
 10
20.0439337973
 20
214.5517857468
 30
0.0
 40
219.9999999999538
100
AcDbArc
 50
186.4075006316
 51
191.6836653439
  0
ARC
  5
CF
330
AA
100
AcDbEntity
  8
0
  6
Continuous
 62
     7
370
    25
100
AcDbCircle
 10
-20.0439337973
 20
214.5517857468
 30
0.0
 40
219.9999999999772
100
AcDbArc
 50
348.3163346561
 51
353.5924993684
  0
ARC
  5
D0
330
AA
100
AcDbEntity
  8
0
  6
Continuous
 62
     7
370
    25
100
AcDbCircle
 10
20.0439337973
 20
214.5517857468
 30
0.0
 40
219.9999999999988
100
AcDbArc
 50
197.3030142665
 51
250.5169126366
  0
ARC
  5
D1
330
AA
100
AcDbEntity
  8
0
  6
Continuous
 62
     7
370
    25
100
AcDbCircle
 10
-20.0439337973
 20
214.5517857468
 30
0.0
 40
219.999999999999
100
AcDbArc
 50
289.4830873634
 51
342.6969857336
  0
ARC
  5
D2
330
AA
100
AcDbEntity
  8
0
  6
Continuous
 62
     7
370
    25
100
AcDbCircle
 10
55.0
 20
2.4352894524
 30
0.0
 40
5.000000000000007
100
AcDbArc
 50
109.4830873634
 51
180.0
  0
ARC
  5
D3
330
AA
100
AcDbEntity
  8
0
  6
Continuous
 62
     7
370
    25
100
AcDbCircle
 10
-55.0
 20
2.4352894524
 30
0.0
 40
5.000000000000007
100
AcDbArc
 50
0.0
 51
70.5169126366
  0
VIEWPORT
  5
1F5
330
AA
100
AcDbEntity
  8
0
100
AcDbViewport
 10
0.0
 20
0.0
 30
0.0
 40
205.6
 41
156.0
 68
     1
 69
     1
 12
0.0109564813
 22
147.980600436
 13
0.0
 23
0.0
 14
10.0
 24
10.0
 15
10.0
 25
10.0
 16
0.0
 26
0.0
 36
1.0
 17
0.0
 27
0.0
 37
0.0
 42
50.0
 43
0.0
 44
0.0
 45
369.6871497605
 50
0.0
 51
0.0
 72
   100
 90
   557152
  1

281
     0
 71
     1
 74
     0
110
0.0
120
0.0
130
0.0
111
1.0
121
0.0
131
0.0
112
0.0
122
1.0
132
0.0
 79
     0
146
0.0
170
     0
 61
     5
348
2F
292
     1
282
     1
141
0.0
142
0.0
 63
   256
361
1F6
  0
ENDBLK
  5
AD
330
AA
100
AcDbEntity
  8
0
100
AcDbBlockEnd
  0
BLOCK
  5
D6
330
D4
100
AcDbEntity
  8
0
100
AcDbBlockBegin
  2
*Paper_Space2
 70
     0
 10
0.0
 20
0.0
 30
0.0
  3
*Paper_Space2
  1

  0
LINE
  5
EB
330
D4
100
AcDbEntity
  8
0
  6
Continuous
 62
     7
370
    25
100
AcDbLine
 10
190.0
 20
149.1182631843
 30
0.0
 11
190.0
 21
170.0
 31
0.0
  0
LINE
  5
EC
330
D4
100
AcDbEntity
  8
0
  6
Continuous
 62
     7
370
    25
100
AcDbLine
 10
-190.0
 20
170.0
 30
0.0
 11
-190.0
 21
149.1182631843
 31
0.0
  0
LINE
  5
ED
330
D4
100
AcDbEntity
  8
0
  6
Continuous
 62
     7
370
    25
100
AcDbLine
 10
50.0
 20
0.0
 30
0.0
 11
50.0
 21
2.4352894524
 31
0.0
  0
LINE
  5
EE
330
D4
100
AcDbEntity
  8
0
  6
Continuous
 62
     7
370
    25
100
AcDbLine
 10
-50.0
 20
2.4352894524
 30
0.0
 11
-50.0
 21
0.0
 31
0.0
  0
LINE
  5
EF
330
D4
100
AcDbEntity
  8
0
  6
Continuous
 62
     7
370
    25
100
AcDbLine
 10
202.5
 20
260.0
 30
0.0
 11
-202.5
 21
260.0
 31
0.0
  0
LINE
  5
F0
330
D4
100
AcDbEntity
  8
0
  6
Continuous
 62
     7
370
    25
100
AcDbLine
 10
195.3977947205
 20
170.0
 30
0.0
 11
-195.3977947205
 21
170.0
 31
0.0
  0
LINE
  5
F1
330
D4
100
AcDbEntity
  8
0
  6
Continuous
 62
     7
370
    25
100
AcDbLine
 10
190.0
 20
149.1182631843
 30
0.0
 11
-190.0
 21
149.1182631843
 31
0.0
  0
LINE
  5
F2
330
D4
100
AcDbEntity
  8
0
  6
Continuous
 62
     7
370
    25
100
AcDbLine
 10
50.0
 20
0.0
 30
0.0
 11
-50.0
 21
0.0
 31
0.0
  0
LINE
  5
F3
330
D4
100
AcDbEntity
  8
0
  6
Continuous
 62
     1
370
    25
100
AcDbLine
 10
198.5817961995
 20
190.0
 30
0.0
 11
-198.5817961995
 21
190.0
 31
0.0
  0
LINE
  5
F4
330
D4
100
AcDbEntity
  8
0
  6
Continuous
 62
     1
370
    25
100
AcDbLine
 10
53.3323570267
 20
7.1489893701
 30
0.0
 11
-53.3323570267
 21
7.1489893701
 31
0.0
  0
LINE
  5
F5
330
D4
100
AcDbEntity
  8
0
  6
Continuous
 62
     1
370
    25
100
AcDbLine
 10
50.0
 20
2.4352894524
 30
0.0
 11
-50.0
 21
2.4352894524
 31
0.0
  0
ARC
  5
F6
330
D4
100
AcDbEntity
  8
0
  6
Continuous
 62
     7
370
    25
100
AcDbCircle
 10
424.7456170316
 20
260.0
 30
0.0
 40
627.2456170316475
100
AcDbArc
 50
180.0
 51
186.4075006316
  0
ARC
  5
F7
330
D4
100
AcDbEntity
  8
0
  6
Continuous
 62
     7
370
    25
100
AcDbCircle
 10
-424.7456170315
 20
260.0
 30
0.0
 40
627.2456170315487
100
AcDbArc
 50
353.5924993684
 51
0.0
  0
ARC
  5
F8
330
D4
100
AcDbEntity
  8
0
  6
Continuous
 62
     7
370
    25
100
AcDbCircle
 10
20.0439337973
 20
214.5517857468
 30
0.0
 40
219.9999999999685
100
AcDbArc
 50
186.4075006316
 51
191.6836653439
  0
ARC
  5
F9
330
D4
100
AcDbEntity
  8
0
  6
Continuous
 62
     7
370
    25
100
AcDbCircle
 10
-20.0439337973
 20
214.5517857468
 30
0.0
 40
219.999999999989
100
AcDbArc
 50
348.3163346561
 51
353.5924993684
  0
ARC
  5
FA
330
D4
100
AcDbEntity
  8
0
  6
Continuous
 62
     7
370
    25
100
AcDbCircle
 10
20.0439337973
 20
214.5517857468
 30
0.0
 40
219.9999999999986
100
AcDbArc
 50
197.3030142665
 51
250.5169126366
  0
ARC
  5
FB
330
D4
100
AcDbEntity
  8
0
  6
Continuous
 62
     7
370
    25
100
AcDbCircle
 10
-20.0439337973
 20
214.5517857468
 30
0.0
 40
219.9999999999988
100
AcDbArc
 50
289.4830873634
 51
342.6969857336
  0
ARC
  5
FC
330
D4
100
AcDbEntity
  8
0
  6
Continuous
 62
     7
370
    25
100
AcDbCircle
 10
55.0
 20
2.4352894524
 30
0.0
 40
4.999999999999979
100
AcDbArc
 50
109.4830873634
 51
180.0
  0
ARC
  5
FD
330
D4
100
AcDbEntity
  8
0
  6
Continuous
 62
     7
370
    25
100
AcDbCircle
 10
-55.0
 20
2.4352894524
 30
0.0
 40
5.000000000000001
100
AcDbArc
 50
0.0
 51
70.5169126366
  0
VIEWPORT
  5
1F7
330
D4
100
AcDbEntity
  8
0
100
AcDbViewport
 10
0.0
 20
0.0
 30
0.0
 40
205.6
 41
156.0
 68
     1
 69
     1
 12
0.0109564813
 22
147.980600436
 13
0.0
 23
0.0
 14
10.0
 24
10.0
 15
10.0
 25
10.0
 16
0.0
 26
0.0
 36
1.0
 17
0.0
 27
0.0
 37
0.0
 42
50.0
 43
0.0
 44
0.0
 45
369.6871497605
 50
0.0
 51
0.0
 72
   100
 90
   557152
  1

281
     0
 71
     1
 74
     0
110
0.0
120
0.0
130
0.0
111
1.0
121
0.0
131
0.0
112
0.0
122
1.0
132
0.0
 79
     0
146
0.0
170
     0
 61
     5
348
2F
292
     1
282
     1
141
0.0
142
0.0
 63
   256
361
1F8
  0
ENDBLK
  5
D7
330
D4
100
AcDbEntity
  8
0
100
AcDbBlockEnd
  0
BLOCK
  5
100
330
FE
100
AcDbEntity
  8
0
100
AcDbBlockBegin
  2
*Paper_Space3
 70
     0
 10
0.0
 20
0.0
 30
0.0
  3
*Paper_Space3
  1

  0
LINE
  5
115
330
FE
100
AcDbEntity
  8
0
  6
Continuous
 62
     7
370
    25
100
AcDbLine
 10
190.0
 20
149.1182631843
 30
0.0
 11
190.0
 21
170.0
 31
0.0
  0
LINE
  5
116
330
FE
100
AcDbEntity
  8
0
  6
Continuous
 62
     7
370
    25
100
AcDbLine
 10
-190.0
 20
170.0
 30
0.0
 11
-190.0
 21
149.1182631843
 31
0.0
  0
LINE
  5
117
330
FE
100
AcDbEntity
  8
0
  6
Continuous
 62
     7
370
    25
100
AcDbLine
 10
50.0
 20
0.0
 30
0.0
 11
50.0
 21
2.4352894524
 31
0.0
  0
LINE
  5
118
330
FE
100
AcDbEntity
  8
0
  6
Continuous
 62
     7
370
    25
100
AcDbLine
 10
-50.0
 20
2.4352894524
 30
0.0
 11
-50.0
 21
0.0
 31
0.0
  0
LINE
  5
119
330
FE
100
AcDbEntity
  8
0
  6
Continuous
 62
     7
370
    25
100
AcDbLine
 10
202.5
 20
260.0
 30
0.0
 11
-202.5
 21
260.0
 31
0.0
  0
LINE
  5
11A
330
FE
100
AcDbEntity
  8
0
  6
Continuous
 62
     7
370
    25
100
AcDbLine
 10
195.3977947205
 20
170.0
 30
0.0
 11
-195.3977947205
 21
170.0
 31
0.0
  0
LINE
  5
11B
330
FE
100
AcDbEntity
  8
0
  6
Continuous
 62
     7
370
    25
100
AcDbLine
 10
190.0
 20
149.1182631843
 30
0.0
 11
-190.0
 21
149.1182631843
 31
0.0
  0
LINE
  5
11C
330
FE
100
AcDbEntity
  8
0
  6
Continuous
 62
     7
370
    25
100
AcDbLine
 10
50.0
 20
0.0
 30
0.0
 11
-50.0
 21
0.0
 31
0.0
  0
LINE
  5
11D
330
FE
100
AcDbEntity
  8
0
  6
Continuous
 62
     1
370
    25
100
AcDbLine
 10
198.5817961995
 20
190.0
 30
0.0
 11
-198.5817961995
 21
190.0
 31
0.0
  0
LINE
  5
11E
330
FE
100
AcDbEntity
  8
0
  6
Continuous
 62
     1
370
    25
100
AcDbLine
 10
53.3323570267
 20
7.1489893701
 30
0.0
 11
-53.3323570267
 21
7.1489893701
 31
0.0
  0
LINE
  5
11F
330
FE
100
AcDbEntity
  8
0
  6
Continuous
 62
     1
370
    25
100
AcDbLine
 10
50.0
 20
2.4352894524
 30
0.0
 11
-50.0
 21
2.4352894524
 31
0.0
  0
ARC
  5
120
330
FE
100
AcDbEntity
  8
0
  6
Continuous
 62
     7
370
    25
100
AcDbCircle
 10
424.7456170317
 20
260.0
 30
0.0
 40
627.2456170316738
100
AcDbArc
 50
180.0
 51
186.4075006316
  0
ARC
  5
121
330
FE
100
AcDbEntity
  8
0
  6
Continuous
 62
     7
370
    25
100
AcDbCircle
 10
-424.7456170315
 20
260.0
 30
0.0
 40
627.2456170315237
100
AcDbArc
 50
353.5924993684
 51
0.0
  0
ARC
  5
122
330
FE
100
AcDbEntity
  8
0
  6
Continuous
 62
     7
370
    25
100
AcDbCircle
 10
20.0439337973
 20
214.5517857468
 30
0.0
 40
219.9999999999718
100
AcDbArc
 50
186.4075006316
 51
191.6836653439
  0
ARC
  5
123
330
FE
100
AcDbEntity
  8
0
  6
Continuous
 62
     7
370
    25
100
AcDbCircle
 10
-20.0439337973
 20
214.5517857468
 30
0.0
 40
219.9999999999697
100
AcDbArc
 50
348.3163346561
 51
353.5924993684
  0
ARC
  5
124
330
FE
100
AcDbEntity
  8
0
  6
Continuous
 62
     7
370
    25
100
AcDbCircle
 10
20.0439337973
 20
214.5517857468
 30
0.0
 40
219.9999999999989
100
AcDbArc
 50
197.3030142665
 51
250.5169126366
  0
ARC
  5
125
330
FE
100
AcDbEntity
  8
0
  6
Continuous
 62
     7
370
    25
100
AcDbCircle
 10
-20.0439337973
 20
214.5517857468
 30
0.0
 40
219.999999999999
100
AcDbArc
 50
289.4830873634
 51
342.6969857336
  0
ARC
  5
126
330
FE
100
AcDbEntity
  8
0
  6
Continuous
 62
     7
370
    25
100
AcDbCircle
 10
55.0
 20
2.4352894524
 30
0.0
 40
5.00000000000003
100
AcDbArc
 50
109.4830873634
 51
180.0
  0
ARC
  5
127
330
FE
100
AcDbEntity
  8
0
  6
Continuous
 62
     7
370
    25
100
AcDbCircle
 10
-55.0
 20
2.4352894524
 30
0.0
 40
4.999999999999986
100
AcDbArc
 50
0.0
 51
70.5169126366
  0
VIEWPORT
  5
1F9
330
FE
100
AcDbEntity
  8
0
100
AcDbViewport
 10
0.0
 20
0.0
 30
0.0
 40
205.6
 41
156.0
 68
     1
 69
     1
 12
0.0109564813
 22
147.980600436
 13
0.0
 23
0.0
 14
10.0
 24
10.0
 15
10.0
 25
10.0
 16
0.0
 26
0.0
 36
1.0
 17
0.0
 27
0.0
 37
0.0
 42
50.0
 43
0.0
 44
0.0
 45
369.6871497605
 50
0.0
 51
0.0
 72
   100
 90
   557152
  1

281
     0
 71
     1
 74
     0
110
0.0
120
0.0
130
0.0
111
1.0
121
0.0
131
0.0
112
0.0
122
1.0
132
0.0
 79
     0
146
0.0
170
     0
 61
     5
348
2F
292
     1
282
     1
141
0.0
142
0.0
 63
   256
361
1FA
  0
ENDBLK
  5
101
330
FE
100
AcDbEntity
  8
0
100
AcDbBlockEnd
  0
BLOCK
  5
12A
330
128
100
AcDbEntity
  8
0
100
AcDbBlockBegin
  2
*Paper_Space4
 70
     0
 10
0.0
 20
0.0
 30
0.0
  3
*Paper_Space4
  1

  0
LINE
  5
13F
330
128
100
AcDbEntity
  8
0
  6
Continuous
 62
     7
370
    25
100
AcDbLine
 10
190.0
 20
149.1182631843
 30
0.0
 11
190.0
 21
170.0
 31
0.0
  0
LINE
  5
140
330
128
100
AcDbEntity
  8
0
  6
Continuous
 62
     7
370
    25
100
AcDbLine
 10
-190.0
 20
170.0
 30
0.0
 11
-190.0
 21
149.1182631843
 31
0.0
  0
LINE
  5
141
330
128
100
AcDbEntity
  8
0
  6
Continuous
 62
     7
370
    25
100
AcDbLine
 10
50.0
 20
0.0
 30
0.0
 11
50.0
 21
2.4352894524
 31
0.0
  0
LINE
  5
142
330
128
100
AcDbEntity
  8
0
  6
Continuous
 62
     7
370
    25
100
AcDbLine
 10
-50.0
 20
2.4352894524
 30
0.0
 11
-50.0
 21
0.0
 31
0.0
  0
LINE
  5
143
330
128
100
AcDbEntity
  8
0
  6
Continuous
 62
     7
370
    25
100
AcDbLine
 10
202.5
 20
260.0
 30
0.0
 11
-202.5
 21
260.0
 31
0.0
  0
LINE
  5
144
330
128
100
AcDbEntity
  8
0
  6
Continuous
 62
     7
370
    25
100
AcDbLine
 10
195.3977947205
 20
170.0
 30
0.0
 11
-195.3977947205
 21
170.0
 31
0.0
  0
LINE
  5
145
330
128
100
AcDbEntity
  8
0
  6
Continuous
 62
     7
370
    25
100
AcDbLine
 10
190.0
 20
149.1182631843
 30
0.0
 11
-190.0
 21
149.1182631843
 31
0.0
  0
LINE
  5
146
330
128
100
AcDbEntity
  8
0
  6
Continuous
 62
     7
370
    25
100
AcDbLine
 10
50.0
 20
0.0
 30
0.0
 11
-50.0
 21
0.0
 31
0.0
  0
LINE
  5
147
330
128
100
AcDbEntity
  8
0
  6
Continuous
 62
     1
370
    25
100
AcDbLine
 10
198.5817961995
 20
190.0
 30
0.0
 11
-198.5817961995
 21
190.0
 31
0.0
  0
LINE
  5
148
330
128
100
AcDbEntity
  8
0
  6
Continuous
 62
     1
370
    25
100
AcDbLine
 10
53.3323570267
 20
7.1489893701
 30
0.0
 11
-53.3323570267
 21
7.1489893701
 31
0.0
  0
LINE
  5
149
330
128
100
AcDbEntity
  8
0
  6
Continuous
 62
     1
370
    25
100
AcDbLine
 10
50.0
 20
2.4352894524
 30
0.0
 11
-50.0
 21
2.4352894524
 31
0.0
  0
ARC
  5
14A
330
128
100
AcDbEntity
  8
0
  6
Continuous
 62
     7
370
    25
100
AcDbCircle
 10
424.7456170316
 20
260.0
 30
0.0
 40
627.2456170316415
100
AcDbArc
 50
180.0
 51
186.4075006316
  0
ARC
  5
14B
330
128
100
AcDbEntity
  8
0
  6
Continuous
 62
     7
370
    25
100
AcDbCircle
 10
-424.7456170315
 20
260.0
 30
0.0
 40
627.2456170315442
100
AcDbArc
 50
353.5924993684
 51
0.0
  0
ARC
  5
14C
330
128
100
AcDbEntity
  8
0
  6
Continuous
 62
     7
370
    25
100
AcDbCircle
 10
20.0439337973
 20
214.5517857468
 30
0.0
 40
219.9999999999538
100
AcDbArc
 50
186.4075006316
 51
191.6836653439
  0
ARC
  5
14D
330
128
100
AcDbEntity
  8
0
  6
Continuous
 62
     7
370
    25
100
AcDbCircle
 10
-20.0439337973
 20
214.5517857468
 30
0.0
 40
219.9999999999772
100
AcDbArc
 50
348.3163346561
 51
353.5924993684
  0
ARC
  5
14E
330
128
100
AcDbEntity
  8
0
  6
Continuous
 62
     7
370
    25
100
AcDbCircle
 10
20.0439337973
 20
214.5517857468
 30
0.0
 40
219.9999999999988
100
AcDbArc
 50
197.3030142665
 51
250.5169126366
  0
ARC
  5
14F
330
128
100
AcDbEntity
  8
0
  6
Continuous
 62
     7
370
    25
100
AcDbCircle
 10
-20.0439337973
 20
214.5517857468
 30
0.0
 40
219.999999999999
100
AcDbArc
 50
289.4830873634
 51
342.6969857336
  0
ARC
  5
150
330
128
100
AcDbEntity
  8
0
  6
Continuous
 62
     7
370
    25
100
AcDbCircle
 10
55.0
 20
2.4352894524
 30
0.0
 40
5.000000000000007
100
AcDbArc
 50
109.4830873634
 51
180.0
  0
ARC
  5
151
330
128
100
AcDbEntity
  8
0
  6
Continuous
 62
     7
370
    25
100
AcDbCircle
 10
-55.0
 20
2.4352894524
 30
0.0
 40
5.000000000000007
100
AcDbArc
 50
0.0
 51
70.5169126366
  0
VIEWPORT
  5
1FB
330
128
100
AcDbEntity
  8
0
100
AcDbViewport
 10
0.0
 20
0.0
 30
0.0
 40
205.6
 41
156.0
 68
     1
 69
     1
 12
0.0109564813
 22
147.980600436
 13
0.0
 23
0.0
 14
10.0
 24
10.0
 15
10.0
 25
10.0
 16
0.0
 26
0.0
 36
1.0
 17
0.0
 27
0.0
 37
0.0
 42
50.0
 43
0.0
 44
0.0
 45
369.6871497605
 50
0.0
 51
0.0
 72
   100
 90
   557152
  1

281
     0
 71
     1
 74
     0
110
0.0
120
0.0
130
0.0
111
1.0
121
0.0
131
0.0
112
0.0
122
1.0
132
0.0
 79
     0
146
0.0
170
     0
 61
     5
348
2F
292
     1
282
     1
141
0.0
142
0.0
 63
   256
361
1FC
  0
ENDBLK
  5
12B
330
128
100
AcDbEntity
  8
0
100
AcDbBlockEnd
  0
BLOCK
  5
154
330
152
100
AcDbEntity
  8
0
100
AcDbBlockBegin
  2
*Paper_Space5
 70
     0
 10
0.0
 20
0.0
 30
0.0
  3
*Paper_Space5
  1

  0
LINE
  5
170
330
152
100
AcDbEntity
  8
0
  6
Continuous
 62
     7
370
    25
100
AcDbLine
 10
190.0
 20
149.1182631843
 30
0.0
 11
190.0
 21
170.0
 31
0.0
  0
LINE
  5
171
330
152
100
AcDbEntity
  8
0
  6
Continuous
 62
     7
370
    25
100
AcDbLine
 10
-190.0
 20
170.0
 30
0.0
 11
-190.0
 21
149.1182631843
 31
0.0
  0
LINE
  5
172
330
152
100
AcDbEntity
  8
0
  6
Continuous
 62
     7
370
    25
100
AcDbLine
 10
50.0
 20
0.0
 30
0.0
 11
50.0
 21
2.4352894524
 31
0.0
  0
LINE
  5
173
330
152
100
AcDbEntity
  8
0
  6
Continuous
 62
     7
370
    25
100
AcDbLine
 10
-50.0
 20
2.4352894524
 30
0.0
 11
-50.0
 21
0.0
 31
0.0
  0
LINE
  5
174
330
152
100
AcDbEntity
  8
0
  6
Continuous
 62
     7
370
    25
100
AcDbLine
 10
202.5
 20
260.0
 30
0.0
 11
-202.5
 21
260.0
 31
0.0
  0
LINE
  5
175
330
152
100
AcDbEntity
  8
0
  6
Continuous
 62
     7
370
    25
100
AcDbLine
 10
195.3977947205
 20
170.0
 30
0.0
 11
-195.3977947205
 21
170.0
 31
0.0
  0
LINE
  5
176
330
152
100
AcDbEntity
  8
0
  6
Continuous
 62
     7
370
    25
100
AcDbLine
 10
190.0
 20
149.1182631843
 30
0.0
 11
-190.0
 21
149.1182631843
 31
0.0
  0
LINE
  5
177
330
152
100
AcDbEntity
  8
0
  6
Continuous
 62
     7
370
    25
100
AcDbLine
 10
50.0
 20
0.0
 30
0.0
 11
-50.0
 21
0.0
 31
0.0
  0
LINE
  5
178
330
152
100
AcDbEntity
  8
0
  6
Continuous
 62
     1
370
    25
100
AcDbLine
 10
198.5817961995
 20
190.0
 30
0.0
 11
-198.5817961995
 21
190.0
 31
0.0
  0
LINE
  5
179
330
152
100
AcDbEntity
  8
0
  6
Continuous
 62
     1
370
    25
100
AcDbLine
 10
53.3323570267
 20
7.1489893701
 30
0.0
 11
-53.3323570267
 21
7.1489893701
 31
0.0
  0
LINE
  5
17A
330
152
100
AcDbEntity
  8
0
  6
Continuous
 62
     1
370
    25
100
AcDbLine
 10
50.0
 20
2.4352894524
 30
0.0
 11
-50.0
 21
2.4352894524
 31
0.0
  0
ARC
  5
17B
330
152
100
AcDbEntity
  8
0
  6
Continuous
 62
     7
370
    25
100
AcDbCircle
 10
424.7456170316
 20
260.0
 30
0.0
 40
627.2456170316415
100
AcDbArc
 50
180.0
 51
186.4075006316
  0
ARC
  5
17C
330
152
100
AcDbEntity
  8
0
  6
Continuous
 62
     7
370
    25
100
AcDbCircle
 10
-424.7456170315
 20
260.0
 30
0.0
 40
627.2456170315442
100
AcDbArc
 50
353.5924993684
 51
0.0
  0
ARC
  5
17D
330
152
100
AcDbEntity
  8
0
  6
Continuous
 62
     7
370
    25
100
AcDbCircle
 10
20.0439337973
 20
214.5517857468
 30
0.0
 40
219.9999999999538
100
AcDbArc
 50
186.4075006316
 51
191.6836653439
  0
ARC
  5
17E
330
152
100
AcDbEntity
  8
0
  6
Continuous
 62
     7
370
    25
100
AcDbCircle
 10
-20.0439337973
 20
214.5517857468
 30
0.0
 40
219.9999999999772
100
AcDbArc
 50
348.3163346561
 51
353.5924993684
  0
ARC
  5
17F
330
152
100
AcDbEntity
  8
0
  6
Continuous
 62
     7
370
    25
100
AcDbCircle
 10
20.0439337973
 20
214.5517857468
 30
0.0
 40
219.9999999999988
100
AcDbArc
 50
197.3030142665
 51
250.5169126366
  0
ARC
  5
180
330
152
100
AcDbEntity
  8
0
  6
Continuous
 62
     7
370
    25
100
AcDbCircle
 10
-20.0439337973
 20
214.5517857468
 30
0.0
 40
219.999999999999
100
AcDbArc
 50
289.4830873634
 51
342.6969857336
  0
ARC
  5
181
330
152
100
AcDbEntity
  8
0
  6
Continuous
 62
     7
370
    25
100
AcDbCircle
 10
55.0
 20
2.4352894524
 30
0.0
 40
5.000000000000007
100
AcDbArc
 50
109.4830873634
 51
180.0
  0
ARC
  5
182
330
152
100
AcDbEntity
  8
0
  6
Continuous
 62
     7
370
    25
100
AcDbCircle
 10
-55.0
 20
2.4352894524
 30
0.0
 40
5.000000000000007
100
AcDbArc
 50
0.0
 51
70.5169126366
  0
VIEWPORT
  5
1FD
330
152
100
AcDbEntity
  8
0
100
AcDbViewport
 10
0.0
 20
0.0
 30
0.0
 40
205.6
 41
156.0
 68
     1
 69
     1
 12
0.0109564813
 22
147.980600436
 13
0.0
 23
0.0
 14
10.0
 24
10.0
 15
10.0
 25
10.0
 16
0.0
 26
0.0
 36
1.0
 17
0.0
 27
0.0
 37
0.0
 42
50.0
 43
0.0
 44
0.0
 45
369.6871497605
 50
0.0
 51
0.0
 72
   100
 90
   557152
  1

281
     0
 71
     1
 74
     0
110
0.0
120
0.0
130
0.0
111
1.0
121
0.0
131
0.0
112
0.0
122
1.0
132
0.0
 79
     0
146
0.0
170
     0
 61
     5
348
2F
292
     1
282
     1
141
0.0
142
0.0
 63
   256
361
1FE
  0
ENDBLK
  5
155
330
152
100
AcDbEntity
  8
0
100
AcDbBlockEnd
  0
BLOCK
  5
185
330
183
100
AcDbEntity
  8
0
100
AcDbBlockBegin
  2
*Paper_Space6
 70
     0
 10
0.0
 20
0.0
 30
0.0
  3
*Paper_Space6
  1

  0
LINE
  5
19A
330
183
100
AcDbEntity
  8
0
  6
Continuous
 62
     7
370
    25
100
AcDbLine
 10
190.0
 20
149.1182631843
 30
0.0
 11
190.0
 21
170.0
 31
0.0
  0
LINE
  5
19B
330
183
100
AcDbEntity
  8
0
  6
Continuous
 62
     7
370
    25
100
AcDbLine
 10
-190.0
 20
170.0
 30
0.0
 11
-190.0
 21
149.1182631843
 31
0.0
  0
LINE
  5
19C
330
183
100
AcDbEntity
  8
0
  6
Continuous
 62
     7
370
    25
100
AcDbLine
 10
50.0
 20
0.0
 30
0.0
 11
50.0
 21
2.4352894524
 31
0.0
  0
LINE
  5
19D
330
183
100
AcDbEntity
  8
0
  6
Continuous
 62
     7
370
    25
100
AcDbLine
 10
-50.0
 20
2.4352894524
 30
0.0
 11
-50.0
 21
0.0
 31
0.0
  0
LINE
  5
19E
330
183
100
AcDbEntity
  8
0
  6
Continuous
 62
     7
370
    25
100
AcDbLine
 10
202.5
 20
260.0
 30
0.0
 11
-202.5
 21
260.0
 31
0.0
  0
LINE
  5
19F
330
183
100
AcDbEntity
  8
0
  6
Continuous
 62
     7
370
    25
100
AcDbLine
 10
195.3977947205
 20
170.0
 30
0.0
 11
-195.3977947205
 21
170.0
 31
0.0
  0
LINE
  5
1A0
330
183
100
AcDbEntity
  8
0
  6
Continuous
 62
     7
370
    25
100
AcDbLine
 10
190.0
 20
149.1182631843
 30
0.0
 11
-190.0
 21
149.1182631843
 31
0.0
  0
LINE
  5
1A1
330
183
100
AcDbEntity
  8
0
  6
Continuous
 62
     7
370
    25
100
AcDbLine
 10
50.0
 20
0.0
 30
0.0
 11
-50.0
 21
0.0
 31
0.0
  0
LINE
  5
1A2
330
183
100
AcDbEntity
  8
0
  6
Continuous
 62
     1
370
    25
100
AcDbLine
 10
198.5817961995
 20
190.0
 30
0.0
 11
-198.5817961995
 21
190.0
 31
0.0
  0
LINE
  5
1A3
330
183
100
AcDbEntity
  8
0
  6
Continuous
 62
     1
370
    25
100
AcDbLine
 10
53.3323570267
 20
7.1489893701
 30
0.0
 11
-53.3323570267
 21
7.1489893701
 31
0.0
  0
LINE
  5
1A4
330
183
100
AcDbEntity
  8
0
  6
Continuous
 62
     1
370
    25
100
AcDbLine
 10
50.0
 20
2.4352894524
 30
0.0
 11
-50.0
 21
2.4352894524
 31
0.0
  0
ARC
  5
1A5
330
183
100
AcDbEntity
  8
0
  6
Continuous
 62
     7
370
    25
100
AcDbCircle
 10
424.7456170316
 20
260.0
 30
0.0
 40
627.2456170316415
100
AcDbArc
 50
180.0
 51
186.4075006316
  0
ARC
  5
1A6
330
183
100
AcDbEntity
  8
0
  6
Continuous
 62
     7
370
    25
100
AcDbCircle
 10
-424.7456170315
 20
260.0
 30
0.0
 40
627.2456170315442
100
AcDbArc
 50
353.5924993684
 51
0.0
  0
ARC
  5
1A7
330
183
100
AcDbEntity
  8
0
  6
Continuous
 62
     7
370
    25
100
AcDbCircle
 10
20.0439337973
 20
214.5517857468
 30
0.0
 40
219.9999999999538
100
AcDbArc
 50
186.4075006316
 51
191.6836653439
  0
ARC
  5
1A8
330
183
100
AcDbEntity
  8
0
  6
Continuous
 62
     7
370
    25
100
AcDbCircle
 10
-20.0439337973
 20
214.5517857468
 30
0.0
 40
219.9999999999772
100
AcDbArc
 50
348.3163346561
 51
353.5924993684
  0
ARC
  5
1A9
330
183
100
AcDbEntity
  8
0
  6
Continuous
 62
     7
370
    25
100
AcDbCircle
 10
20.0439337973
 20
214.5517857468
 30
0.0
 40
219.9999999999988
100
AcDbArc
 50
197.3030142665
 51
250.5169126366
  0
ARC
  5
1AA
330
183
100
AcDbEntity
  8
0
  6
Continuous
 62
     7
370
    25
100
AcDbCircle
 10
-20.0439337973
 20
214.5517857468
 30
0.0
 40
219.999999999999
100
AcDbArc
 50
289.4830873634
 51
342.6969857336
  0
ARC
  5
1AB
330
183
100
AcDbEntity
  8
0
  6
Continuous
 62
     7
370
    25
100
AcDbCircle
 10
55.0
 20
2.4352894524
 30
0.0
 40
5.000000000000007
100
AcDbArc
 50
109.4830873634
 51
180.0
  0
ARC
  5
1AC
330
183
100
AcDbEntity
  8
0
  6
Continuous
 62
     7
370
    25
100
AcDbCircle
 10
-55.0
 20
2.4352894524
 30
0.0
 40
5.000000000000007
100
AcDbArc
 50
0.0
 51
70.5169126366
  0
VIEWPORT
  5
1FF
330
183
100
AcDbEntity
  8
0
100
AcDbViewport
 10
0.0
 20
0.0
 30
0.0
 40
205.6
 41
156.0
 68
     1
 69
     1
 12
0.0109564813
 22
147.980600436
 13
0.0
 23
0.0
 14
10.0
 24
10.0
 15
10.0
 25
10.0
 16
0.0
 26
0.0
 36
1.0
 17
0.0
 27
0.0
 37
0.0
 42
50.0
 43
0.0
 44
0.0
 45
369.6871497605
 50
0.0
 51
0.0
 72
   100
 90
   557152
  1

281
     0
 71
     1
 74
     0
110
0.0
120
0.0
130
0.0
111
1.0
121
0.0
131
0.0
112
0.0
122
1.0
132
0.0
 79
     0
146
0.0
170
     0
 61
     5
348
2F
292
     1
282
     1
141
0.0
142
0.0
 63
   256
361
200
  0
ENDBLK
  5
186
330
183
100
AcDbEntity
  8
0
100
AcDbBlockEnd
  0
BLOCK
  5
1AF
330
1AD
100
AcDbEntity
  8
0
100
AcDbBlockBegin
  2
*Paper_Space7
 70
     0
 10
0.0
 20
0.0
 30
0.0
  3
*Paper_Space7
  1

  0
CIRCLE
  5
1B1
330
1AD
100
AcDbEntity
  8
0
  6
Continuous
 62
     7
370
    25
100
AcDbCircle
 10
0.0
 20
0.0
 30
0.0
 40
22.99999999999999
  0
CIRCLE
  5
1B2
330
1AD
100
AcDbEntity
  8
0
  6
Continuous
 62
     7
370
    25
100
AcDbCircle
 10
0.0
 20
0.0
 30
0.0
 40
49.99999999999991
  0
CIRCLE
  5
1B3
330
1AD
100
AcDbEntity
  8
0
  6
Continuous
 62
     7
370
    25
100
AcDbCircle
 10
0.0
 20
0.0
 30
0.0
 40
53.33235702672586
  0
CIRCLE
  5
1B4
330
1AD
100
AcDbEntity
  8
0
  6
Continuous
 62
     7
370
    25
100
AcDbCircle
 10
0.0
 20
0.0
 30
0.0
 40
190.0000000000001
  0
CIRCLE
  5
1B5
330
1AD
100
AcDbEntity
  8
0
  6
Continuous
 62
     7
370
    25
100
AcDbCircle
 10
0.0
 20
0.0
 30
0.0
 40
198.5817961994826
  0
CIRCLE
  5
1B6
330
1AD
100
AcDbEntity
  8
0
  6
Continuous
 62
     7
370
    25
100
AcDbCircle
 10
0.0
 20
0.0
 30
0.0
 40
195.3977947205354
  0
CIRCLE
  5
1B7
330
1AD
100
AcDbEntity
  8
0
  6
Continuous
 62
     7
370
    25
100
AcDbCircle
 10
0.0
 20
0.0
 30
0.0
 40
202.5000000000004
  0
VIEWPORT
  5
201
330
1AD
100
AcDbEntity
  8
0
100
AcDbViewport
 10
0.0
 20
0.0
 30
0.0
 40
205.6
 41
156.0
 68
     1
 69
     1
 12
0.0109564813
 22
147.980600436
 13
0.0
 23
0.0
 14
10.0
 24
10.0
 15
10.0
 25
10.0
 16
0.0
 26
0.0
 36
1.0
 17
0.0
 27
0.0
 37
0.0
 42
50.0
 43
0.0
 44
0.0
 45
369.6871497605
 50
0.0
 51
0.0
 72
   100
 90
   557152
  1

281
     0
 71
     1
 74
     0
110
0.0
120
0.0
130
0.0
111
1.0
121
0.0
131
0.0
112
0.0
122
1.0
132
0.0
 79
     0
146
0.0
170
     0
 61
     5
348
2F
292
     1
282
     1
141
0.0
142
0.0
 63
   256
361
202
  0
ENDBLK
  5
1B0
330
1AD
100
AcDbEntity
  8
0
100
AcDbBlockEnd
  0
BLOCK
  5
1BA
330
1B8
100
AcDbEntity
  8
0
100
AcDbBlockBegin
  2
*Paper_Space8
 70
     0
 10
0.0
 20
0.0
 30
0.0
  3
*Paper_Space8
  1

  0
SPLINE
  5
1BC
330
1B8
100
AcDbEntity
  8
0
  6
Continuous
 62
     7
370
    25
100
AcDbSpline
210
0.0
220
0.0
230
1.0
 70
     8
 71
     3
 72
    13
 73
     9
 74
     0
 42
0.000000001
 43
0.00000001
 40
0.0
 40
0.0
 40
0.0
 40
0.0
 40
0.1285287490495046
 40
0.3152442043987833
 40
0.5019003306906726
 40
0.6884656700714199
 40
0.8749098809445254
 40
1.0
 40
1.0
 40
1.0
 40
1.0
 10
197.9193244772419
 20
146.032743366604
 30
0.0
 10
198.3071624891525
 20
148.85032239737
 30
0.0
 10
199.2584180362927
 20
155.7610366652138
 30
0.0
 10
200.4101869075486
 20
166.8199024633818
 30
0.0
 10
201.4266712820038
 20
179.1868170528008
 30
0.0
 10
202.1023462115377
 20
191.5763987372313
 30
0.0
 10
202.4653662121677
 20
202.6173155465431
 30
0.0
 10
202.4651880831486
 20
209.5261607636872
 30
0.0
 10
202.4651165591524
 20
212.3002636079758
 30
0.0
  0
SPLINE
  5
1BD
330
1B8
100
AcDbEntity
  8
0
  6
Continuous
 62
     7
370
    25
100
AcDbSpline
210
0.0
220
0.0
230
1.0
 70
     8
 71
     3
 72
    14
 73
    10
 74
     0
 42
0.000000001
 43
0.00000001
 40
0.0
 40
0.0
 40
0.0
 40
0.0
 40
0.0611980730514518
 40
0.2473182227668099
 40
0.4332215881419822
 40
0.6188774760099587
 40
0.8042563973760434
 40
0.9893280872126667
 40
1.0
 40
1.0
 40
1.0
 40
1.0
 10
-202.4651187234906
 20
212.3004640377698
 30
0.0
 10
-202.4748088834827
 20
210.9434063138217
 30
0.0
 10
-202.5139694816532
 20
205.459163301846
 30
0.0
 10
-202.2606349585987
 20
195.8536372349019
 30
0.0
 10
-201.6999940562142
 20
183.5024441731023
 30
0.0
 10
-200.8136465342165
 20
171.1888721400992
 30
0.0
 10
-199.5881828103821
 20
158.9326616599395
 30
0.0
 10
-198.6226759418023
 20
150.5461545022193
 30
0.0
 10
-197.9800689657604
 20
146.2647577959574
 30
0.0
 10
-197.9450341267521
 20
146.0313366693166
 30
0.0
  0
SPLINE
  5
1BE
330
1B8
100
AcDbEntity
  8
0
  6
Continuous
 62
     7
370
    25
100
AcDbSpline
210
0.0
220
0.0
230
1.0
 70
     8
 71
     3
 72
    11
 73
     7
 74
     0
 42
0.000000001
 43
0.00000001
 40
0.0
 40
0.0
 40
0.0
 40
0.0
 40
0.0209915420769517
 40
0.3648813780325365
 40
0.708137974108207
 40
1.0
 40
1.0
 40
1.0
 40
1.0
 10
193.2887538695771
 20
122.3209180449085
 30
0.0
 10
193.3336672465455
 20
122.4839360411043
 30
0.0
 10
194.1143652448268
 20
125.3175645033664
 30
0.0
 10
195.3315723381988
 20
130.8944900222498
 30
0.0
 10
196.8702683185625
 20
138.6307161289627
 30
0.0
 10
197.5977375934476
 20
143.695951912285
 30
0.0
 10
197.9320383823054
 20
146.023627288517
 30
0.0
  0
SPLINE
  5
1BF
330
1B8
100
AcDbEntity
  8
0
  6
Continuous
 62
     7
370
    25
100
AcDbSpline
210
0.0
220
0.0
230
1.0
 70
     8
 71
     3
 72
    11
 73
     7
 74
     0
 42
0.000000001
 43
0.00000001
 40
0.0
 40
0.0
 40
0.0
 40
0.0
 40
0.0249710414009624
 40
0.3614278426752039
 40
0.6971447613842835
 40
1.0
 40
1.0
 40
1.0
 40
1.0
 10
-197.9429727393263
 20
146.0328164229971
 30
0.0
 10
-197.9189236146262
 20
145.8327414606799
 30
0.0
 10
-197.5708394831299
 20
142.9368805775673
 30
0.0
 10
-196.6060664147464
 20
137.3907665147894
 30
0.0
 10
-195.1101103759391
 20
129.6647967700573
 30
0.0
 10
-193.8666472748346
 20
124.6631801868696
 30
0.0
 10
-193.2769107667907
 20
122.2910664540826
 30
0.0
  0
SPLINE
  5
1C0
330
1B8
100
AcDbEntity
  8
0
  6
Continuous
 62
     7
370
    25
100
AcDbSpline
210
0.0
220
0.0
230
1.0
 70
     8
 71
     3
 72
    68
 73
    64
 74
     0
 42
0.000000001
 43
0.00000001
 40
0.0
 40
0.0
 40
0.0
 40
0.0
 40
0.014605479799606
 40
0.0312340005824242
 40
0.0478201870021081
 40
0.0643630997651504
 40
0.0808617469203878
 40
0.097315086221173
 40
0.1137220295611
 40
0.1300814500582877
 40
0.1463921924819078
 40
0.1626530878307532
 40
0.1788629729697635
 40
0.1950207162755117
 40
0.2111252501911254
 40
0.2271756113790516
 40
0.243170988705536
 40
0.2591107785052859
 40
0.2749946454008043
 40
0.2908225854368023
 40
0.3065949867398255
 40
0.3223126821307769
 40
0.3379769897418602
 40
0.3535897444804092
 40
0.3691533388456339
 40
0.3846708192276074
 40
0.4001461216242865
 40
0.4155845646805769
 40
0.430993714991955
 40
0.4463846527314224
 40
0.4617734656817826
 40
0.4771825284226235
 40
0.4926409187579975
 40
0.5081833565114118
 40
0.523847098325076
 40
0.5396568517678794
 40
0.5556433555511242
 40
0.5718281787455687
 40
0.5882208402643018
 40
0.604818244986707
 40
0.6216064851616813
 40
0.6385642440891844
 40
0.6556666226690786
 40
0.6728883654925498
 40
0.6902059844661788
 40
0.7058104704381768
 40
0.7232085819606309
 40
0.7406966019616938
 40
0.75821748898046
 40
0.7757596305484619
 40
0.7933142894205906
 40
0.8108741800604673
 40
0.8284331884395337
 40
0.8459861706951819
 40
0.8635287919989513
 40
0.8810573954718239
 40
0.898568893984207
 40
0.9160606797090141
 40
0.9335305477885582
 40
0.9509766314974557
 40
0.9683973469569516
 40
0.985791345897026
 40
1.0
 40
1.0
 40
1.0
 40
1.0
 10
-185.3059440972577
 20
97.5759895674654
 30
0.0
 10
-184.436353467676
 20
95.39707321415241
 30
0.0
 10
-182.5767230684367
 20
90.73743343632972
 30
0.0
 10
-179.3885755870782
 20
83.74719048473919
 30
0.0
 10
-175.8257481481845
 20
76.59301799520593
 30
0.0
 10
-171.9987274454228
 20
69.59997425472861
 30
0.0
 10
-167.9240537928187
 20
62.77388658288008
 30
0.0
 10
-163.6070381453146
 20
56.12484251404158
 30
0.0
 10
-159.0564020228476
 20
49.66138078538562
 30
0.0
 10
-154.2803493213537
 20
43.39202710508805
 30
0.0
 10
-149.2875908899806
 20
37.32487005262603
 30
0.0
 10
-144.0870443031617
 20
31.46766035579245
 30
0.0
 10
-138.687883268743
 20
25.82777113254446
 30
0.0
 10
-133.0994891972699
 20
20.41219618611904
 30
0.0
 10
-127.3314236105804
 20
15.22753964101527
 30
0.0
 10
-121.3933891663561
 20
10.28001014583334
 30
0.0
 10
-115.2951876415007
 20
5.575417162055632
 30
0.0
 10
-109.0466729698709
 20
1.119171347592832
 30
0.0
 10
-102.657701057384
 20
-3.083709897212905
 30
0.0
 10
-96.13807835301945
 20
-7.028590310665869
 30
0.0
 10
-89.49751248664195
 20
-10.71119502518635
 30
0.0
 10
-82.74556904296071
 20
-14.12758293994096
 30
0.0
 10
-75.89163817284603
 20
-17.27411253676854
 30
0.0
 10
-68.94491169828716
 20
-20.1474048575835
 30
0.0
 10
-61.91436378799392
 20
-22.74431012894058
 30
0.0
 10
-54.80871480056366
 20
-25.06188623796991
 30
0.0
 10
-47.63633992234431
 20
-27.09739518037373
 30
0.0
 10
-40.40506933574402
 20
-28.84831416895837
 30
0.0
 10
-33.12183073253576
 20
-30.31233947573385
 30
0.0
 10
-25.79212795670006
 20
-31.48733773838251
 30
0.0
 10
-18.4194402445112
 20
-32.37118570883609
 30
0.0
 10
-11.0047424694433
 20
-32.96145567217267
 30
0.0
 10
-3.546428540653949
 20
-33.25496206998112
 30
0.0
 10
3.959053593400153
 20
-33.24727228640349
 30
0.0
 10
11.5140616268101
 20
-32.93244533495805
 30
0.0
 10
19.11978974574921
 20
-32.3032732873103
 30
0.0
 10
26.77440338173085
 20
-31.35166874024976
 30
0.0
 10
34.47312884527778
 20
-30.06904002370071
 30
0.0
 10
42.20535512647132
 20
-28.44743247112678
 30
0.0
 10
49.95454967701411
 20
-26.48062963101237
 30
0.0
 10
57.69923704702799
 20
-24.16499742404825
 30
0.0
 10
65.41468019588548
 20
-21.49988918932606
 30
0.0
 10
73.07475503859352
 20
-18.48759050805553
 30
0.0
 10
80.65350927764382
 20
-15.13296450705533
 30
0.0
 10
87.8690337461148
 20
-11.56993842880112
 30
0.0
 10
94.96179778294952
 20
-7.710167756511913
 30
0.0
 10
101.920597728352
 20
-3.558668929165856
 30
0.0
 10
108.9587279807554
 20
1.046698066065471
 30
0.0
 10
115.8193981498864
 20
5.953316863535036
 30
0.0
 10
122.4807858703051
 20
11.14570861471226
 30
0.0
 10
128.9285195448883
 20
16.61189816178905
 30
0.0
 10
135.1496507909773
 20
22.33970220629243
 30
0.0
 10
141.1323871112711
 20
28.31668720892932
 30
0.0
 10
146.8659849480036
 20
34.53021201634272
 30
0.0
 10
152.3406591378914
 20
40.96747007794545
 30
0.0
 10
157.5475381620757
 20
47.6155122480309
 30
0.0
 10
162.4785102751542
 20
54.46131237231416
 30
0.0
 10
167.126526991207
 20
61.49165100205059
 30
0.0
 10
171.4842422605476
 20
68.69365821179497
 30
0.0
 10
175.5488840891182
 20
76.05288655032335
 30
0.0
 10
179.3039410031702
 20
83.56057148348404
 30
0.0
 10
182.5764383052668
 20
90.72521253065311
 30
0.0
 10
184.4502070839903
 20
95.44299033827103
 30
0.0
 10
185.2926595328265
 20
97.56411836229542
 30
0.0
  0
LWPOLYLINE
  5
1C1
330
1B8
100
AcDbEntity
  8
0
  6
Continuous
 62
     7
370
    25
100
AcDbPolyline
 90
      152
 70
   128
 43
0.0
 10
143.1891231903
 20
294.9619324123
 10
149.021631459
 20
291.4517951181
 10
154.5961558939
 20
287.8046325766
 10
159.9030459688
 20
284.0267586966
 10
164.9331144815
 20
280.124713672
 10
169.6776534589
 20
276.10525266
 10
174.128449232
 20
271.9753340864
 10
178.2777966552
 20
267.7421075993
 10
182.1185124456
 20
263.4129016917
 10
185.6439476182
 20
258.9952110149
 10
188.8479989968
 20
254.4966834033
 10
191.7251197794
 20
249.925106635
 10
194.2703291414
 20
245.2883949497
 10
196.4792208574
 20
240.5945753475
 10
198.3479709298
 20
235.8517736928
 10
199.873344209
 20
231.068200647
 10
201.0526999932
 20
226.2521374543
 10
201.883996601
 20
221.4119216052
 10
202.3657949051
 20
216.555932403
 10
202.4972608241
 20
211.6925764575
 10
202.2781667663
 20
206.8302731317
 10
201.7088920238
 20
201.9774399663
 10
200.7904221158
 20
197.1424781075
 10
199.5243470826
 20
192.3337577629
 10
197.9128587326
 20
187.5596037112
 10
195.9587468485
 20
182.8282808907
 10
193.6653943571
 20
178.1479800906
 10
191.036771473
 20
173.5268037719
 10
188.0774288256
 20
168.9727520402
 10
184.7924895809
 20
164.493708796
 10
181.1876405725
 20
160.0974280864
 10
177.2691224566
 20
155.7915206814
 10
173.0437189083
 20
151.583440898
 10
168.5187448778
 20
147.4804736959
 10
163.7020339267
 20
143.4897220653
 10
158.601924667
 20
139.6180947308
 10
153.2272463252
 20
135.8722941909
 10
147.5873034574
 20
132.2588051148
 10
141.6918598413
 20
128.7838831163
 10
135.5511215733
 20
125.453543924
 10
129.1757194
 20
122.2735529671
 10
122.5766903144
 20
119.2494153945
 10
115.7654584487
 20
116.3863665442
 10
108.7538152972
 20
113.6893628798
 10
101.5538993028
 20
111.1630734105
 10
94.1781748434
 20
108.8118716077
 10
86.6394106538
 20
106.6398278338
 10
78.9506577203
 20
104.6507022958
 10
71.1252266874
 20
102.8479385356
 10
63.1766648145
 20
101.2346574686
 10
55.1187325233
 20
99.8136519809
 10
46.9653795753
 20
98.5873820941
 10
38.7307209233
 20
97.5579707068
 10
30.4290122748
 20
96.7271999193
 10
22.0746254133
 20
96.0965079485
 10
13.6820233179
 20
95.6669866382
 10
5.2657351255
 20
95.4393795686
 10
-3.1596690223
 20
95.4140807696
 10
-11.5796032022
 20
95.5911340378
 10
-19.9794909607
 20
95.9702328616
 10
-28.3447905482
 20
96.5507209513
 10
-36.6610200936
 20
97.3315933752
 10
-44.913782675
 20
98.3114982996
 10
-53.0887912436
 20
99.4887393292
 10
-61.171893357
 20
100.8612784431
 10
-69.1490956799
 20
102.4267395241
 10
-77.0065882088
 20
104.1824124712
 10
-84.7307681799
 20
106.1252578918
 10
-92.3082636181
 20
108.2519123635
 10
-99.725956486
 20
110.5586942564
 10
-106.971005394
 20
113.0416101073
 10
-114.0308678307
 20
115.6963615322
 10
-120.8933218768
 20
118.5183526687
 10
-127.5464873629
 20
121.5026981314
 10
-133.9788464367
 20
124.6442314697
 10
-140.1792635026
 20
127.9375141121
 10
-146.1370044988
 20
131.3768447811
 10
-151.8417554808
 20
134.956269363
 10
-157.283640476
 20
138.669591216
 10
-162.4532385815
 20
142.5103818976
 10
-167.3416002725
 20
146.4719922932
 10
-171.9402628967
 20
150.5475641269
 10
-176.2412653238
 20
154.7300418349
 10
-180.2371617281
 20
159.0121847796
 10
-183.9210344785
 20
163.3865797845
 10
-187.2865061142
 20
167.8456539677
 10
-190.3277503851
 20
172.3816878525
 10
-193.0395023385
 20
176.9868287303
 10
-195.4170674335
 20
181.6531042559
 10
-197.4563296677
 20
186.3724362487
 10
-199.1537587034
 20
191.1366546778
 10
-200.5064159791
 20
195.9375118052
 10
-201.5119597963
 20
200.766696465
 10
-202.1686493739
 20
205.6158484508
 10
-202.4753478616
 20
210.4765729895
 10
-202.4315243078
 20
215.3404552733
 10
-202.0372545793
 20
220.1990750282
 10
-201.2932212293
 20
225.0440210903
 10
-200.2007123164
 20
229.8669059674
 10
-198.7616191742
 20
234.6593803595
 10
-196.9784331376
 20
239.4131476126
 10
-194.8542412293
 20
244.1199780817
 10
-192.3927208158
 20
248.7717233783
 10
-189.5981332415
 20
253.3603304762
 10
-186.4753164511
 20
257.8778556533
 10
-183.0296766144
 20
262.316478243
 10
-179.2671787672
 20
266.668514174
 10
-175.194336485
 20
270.9264292722
 10
-170.8182006061
 20
275.0828523038
 10
-166.1463470262
 20
279.1305877367
 10
-161.1868635825
 20
283.0626281969
 10
-155.9483360523
 20
286.8721665997
 10
-150.4398332897
 20
290.552607934
 10
-144.6708915253
 20
294.0975806792
 10
-138.6514978577
 20
297.5009478361
 10
-132.3920729636
 20
300.7568175505
 10
-125.903453058
 20
303.8595533137
 10
-119.1968711346
 20
306.8037837196
 10
-112.2839375192
 20
309.5844117643
 10
-105.1766197706
 20
312.1966236697
 10
-97.8872219621
 20
314.6358972167
 10
-90.428363381
 20
316.8980095746
 10
-82.8129566825
 20
318.979044611
 10
-75.0541855353
 20
320.8753996719
 10
-67.1654817981
 20
322.5837918181
 10
-59.1605022673
 20
324.1012635088
 10
-51.0531050334
 20
325.4251877216
 10
-42.8573254914
 20
326.5532725004
 10
-34.587352042
 20
327.483564923
 10
-26.2575015291
 20
328.2144544822
 10
-17.882194455
 20
328.744675874
 10
-9.4759300157
 20
329.0733111877
 10
-1.0532609998
 20
329.199791495
 10
7.3712314044
 20
329.1238978354
 10
15.7829628523
 20
328.8457615948
 10
24.1673710906
 20
328.365864278
 10
32.5099411677
 20
327.6850366756
 10
40.7962305614
 20
326.8044574252
 10
49.0118941817
 20
325.7256509714
 10
57.1427092051
 20
324.4504849264
 10
65.1745996962
 20
322.9811668371
 10
73.0936609763
 20
321.3202403631
 10
80.8861836949
 20
319.4705808733
 10
88.538677563
 20
317.4353904684
 10
96.0378947071
 20
315.218192437
 10
103.370852604
 20
312.8228251564
 10
110.5248565558
 20
310.2534354476
 10
117.4875216669
 20
307.5144713965
 10
124.2467942842
 20
304.6106746531
 10
130.7909728644
 20
301.5470722235
 10
137.1087282317
 20
298.3289677665
 10
143.1891231903
 20
294.9619324123
  0
LWPOLYLINE
  5
1C2
330
1B8
100
AcDbEntity
  8
0
  6
Continuous
 62
     7
370
    25
100
AcDbPolyline
 90
      146
 70
   128
 43
0.0
 10
132.5825214725
 20
288.8388715737
 10
138.2013760524
 20
285.4514832819
 10
143.5607719892
 20
281.9267618711
 10
148.6506475769
 20
278.2713246372
 10
153.4614471061
 20
274.4920342818
 10
157.9841388031
 20
270.5959860276
 10
162.210231787
 20
266.5904942981
 10
166.1317920097
 20
262.4830789855
 10
169.7414571517
 20
258.2814513329
 10
173.0324504439
 20
253.9934994572
 10
175.9985933901
 20
249.62727354
 10
178.634317367
 20
245.1909707143
 10
180.9346740781
 20
240.692919675
 10
182.8953448442
 20
236.1415650429
 10
184.5126487107
 20
231.545451511
 10
185.7835493585
 20
226.913207802
 10
186.7056608046
 20
222.2535304695
 10
187.277251881
 20
217.5751675708
 10
187.4972494853
 20
212.8869022435
 10
187.3652405948
 20
208.1975362157
 10
186.8814730425
 20
203.5158732824
 10
186.0468550515
 20
198.8507027764
 10
184.8629535297
 20
194.2107830678
 10
183.3319911287
 20
189.6048251213
 10
181.4568420703
 20
185.0414761414
 10
179.2410267509
 20
180.5293033392
 10
176.6887051324
 20
176.0767778475
 10
173.8046689318
 20
171.6922588178
 10
170.5943326258
 20
167.3839777264
 10
167.0637232853
 20
163.1600229209
 10
163.2194692605
 20
159.0283244351
 10
159.0687877367
 20
154.9966391012
 10
154.6194711846
 20
151.0725359871
 10
149.8798727313
 20
147.2633821864
 10
144.8588904775
 20
143.5763289874
 10
139.5659507929
 20
140.0182984472
 10
134.0109906187
 20
136.5959703963
 10
128.204438812
 20
133.3157698981
 10
122.1571965674
 20
130.1838551863
 10
115.8806169501
 20
127.2061061035
 10
109.3864835827
 20
124.3881130624
 10
102.6869885218
 20
121.7351665506
 10
95.7947093696
 20
119.2522471979
 10
88.72258566
 20
116.944016426
 10
81.4838945662
 20
114.814807697
 10
74.0922259744
 20
112.8686183777
 10
66.5614569701
 20
111.1091022353
 10
58.9057257852
 20
109.5395625775
 10
51.1394052552
 20
108.162946051
 10
43.2770758351
 20
106.9818371095
 10
35.3334982272
 20
105.9984531615
 10
27.3235856682
 20
105.2146404078
 10
19.2623759322
 20
104.6318703749
 10
11.165003098
 20
104.2512371525
 10
3.0466691371
 20
104.0734553399
 10
-5.0773846268
 20
104.0988587037
 10
-13.1919061315
 20
104.3273995519
 10
-21.2816612109
 20
104.7586488228
 10
-29.331462195
 20
105.3917968911
 10
-37.3261964237
 20
106.2256550873
 10
-45.2508546187
 20
107.2586579299
 10
-53.0905590623
 20
108.4888660639
 10
-60.8305915286
 20
109.9139699021
 10
-68.4564209154
 20
111.531293961
 10
-75.9537305248
 20
113.3378018836
 10
-83.3084449414
 20
115.3301021401
 10
-90.5067564573
 20
117.5044543949
 10
-97.5351509948
 20
119.8567765288
 10
-104.3804334776
 20
122.3826523029
 10
-111.0297526031
 20
125.0773396492
 10
-117.4706249692
 20
127.9357795739
 10
-123.6909585113
 20
130.9526056546
 10
-129.679075203
 20
134.1221541157
 10
-135.4237329809
 20
137.438474461
 10
-140.9141468503
 20
140.8953406456
 10
-146.1400091328
 20
144.4862627645
 10
-151.091508818
 20
148.2044992367
 10
-155.7593499827
 20
152.0430694615
 10
-160.1347692427
 20
155.9947669246
 10
-164.2095522057
 20
160.0521727268
 10
-167.9760488923
 20
164.2076695127
 10
-171.4271880985
 20
168.4534557713
 10
-174.5564906712
 20
172.7815604825
 10
-177.3580816717
 20
177.1838580819
 10
-179.8267014057
 20
181.6520837159
 10
-181.9577152975
 20
186.1778487576
 10
-183.7471225912
 20
190.752656556
 10
-185.1915638616
 20
195.3679183876
 10
-186.2883273211
 20
200.0149695805
 10
-187.035353911
 20
204.6850857816
 10
-187.4312411669
 20
209.3694993357
 10
-187.4752458517
 20
214.0594157459
 10
-187.1672853514
 20
218.7460301842
 10
-186.5079378296
 20
223.4205440215
 10
-185.4984411423
 20
228.0741813467
 10
-184.1406905142
 20
232.6982054418
 10
-182.43723498
 20
237.2839351849
 10
-180.3912725997
 20
241.8227613475
 10
-178.0066444538
 20
246.3061627576
 10
-175.2878274325
 20
250.7257222977
 10
-172.2399258307
 20
255.0731427064
 10
-168.8686617651
 20
259.3402621562
 10
-165.1803644318
 20
263.5190695762
 10
-161.1819582236
 20
267.6017196922
 10
-156.8809497304
 20
271.580547755
 10
-152.2854136463
 20
275.4480839308
 10
-147.40397761
 20
279.1970673245
 10
-142.2458060078
 20
282.8204596115
 10
-136.8205827677
 20
286.3114582513
 10
-131.1384931796
 20
289.6635092589
 10
-125.2102047729
 20
292.8703195086
 10
-119.0468472897
 20
295.9258685493
 10
-112.6599917897
 20
298.824419907
 10
-106.0616289267
 20
301.5605318543
 10
-99.2641464376
 20
304.129067627
 10
-92.2803058854
 20
306.5252050675
 10
-85.1232187012
 20
308.7444456782
 10
-77.8063215681
 20
310.7826230666
 10
-70.3433511962
 20
312.6359107677
 10
-62.7483185324
 20
314.3008294275
 10
-55.035482457
 20
315.7742533352
 10
-47.2193230138
 20
317.0534162913
 10
-39.3145142256
 20
318.1359168011
 10
-31.3358965447
 20
319.0197225829
 10
-23.2984489923
 20
319.7031743837
 10
-15.2172610364
 20
320.1849890942
 10
-7.1075042629
 20
320.4642621576
 10
1.0155961073
 20
320.540469268
 10
9.1367898018
 20
320.4134673544
 10
17.2408301282
 20
320.0834948496
 10
25.3125025975
 20
319.5511712426
 10
33.336653488
 20
318.8174959153
 10
41.2982182949
 20
317.8838462665
 10
49.182250012
 20
316.7519751258
 10
56.9739471938
 20
315.424007463
 10
64.6586817427
 20
313.9024363987
 10
72.2220263728
 20
312.1901185236
 10
79.6497816947
 20
310.2902685355
 10
86.9280028738
 20
308.2064532043
 10
94.0430258106
 20
305.9425846755
 10
100.9814927927
 20
303.5029131258
 10
107.7303775734
 20
300.8920187835
 10
114.2770098268
 20
298.11480333
 10
120.6090989348
 20
295.1764806972
 10
126.7147570617
 20
292.0825672787
 10
132.5825214725
 20
288.8388715737
  0
LWPOLYLINE
  5
1C3
330
1B8
100
AcDbEntity
  8
0
  6
Continuous
 62
     7
370
    25
100
AcDbPolyline
 90
       70
 70
   128
 43
0.0
 10
193.2980583059
 20
122.3196976088
 10
193.2447013832
 20
122.1126142388
 10
191.8428757125
 20
117.3930139953
 10
190.095336213
 20
112.7120121006
 10
188.005232069
 20
108.0780440365
 10
185.5763297895
 20
103.4994605267
 10
182.8130064204
 20
98.9845124881
 10
179.7202416573
 20
94.5413361623
 10
176.3036088713
 20
90.1779384533
 10
172.5692650656
 20
85.9021824987
 10
168.5239397803
 20
81.7217734998
 10
164.1749229648
 20
77.6442448362
 10
159.5300518415
 20
73.67694449
 10
154.5976967819
 20
69.8270218046
 10
149.3867462235
 20
66.101414601
 10
143.9065906512
 20
62.5068366752
 10
138.1671056758
 20
59.0497656995
 10
132.1786342372
 20
55.7364315495
 10
125.9519679656
 20
52.5728050773
 10
119.4983277346
 20
49.5645873516
 10
112.82934344
 20
46.7171993841
 10
105.9570330424
 20
44.0357723604
 10
98.8937809095
 20
41.5251383932
 10
91.6523154991
 20
39.1898218146
 10
84.2456864214
 20
37.0340310229
 10
76.6872409225
 20
35.0616508988
 10
68.9905998321
 20
33.2762358047
 10
61.1696330177
 20
31.6810031792
 10
53.2384343901
 20
30.2788277393
 10
45.2112965054
 20
29.0722363
 10
37.1026848084
 20
28.0634032206
 10
28.9272115657
 20
27.2541464864
 10
20.6996095325
 20
26.6459244329
 10
12.4347054038
 20
26.2398331172
 10
4.1473930955
 20
26.0366043433
 10
-4.1473930955
 20
26.0366043433
 10
-12.4347054038
 20
26.2398331172
 10
-20.6996095325
 20
26.6459244329
 10
-28.9272115657
 20
27.2541464864
 10
-37.1026848084
 20
28.0634032206
 10
-45.2112965054
 20
29.0722363
 10
-53.2384343902
 20
30.2788277393
 10
-61.1696330177
 20
31.6810031792
 10
-68.9905998321
 20
33.2762358047
 10
-76.6872409225
 20
35.0616508988
 10
-84.2456864214
 20
37.0340310229
 10
-91.6523154991
 20
39.1898218146
 10
-98.8937809095
 20
41.5251383932
 10
-105.9570330424
 20
44.0357723604
 10
-112.82934344
 20
46.7171993841
 10
-119.4983277346
 20
49.5645873516
 10
-125.9519679656
 20
52.5728050773
 10
-132.1786342372
 20
55.7364315495
 10
-138.1671056758
 20
59.0497656995
 10
-143.9065906512
 20
62.5068366752
 10
-149.3867462235
 20
66.101414601
 10
-154.5976967819
 20
69.8270218046
 10
-159.5300518415
 20
73.67694449
 10
-164.1749229648
 20
77.6442448362
 10
-168.5239397803
 20
81.7217734998
 10
-172.5692650656
 20
85.9021824987
 10
-176.3036088713
 20
90.1779384533
 10
-179.7202416573
 20
94.5413361623
 10
-182.8130064204
 20
98.9845124881
 10
-185.5763297895
 20
103.4994605267
 10
-188.005232069
 20
108.0780440365
 10
-190.095336213
 20
112.7120121006
 10
-191.8428757125
 20
117.3930139953
 10
-193.2447013832
 20
122.1126142388
 10
-193.295593505
 20
122.3100729615
  0
LWPOLYLINE
  5
1C4
330
1B8
100
AcDbEntity
  8
0
  6
Continuous
 62
     7
370
    25
100
AcDbPolyline
 90
       70
 70
   128
 43
0.0
 10
188.896450079
 20
109.9566211303
 10
188.6709661001
 20
108.8105042441
 10
187.5311347996
 20
104.1366239822
 10
186.0440390079
 20
99.495380281
 10
184.2124324841
 20
94.8953676553
 10
182.0397069419
 20
90.3451042696
 10
179.5298857688
 20
85.8530161642
 10
176.6876165759
 20
81.4274216522
 10
173.5181625913
 20
77.0765159158
 10
170.0273929142
 20
72.8083558309
 10
166.2217716466
 20
68.6308450473
 10
162.1083459228
 20
64.5517193534
 10
157.6947328605
 20
60.5785323508
 10
152.9891054549
 20
56.7186414674
 10
148.0001774448
 20
52.9791943324
 10
142.7371871764
 20
49.3671155411
 10
137.209880496
 20
45.889093832
 10
131.4284927033
 20
42.5515697004
 10
125.4037295976
 20
39.3607234729
 10
119.1467476531
 20
36.3224638622
 10
112.6691333601
 20
33.4424170254
 10
105.982881769
 20
30.7259161466
 10
99.1003742787
 20
28.1779915598
 10
92.0343557085
 20
25.8033614349
 10
84.7979106983
 20
23.6064230402
 10
77.4044394783
 20
21.5912445999
 10
69.8676330552
 20
19.7615577606
 10
62.2014478596
 20
18.120750681
 10
54.4200799016
 20
16.6718617583
 10
46.5379384833
 20
15.417574001
 10
38.5696195162
 20
14.3602100615
 10
30.5298784927
 20
13.5017279343
 10
22.4336031623
 20
12.8437173306
 10
14.2957859632
 20
12.3873967347
 10
6.1314962595
 20
12.1336111472
 10
-2.0441475639
 20
12.0828305207
 10
-10.2160060965
 20
12.2351488891
 10
-18.3689469376
 20
12.5902841939
 10
-26.4878727176
 20
13.1475788063
 10
-34.557749055
 20
13.9060007449
 10
-42.5636323964
 20
14.8641455869
 10
-50.490697689
 20
16.0202390687
 10
-58.3242658326
 20
17.3721403711
 10
-66.0498308625
 20
18.9173460844
 10
-73.6530868105
 20
20.652994843
 10
-81.1199541971
 20
22.5758726252
 10
-88.4366061026
 20
24.682418704
 10
-95.5894937721
 20
26.9687322408
 10
-102.5653717043
 20
29.4305795094
 10
-109.3513221791
 20
32.0634017354
 10
-115.9347791784
 20
34.8623235381
 10
-122.3035516554
 20
37.8221619585
 10
-128.4458461095
 20
40.9374360575
 10
-134.3502884254
 20
44.2023770644
 10
-140.0059449352
 20
47.6109390601
 10
-145.402342665
 20
51.1568101724
 10
-150.5294887284
 20
54.8334242644
 10
-155.3778888313
 20
58.6339730932
 10
-159.9385648527
 20
62.5514189171
 10
-164.2030714706
 20
66.5785075284
 10
-168.1635118004
 20
70.7077816859
 10
-171.8125520184
 20
74.9315949246
 10
-175.143434942
 20
79.2421257146
 10
-178.1499925429
 20
83.6313919453
 10
-180.8266573686
 20
88.0912657059
 10
-183.1684728518
 20
92.613488337
 10
-185.1711024896
 20
97.1896857233
 10
-186.8308378728
 20
101.8113838007
 10
-188.1446055535
 20
106.4700242483
 10
-188.896450079
 20
109.9566211303
  0
LWPOLYLINE
  5
1C5
330
1B8
100
AcDbEntity
  8
0
  6
Continuous
 62
     1
370
    25
100
AcDbPolyline
 90
       73
 70
   128
 43
0.0
 10
197.9548747303
 20
146.0406760491
 10
197.5867097155
 20
143.6806936423
 10
196.5740398303
 20
138.8823244986
 10
195.2118684758
 20
134.1128658057
 10
193.502617543
 20
129.3807974871
 10
191.4493260177
 20
124.6945329874
 10
189.0556445774
 20
120.062404314
 10
186.3258291001
 20
115.4926472226
 10
183.2647330984
 20
110.9933865746
 10
179.877799089
 20
106.5726218912
 10
176.1710489172
 20
102.2382131306
 10
172.1510730494
 20
97.9978667136
 10
167.825018856
 20
93.8591218212
 10
163.2005779036
 20
89.8293369908
 10
158.2859722793
 20
85.9156770329
 10
153.0899399726
 20
82.125100292
 10
147.6217193394
 20
78.4643462752
 10
141.8910326763
 20
74.9399236695
 10
135.9080689352
 20
71.5580987698
 10
129.6834656072
 20
68.3248843373
 10
123.2282898099
 20
65.2460289093
 10
116.5540186102
 20
62.3270065784
 10
109.6725186189
 20
59.5730072597
 10
102.5960248918
 20
56.9889274635
 10
95.3371191765
 20
54.5793615895
 10
87.9087075423
 20
52.3485937577
 10
80.3239974343
 20
50.3005901921
 10
72.59647419
 20
48.4389921681
 10
64.739877064
 20
46.7671095392
 10
56.768174799
 20
45.2879148517
 10
48.6955407909
 20
44.0040380597
 10
40.5363278883
 20
42.9177618493
 10
32.3050428741
 20
42.03101758
 10
24.0163206725
 20
41.3453818507
 10
15.6848983291
 20
40.8620736968
 10
7.325588809
 20
40.5819524224
 10
-1.0467453408
 20
40.5055160731
 10
-9.4172184155
 20
40.6329005498
 10
-17.7709480195
 20
40.9638793675
 10
-26.0930815265
 20
41.4978640581
 10
-34.3688224867
 20
42.2339052162
 10
-42.5834569348
 20
43.1706941876
 10
-50.7223795504
 20
44.3065653955
 10
-58.7711196263
 20
45.6394993025
 10
-66.7153667961
 20
47.1671260007
 10
-74.5409964785
 20
48.8867294256
 10
-82.2340949893
 20
50.795252185
 10
-89.7809842802
 20
52.8893009952
 10
-97.1682462574
 20
55.1651527138
 10
-104.3827466387
 20
57.6187609594
 10
-111.4116583058
 20
60.2457633061
 10
-118.2424841101
 20
63.0414890397
 10
-124.8630790928
 20
66.0009674618
 10
-131.2616720774
 20
69.1189367277
 10
-137.4268865992
 20
72.389853202
 10
-143.3477611317
 20
75.8079013144
 10
-149.0137685761
 20
79.3670039002
 10
-154.414834978
 20
83.0608330049
 10
-159.5413574384
 20
86.882821135
 10
-164.3842211873
 20
90.8261729353
 10
-168.9348157899
 20
94.88387727
 10
-173.1850504549
 20
99.048719689
 10
-177.1273684203
 20
103.3132952544
 10
-180.7547603885
 20
107.6700217065
 10
-184.060776989
 20
112.1111529447
 10
-187.039540245
 20
116.6287927996
 10
-189.6857540241
 20
121.2149090725
 10
-191.9947134547
 20
125.8613478161
 10
-193.9623132913
 20
130.5598478317
 10
-195.585055213
 20
135.3020553579
 10
-196.8600540441
 20
140.0795389226
 10
-197.7850428832
 20
144.8838043345
 10
-197.9548111076
 20
146.0402149321
  0
LWPOLYLINE
  5
1C6
330
1B8
100
AcDbEntity
  8
0
  6
Continuous
 62
     1
370
    25
100
AcDbPolyline
 90
       14
 70
   128
 43
0.0
 10
129.8781890613
 20
231.4867142622
 10
135.4576376156
 20
228.1210412485
 10
140.7756165185
 20
224.6171389651
 10
145.8218606412
 20
220.9817708855
 10
150.5866293762
 20
217.221954247
 10
155.060725439
 20
213.3449465066
 10
159.2355126216
 20
209.3582313313
 10
163.1029324625
 20
205.269504153
 10
166.655519802
 20
201.0866573141
 10
169.8864171916
 20
196.8177648335
 10
172.7893881307
 20
192.471066821
 10
175.3588291051
 20
188.0549535723
 10
177.5897804033
 20
183.577949373
 10
179.0462193652
 20
180.1653248465
  0
LWPOLYLINE
  5
1C7
330
1B8
100
AcDbEntity
  8
0
  6
Continuous
 62
     1
370
    25
100
AcDbPolyline
 90
       50
 70
   128
 43
0.0
 10
-179.0462193652
 20
180.1653248465
 10
-178.0941100867
 20
182.4501944803
 10
-175.9484797876
 20
186.9410753591
 10
-173.4632216277
 20
191.3732153715
 10
-170.6431328235
 20
195.7380592961
 10
-167.4936569043
 20
200.0271818108
 10
-164.0208732052
 20
204.2323037562
 10
-160.2314851322
 20
208.3453081167
 10
-156.132807223
 20
212.3582556882
 10
-151.7327510275
 20
216.2634004033
 10
-147.039809837
 20
220.053204283
 10
-142.0630422895
 20
223.7203519871
 10
-136.812054884
 20
227.2577649348
 10
-131.2969834376
 20
230.6586149682
 10
-125.5284735209
 20
233.9163375327
 10
-119.5176599083
 20
237.024644348
 10
-113.2761450859
 20
239.9775355466
 10
-106.8159768551
 20
242.7693112545
 10
-100.1496250769
 20
245.3945825943
 10
-93.2899576023
 20
247.8482820867
 10
-86.2502154333
 20
250.125673432
 10
-79.0439871646
 20
252.2223606528
 10
-71.6851827537
 20
254.1342965792
 10
-64.1880066713
 20
255.8577906609
 10
-56.5669304823
 20
257.3895160911
 10
-48.8366649124
 20
258.7265162279
 10
-41.012131452
 20
259.8662103018
 10
-33.1084335539
 20
260.8063983967
 10
-25.1408274796
 20
261.545265697
 10
-17.1246928503
 20
262.0813859902
 10
-9.0755029608
 20
262.41372442
 10
-1.0087949111
 20
262.5416394838
 10
7.0598603839
 20
262.4648842713
 10
15.1148882508
 20
262.1836069406
 10
23.1407403204
 20
261.6983504326
 10
31.121924541
 20
261.0100514227
 10
39.0430350818
 20
260.1200385131
 10
46.8887820701
 20
259.030029668
 10
54.6440211054
 20
257.7421288973
 10
62.2937824917
 20
256.2588221958
 10
69.8233001334
 20
254.5829727441
 10
77.2180400373
 20
252.7178153822
 10
84.4637283679
 20
250.666950365
 10
91.5463789991
 20
248.4343364133
 10
98.4523205112
 20
246.0242830722
 10
105.1682225809
 20
243.4414423925
 10
111.6811217119
 20
240.6907999508
 10
117.9784462584
 20
237.7776652266
 10
124.0480406911
 20
234.7076613528
 10
129.8781890613
 20
231.4867142622
  0
VIEWPORT
  5
203
330
1B8
100
AcDbEntity
  8
0
100
AcDbViewport
 10
0.0
 20
0.0
 30
0.0
 40
205.6
 41
156.0
 68
     1
 69
     1
 12
0.0109564813
 22
147.980600436
 13
0.0
 23
0.0
 14
10.0
 24
10.0
 15
10.0
 25
10.0
 16
0.0
 26
0.0
 36
1.0
 17
0.0
 27
0.0
 37
0.0
 42
50.0
 43
0.0
 44
0.0
 45
369.6871497605
 50
0.0
 51
0.0
 72
   100
 90
   557152
  1

281
     0
 71
     1
 74
     0
110
0.0
120
0.0
130
0.0
111
1.0
121
0.0
131
0.0
112
0.0
122
1.0
132
0.0
 79
     0
146
0.0
170
     0
 61
     5
348
2F
292
     1
282
     1
141
0.0
142
0.0
 63
   256
361
204
  0
ENDBLK
  5
1BB
330
1B8
100
AcDbEntity
  8
0
100
AcDbBlockEnd
  0
BLOCK
  5
1CA
330
1C8
100
AcDbEntity
  8
0
100
AcDbBlockBegin
  2
*Paper_Space9
 70
     0
 10
0.0
 20
0.0
 30
0.0
  3
*Paper_Space9
  1

  0
SPLINE
  5
1CC
330
1C8
100
AcDbEntity
  8
0
  6
Continuous
 62
     7
370
    25
100
AcDbSpline
210
0.0
220
0.0
230
1.0
 70
     8
 71
     3
 72
    13
 73
     9
 74
     0
 42
0.000000001
 43
0.00000001
 40
0.0
 40
0.0
 40
0.0
 40
0.0
 40
0.1312848909485317
 40
0.3217628529704571
 40
0.5121535903149523
 40
0.7024310598384448
 40
0.8925701893506853
 40
1.0
 40
1.0
 40
1.0
 40
1.0
 10
198.0936416961858
 20
155.9516302491392
 30
0.0
 10
198.4746386417536
 20
158.8602358562595
 30
0.0
 10
199.4084145187276
 20
165.9888645320437
 30
0.0
 10
200.5310503300423
 20
177.3877246008571
 30
0.0
 10
201.5148959766867
 20
190.1264112156795
 30
0.0
 10
202.1550467225249
 20
202.8836003160756
 30
0.0
 10
202.4814977945992
 20
213.7987999696389
 30
0.0
 10
202.4665488412251
 20
220.4589951157614
 30
0.0
 10
202.4611518961357
 20
222.8634917108932
 30
0.0
  0
SPLINE
  5
1CD
330
1C8
100
AcDbEntity
  8
0
  6
Continuous
 62
     7
370
    25
100
AcDbSpline
210
0.0
220
0.0
230
1.0
 70
     8
 71
     3
 72
    13
 73
     9
 74
     0
 42
0.000000001
 43
0.00000001
 40
0.0
 40
0.0
 40
0.0
 40
0.0
 40
0.0825479388359746
 40
0.2723282267697803
 40
0.4618902507426554
 40
0.6512094172481362
 40
0.8402611773849904
 40
1.0
 40
1.0
 40
1.0
 40
1.0
 10
-202.4611513045562
 20
222.8638690223491
 30
0.0
 10
-202.4701961042839
 20
221.016223923206
 30
0.0
 10
-202.5000351808992
 20
214.9207850710097
 30
0.0
 10
-202.2158782017902
 20
204.5847267406514
 30
0.0
 10
-201.6228170688912
 20
191.8724882639294
 30
0.0
 10
-200.6899568609167
 20
179.2005442137331
 30
0.0
 10
-199.5448731603317
 20
167.2196435980109
 30
0.0
 10
-198.5585866051763
 20
159.4877311267789
 30
0.0
 10
-198.1068879043728
 20
155.9466762480249
 30
0.0
  0
SPLINE
  5
1CE
330
1C8
100
AcDbEntity
  8
0
  6
Continuous
 62
     7
370
    25
100
AcDbSpline
210
0.0
220
0.0
230
1.0
 70
     8
 71
     3
 72
    10
 73
     6
 74
     0
 42
0.000000001
 43
0.00000001
 40
0.0
 40
0.0
 40
0.0
 40
0.0
 40
0.359301119829918
 40
0.7188952299214788
 40
1.0
 40
1.0
 40
1.0
 40
1.0
 10
193.8763756748787
 20
133.1863561242871
 30
0.0
 10
194.5000833008687
 20
135.8888832710219
 30
0.0
 10
195.7480071520442
 20
141.2961413264399
 30
0.0
 10
197.143263935319
 20
148.8922992959573
 30
0.0
 10
197.807872364219
 20
153.793425827528
 30
0.0
 10
198.0994673792572
 20
155.9437808373842
 30
0.0
  0
SPLINE
  5
1CF
330
1C8
100
AcDbEntity
  8
0
  6
Continuous
 62
     7
370
    25
100
AcDbSpline
210
0.0
220
0.0
230
1.0
 70
     8
 71
     3
 72
    10
 73
     6
 74
     0
 42
0.000000001
 43
0.00000001
 40
0.0
 40
0.0
 40
0.0
 40
0.0
 40
0.3052653023492737
 40
0.6573273899066672
 40
0.9999999999999999
 40
0.9999999999999999
 40
0.9999999999999999
 40
0.9999999999999999
 10
-198.107964073025
 20
155.9383522160857
 30
0.0
 10
-197.7848928518037
 20
153.6036362553523
 30
0.0
 10
-197.0892239992843
 20
148.5762953265545
 30
0.0
 10
-195.6815700030071
 20
140.9813248040396
 30
0.0
 10
-194.469269168836
 20
135.7562723159438
 30
0.0
 10
-193.8713109950633
 20
133.1790548831238
 30
0.0
  0
SPLINE
  5
1D0
330
1C8
100
AcDbEntity
  8
0
  6
Continuous
 62
     7
370
    25
100
AcDbSpline
210
0.0
220
0.0
230
1.0
 70
     8
 71
     3
 72
    71
 73
    67
 74
     0
 42
0.000000001
 43
0.00000001
 40
0.0
 40
0.0
 40
0.0
 40
0.0
 40
0.0158087905423293
 40
0.0321823982663972
 40
0.0485119115038367
 40
0.0647962857630293
 40
0.0810343840837836
 40
0.09722497352881
 40
0.1133667227097444
 40
0.1294582008875664
 40
0.1454978793789667
 40
0.161484136237844
 40
0.1774152654651735
 40
0.1932894923214222
 40
0.2091049966437419
 40
0.2248599463427359
 40
0.2405525433509084
 40
0.2561810840106239
 40
0.271744034896001
 40
0.2872401228809441
 40
0.3026684342862317
 40
0.3180285115782216
 40
0.3333204272877218
 40
0.3485448052033776
 40
0.3637027541636285
 40
0.3787956934264548
 40
0.3938251054156739
 40
0.4087923834760169
 40
0.4236991589144306
 40
0.4385487093546154
 40
0.4533490143844115
 40
0.4681173908424847
 40
0.4828853921142492
 40
0.4977015294433584
 40
0.5126294360353972
 40
0.5277326165822241
 40
0.5430642273183728
 40
0.5586789941509198
 40
0.5746078780766872
 40
0.5908526283383655
 40
0.6073882339017047
 40
0.622370362662067
 40
0.6374464617996024
 40
0.6526034079149615
 40
0.6678318365629904
 40
0.6831244169179437
 40
0.6984752437690487
 40
0.7138793407539886
 40
0.729332323739245
 40
0.7448302007460299
 40
0.7603692664967797
 40
0.7759460539860843
 40
0.791557316097558
 40
0.8089528899957605
 40
0.826383972809841
 40
0.8437977646463417
 40
0.861189514610048
 40
0.8785563854329084
 40
0.8958961100892664
 40
0.9132068634566065
 40
0.9304871801824469
 40
0.9477358865255057
 40
0.9649520433459312
 40
0.9821348984795624
 40
0.9992838470100232
 40
1.0
 40
1.0
 40
1.0
 40
1.0
 10
-186.6328948371506
 20
109.4937084311103
 30
0.0
 10
-185.712457521055
 20
107.0778615976153
 30
0.0
 10
-183.8386974629072
 20
102.1598544459628
 30
0.0
 10
-180.662654910401
 20
94.88833146019729
 30
0.0
 10
-177.2040260232777
 20
87.6625595343701
 30
0.0
 10
-173.4814776078002
 20
80.59391325433788
 30
0.0
 10
-169.5099665240101
 20
73.68903872269425
 30
0.0
 10
-165.2952735199665
 20
66.95782336589934
 30
0.0
 10
-160.8460692244892
 20
60.40888692365987
 30
0.0
 10
-156.1706796917171
 20
54.05076977407034
 30
0.0
 10
-151.2779323578806
 20
47.89160102567783
 30
0.0
 10
-146.1769109234131
 20
41.93917194609262
 30
0.0
 10
-140.8769978565732
 20
36.20090099833676
 30
0.0
 10
-135.3878356479565
 20
30.68382752540513
 30
0.0
 10
-129.7193037874895
 20
25.39459767560134
 30
0.0
 10
-123.8814839552866
 20
20.33945263144543
 30
0.0
 10
-117.8846189602899
 20
15.52421715561558
 30
0.0
 10
-111.739062244777
 20
10.95429018788544
 30
0.0
 10
-105.4552176600827
 20
6.634638942460469
 30
0.0
 10
-99.04346982442912
 20
2.5697989329794
 30
0.0
 10
-92.51410784088846
 20
-1.236116904842099
 30
0.0
 10
-85.87724882141201
 20
-4.77939619451001
 30
0.0
 10
-79.14277282852613
 20
-8.056688529338759
 30
0.0
 10
-72.32028645865869
 20
-11.06494844120884
 30
0.0
 10
-65.41913507774133
 20
-13.80136292423906
 30
0.0
 10
-58.44847623655956
 20
-16.26327575308395
 30
0.0
 10
-51.41739647796039
 20
-18.44813399800005
 30
0.0
 10
-44.33498725007993
 20
-20.35349338481451
 30
0.0
 10
-37.21019613528169
 20
-21.97711303954997
 30
0.0
 10
-30.05118843406752
 20
-23.31712392611201
 30
0.0
 10
-22.86400723226739
 20
-24.37215990885846
 30
0.0
 10
-15.65062311899609
 20
-25.14123840164714
 30
0.0
 10
-8.406973892948526
 20
-25.62317206518613
 30
0.0
 10
-1.122016368645076
 20
-25.81547150506697
 30
0.0
 10
6.219916361474155
 20
-25.71303634599542
 30
0.0
 10
13.63459862910906
 20
-25.30750661985454
 30
0.0
 10
21.13566295962857
 20
-24.587450423465
 30
0.0
 10
28.7307263399323
 20
-23.53910988395777
 30
0.0
 10
36.4183321937261
 20
-22.14786924858817
 30
0.0
 10
44.18351819924771
 20
-20.40100633066475
 30
0.0
 10
51.71520716082361
 20
-18.36667253482707
 30
0.0
 10
58.97405910817667
 20
-16.0877765938999
 30
0.0
 10
65.9277079269801
 20
-13.60989157155759
 30
0.0
 10
72.81917214016985
 20
-10.8553021347369
 30
0.0
 10
79.63396720177305
 20
-7.828137740953562
 30
0.0
 10
86.35887533006392
 20
-4.53286186576582
 30
0.0
 10
92.98151626093136
 20
-0.9742757632594662
 30
0.0
 10
99.49011893643593
 20
2.842484875004103
 30
0.0
 10
105.8733786057726
 20
6.911938392266031
 30
0.0
 10
112.1203800844291
 20
11.22824782422738
 30
0.0
 10
118.2205618972971
 20
15.78521390665084
 30
0.0
 10
124.1637286307338
 20
20.57629772487593
 30
0.0
 10
130.1561995114771
 20
25.78240344498053
 30
0.0
 10
136.164110341409
 20
31.42557943384655
 30
0.0
 10
142.1438597864368
 20
37.52004567202844
 30
0.0
 10
147.8710283790289
 20
43.85289115307454
 30
0.0
 10
153.3308273093616
 20
50.40508327677696
 30
0.0
 10
158.5149329725062
 20
57.16320254599897
 30
0.0
 10
163.416057969929
 20
64.113923924684
 30
0.0
 10
168.0273788908113
 20
71.24401970577883
 30
0.0
 10
172.343908629345
 20
78.53985523113813
 30
0.0
 10
176.3571538787799
 20
85.98929514992682
 30
0.0
 10
180.0748179190297
 20
93.57465187340006
 30
0.0
 10
183.4473246743843
 20
101.2989660973993
 30
0.0
 10
185.6230982434647
 20
106.6054348066104
 30
0.0
 10
186.5857720734068
 20
109.3635387732782
 30
0.0
 10
186.624362491765
 20
109.4741020633964
 30
0.0
  0
LWPOLYLINE
  5
1D1
330
1C8
100
AcDbEntity
  8
0
  6
Continuous
 62
     7
370
    25
100
AcDbPolyline
 90
      152
 70
   128
 43
0.0
 10
94.5058162583
 20
315.1040720604
 10
101.8740809944
 20
312.9994604645
 10
109.0659829721
 20
310.7388069513
 10
116.0690716873
 20
308.3260251273
 10
122.8712235064
 20
305.7652919615
 10
129.4606626542
 20
303.0610405537
 10
135.8259816006
 20
300.2179524599
 10
141.9561608085
 20
297.2409495883
 10
147.840587811
 20
294.135185678
 10
153.4690755834
 20
290.9060373772
 10
158.8318801789
 20
287.559094935
 10
163.919717597
 20
284.1001525241
 10
168.7237798561
 20
280.5351982093
 10
173.2357502414
 20
276.870403582
 10
177.4478177029
 20
273.1121130752
 10
181.3526903777
 20
269.2668329804
 10
184.9436082135
 20
265.3412201843
 10
188.2143546714
 20
261.3420706442
 10
191.1592674882
 20
257.276307623
 10
193.7732484787
 20
253.1509697036
 10
196.0517723611
 20
248.9731986043
 10
197.9908945919
 20
244.7502268147
 10
199.5872581942
 20
240.4893650751
 10
200.8380995691
 20
236.1979897204
 10
201.7412532803
 20
231.88352991
 10
202.2951558027
 20
227.5534547668
 10
202.4988482293
 20
223.2152604468
 10
202.351977931
 20
218.8764571616
 10
201.8547991673
 20
214.5445561773
 10
201.008172646
 20
210.2270568105
 10
199.8135640333
 20
205.9314334463
 10
198.2730414162
 20
201.6651225982
 10
196.3892717225
 20
197.4355100345
 10
194.1655161038
 20
193.2499179917
 10
191.6056242897
 20
189.1155924992
 10
188.7140279236
 20
185.0396908342
 10
185.4957328902
 20
181.0292691316
 10
181.9563106496
 20
177.0912701684
 10
178.1018885924
 20
173.2325113447
 10
173.9391394315
 20
169.4596728813
 10
169.4752696508
 20
165.7792862548
 10
164.7180070294
 20
162.1977228911
 10
159.6755872632
 20
158.7211831346
 10
154.3567397077
 20
155.3556855146
 10
148.7706722655
 20
152.107056326
 10
142.927055446
 20
148.980919543
 10
136.8360056241
 20
145.9826870831
 10
130.5080675265
 20
143.1175494375
 10
123.954195977
 20
140.3904666863
 10
117.185736932
 20
137.8061599109
 10
110.214407838
 20
135.3691030212
 10
103.052277347
 20
133.0835150108
 10
95.7117444233
 20
130.9533526524
 10
88.2055168785
 20
128.9823036488
 10
80.5465893721
 20
127.1737802479
 10
72.7482209153
 20
125.5309133362
 10
64.8239119172
 20
124.0565470182
 10
56.7873808132
 20
122.7532336931
 10
48.6525403157
 20
121.6232296358
 10
40.4334733287
 20
120.6684910909
 10
32.1444085679
 20
119.8906708864
 10
23.7996959278
 20
119.291115572
 10
15.4137816397
 20
118.8708630881
 10
7.0011832627
 20
118.6306409691
 10
-1.4235354494
 20
118.5708650835
 10
-9.84578976
 20
118.6916389144
 10
-18.2509991989
 20
118.9927533802
 10
-26.6246128037
 20
119.4736871963
 10
-34.9521343102
 20
120.1336077779
 10
-43.2191472482
 20
120.9713726813
 10
-51.4113398987
 20
121.9855315812
 10
-59.5145300707
 20
123.1743287824
 10
-67.5146896525
 20
124.5357062583
 10
-75.3979688976
 20
126.0673072144
 10
-83.1507204006
 20
127.7664801678
 10
-90.7595227238
 20
129.6302835379
 10
-98.2112036319
 20
131.6554907385
 10
-105.4928628956
 20
133.8385957638
 10
-112.5918946245
 20
136.1758192575
 10
-119.4960090897
 20
138.6631150564
 10
-126.1932540002
 20
141.2961771942
 10
-132.6720351942
 20
144.0704473564
 10
-138.9211367106
 20
146.9811227716
 10
-144.9297402061
 20
150.0231645254
 10
-150.6874436838
 20
153.1913062846
 10
-156.1842795006
 20
156.4800634135
 10
-161.4107316234
 20
159.8837424691
 10
-166.3577521031
 20
163.3964510572
 10
-171.0167767379
 20
167.0121080337
 10
-175.3797398999
 20
170.7244540319
 10
-179.4390884979
 20
174.5270622985
 10
-183.1877950535
 20
178.4133498197
 10
-186.6193698665
 20
182.3765887175
 10
-189.7278722503
 20
186.4099178969
 10
-192.507920816
 20
190.5063549238
 10
-194.9547027884
 20
194.6588081128
 10
-197.0639823382
 20
198.8600888043
 10
-198.832107915
 20
203.1029238091
 10
-200.2560185683
 20
207.3799680002
 10
-201.3332492471
 20
211.6838170277
 10
-202.0619350671
 20
216.0070201382
 10
-202.4408145392
 20
220.3420930723
 10
-202.4692317534
 20
224.6815310221
 10
-202.1471375144
 20
229.0178216229
 10
-201.4750894263
 20
233.3434579587
 10
-200.454250928
 20
237.650951558
 10
-199.0863892786
 20
241.9328453575
 10
-197.3738724979
 20
246.1817266123
 10
-195.3196652673
 20
250.3902397278
 10
-192.9273237971
 20
254.5510989943
 10
-190.2009896699
 20
258.6571011998
 10
-187.1453826714
 20
262.7011380998
 10
-183.7657926188
 20
266.676208723
 10
-180.0680702037
 20
270.5754314916
 10
-176.0586168631
 20
274.3920561344
 10
-171.7443736978
 20
278.1194753726
 10
-167.1328094556
 20
281.7512363585
 10
-162.2319076018
 20
285.2810518462
 10
-157.0501524983
 20
288.7028110764
 10
-151.5965147156
 20
292.0105903549
 10
-145.8804355029
 20
295.1986633078
 10
-139.9118104441
 20
298.261510795
 10
-133.7009723261
 20
301.1938304645
 10
-127.2586732512
 20
303.9905459319
 10
-120.5960660232
 20
306.6468155688
 10
-113.7246848398
 20
309.1580408843
 10
-106.6564253247
 20
311.5198744856
 10
-99.4035239343
 20
313.7282276049
 10
-91.978536774
 20
315.7792771769
 10
-84.3943178612
 20
317.6694724579
 10
-76.6639968727
 20
319.3955411724
 10
-68.8009564151
 20
320.9544951782
 10
-60.8188088566
 20
322.3436356394
 10
-52.7313727616
 20
323.5605576986
 10
-44.5526489686
 20
324.60315464
 10
-36.2967963515
 20
325.4696215367
 10
-27.9781073088
 20
326.1584583752
 10
-19.61098302
 20
326.6684726523
 10
-11.2099085152
 20
326.9987814397
 10
-2.7894275984
 20
327.148812912
 10
5.6358823302
 20
327.1183073372
 10
14.0514355107
 20
326.9073175262
 10
22.4426630737
 20
326.5162087409
 10
30.7950382621
 20
325.9456580627
 10
39.0941015792
 20
325.1966532195
 10
47.3254858211
 20
324.2704908766
 10
55.4749409487
 20
323.168774391
 10
63.5283587575
 20
321.8934110365
 10
71.471797301
 20
320.4466087015
 10
79.2915050271
 20
318.8308720668
 10
86.9739445845
 20
317.0489982694
 10
94.5058162583
 20
315.1040720604
  0
LWPOLYLINE
  5
1D2
330
1C8
100
AcDbEntity
  8
0
  6
Continuous
 62
     7
370
    25
100
AcDbPolyline
 90
      146
 70
   128
 43
0.0
 10
87.5053854244
 20
308.2714369584
 10
94.6067237152
 20
306.2389489404
 10
101.5304477675
 20
304.0499322253
 10
108.2635590128
 20
301.7084964634
 10
114.7934167383
 20
299.2190374555
 10
121.1077618185
 20
296.5862289008
 10
127.1947397301
 20
293.8150136224
 10
133.0429228082
 20
290.9105942873
 10
138.6413317001
 20
287.8784236394
 10
143.979455978
 20
284.7241942623
 10
149.0472738715
 20
281.4538278919
 10
153.835271082
 20
278.0734642995
 10
158.3344586449
 20
274.5894497644
 10
162.5363898058
 20
271.00832516
 10
166.4331758778
 20
267.3368136736
 10
170.0175010525
 20
263.5818081842
 10
173.2826361337
 20
259.7503583223
 10
176.2224511715
 20
255.8496572348
 10
178.8314269704
 20
251.8870280803
 10
181.1046654508
 20
247.8699102811
 10
183.0378988451
 20
243.805845556
 10
184.6274977096
 20
239.7024637619
 10
185.8704777385
 20
235.5674685694
 10
186.7645053667
 20
231.4086229999
 10
187.3079021507
 20
227.2337348515
 10
187.4996479198
 20
223.0506420403
 10
187.3393826914
 20
218.8671978861
 10
186.8274073467
 20
214.6912563681
 10
185.9646830659
 20
210.5306573803
 10
184.7528295237
 20
206.3932120124
 10
183.1941218486
 20
202.2866878858
 10
181.2914863513
 20
198.2187945706
 10
179.0484950311
 20
194.1971691113
 10
176.4693588699
 20
190.2293616896
 10
173.5589199263
 20
186.3228214492
 10
170.3226422454
 20
182.4848825114
 10
166.7666016004
 20
178.7227502054
 10
162.8974740859
 20
175.0434875415
 10
158.7225235847
 20
171.4540019511
 10
154.24958813
 20
167.9610323181
 10
149.4870651909
 20
164.5711363281
 10
144.4438959064
 20
161.2906781567
 10
139.1295483
 20
158.1258165212
 10
133.5539995041
 20
155.0824931188
 10
127.7277170289
 20
152.166421471
 10
121.6616391109
 20
149.3830761978
 10
115.3671541777
 20
146.7376827391
 10
108.856079467
 20
144.2352075446
 10
102.1406388413
 20
141.8803487501
 10
95.2334398386
 20
139.6775273569
 10
88.1474500033
 20
137.6308789319
 10
80.8959725411
 20
135.7442458439
 10
73.492621343
 20
134.0211700492
 10
65.9512954274
 20
132.4648864426
 10
58.2861528458
 20
131.0783167839
 10
50.5115841025
 20
129.8640642129
 10
42.6421851378
 20
128.8244083619
 10
34.6927299261
 20
127.9613010761
 10
26.678142739
 20
127.2763627492
 10
18.6134701264
 20
126.7708792813
 10
10.5138526686
 20
126.4457996649
 10
2.3944965509
 20
126.301734203
 10
-5.7293549839
 20
126.3389533635
 10
-13.8424502533
 20
126.5573872711
 10
-21.9295577687
 20
126.9566258392
 10
-29.9754948308
 20
127.535919539
 10
-37.9651560335
 20
128.2941808071
 10
-45.8835416225
 20
129.2299860873
 10
-53.7157856565
 20
130.3415785028
 10
-61.4471839155
 20
131.6268711551
 10
-69.0632215073
 20
133.0834510415
 10
-76.5496001169
 20
134.7085835855
 10
-83.8922648508
 20
136.4992177705
 10
-91.0774306232
 20
138.451991868
 10
-98.0916080361
 20
140.5632397485
 10
-104.9216287043
 20
142.8289977649
 10
-111.5546699777
 20
145.2450121932
 10
-117.9782790143
 20
147.8067472188
 10
-124.1803961593
 20
150.5093934517
 10
-130.1493775859
 20
153.3478769562
 10
-135.8740171552
 20
156.3168687759
 10
-141.3435674544
 20
159.4107949391
 10
-146.5477599744
 20
162.6238469225
 10
-151.4768243876
 20
165.9499925569
 10
-156.1215068905
 20
169.3829873513
 10
-160.473087577
 20
172.9163862167
 10
-164.523396809
 20
176.543555566
 10
-168.2648305543
 20
180.2576857676
 10
-171.6903646619
 20
184.0518039303
 10
-174.7935680494
 20
187.9187869936
 10
-177.5686147767
 20
191.8513751008
 10
-180.0102949835
 20
195.8421852287
 10
-182.1140246704
 20
199.8837250483
 10
-183.8758543047
 20
203.9684069909
 10
-185.2924762354
 20
208.0885624928
 10
-186.3612309028
 20
212.2364563927
 10
-187.0801118316
 20
216.4043014532
 10
-187.4477693981
 20
220.5842729806
 10
-187.4635133636
 20
224.7685235151
 10
-187.1273141705
 20
228.9491975637
 10
-186.4398029975
 20
233.1184463476
 10
-185.4022705751
 20
237.2684425378
 10
-184.016664762
 20
241.3913949501
 10
-182.2855868884
 20
245.4795631722
 10
-180.212286872
 20
249.5252720953
 10
-177.800657117
 20
253.5209263238
 10
-175.0552252063
 20
257.4590244343
 10
-171.9811454015
 20
261.332173059
 10
-168.5841889661
 20
265.1331007662
 10
-164.8707333309
 20
268.8546717112
 10
-160.847750121
 20
272.4898990334
 10
-156.5227920668
 20
276.0319579734
 10
-151.9039788253
 20
279.4741986856
 10
-146.9999817356
 20
282.8101587227
 10
-141.82000754
 20
286.0335751684
 10
-136.3737810987
 20
289.1383963951
 10
-130.6715271328
 20
292.1187934252
 10
-124.7239510283
 20
294.9691708749
 10
-118.5422187379
 20
297.6841774583
 10
-112.1379358181
 20
300.2587160343
 10
-105.5231256408
 20
302.6879531755
 10
-98.7102068211
 20
304.9673282432
 10
-91.711969902
 20
307.0925619489
 10
-84.5415533423
 20
309.0596643882
 10
-77.2124188497
 20
310.864942532
 10
-69.7383261085
 20
312.505007159
 10
-62.1333069469
 20
313.9767792195
 10
-54.4116389936
 20
315.277495615
 10
-46.5878188735
 20
316.4047143865
 10
-38.6765349914
 20
317.3563192985
 10
-30.692639956
 20
318.1305238122
 10
-22.6511226961
 20
318.7258744395
 10
-14.5670803201
 20
319.1412534719
 10
-6.4556897729
 20
319.3758810786
 10
1.6678206573
 20
319.4293167708
 10
9.7881999285
 20
319.3014602286
 10
17.8902028771
 20
318.9925514892
 10
25.9586188391
 20
318.5031704966
 10
33.9783002065
 20
317.8342360124
 10
41.9341908657
 20
316.9870038912
 10
49.8113544631
 20
315.9630647228
 10
57.5950024472
 20
314.764340846
 10
65.2705218322
 20
313.3930827397
 10
72.8235026325
 20
311.8518647976
 10
80.2397649157
 20
310.1435804954
 10
87.5053854244
 20
308.2714369584
  0
LWPOLYLINE
  5
1D3
330
1C8
100
AcDbEntity
  8
0
  6
Continuous
 62
     7
370
    25
100
AcDbPolyline
 90
       70
 70
   128
 43
0.0
 10
193.8819205085
 20
133.2071593393
 10
193.3212447844
 20
131.085607579
 10
191.9412516333
 20
126.8730149506
 10
190.2153673734
 20
122.6943830539
 10
188.1467021646
 20
118.557242066
 10
185.7389838816
 20
114.4690473946
 10
182.9965513954
 20
110.437166243
 10
179.9243467548
 20
106.4688643333
 10
176.5279062801
 20
102.5712928139
 10
172.8133505866
 20
98.7514753721
 10
168.7873735549
 20
95.0162955771
 10
164.4572302675
 20
91.3724844753
 10
159.8307239354
 20
87.8266084608
 10
154.9161918358
 20
84.3850574416
 10
149.7224902875
 20
81.0540333253
 10
144.258978692
 20
77.8395388426
 10
138.5355026662
 20
74.7473667298
 10
132.562376301
 20
71.78308929
 10
126.3503635737
 20
68.9520483516
 10
119.9106589511
 20
66.2593456416
 10
113.2548672163
 20
63.7098335923
 10
106.3949825558
 20
61.3081065968
 10
99.3433669454
 20
59.0584927295
 10
92.112727873
 20
56.9650459466
 10
84.7160954391
 20
55.0315387807
 10
77.1667988752
 20
53.2614555424
 10
69.478442524
 20
51.6579860413
 10
61.6648813233
 20
50.2240198379
 10
53.7401958384
 20
48.9621410361
 10
45.7186668883
 20
47.874623627
 10
37.6147498103
 20
46.9634273902
 10
29.4430484108
 20
46.2301943632
 10
21.2182886479
 20
45.6762458812
 10
12.9552920948
 20
45.302580197
 10
4.6689492296
 20
45.1098706813
 10
-3.6258073976
 20
45.0984646098
 10
-11.9140300749
 20
45.2683825369
 10
-20.1807828647
 20
45.6193182591
 10
-28.4111685197
 20
46.1506393664
 10
-36.5903553287
 20
46.8613883823
 10
-44.7036038443
 20
47.7502844891
 10
-52.7362934442
 20
48.8157258358
 10
-60.6739486788
 20
50.0557924252
 10
-68.5022653569
 20
51.4682495735
 10
-76.2071363227
 20
53.0505519373
 10
-83.774676878
 20
54.799848101
 10
-91.1912498032
 20
56.7129857145
 10
-98.4434899325
 20
58.7865171745
 10
-105.5183282392
 20
61.0167058373
 10
-112.4030153862
 20
63.3995327522
 10
-119.0851447022
 20
65.9307039039
 10
-125.5526745384
 20
68.6056579509
 10
-131.7939499689
 20
71.4195744454
 10
-137.7977237935
 20
74.3673825194
 10
-143.5531768059
 20
77.4437700238
 10
-149.049937291
 20
80.6431931002
 10
-154.2780997146
 20
83.959886172
 10
-159.2282425748
 20
87.3878723341
 10
-163.8914453796
 20
90.9209741238
 10
-168.2593047222
 20
94.5528246527
 10
-172.323949425
 20
98.2768790809
 10
-176.0780547235
 20
102.0864264105
 10
-179.514855466
 20
105.9746015797
 10
-182.6281583056
 20
109.934397834
 10
-185.4123528599
 20
113.9586793531
 10
-187.8624218222
 20
118.0401941095
 10
-189.9739500026
 20
122.1715869378
 10
-191.7431322847
 20
126.3454127888
 10
-193.1667804824
 20
130.5541501464
 10
-193.8813056668
 20
133.2046321783
  0
LWPOLYLINE
  5
1D4
330
1C8
100
AcDbEntity
  8
0
  6
Continuous
 62
     7
370
    25
100
AcDbPolyline
 90
       72
 70
   128
 43
0.0
 10
189.5848547166
 20
121.3539225236
 10
189.4412072202
 20
120.3197185606
 10
188.6393504464
 20
116.1290073562
 10
187.4881770212
 20
111.9599438811
 10
185.9898186527
 20
107.8202482811
 10
184.1470499558
 20
103.7175863193
 10
181.9632833139
 20
99.6595551814
 10
179.44256256
 20
95.6536694068
 10
176.5895554887
 20
91.7073469738
 10
173.4095452124
 20
87.8278955631
 10
169.908420378
 20
84.0224990256
 10
166.0926642627
 20
80.2982040796
 10
161.9693427685
 20
76.6619072622
 10
157.5460913375
 20
73.1203421579
 10
152.8311008132
 20
69.6800669299
 10
147.8331022726
 20
66.3474521761
 10
142.5613508584
 20
63.1286691317
 10
137.0256086407
 20
60.0296782421
 10
131.2361265397
 20
57.0562181249
 10
125.2036253435
 20
54.2137949438
 10
118.9392758556
 20
51.5076722121
 10
112.4546782091
 20
48.9428610462
 10
105.7618403862
 20
46.5241108859
 10
98.8731559817
 20
44.2559006998
 10
91.8013812534
 20
42.1424306909
 10
84.5596115001
 20
40.1876145192
 10
77.1612568123
 20
38.3950720542
 10
69.6200172397
 20
36.7681226719
 10
61.9498574221
 20
35.309779108
 10
54.1649807296
 20
34.0227418792
 10
46.2798029619
 20
32.9093942819
 10
38.3089256529
 20
31.9717979798
 10
30.2671090324
 20
31.2116891854
 10
22.1692446937
 20
30.630475445
 10
14.0303280172
 20
30.2292330328
 10
5.8654304031
 20
30.0087049574
 10
-2.3103286379
 20
29.969299586
 10
-10.481809482
 20
30.1110898883
 10
-18.633880428
 20
30.4338133012
 10
-26.751445717
 20
30.9368722153
 10
-34.8194734869
 20
31.6193350813
 10
-42.8230236074
 20
32.4799381351
 10
-50.7472753463
 20
33.5170877379
 10
-58.5775548135
 20
34.7288633275
 10
-66.299362134
 20
36.1130209743
 10
-73.8983982982
 20
37.6669975371
 10
-81.3605916405
 20
39.387915409
 10
-88.6721238967
 20
41.2725878463
 10
-95.8194557921
 20
43.3175248694
 10
-102.7893521135
 20
45.5189397258
 10
-109.5689062174
 20
47.872755902
 10
-116.1455639301
 20
50.3746146721
 10
-122.5071467957
 20
53.0198831698
 10
-128.6418746271
 20
55.8036629667
 10
-134.5383873207
 20
58.7207991435
 10
-140.1857658922
 20
61.7658898355
 10
-145.5735526967
 20
64.9332962357
 10
-150.6917707933
 20
68.2171530366
 10
-155.5309424204
 20
71.6113792915
 10
-160.0821065459
 20
75.1096896746
 10
-164.3368354618
 20
78.7056061204
 10
-168.2872503894
 20
82.3924698196
 10
-171.9260360698
 20
86.1634535491
 10
-175.2464543096
 20
90.0115743154
 10
-178.2423564585
 20
93.9297062845
 10
-180.9081947954
 20
97.910593978
 10
-183.2390328014
 20
101.9468657084
 10
-185.2305543011
 20
106.0310472295
 10
-186.8790714552
 20
110.1555755774
 10
-188.1815315893
 20
114.3128130751
 10
-189.1355228471
 20
118.4950614757
 10
-189.5848547166
 20
121.3539225236
  0
LWPOLYLINE
  5
1D5
330
1C8
100
AcDbEntity
  8
0
  6
Continuous
 62
     1
370
    25
100
AcDbPolyline
 90
       73
 70
   128
 43
0.0
 10
198.1291539588
 20
155.9601206253
 10
197.6771710433
 20
153.1104714108
 10
196.7032818456
 20
148.8271300725
 10
195.3796613911
 20
144.5687418423
 10
193.7086630286
 20
140.3428779791
 10
191.6932577323
 20
136.1570519145
 10
189.3370288192
 20
132.0187058946
 10
186.6441655783
 20
127.9351977477
 10
183.6194558222
 20
123.913787802
 10
180.2682773745
 20
119.9616259779
 10
176.5965885081
 20
116.0857390747
 10
172.6109173519
 20
112.293018278
 10
168.3183502838
 20
108.5902069069
 10
163.7265193313
 20
104.9838884249
 10
158.8435886023
 20
101.4804747347
 10
153.6782397695
 20
98.0861947779
 10
148.2396566345
 20
94.8070834605
 10
142.5375087997
 20
91.6489709227
 10
136.5819344759
 20
88.6174721733
 10
130.3835224569
 20
85.7179771066
 10
123.9532932931
 20
82.9556409188
 10
117.3026796972
 20
80.3353749431
 10
110.4435062175
 20
77.8618379165
 10
103.3879682142
 20
75.5394276978
 10
96.1486101764
 20
73.3722734474
 10
88.7383034184
 20
71.3642282867
 10
81.1702231952
 20
69.5188624466
 10
73.4578252774
 20
67.8394569202
 10
65.6148220269
 20
66.3289976293
 10
57.6551580173
 20
64.9901701153
 10
49.5929852408
 20
63.8253547648
 10
41.4426379463
 20
62.8366225769
 10
33.218607154
 20
62.0257314813
 10
24.9355148903
 20
61.3941232129
 10
16.6080881912
 20
60.9429207481
 10
8.2511329173
 20
60.6729263084
 10
-0.1204925698
 20
60.5846199341
 10
-8.4919038255
 20
60.6781586306
 10
-16.8482167861
 20
60.9533760896
 10
-25.1745742321
 20
61.4097829845
 10
-33.4561722038
 20
62.0465678405
 10
-41.6782863222
 20
62.8625984774
 10
-49.8262979686
 20
63.8564240224
 10
-57.8857202754
 20
65.02627749
 10
-65.842223884
 20
66.3700789235
 10
-73.6816624214
 20
67.8854390929
 10
-81.3900976518
 20
69.5696637431
 10
-88.9538242588
 20
71.4197583842
 10
-96.3593942124
 20
73.4324336154
 10
-103.5936406796
 20
75.6041109737
 10
-110.643701434
 20
77.9309292958
 10
-117.4970417251
 20
80.4087515838
 10
-124.1414765637
 20
83.0331723601
 10
-130.5651923874
 20
85.7995255002
 10
-136.7567680637
 20
88.7028925293
 10
-142.705195197
 20
91.7381113667
 10
-148.3998977011
 20
94.8997855041
 10
-153.8307506025
 20
98.1822936003
 10
-158.9880980432
 20
101.5797994756
 10
-163.8627704475
 20
105.0862624886
 10
-168.4461008257
 20
108.695448276
 10
-172.7299401838
 20
112.4009398372
 10
-176.7066720117
 20
116.1961489435
 10
-180.3692258253
 20
120.0743278515
 10
-183.7110897376
 20
124.0285813006
 10
-186.7263220366
 20
128.0518787726
 10
-189.4095617491
 20
132.1370669913
 10
-191.756038173
 20
136.2768826412
 10
-193.7615793588
 20
140.4639652811
 10
-195.4226195274
 20
144.6908704309
 10
-196.73620541
 20
148.9500828075
 10
-197.700001499
 20
153.2340296867
 10
-198.1290652376
 20
155.959445042
  0
LWPOLYLINE
  5
1D6
330
1C8
100
AcDbEntity
  8
0
  6
Continuous
 62
     1
370
    25
100
AcDbPolyline
 90
       20
 70
   128
 43
0.0
 10
85.7205072419
 20
247.9625156249
 10
92.7730869218
 20
245.94254207
 10
99.6465896066
 20
243.7649700409
 10
106.3277475886
 20
241.4340028369
 10
112.8036644371
 20
238.9541398514
 10
119.0618398917
 20
236.3301678863
 10
125.0901939917
 20
233.567151913
 10
130.8770903932
 20
230.6704252949
 10
136.4113588307
 20
227.6455794931
 10
141.6823166784
 20
224.4984532731
 10
146.679789571
 20
221.2351214343
 10
151.3941310424
 20
217.8618830845
 10
155.8162411463
 20
214.3852494803
 10
159.9375840217
 20
210.8119314591
 10
163.7502043689
 20
207.1488264853
 10
167.2467428059
 20
203.403005336
 10
170.4204500735
 20
199.5816984529
 10
173.2652000638
 20
195.6922819856
 10
175.7755016445
 20
191.7422635531
 10
176.5639083363
 20
190.3653046652
  0
LWPOLYLINE
  5
1D7
330
1C8
100
AcDbEntity
  8
0
  6
Continuous
 62
     1
370
    25
100
AcDbPolyline
 90
       42
 70
   128
 43
0.0
 10
-176.5639083363
 20
190.3653046652
 10
-175.536233496
 20
192.1455139611
 10
-172.9917722564
 20
196.0897303239
 10
-170.1133903964
 20
199.9725775395
 10
-166.9066439667
 20
203.786560669
 10
-163.3777228499
 20
207.5243176999
 10
-159.5334388123
 20
211.1786337564
 10
-155.3812123554
 20
214.7424550261
 10
-150.9290583924
 20
218.2089023762
 10
-146.1855707773
 20
221.5712846314
 10
-141.159905716
 20
224.8231114902
 10
-135.8617640932
 20
227.9581060527
 10
-130.3013727462
 20
230.9702169366
 10
-124.489464725
 20
233.8536299584
 10
-118.4372585742
 20
236.6027793558
 10
-112.1564366787
 20
239.2123585315
 10
-105.6591227129
 20
241.6773302963
 10
-98.9578582392
 20
243.9929365921
 10
-92.0655784994
 20
246.1547076762
 10
-84.995587446
 20
248.1584707495
 10
-77.7615320622
 20
250.0003580106
 10
-70.3773760192
 20
251.6768141219
 10
-62.8573727233
 20
253.1846030726
 10
-55.216037802
 20
254.5208144247
 10
-47.4681210857
 20
255.682868931
 10
-39.6285781364
 20
256.6685235141
 10
-31.7125413792
 20
257.4758755957
 10
-23.7352908928
 20
258.1033667692
 10
-15.712224915
 20
258.549785808
 10
-7.6588301197
 20
258.8142710033
 10
0.4093482764
 20
258.8963118277
 10
8.4767365203
 20
258.7957499203
 10
16.5277623842
 20
258.5127793925
 10
24.5468852241
 20
258.0479464537
 10
32.5186259773
 20
257.4021483562
 10
40.4275970414
 20
256.576631664
 10
48.2585319764
 20
255.5729898463
 10
55.9963149728
 20
254.3931602015
 10
63.6260100295
 20
253.039420118
 10
71.1328897844
 20
251.5143826779
 10
78.5024639415
 20
249.8209916136
 10
85.7205072419
 20
247.9625156249
  0
VIEWPORT
  5
205
330
1C8
100
AcDbEntity
  8
0
100
AcDbViewport
 10
0.0
 20
0.0
 30
0.0
 40
205.6
 41
156.0
 68
     1
 69
     1
 12
0.0109564813
 22
147.980600436
 13
0.0
 23
0.0
 14
10.0
 24
10.0
 15
10.0
 25
10.0
 16
0.0
 26
0.0
 36
1.0
 17
0.0
 27
0.0
 37
0.0
 42
50.0
 43
0.0
 44
0.0
 45
369.6871497605
 50
0.0
 51
0.0
 72
   100
 90
   557152
  1

281
     0
 71
     1
 74
     0
110
0.0
120
0.0
130
0.0
111
1.0
121
0.0
131
0.0
112
0.0
122
1.0
132
0.0
 79
     0
146
0.0
170
     0
 61
     5
348
2F
292
     1
282
     1
141
0.0
142
0.0
 63
   256
361
206
  0
ENDBLK
  5
1CB
330
1C8
100
AcDbEntity
  8
0
100
AcDbBlockEnd
  0
BLOCK
  5
1DA
330
1D8
100
AcDbEntity
  8
0
100
AcDbBlockBegin
  2
*Paper_Space10
 70
     0
 10
0.0
 20
0.0
 30
0.0
  3
*Paper_Space10
  1

  0
SPLINE
  5
1DC
330
1D8
100
AcDbEntity
  8
0
  6
Continuous
 62
     7
370
    25
100
AcDbSpline
210
0.0
220
0.0
230
1.0
 70
     8
 71
     3
 72
    13
 73
     9
 74
     0
 42
0.000000001
 43
0.00000001
 40
0.0
 40
0.0
 40
0.0
 40
0.0
 40
0.1104473532314927
 40
0.3079462032044366
 40
0.5052911647217248
 40
0.7024711902960259
 40
0.8994756332705117
 40
1.0
 40
1.0
 40
1.0
 40
1.0
 10
198.3852593610098
 20
176.5025161291526
 30
0.0
 10
198.6906256074686
 20
179.0155519571486
 30
0.0
 10
199.5420391853629
 20
186.0223277567106
 30
0.0
 10
200.5890433863264
 20
197.5618766755331
 30
0.0
 10
201.5593193552873
 20
211.1034812680615
 30
0.0
 10
202.1805690221085
 20
224.6561277267713
 30
0.0
 10
202.4894534094291
 20
236.0002976825496
 30
0.0
 10
202.4678072618683
 20
242.8245821693692
 30
0.0
 10
202.4604938011051
 20
245.1302643555815
 30
0.0
  0
SPLINE
  5
1DD
330
1D8
100
AcDbEntity
  8
0
  6
Continuous
 62
     7
370
    25
100
AcDbSpline
210
0.0
220
0.0
230
1.0
 70
     8
 71
     3
 72
    13
 73
     9
 74
     0
 42
0.000000001
 43
0.00000001
 40
0.0
 40
0.0
 40
0.0
 40
0.0
 40
0.0962783327701514
 40
0.2928756242921763
 40
0.4892626553928856
 40
0.6854288300551106
 40
0.8813632255641258
 40
1.0
 40
1.0
 40
1.0
 40
1.0
 10
-202.4604938629204
 20
245.1301910766725
 30
0.0
 10
-202.4684074207905
 20
242.9216247627407
 30
0.0
 10
-202.4924802119876
 20
236.2032363219306
 30
0.0
 10
-202.1914141754855
 20
224.9823678736949
 30
0.0
 10
-201.5807833534165
 20
211.482159457602
 30
0.0
 10
-200.6266196502847
 20
198.018879889564
 30
0.0
 10
-199.5749241961742
 20
186.3529175833717
 30
0.0
 10
-198.7117327192086
 20
179.1936014158801
 30
0.0
 10
-198.3861903226639
 20
176.4935504944094
 30
0.0
  0
SPLINE
  5
1DE
330
1D8
100
AcDbEntity
  8
0
  6
Continuous
 62
     7
370
    25
100
AcDbSpline
210
0.0
220
0.0
230
1.0
 70
     8
 71
     3
 72
    10
 73
     6
 74
     0
 42
0.000000001
 43
0.00000001
 40
0.0
 40
0.0
 40
0.0
 40
0.0
 40
0.2389112358624684
 40
0.6334393184542784
 40
1.0
 40
1.0
 40
1.0
 40
1.0
 10
194.8327935115701
 20
155.5060099939738
 30
0.0
 10
195.2004181387199
 20
157.1622484306192
 30
0.0
 10
196.1751227918021
 20
161.5535301663618
 30
0.0
 10
197.3886356677712
 20
168.5542652862774
 30
0.0
 10
198.0805035235775
 20
173.9144558635445
 30
0.0
 10
198.4137255664116
 20
176.4960668448137
 30
0.0
  0
SPLINE
  5
1DF
330
1D8
100
AcDbEntity
  8
0
  6
Continuous
 62
     7
370
    25
100
AcDbSpline
210
0.0
220
0.0
230
1.0
 70
     8
 71
     3
 72
    10
 73
     6
 74
     0
 42
0.000000001
 43
0.00000001
 40
0.0
 40
0.0
 40
0.0
 40
0.0
 40
0.3349477337920153
 40
0.7200850806623292
 40
1.0
 40
1.0
 40
1.0
 40
1.0
 10
-198.404935838842
 20
176.4866015640517
 30
0.0
 10
-198.1062631507784
 20
174.1261105392464
 30
0.0
 10
-197.4641637275608
 20
169.0514251524955
 30
0.0
 10
-196.2651788361747
 20
162.0462599175905
 30
0.0
 10
-195.2604014367762
 20
157.4302169001554
 30
0.0
 10
-194.8374990590299
 20
155.4873631207797
 30
0.0
  0
SPLINE
  5
1E2
330
1D8
100
AcDbEntity
  8
0
  6
Continuous
 62
     7
370
    25
100
AcDbSpline
210
0.0
220
0.0
230
1.0
 70
     8
 71
     3
 72
    41
 73
    37
 74
     0
 42
0.000000001
 43
0.00000001
 40
0.0
 40
0.0
 40
0.0
 40
0.0
 40
0.0025243653171818
 40
0.0260397355141358
 40
0.0505867407812566
 40
0.0771281652301645
 40
0.1064847869524658
 40
0.1343456143134497
 40
0.1627264767057533
 40
0.191394931365184
 40
0.220294470491068
 40
0.2494174698265035
 40
0.278760196950983
 40
0.3083125164595279
 40
0.3380582680217387
 40
0.3679779540075142
 40
0.3980511829959406
 40
0.428258308154128
 40
0.4585813294164749
 40
0.4890042734119717
 40
0.519513250558775
 40
0.5500963352539254
 40
0.5807433638093347
 40
0.6114457063944359
 40
0.6421960436544872
 40
0.6729881628552726
 40
0.7038167792232674
 40
0.7381627363134386
 40
0.7724989758223846
 40
0.8067255624279521
 40
0.8408426016380156
 40
0.8748528635033856
 40
0.9087590781933832
 40
0.942563828498098
 40
0.9762695222647213
 40
1.0
 40
1.0
 40
1.0
 40
1.0
 10
1.047379940937374
 20
-11.0234343338233
 30
0.0
 10
1.260220126142804
 20
-11.02544297475427
 30
0.0
 10
3.455743132185471
 20
-11.04616282787108
 30
0.0
 10
7.719556757539159
 20
-10.87477379872318
 30
0.0
 10
13.98442412058937
 20
-10.47436343952343
 30
0.0
 10
20.70101188153163
 20
-9.754515725230755
 30
0.0
 10
27.64328366200149
 20
-8.725581522834508
 30
0.0
 10
34.68121933355148
 20
-7.384222621336701
 30
0.0
 10
41.60420155343027
 20
-5.783811408202583
 30
0.0
 10
48.54689566779221
 20
-3.895287741095515
 30
0.0
 10
55.47684606776884
 20
-1.725764726261722
 30
0.0
 10
62.37920672725596
 20
0.7217379037203903
 30
0.0
 10
69.24214784011791
 20
3.445221870038095
 30
0.0
 10
76.05276781700412
 20
6.442354855843699
 30
0.0
 10
82.79682001193751
 20
9.709937613615201
 30
0.0
 10
89.45936491636999
 20
13.24384092129728
 30
0.0
 10
96.02543816496576
 20
17.03910896258073
 30
0.0
 10
102.4805141225385
 20
21.09011032307467
 30
0.0
 10
108.8107661216262
 20
25.39067847035838
 30
0.0
 10
115.0031789149922
 20
29.93422388960279
 30
0.0
 10
121.0455691601668
 20
34.71381596802245
 30
0.0
 10
126.9265558034185
 20
39.72223967649104
 30
0.0
 10
132.6355072249911
 20
44.9520327759006
 30
0.0
 10
138.1624828841996
 20
50.39551160001265
 30
0.0
 10
143.4981723943708
 20
56.0447814787772
 30
0.0
 10
148.6338578807405
 20
61.89176690004044
 30
0.0
 10
153.7470215695281
 20
68.15563841925699
 30
0.0
 10
158.7981163321531
 20
74.84934350456975
 30
0.0
 10
163.7399243974435
 20
81.9762267941614
 30
0.0
 10
168.3823593641434
 20
89.27942321694627
 30
0.0
 10
172.716615290874
 20
96.73843900194403
 30
0.0
 10
176.7380107928219
 20
104.3404059356796
 30
0.0
 10
180.4474461263554
 20
112.0710196662254
 30
0.0
 10
183.8277298504767
 20
119.9222727396414
 30
0.0
 10
186.6278771384314
 20
127.0872671973625
 30
0.0
 10
188.1613834449453
 20
131.6789942335386
 30
0.0
 10
188.7949708918808
 20
133.5761240969879
 30
0.0
  0
SPLINE
  5
1E3
330
1D8
100
AcDbEntity
  8
0
  6
Continuous
 62
     7
370
    25
100
AcDbSpline
210
0.0
220
0.0
230
1.0
 70
     8
 71
     3
 72
    42
 73
    38
 74
     0
 42
0.000000001
 43
0.00000001
 40
0.0
 40
0.0
 40
0.0
 40
0.0
 40
0.015292853176335
 40
0.0470454876642383
 40
0.0787061888743354
 40
0.1102729994982218
 40
0.1417436594967132
 40
0.1731155775479038
 40
0.204385797162805
 40
0.2355509565612036
 40
0.2666072412488988
 40
0.2975503280890984
 40
0.3283753195400758
 40
0.3590766666874404
 40
0.3896480798186512
 40
0.4200824257192574
 40
0.4503716118672481
 40
0.4805064596768303
 40
0.5104765725559306
 40
0.5402702108070292
 40
0.5698741958063908
 40
0.5992738824540913
 40
0.628453263944518
 40
0.6573953082610127
 40
0.6860826701199104
 40
0.7144989643993112
 40
0.7426307910729846
 40
0.7704705679617735
 40
0.7980197014930758
 40
0.8252900789695011
 40
0.8522979118176711
 40
0.8790358401618682
 40
0.9054032718152037
 40
0.9311214387818245
 40
0.9558253045133431
 40
0.9794574643225449
 40
1.0
 40
1.0
 40
1.0
 40
1.0
 10
-188.7915508526179
 20
133.5764979324021
 30
0.0
 10
-188.3886675416258
 20
132.3409185840064
 30
0.0
 10
-187.1492754138873
 20
128.53989909321
 30
0.0
 10
-184.7690055968551
 20
122.2865707952686
 30
0.0
 10
-181.6753830237746
 20
114.8315026475776
 30
0.0
 10
-178.3021233787813
 20
107.5239339799612
 30
0.0
 10
-174.6760636684132
 20
100.3668549159867
 30
0.0
 10
-170.7995515654023
 20
93.37124642256911
 30
0.0
 10
-166.6819541893889
 20
86.54557961141188
 30
0.0
 10
-162.3312526457148
 20
79.8986041017538
 30
0.0
 10
-157.7562845928442
 20
73.43859248855358
 30
0.0
 10
-152.9661495292525
 20
67.17353051445026
 30
0.0
 10
-147.9703735924745
 20
61.11105558200821
 30
0.0
 10
-142.7788754189861
 20
55.25846270358875
 30
0.0
 10
-137.4019891398487
 20
49.62269253893278
 30
0.0
 10
-131.8504767041378
 20
44.21032380658532
 30
0.0
 10
-126.1355477315497
 20
39.0275634057333
 30
0.0
 10
-120.2688815305197
 20
34.08023492409841
 30
0.0
 10
-114.2626509786252
 20
29.37376373590608
 30
0.0
 10
-108.129544467889
 20
24.91315687420855
 30
0.0
 10
-101.8827794420519
 20
20.70297504763792
 30
0.0
 10
-95.5360959819666
 20
16.74729354069794
 30
0.0
 10
-89.10371144642811
 20
13.04964835635111
 30
0.0
 10
-82.60020670195824
 20
9.612964509570416
 30
0.0
 10
-76.0403016263622
 20
6.43946621564985
 30
0.0
 10
-69.43846611989376
 20
3.530575807954059
 30
0.0
 10
-62.80831496320118
 20
0.8868248514394411
 30
0.0
 10
-56.16178354756475
 20
-1.492171456694724
 30
0.0
 10
-49.50826115589719
 20
-3.607560422255296
 30
0.0
 10
-42.85436576835007
 20
-5.460761590771746
 30
0.0
 10
-36.20622244839965
 20
-7.052275302069838
 30
0.0
 10
-29.57775394687143
 20
-8.380254805046228
 30
0.0
 10
-23.00615736453572
 20
-9.438864180214418
 30
0.0
 10
-16.55871811703798
 20
-10.22626877944141
 30
0.0
 10
-10.30218297794096
 20
-10.74132241488865
 30
0.0
 10
-4.45593894648322
 20
-11.02055722037015
 30
0.0
 10
-0.6994828737366433
 20
-11.0225210808195
 30
0.0
 10
1.047379940937378
 20
-11.0234343338233
 30
0.0
  0
LWPOLYLINE
  5
1E4
330
1D8
100
AcDbEntity
  8
0
  6
Continuous
 62
     7
370
    25
100
AcDbPolyline
 90
      152
 70
   128
 43
0.0
 10
71.5945615787
 20
308.2708192075
 10
79.4122347395
 20
307.2234233945
 10
87.0924307264
 20
306.0685330603
 10
94.6218537083
 20
304.8081475325
 10
101.9874688703
 20
303.4444487699
 10
109.1765249787
 20
301.9797975859
 10
116.1765764562
 20
300.4167295608
 10
122.9755049269
 20
298.7579506527
 10
129.5615401961
 20
297.0063325127
 10
135.9232806263
 20
295.1649075137
 10
142.0497128755
 20
293.2368635009
 10
147.9302309635
 20
291.2255382729
 10
153.5546546326
 20
289.1344138032
 10
158.9132469717
 20
286.9671102128
 10
163.9967312726
 20
284.7273795023
 10
168.7963070896
 20
282.4190990574
 10
173.3036654749
 20
280.0462649358
 10
177.5110033627
 20
277.6129849494
 10
181.4110370777
 20
275.1234715531
 10
184.9970149448
 20
272.5820345522
 10
188.2627289772
 20
269.9930736413
 10
191.2025256238
 20
267.3610707874
 10
193.8113155561
 20
264.6905824714
 10
196.0845824793
 20
261.9862317992
 10
198.0183909506
 20
259.252700499
 10
199.6093931921
 20
256.4947208159
 10
200.8548348865
 20
253.7170673196
 10
201.7525599452
 20
250.9245486389
 10
202.3010142412
 20
248.1219991367
 10
202.4992482994
 20
245.3142705415
 10
202.3469189401
 20
242.5062235474
 10
201.8442898734
 20
239.7027193999
 10
200.9922312427
 20
236.90861148
 10
199.7922181181
 20
234.128736902
 10
198.2463279427
 20
231.3679081397
 10
196.3572369367
 20
228.6309046953
 10
194.1282154638
 20
225.9224648246
 10
191.5631223698
 20
223.2472773349
 10
188.6663983024
 20
220.6099734674
 10
185.4430580233
 20
218.0151188799
 10
181.8986817269
 20
215.4672057425
 10
178.0394053801
 20
212.9706449613
 10
173.8719100996
 20
210.5297585418
 10
169.4034105857
 20
208.1487721069
 10
164.6416426322
 20
205.8318075819
 10
159.5948497348
 20
203.5828760582
 10
154.2717688195
 20
201.4058708495
 10
148.6816151178
 20
199.3045607521
 10
142.8340662132
 20
197.28258352
 10
136.7392452875
 20
195.3434395672
 10
130.407703596
 20
193.4904859085
 10
123.8504022012
 20
191.7269303472
 10
117.0786929968
 20
190.0558259221
 10
110.1042990562
 20
188.4800656221
 10
102.9392943372
 20
187.0023773779
 10
95.5960827797
 20
185.6253193395
 10
88.0873768328
 20
184.3512754473
 10
80.4261754464
 20
183.1824513056
 10
72.6257415682
 20
182.1208703638
 10
64.699579183
 20
181.1683704136
 10
56.6614099347
 20
180.3266004074
 10
48.5251493717
 20
179.5970176039
 10
40.3048828563
 20
178.980885045
 10
32.0148411808
 20
178.4792693694
 10
23.669375931
 20
178.093038966
 10
15.2829346411
 20
177.8228624707
 10
6.8700357824
 20
177.6692076086
 10
-1.5547563709
 20
177.6323403845
 10
-9.9768569552
 20
177.7123246223
 10
-18.3816857664
 20
177.9090218547
 10
-26.7546925011
 20
178.2220915626
 10
-35.0813819456
 20
178.6509917648
 10
-43.3473390701
 20
179.1949799562
 10
-51.5382539836
 20
179.8531143932
 10
-59.6399467069
 20
180.6242557242
 10
-67.6383917208
 20
181.5070689618
 10
-75.519742247
 20
182.5000257941
 10
-83.2703542191
 20
183.6014072302
 10
-90.8768099032
 20
184.8093065764
 10
-98.3259411265
 20
186.1216327371
 10
-105.6048520738
 20
187.5361138343
 10
-112.7009416123
 20
189.0503011414
 10
-119.6019251068
 20
190.6615733218
 10
-126.2958556866
 20
192.3671409672
 10
-132.7711449274
 20
194.1640514265
 10
-139.0165829135
 20
196.0491939176
 10
-145.0213576438
 20
198.0193049121
 10
-150.7750737496
 20
200.070973786
 10
-156.2677704908
 20
202.2006487233
 10
-161.4899389998
 20
204.4046428653
 10
-166.4325387431
 20
206.6791406929
 10
-171.0870131721
 20
209.0202046325
 10
-175.4453045361
 20
211.423781872
 10
-179.4998678318
 20
213.8857113776
 10
-183.2436838647
 20
216.4017310967
 10
-186.6702714013
 20
218.9674853367
 10
-189.7736983888
 20
221.5785323055
 10
-192.5485922246
 20
224.230351801
 10
-194.9901490575
 20
226.918353036
 10
-197.0941421039
 20
229.6378825866
 10
-198.8569289651
 20
232.3842324471
 10
-200.275457933
 20
235.1526481812
 10
-201.3472732733
 20
237.9383371524
 10
-202.0705194767
 20
240.7364768211
 10
-202.4439444709
 20
243.5422230934
 10
-202.4669017888
 20
246.3507187066
 10
-202.139351687
 20
249.1571016387
 10
-201.4618612149
 20
251.956513525
 10
-200.435603233
 20
254.744108069
 10
-199.0623543826
 20
257.5150594323
 10
-197.3444920097
 20
260.2645705887
 10
-195.28499005
 20
262.9878816291
 10
-192.8874138798
 20
265.6802780014
 10
-190.1559141441
 20
268.3370986728
 10
-187.095219571
 20
270.9537441984
 10
-183.7106287854
 20
273.5256846838
 10
-180.008001136
 20
276.0484676273
 10
-175.9937465518
 20
278.5177256279
 10
-171.6748144452
 20
280.9291839463
 10
-167.0586816817
 20
283.2786679048
 10
-162.1533396353
 20
285.5621101149
 10
-156.9672803548
 20
287.7755575185
 10
-151.5094818619
 20
289.9151782312
 10
-145.789392609
 20
291.9772681763
 10
-139.816915122
 20
293.9582574973
 10
-133.602388857
 20
295.8547167373
 10
-127.1565723012
 20
297.663362777
 10
-120.4906243478
 20
299.3810645176
 10
-113.616084978
 20
301.0048483017
 10
-106.5448552828
 20
302.5319030612
 10
-99.2891768605
 20
303.9595851834
 10
-91.861610624
 20
305.2854230884
 10
-84.2750150558
 20
306.507121507
 10
-76.542523947
 20
307.6225654547
 10
-68.677523661
 20
308.629823893
 10
-60.6936299589
 20
309.5271530724
 10
-52.604664428
 20
310.3129995513
 10
-44.4246305544
 20
310.9860028848
 10
-36.1676894803
 20
311.5449979805
 10
-27.8481354882
 20
311.9890171153
 10
-19.4803712551
 20
312.3172916102
 10
-11.078882919
 20
312.529253162
 10
-2.6582150003
 20
312.6245348261
 10
5.7670547771
 20
312.6029716525
 10
14.1823407228
 20
312.464600971
 10
22.57307443
 20
312.2096623266
 10
30.9247299965
 20
311.8385970652
 10
39.2228491715
 20
311.3520475687
 10
47.4530663856
 20
310.7508561438
 10
55.6011336201
 20
310.0360635634
 10
63.652945073
 20
309.2089072647
 10
71.5945615787
 20
308.2708192075
  0
LWPOLYLINE
  5
1E5
330
1D8
100
AcDbEntity
  8
0
  6
Continuous
 62
     7
370
    25
100
AcDbPolyline
 90
      146
 70
   128
 43
0.0
 10
66.291260721
 20
303.593747475
 10
73.8267175772
 20
302.5816497669
 10
81.2235724851
 20
301.4616932481
 10
88.4679386225
 20
300.2359805198
 10
95.546215449
 20
298.9068127296
 10
102.4451142394
 20
297.4766852512
 10
109.1516830321
 20
295.9482829994
 10
115.653330945
 20
294.3244753899
 10
121.9378518134
 20
292.6083109516
 10
127.993447106
 20
290.803011604
 10
133.8087480755
 20
288.9119666081
 10
139.3728371019
 20
286.9387262032
 10
144.6752681894
 20
284.886994942
 10
149.7060865777
 20
282.7606247355
 10
154.4558474309
 20
280.5636076217
 10
158.9156335694
 20
278.3000682705
 10
163.0770722105
 20
275.9742562407
 10
166.9323506883
 20
273.5905380012
 10
170.47423112
 20
271.1533887341
 10
173.6960639953
 20
268.6673839324
 10
176.5918006595
 20
266.1371908103
 10
179.1560046698
 20
263.5675595412
 10
181.3838620009
 20
260.9633143391
 10
183.2711900836
 20
258.3293444023
 10
184.8144456565
 20
255.6705947343
 10
186.0107314186
 20
252.9920568596
 10
186.8578014683
 20
250.2987594532
 10
187.3540655201
 20
247.5957588997
 10
187.4985918902
 20
244.8881298002
 10
187.2911092453
 20
242.1809554453
 10
186.7320071125
 20
239.479318272
 10
185.8223351476
 20
236.7882903219
 10
184.5638011647
 20
234.1129237187
 10
182.9587679297
 20
231.4582411837
 10
181.010248725
 20
228.8292266059
 10
178.7219016916
 20
226.2308156856
 10
176.0980229622
 20
223.6678866678
 10
173.1435385947
 20
221.1452511838
 10
169.8639953249
 20
218.6676452182
 10
166.2655501527
 20
216.2397202174
 10
162.3549587828
 20
213.8660343568
 10
158.1395629419
 20
211.5510439836
 10
153.6272765953
 20
209.2990952503
 10
148.826571089
 20
207.1144159554
 10
143.7464592462
 20
205.0011076061
 10
138.3964784458
 20
202.9631377178
 10
132.786672718
 20
201.0043323662
 10
126.9275738867
 20
199.1283690036
 10
120.8301817978
 20
197.3387695552
 10
114.505943668
 20
195.638893807
 10
107.9667325934
 20
194.031933098
 10
101.2248252595
 20
192.5209043292
 10
94.292878893
 20
191.1086442991
 10
87.1839074989
 20
189.7978043783
 10
79.9112574281
 20
188.5908455319
 10
72.4885823212
 20
187.490033699
 10
64.9298174753
 20
186.4974355388
 10
57.2491536814
 20
185.6149145506
 10
49.4610105833
 20
184.8441275753
 10
41.5800096059
 20
184.186521685
 10
33.6209465051
 20
183.6433314659
 10
25.5987635902
 20
183.2155767011
 10
17.5285216714
 20
182.9040604553
 10
9.4253717847
 20
182.7093675678
 10
1.3045267473
 20
182.6318635541
 10
-6.8187674027
 20
182.6716939198
 10
-14.9292600294
 20
182.8287838878
 10
-23.0117245304
 20
183.1028385379
 10
-31.050986923
 20
183.4933433611
 10
-39.031954332
 20
183.9995652256
 10
-46.9396433252
 20
184.6205537525
 10
-54.7592080427
 20
185.3551431009
 10
-62.4759680688
 20
186.2019541561
 10
-70.0754359928
 20
187.1593971186
 10
-77.5433446077
 20
188.2256744894
 10
-84.8656736955
 20
189.3987844442
 10
-92.0286763484
 20
190.6765245916
 10
-99.0189047774
 20
192.056496108
 10
-105.8232355588
 20
193.536108241
 10
-112.4288942728
 20
195.1125831734
 10
-118.8234794853
 20
196.7829612384
 10
-124.9949860306
 20
198.5441064756
 10
-130.9318275501
 20
200.3927125188
 10
-136.6228582443
 20
202.3253088034
 10
-142.0573937975
 20
204.3382670818
 10
-147.2252314371
 20
206.4278082351
 10
-152.1166690879
 20
208.5900093681
 10
-156.722523587
 20
210.8208111742
 10
-161.0341479236
 20
213.1160255561
 10
-165.0434474736
 20
215.4713434885
 10
-168.742895196
 20
217.8823431082
 10
-172.1255457643
 20
220.3444980152
 10
-175.1850486054
 20
222.8531857711
 10
-177.9156598226
 20
225.4036965767
 10
-180.3122529784
 20
227.9912421144
 10
-182.3703287198
 20
230.6109645378
 10
-184.0860232245
 20
233.2579455919
 10
-185.4561154553
 20
235.9272158463
 10
-186.4780332073
 20
238.613764025
 10
-187.1498579367
 20
241.3125464145
 10
-187.4703283627
 20
244.0184963328
 10
-187.4388428356
 20
246.7265336418
 10
-187.0554604662
 20
249.4315742843
 10
-186.3209010147
 20
252.1285398292
 10
-185.23654354
 20
254.8123670054
 10
-183.8044238097
 20
257.4780172079
 10
-182.027230479
 20
260.1204859569
 10
-179.9083000428
 20
262.7348122935
 10
-177.4516105715
 20
265.3160880931
 10
-174.6617742429
 20
267.8594672802
 10
-171.5440286833
 20
270.360174926
 10
-168.104227134
 20
272.8135162132
 10
-164.3488274632
 20
275.21488525
 10
-160.2848800413
 20
277.5597737169
 10
-155.9200145049
 20
279.8437793308
 10
-151.2624254331
 20
282.0626141098
 10
-146.3208569627
 20
284.2121124234
 10
-141.104586372
 20
286.2882388132
 10
-135.6234066642
 20
288.2870955687
 10
-129.8876081813
 20
290.2049300454
 10
-123.9079592858
 20
292.0381417093
 10
-117.6956861437
 20
293.7832888971
 10
-111.2624516485
 20
295.4370952774
 10
-104.620333526
 20
296.9964560013
 10
-97.7818016589
 20
298.4584435322
 10
-90.7596946761
 20
299.8203131411
 10
-83.56719585
 20
301.0795080602
 10
-76.2178083453
 20
302.2336642826
 10
-68.7253298693
 20
303.2806150006
 10
-61.1038267675
 20
304.2183946735
 10
-53.3676076156
 20
305.0452427182
 10
-45.5311963566
 20
305.7596068137
 10
-37.6093050339
 20
306.360145816
 10
-29.6168061707
 20
306.8457322761
 10
-21.5687048485
 20
307.2154545559
 10
-13.4801105367
 20
307.4686185407
 10
-5.3662087258
 20
307.6047489414
 10
2.7577675812
 20
307.6235901874
 10
10.8765664678
 20
307.5251069063
 10
18.9749457373
 20
307.3094839902
 10
27.0377015288
 20
306.9771262485
 10
35.0496968608
 20
306.5286576482
 10
42.9958900492
 20
305.9649201422
 10
50.8613629466
 20
305.2869720887
 10
58.6313489495
 20
304.4960862645
 10
66.291260721
 20
303.593747475
  0
LWPOLYLINE
  5
1E6
330
1D8
100
AcDbEntity
  8
0
  6
Continuous
 62
     7
370
    25
100
AcDbPolyline
 90
       72
 70
   128
 43
0.0
 10
194.8744400282
 20
155.5136590404
 10
194.2877359987
 20
153.3447340337
 10
193.2299666747
 20
150.6023789635
 10
191.8239838903
 20
147.8774591821
 10
190.0723213213
 20
145.1748851793
 10
187.9781355822
 20
142.499527176
 10
185.5452005373
 20
139.8562063481
 10
182.7779004998
 20
137.2496861385
 10
179.6812223316
 20
134.6846636728
 10
176.260746456
 20
132.1657612947
 10
172.5226368017
 20
129.6975182367
 10
168.4736296949
 20
127.2843824396
 10
164.1210217202
 20
124.9307025371
 10
159.4726565713
 20
122.6407200196
 10
154.5369109165
 20
120.4185615904
 10
149.3226793028
 20
118.268231729
 10
143.8393581283
 20
116.1936054753
 10
138.0968287083
 20
114.198421446
 10
132.1054394688
 20
112.2862750976
 10
125.8759872983
 20
110.460612247
 10
119.4196980907
 20
108.7247228622
 10
112.7482065155
 20
107.081735133
 10
105.8735350514
 20
105.5346098344
 10
98.8080723211
 20
104.0861349909
 10
91.564550766
 20
102.7389208519
 10
84.1560237014
 20
101.4953951884
 10
76.595841794
 20
100.3577989177
 10
68.8976290026
 20
99.3281820652
 10
61.0752580268
 20
98.40840007
 10
53.142825308
 20
97.6001104415
 10
45.114625626
 20
96.9047697722
 10
37.0051263393
 20
96.323631113
 10
28.8289413137
 20
95.8577417149
 10
20.6008045873
 20
95.5079411423
 10
12.3355438186
 20
95.2748597594
 10
4.0480535662
 20
95.1589175946
 10
-4.2467315523
 20
95.1603235835
 10
-12.5338637736
 20
95.2790751924
 10
-20.7984091251
 20
95.5149584229
 10
-29.0254743377
 20
95.8675481975
 10
-37.2002336836
 20
96.3362091255
 10
-45.307955694
 20
96.9200966484
 10
-53.3340297059
 20
97.6181585612
 10
-61.2639921914
 20
98.4291369093
 10
-69.083552822
 20
99.3515702549
 10
-76.7786202211
 20
100.3837963108
 10
-84.3353273571
 20
101.5239549357
 10
-91.7400565328
 20
102.7699914868
 10
-98.9794639259
 20
104.1196605221
 10
-106.040503635
 20
105.5705298467
 10
-112.9104511891
 20
107.1199848959
 10
-119.5769264785
 20
108.7652334472
 10
-126.0279160641
 20
110.5033106513
 10
-132.2517948267
 20
112.3310843757
 10
-138.237346916
 20
114.2452608486
 10
-143.9737859626
 20
116.2423905946
 10
-149.4507745156
 20
118.3188746509
 10
-154.6584426715
 20
120.4709710529
 10
-159.5874058602
 20
122.6948015775
 10
-164.2287817569
 20
124.9863587316
 10
-168.5742062886
 20
127.3415129745
 10
-172.6158487065
 20
129.756020159
 10
-176.3464256979
 20
132.2255291799
 10
-179.7592145107
 20
134.7455898151
 10
-182.848065069
 20
137.311660745
 10
-185.6074110552
 20
139.9191177363
 10
-188.0322799413
 20
142.5632619753
 10
-190.1183019498
 20
145.2393285353
 10
-191.8617179279
 20
147.9424949636
 10
-193.2593861223
 20
150.6678899714
 10
-194.3087878404
 20
153.4106022129
 10
-194.8740700494
 20
155.5119777158
  0
LWPOLYLINE
  5
1E7
330
1D8
100
AcDbEntity
  8
0
  6
Continuous
 62
     7
370
    25
100
AcDbPolyline
 90
       75
 70
   128
 43
0.0
 10
190.0
 20
140.5900467994
 10
189.8584658359
 20
138.1459393639
 10
189.3672258709
 20
135.4254906084
 10
188.5253213967
 20
132.714605422
 10
187.3343114267
 20
130.0183037401
 10
185.7964014371
 20
127.3415784926
 10
183.9144392832
 20
124.6893863586
 10
181.6919099257
 20
122.0666385874
 10
179.1329289773
 20
119.478191904
 10
176.2422350816
 20
116.9288395158
 10
173.0251811383
 20
114.4233022366
 10
169.4877243907
 20
111.9662197446
 10
165.6364153943
 20
109.562141991
 10
161.4783858869
 20
107.2155207743
 10
157.0213355819
 20
104.9307014968
 10
152.2735179104
 20
102.711915118
 10
147.2437247377
 20
100.5632703192
 10
141.941270083
 20
98.4887458962
 10
136.3759728716
 20
96.4921833906
 10
130.5581387529
 20
94.5772799764
 10
124.4985410162
 20
92.7475816141
 10
118.2084006416
 20
91.0064764837
 10
111.6993655212
 20
89.3571887112
 10
104.9834888896
 20
87.8027723979
 10
98.0732070041
 20
86.3461059649
 10
90.9813161162
 20
84.9898868231
 10
83.7209487752
 20
83.7366263781
 10
76.3055495099
 20
82.5886453799
 10
68.7488499329
 20
81.5480696249
 10
61.064843312
 20
80.61682602
 10
53.2677586588
 20
79.7966390138
 10
45.372034379
 20
79.0890274039
 10
37.3922915363
 20
78.4953015241
 10
29.3433067776
 20
78.0165608181
 10
21.2399849697
 20
77.6536918035
 10
13.0973315992
 20
77.40736643
 10
4.9304249857
 20
77.2780408357
 10
-3.24561164
 20
77.2659545017
 10
-11.41563814
 20
77.3711298091
 10
-19.5645255061
 20
77.5933719976
 10
-27.6771838749
 20
77.9322695256
 10
-35.7385904705
 20
78.3871948331
 10
-43.7338174237
 20
78.9573055031
 10
-51.6480594148
 20
79.6415458217
 10
-59.4666610895
 20
80.4386487336
 10
-67.1751441973
 20
81.3471381876
 10
-74.7592344021
 20
82.3653318703
 10
-82.2048877147
 20
83.4913443215
 10
-89.4983164991
 20
84.7230904254
 10
-96.6260150044
 20
86.0582892716
 10
-103.5747843735
 20
87.4944683792
 10
-110.3317570854
 20
89.0289682753
 10
-116.8844207821
 20
90.6589474192
 10
-123.2206414387
 20
92.3813874649
 10
-129.3286858334
 20
94.1930988497
 10
-135.1972432739
 20
96.0907267014
 10
-140.8154465429
 20
98.0707570499
 10
-146.1728920212
 20
100.1295233349
 10
-151.2596589532
 20
102.2632131952
 10
-156.0663278175
 20
104.4678755284
 10
-160.5839977697
 20
106.7394278072
 10
-164.8043031253
 20
109.0736636398
 10
-168.7194288502
 20
111.4662605589
 10
-172.3221250328
 20
113.9127880256
 10
-175.6057203091
 20
116.4087156344
 10
-178.5641342167
 20
118.9494215018
 10
-181.191888454
 20
121.5302008255
 10
-183.484117025
 20
124.1462745963
 10
-185.4365752501
 20
126.7927984478
 10
-187.0456476263
 20
129.464871627
 10
-188.3083545217
 20
132.1575460696
 10
-189.222357694
 20
134.8658355623
 10
-189.7859646197
 20
137.5847249765
 10
-189.9981316285
 20
140.3091795549
 10
-190.0
 20
140.5900467994
  0
LWPOLYLINE
  5
1E9
330
1D8
100
AcDbEntity
  8
0
  6
Continuous
 62
     7
370
    25
100
AcDbPolyline
 90
       34
 70
   128
 43
0.0
 10
48.6244066511
 20
-3.8825403735
 10
47.7884160629
 20
-4.9020096797
 10
46.3902465672
 20
-6.2177615056
 10
44.6666828233
 20
-7.489900202
 10
42.6298143923
 20
-8.70950263
 10
40.2939284428
 20
-9.8680141548
 10
37.6754095364
 20
-10.9573086504
 10
34.7926247019
 20
-11.9697454987
 10
31.6657946036
 20
-12.8982231826
 10
28.3168517079
 20
-13.7362290982
 10
24.7692864432
 20
-14.4778852361
 10
21.0479824308
 20
-15.1179894115
 10
17.1790419445
 20
-15.6520517534
 10
13.1896028222
 20
-16.0763261982
 10
9.1076481128
 20
-16.3878367656
 10
4.9618097957
 20
-16.5843984327
 10
0.7811679479
 20
-16.6646324607
 10
-3.4049532317
 20
-16.6279760655
 10
-7.5671911109
 20
-16.4746863653
 10
-11.6763505815
 20
-16.2058385774
 10
-15.7036088421
 20
-15.8233184757
 10
-19.6207175698
 20
-15.329809164
 10
-23.4002010612
 20
-14.7287722554
 10
-27.0155489552
 20
-14.0244235921
 10
-30.4414021839
 20
-13.2217036738
 10
-33.6537308483
 20
-12.326243004
 10
-36.6300027711
 20
-11.3443225959
 10
-39.349341543
 20
-10.2828299157
 10
-41.7926729565
 20
-9.1492105718
 10
-43.9428587972
 20
-7.9514160895
 10
-45.7848170563
 20
-6.6978481364
 10
-47.3056277201
 20
-5.397299591
 10
-48.4946233945
 20
-4.058892867
 10
-48.6359122317
 20
-3.8664948428
  0
LWPOLYLINE
  5
1EA
330
1D8
100
AcDbEntity
  8
0
  6
Continuous
 62
     1
370
    25
100
AcDbPolyline
 90
       75
 70
   128
 43
0.0
 10
198.4252686347
 20
176.506033056
 10
198.2744713973
 20
175.452477567
 10
197.6326440278
 20
172.6695620683
 10
196.6394330294
 20
169.8981396029
 10
195.2966042951
 20
167.1431376585
 10
193.6065453252
 20
164.4094545284
 10
191.5722609831
 20
161.7019506011
 10
189.197368152
 20
159.02543972
 10
186.4860893048
 20
156.3846806237
 10
183.4432449961
 20
153.7843684855
 10
180.0742452923
 20
151.2291265655
 10
176.3850801518
 20
148.7234979906
 10
172.3823087756
 20
146.2719376769
 10
168.0730479451
 20
143.8788044092
 10
163.4649593689
 20
141.5483530912
 10
158.5662360602
 20
139.2847271802
 10
153.3855877704
 20
137.0919513206
 10
147.9322255031
 20
134.9739241876
 10
142.2158451373
 20
132.9344115564
 10
136.2466101887
 20
130.977039606
 10
130.0351337392
 20
129.1052884721
 10
123.5924595674
 20
127.3224860601
 10
116.9300425127
 20
125.6318021276
 10
110.0597281095
 20
124.0362426489
 10
102.9937315262
 20
122.5386444705
 10
95.7446158467
 20
121.1416702674
 10
88.3252697343
 20
119.8478038087
 10
80.7488845156
 20
118.6593455417
 10
73.0289307269
 20
117.5784085019
 10
65.1791341645
 20
116.6069145558
 10
57.2134514801
 20
115.7465909844
 10
49.1460453669
 20
114.9989674114
 10
40.9912593785
 20
114.3653730843
 10
32.7635924268
 20
113.8469345107
 10
24.4776730034
 20
113.4445734555
 10
16.1482331707
 20
113.1590053019
 10
7.7900823687
 20
112.9907377797
 10
-0.5819189155
 20
112.9400700625
 10
-8.952885569
 20
113.0070922354
 10
-17.3079343188
 20
113.1916851357
 10
-25.6322101929
 20
113.4935205638
 10
-33.9109129328
 20
113.9120618674
 10
-42.1293233069
 20
114.4465648953
 10
-50.2728292816
 20
115.0960793206
 10
-58.3269520005
 20
115.8594503304
 10
-66.2773715272
 20
116.7353206788
 10
-74.109952306
 20
117.7221331005
 10
-81.8107682941
 20
118.8181330788
 10
-89.3661277217
 20
120.0213719658
 10
-96.7625974355
 20
121.3297104468
 10
-103.9870267822
 20
122.7408223435
 10
-111.02657099
 20
124.2521987507
 10
-117.8687140064
 20
125.861152496
 10
-124.5012907506
 20
127.5648229187
 10
-130.9125087432
 20
129.3601809547
 10
-137.0909690728
 20
131.244034523
 10
-143.0256866622
 20
133.2130342007
 10
-148.7061098001
 20
135.2636791783
 10
-154.1221389015
 20
137.3923234837
 10
-159.2641444644
 20
139.5951824652
 10
-164.1229841904
 20
141.8683395199
 10
-168.6900192399
 20
144.2077530573
 10
-172.9571295911
 20
146.6092636857
 10
-176.9167284777
 20
149.0686016069
 10
-180.5617758773
 20
151.5813942076
 10
-183.8857910286
 20
154.1431738344
 10
-186.882863954
 20
156.7493857365
 10
-189.5476659672
 20
159.3953961644
 10
-191.8754591475
 20
162.0765006081
 10
-193.8621047635
 20
164.7879321616
 10
-195.5040706319
 20
167.5248699986
 10
-196.7984373972
 20
170.2824479436
 10
-197.7429037226
 20
173.0557631236
 10
-198.3357903814
 20
175.8398846854
 10
-198.4251982332
 20
176.5054424275
  0
LWPOLYLINE
  5
1EB
330
1D8
100
AcDbEntity
  8
0
  6
Continuous
 62
     1
370
    25
100
AcDbPolyline
 90
       17
 70
   128
 43
0.0
 10
64.9390945158
 20
237.9828646217
 10
72.4231585675
 20
236.9767907646
 10
79.7674264559
 20
235.8621106726
 10
86.9577217699
 20
234.6409759781
 10
93.9801653068
 20
233.3157437992
 10
100.821201863
 20
231.8889721902
 10
107.4676263989
 20
230.3634152038
 10
113.9066095287
 20
228.7420175752
 10
120.1257222842
 20
227.0279090375
 10
126.1129601061
 20
225.224398281
 10
131.856766016
 20
223.3349665662
 10
137.3460529246
 20
221.3632610043
 10
142.5702250326
 20
219.3130875169
 10
147.5191982837
 20
217.1884034899
 10
152.1834198291
 20
214.9933101346
 10
156.5538864675
 20
212.7320445714
 10
158.417458736
 20
211.6969032235
  0
LWPOLYLINE
  5
1EC
330
1D8
100
AcDbEntity
  8
0
  6
Continuous
 62
     1
370
    25
100
AcDbPolyline
 90
       33
 70
   128
 43
0.0
 10
-158.417458736
 20
211.6969032235
 10
-154.6292119382
 20
213.7548591294
 10
-150.1258238669
 20
215.9869575952
 10
-145.3326526019
 20
218.1509658462
 10
-140.2589502523
 20
220.2427067648
 10
-134.9145104272
 20
222.2581427289
 10
-129.3096493322
 20
224.1933834053
 10
-123.4551858557
 20
226.0446932592
 10
-117.362420686
 20
227.808498765
 10
-111.0431144975
 20
229.4813953041
 10
-104.5094652497
 20
231.0601537363
 10
-97.7740846421
 20
232.5417266336
 10
-90.8499737695
 20
233.923254162
 10
-83.7504980273
 20
235.202069602
 10
-76.4893613118
 20
236.3757044961
 10
-69.0805795688
 20
237.4418934136
 10
-61.5384537384
 20
238.398578323
 10
-53.8775421509
 20
239.2439125656
 10
-46.1126324249
 20
239.9762644188
 10
-38.2587129232
 20
240.5942202469
 10
-30.3309438217
 20
241.0965872289
 10
-22.3446278457
 20
241.4823956615
 10
-14.3151807318
 20
241.7509008308
 10
-6.2581014712
 20
241.9015844496
 10
1.8110576075
 20
241.934155658
 10
9.8767208581
 20
241.8485515848
 10
17.9233193827
 20
241.644937469
 10
25.935321083
 20
241.3237063404
 10
33.8972606423
 20
240.8854782615
 10
41.7937693771
 20
240.3310991303
 10
49.6096049028
 20
239.6616390475
 10
57.3296805561
 20
238.8783902511
 10
64.9390945158
 20
237.9828646217
  0
LWPOLYLINE
  5
1ED
330
1D8
100
AcDbEntity
  8
0
  6
Continuous
 62
     1
370
    25
100
AcDbPolyline
 90
       29
 70
   128
 43
0.0
 10
45.2819995195
 20
-4.7714439539
 10
44.6666828233
 20
-5.1938872873
 10
42.6298143923
 20
-6.4134897153
 10
40.2939284428
 20
-7.5720012401
 10
37.6754095364
 20
-8.6612957358
 10
34.7926247019
 20
-9.6737325841
 10
31.6657946036
 20
-10.6022102679
 10
28.3168517079
 20
-11.4402161835
 10
24.7692864432
 20
-12.1818723215
 10
21.0479824308
 20
-12.8219764968
 10
17.1790419445
 20
-13.3560388387
 10
13.1896028222
 20
-13.7803132836
 10
9.1076481128
 20
-14.0918238509
 10
4.9618097957
 20
-14.288385518
 10
0.7811679479
 20
-14.368619546
 10
-3.4049532317
 20
-14.3319631508
 10
-7.5671911109
 20
-14.1786734507
 10
-11.6763505815
 20
-13.9098256627
 10
-15.7036088421
 20
-13.5273055611
 10
-19.6207175698
 20
-13.0337962493
 10
-23.4002010612
 20
-12.4327593407
 10
-27.0155489552
 20
-11.7284106774
 10
-30.4414021839
 20
-10.9256907591
 10
-33.6537308483
 20
-10.0302300893
 10
-36.6300027711
 20
-9.0483096812
 10
-39.349341543
 20
-7.986817001
 10
-41.7926729565
 20
-6.8531976572
 10
-43.9428587972
 20
-5.6554031748
 10
-45.2066313339
 20
-4.8248522265
  0
LINE
  5
1EE
330
1D8
100
AcDbEntity
  8
0
  6
Continuous
 62
     7
370
    25
100
AcDbLine
 10
190.0
 20
140.5900467994
 30
0.0
 11
190.0
 21
145.0741084375
 31
0.0
  0
LINE
  5
1EF
330
1D8
100
AcDbEntity
  8
0
  6
Continuous
 62
     7
370
    25
100
AcDbLine
 10
-190.0
 20
145.0741084375
 30
0.0
 11
-190.0
 21
140.5900467994
 31
0.0
  0
ARC
  5
1F0
330
1D8
100
AcDbEntity
  8
0
  6
Continuous
 62
     7
370
    25
100
AcDbCircle
 10
1.3467051604
 20
122.7804736323
 30
0.0
 40
133.8147068229552
100
AcDbArc
 50
269.8715238042
 51
283.4041503789
  0
VIEWPORT
  5
207
330
1D8
100
AcDbEntity
  8
0
100
AcDbViewport
 10
0.0
 20
0.0
 30
0.0
 40
205.6
 41
156.0
 68
     1
 69
     1
 12
0.0109564813
 22
147.980600436
 13
0.0
 23
0.0
 14
10.0
 24
10.0
 15
10.0
 25
10.0
 16
0.0
 26
0.0
 36
1.0
 17
0.0
 27
0.0
 37
0.0
 42
50.0
 43
0.0
 44
0.0
 45
369.6871497605
 50
0.0
 51
0.0
 72
   100
 90
   557152
  1

281
     0
 71
     1
 74
     0
110
0.0
120
0.0
130
0.0
111
1.0
121
0.0
131
0.0
112
0.0
122
1.0
132
0.0
 79
     0
146
0.0
170
     0
 61
     5
348
2F
292
     1
282
     1
141
0.0
142
0.0
 63
   256
361
208
  0
ENDBLK
  5
1DB
330
1D8
100
AcDbEntity
  8
0
100
AcDbBlockEnd
  0
ENDSEC
  0
SECTION
  2
ENTITIES
  0
SPLINE
  5
73
330
1F
100
AcDbEntity
  8
0
  6
Continuous
 62
     7
370
    25
100
AcDbSpline
210
0.0
220
0.0
230
1.0
 70
     8
 71
     3
 72
    13
 73
     9
 74
     0
 42
0.000000001
 43
0.00000001
 40
0.0
 40
0.0
 40
0.0
 40
0.0
 40
0.1285287490495046
 40
0.3152442043987833
 40
0.5019003306906726
 40
0.6884656700714199
 40
0.8749098809445254
 40
1.0
 40
1.0
 40
1.0
 40
1.0
 10
197.9193244772419
 20
146.032743366604
 30
0.0
 10
198.3071624891525
 20
148.85032239737
 30
0.0
 10
199.2584180362927
 20
155.7610366652138
 30
0.0
 10
200.4101869075486
 20
166.8199024633818
 30
0.0
 10
201.4266712820038
 20
179.1868170528008
 30
0.0
 10
202.1023462115377
 20
191.5763987372313
 30
0.0
 10
202.4653662121677
 20
202.6173155465431
 30
0.0
 10
202.4651880831486
 20
209.5261607636872
 30
0.0
 10
202.4651165591524
 20
212.3002636079758
 30
0.0
  0
SPLINE
  5
74
330
1F
100
AcDbEntity
  8
0
  6
Continuous
 62
     7
370
    25
100
AcDbSpline
210
0.0
220
0.0
230
1.0
 70
     8
 71
     3
 72
    14
 73
    10
 74
     0
 42
0.000000001
 43
0.00000001
 40
0.0
 40
0.0
 40
0.0
 40
0.0
 40
0.0611980730514518
 40
0.2473182227668099
 40
0.4332215881419822
 40
0.6188774760099587
 40
0.8042563973760434
 40
0.9893280872126667
 40
1.0
 40
1.0
 40
1.0
 40
1.0
 10
-202.4651187234906
 20
212.3004640377698
 30
0.0
 10
-202.4748088834827
 20
210.9434063138217
 30
0.0
 10
-202.5139694816532
 20
205.459163301846
 30
0.0
 10
-202.2606349585987
 20
195.8536372349019
 30
0.0
 10
-201.6999940562142
 20
183.5024441731023
 30
0.0
 10
-200.8136465342165
 20
171.1888721400992
 30
0.0
 10
-199.5881828103821
 20
158.9326616599395
 30
0.0
 10
-198.6226759418023
 20
150.5461545022193
 30
0.0
 10
-197.9800689657604
 20
146.2647577959574
 30
0.0
 10
-197.9450341267521
 20
146.0313366693166
 30
0.0
  0
SPLINE
  5
75
330
1F
100
AcDbEntity
  8
0
  6
Continuous
 62
     7
370
    25
100
AcDbSpline
210
0.0
220
0.0
230
1.0
 70
     8
 71
     3
 72
    11
 73
     7
 74
     0
 42
0.000000001
 43
0.00000001
 40
0.0
 40
0.0
 40
0.0
 40
0.0
 40
0.0209915420769517
 40
0.3648813780325365
 40
0.708137974108207
 40
1.0
 40
1.0
 40
1.0
 40
1.0
 10
193.2887538695771
 20
122.3209180449085
 30
0.0
 10
193.3336672465455
 20
122.4839360411043
 30
0.0
 10
194.1143652448268
 20
125.3175645033664
 30
0.0
 10
195.3315723381988
 20
130.8944900222498
 30
0.0
 10
196.8702683185625
 20
138.6307161289627
 30
0.0
 10
197.5977375934476
 20
143.695951912285
 30
0.0
 10
197.9320383823054
 20
146.023627288517
 30
0.0
  0
SPLINE
  5
76
330
1F
100
AcDbEntity
  8
0
  6
Continuous
 62
     7
370
    25
100
AcDbSpline
210
0.0
220
0.0
230
1.0
 70
     8
 71
     3
 72
    11
 73
     7
 74
     0
 42
0.000000001
 43
0.00000001
 40
0.0
 40
0.0
 40
0.0
 40
0.0
 40
0.0249710414009624
 40
0.3614278426752039
 40
0.6971447613842835
 40
1.0
 40
1.0
 40
1.0
 40
1.0
 10
-197.9429727393263
 20
146.0328164229971
 30
0.0
 10
-197.9189236146262
 20
145.8327414606799
 30
0.0
 10
-197.5708394831299
 20
142.9368805775673
 30
0.0
 10
-196.6060664147464
 20
137.3907665147894
 30
0.0
 10
-195.1101103759391
 20
129.6647967700573
 30
0.0
 10
-193.8666472748346
 20
124.6631801868696
 30
0.0
 10
-193.2769107667907
 20
122.2910664540826
 30
0.0
  0
SPLINE
  5
77
330
1F
100
AcDbEntity
  8
0
  6
Continuous
 62
     7
370
    25
100
AcDbSpline
210
0.0
220
0.0
230
1.0
 70
     8
 71
     3
 72
    68
 73
    64
 74
     0
 42
0.000000001
 43
0.00000001
 40
0.0
 40
0.0
 40
0.0
 40
0.0
 40
0.014605479799606
 40
0.0312340005824242
 40
0.0478201870021081
 40
0.0643630997651504
 40
0.0808617469203878
 40
0.097315086221173
 40
0.1137220295611
 40
0.1300814500582877
 40
0.1463921924819078
 40
0.1626530878307532
 40
0.1788629729697635
 40
0.1950207162755117
 40
0.2111252501911254
 40
0.2271756113790516
 40
0.243170988705536
 40
0.2591107785052859
 40
0.2749946454008043
 40
0.2908225854368023
 40
0.3065949867398255
 40
0.3223126821307769
 40
0.3379769897418602
 40
0.3535897444804092
 40
0.3691533388456339
 40
0.3846708192276074
 40
0.4001461216242865
 40
0.4155845646805769
 40
0.430993714991955
 40
0.4463846527314224
 40
0.4617734656817826
 40
0.4771825284226235
 40
0.4926409187579975
 40
0.5081833565114118
 40
0.523847098325076
 40
0.5396568517678794
 40
0.5556433555511242
 40
0.5718281787455687
 40
0.5882208402643018
 40
0.604818244986707
 40
0.6216064851616813
 40
0.6385642440891844
 40
0.6556666226690786
 40
0.6728883654925498
 40
0.6902059844661788
 40
0.7058104704381768
 40
0.7232085819606309
 40
0.7406966019616938
 40
0.75821748898046
 40
0.7757596305484619
 40
0.7933142894205906
 40
0.8108741800604673
 40
0.8284331884395337
 40
0.8459861706951819
 40
0.8635287919989513
 40
0.8810573954718239
 40
0.898568893984207
 40
0.9160606797090141
 40
0.9335305477885582
 40
0.9509766314974557
 40
0.9683973469569516
 40
0.985791345897026
 40
1.0
 40
1.0
 40
1.0
 40
1.0
 10
-185.3059440972577
 20
97.5759895674654
 30
0.0
 10
-184.436353467676
 20
95.39707321415241
 30
0.0
 10
-182.5767230684367
 20
90.73743343632972
 30
0.0
 10
-179.3885755870782
 20
83.74719048473919
 30
0.0
 10
-175.8257481481845
 20
76.59301799520593
 30
0.0
 10
-171.9987274454228
 20
69.59997425472861
 30
0.0
 10
-167.9240537928187
 20
62.77388658288008
 30
0.0
 10
-163.6070381453146
 20
56.12484251404158
 30
0.0
 10
-159.0564020228476
 20
49.66138078538562
 30
0.0
 10
-154.2803493213537
 20
43.39202710508805
 30
0.0
 10
-149.2875908899806
 20
37.32487005262603
 30
0.0
 10
-144.0870443031617
 20
31.46766035579245
 30
0.0
 10
-138.687883268743
 20
25.82777113254446
 30
0.0
 10
-133.0994891972699
 20
20.41219618611904
 30
0.0
 10
-127.3314236105804
 20
15.22753964101527
 30
0.0
 10
-121.3933891663561
 20
10.28001014583334
 30
0.0
 10
-115.2951876415007
 20
5.575417162055632
 30
0.0
 10
-109.0466729698709
 20
1.119171347592832
 30
0.0
 10
-102.657701057384
 20
-3.083709897212905
 30
0.0
 10
-96.13807835301945
 20
-7.028590310665869
 30
0.0
 10
-89.49751248664195
 20
-10.71119502518635
 30
0.0
 10
-82.74556904296071
 20
-14.12758293994096
 30
0.0
 10
-75.89163817284603
 20
-17.27411253676854
 30
0.0
 10
-68.94491169828716
 20
-20.1474048575835
 30
0.0
 10
-61.91436378799392
 20
-22.74431012894058
 30
0.0
 10
-54.80871480056366
 20
-25.06188623796991
 30
0.0
 10
-47.63633992234431
 20
-27.09739518037373
 30
0.0
 10
-40.40506933574402
 20
-28.84831416895837
 30
0.0
 10
-33.12183073253576
 20
-30.31233947573385
 30
0.0
 10
-25.79212795670006
 20
-31.48733773838251
 30
0.0
 10
-18.4194402445112
 20
-32.37118570883609
 30
0.0
 10
-11.0047424694433
 20
-32.96145567217267
 30
0.0
 10
-3.546428540653949
 20
-33.25496206998112
 30
0.0
 10
3.959053593400153
 20
-33.24727228640349
 30
0.0
 10
11.5140616268101
 20
-32.93244533495805
 30
0.0
 10
19.11978974574921
 20
-32.3032732873103
 30
0.0
 10
26.77440338173085
 20
-31.35166874024976
 30
0.0
 10
34.47312884527778
 20
-30.06904002370071
 30
0.0
 10
42.20535512647132
 20
-28.44743247112678
 30
0.0
 10
49.95454967701411
 20
-26.48062963101237
 30
0.0
 10
57.69923704702799
 20
-24.16499742404825
 30
0.0
 10
65.41468019588548
 20
-21.49988918932606
 30
0.0
 10
73.07475503859352
 20
-18.48759050805553
 30
0.0
 10
80.65350927764382
 20
-15.13296450705533
 30
0.0
 10
87.8690337461148
 20
-11.56993842880112
 30
0.0
 10
94.96179778294952
 20
-7.710167756511913
 30
0.0
 10
101.920597728352
 20
-3.558668929165856
 30
0.0
 10
108.9587279807554
 20
1.046698066065471
 30
0.0
 10
115.8193981498864
 20
5.953316863535036
 30
0.0
 10
122.4807858703051
 20
11.14570861471226
 30
0.0
 10
128.9285195448883
 20
16.61189816178905
 30
0.0
 10
135.1496507909773
 20
22.33970220629243
 30
0.0
 10
141.1323871112711
 20
28.31668720892932
 30
0.0
 10
146.8659849480036
 20
34.53021201634272
 30
0.0
 10
152.3406591378914
 20
40.96747007794545
 30
0.0
 10
157.5475381620757
 20
47.6155122480309
 30
0.0
 10
162.4785102751542
 20
54.46131237231416
 30
0.0
 10
167.126526991207
 20
61.49165100205059
 30
0.0
 10
171.4842422605476
 20
68.69365821179497
 30
0.0
 10
175.5488840891182
 20
76.05288655032335
 30
0.0
 10
179.3039410031702
 20
83.56057148348404
 30
0.0
 10
182.5764383052668
 20
90.72521253065311
 30
0.0
 10
184.4502070839903
 20
95.44299033827103
 30
0.0
 10
185.2926595328265
 20
97.56411836229542
 30
0.0
  0
LWPOLYLINE
  5
78
330
1F
100
AcDbEntity
  8
0
  6
Continuous
 62
     7
370
    25
100
AcDbPolyline
 90
      152
 70
   128
 43
0.0
 10
143.1891231903
 20
294.9619324123
 10
149.021631459
 20
291.4517951181
 10
154.5961558939
 20
287.8046325766
 10
159.9030459688
 20
284.0267586966
 10
164.9331144815
 20
280.124713672
 10
169.6776534589
 20
276.10525266
 10
174.128449232
 20
271.9753340864
 10
178.2777966552
 20
267.7421075993
 10
182.1185124456
 20
263.4129016917
 10
185.6439476182
 20
258.9952110149
 10
188.8479989968
 20
254.4966834033
 10
191.7251197794
 20
249.925106635
 10
194.2703291414
 20
245.2883949497
 10
196.4792208574
 20
240.5945753475
 10
198.3479709298
 20
235.8517736928
 10
199.873344209
 20
231.068200647
 10
201.0526999932
 20
226.2521374543
 10
201.883996601
 20
221.4119216052
 10
202.3657949051
 20
216.555932403
 10
202.4972608241
 20
211.6925764575
 10
202.2781667663
 20
206.8302731317
 10
201.7088920238
 20
201.9774399663
 10
200.7904221158
 20
197.1424781075
 10
199.5243470826
 20
192.3337577629
 10
197.9128587326
 20
187.5596037112
 10
195.9587468485
 20
182.8282808907
 10
193.6653943571
 20
178.1479800906
 10
191.036771473
 20
173.5268037719
 10
188.0774288256
 20
168.9727520402
 10
184.7924895809
 20
164.493708796
 10
181.1876405725
 20
160.0974280864
 10
177.2691224566
 20
155.7915206814
 10
173.0437189083
 20
151.583440898
 10
168.5187448778
 20
147.4804736959
 10
163.7020339267
 20
143.4897220653
 10
158.601924667
 20
139.6180947308
 10
153.2272463252
 20
135.8722941909
 10
147.5873034574
 20
132.2588051148
 10
141.6918598413
 20
128.7838831163
 10
135.5511215733
 20
125.453543924
 10
129.1757194
 20
122.2735529671
 10
122.5766903144
 20
119.2494153945
 10
115.7654584487
 20
116.3863665442
 10
108.7538152972
 20
113.6893628798
 10
101.5538993028
 20
111.1630734105
 10
94.1781748434
 20
108.8118716077
 10
86.6394106538
 20
106.6398278338
 10
78.9506577203
 20
104.6507022958
 10
71.1252266874
 20
102.8479385356
 10
63.1766648145
 20
101.2346574686
 10
55.1187325233
 20
99.8136519809
 10
46.9653795753
 20
98.5873820941
 10
38.7307209233
 20
97.5579707068
 10
30.4290122748
 20
96.7271999193
 10
22.0746254133
 20
96.0965079485
 10
13.6820233179
 20
95.6669866382
 10
5.2657351255
 20
95.4393795686
 10
-3.1596690223
 20
95.4140807696
 10
-11.5796032022
 20
95.5911340378
 10
-19.9794909607
 20
95.9702328616
 10
-28.3447905482
 20
96.5507209513
 10
-36.6610200936
 20
97.3315933752
 10
-44.913782675
 20
98.3114982996
 10
-53.0887912436
 20
99.4887393292
 10
-61.171893357
 20
100.8612784431
 10
-69.1490956799
 20
102.4267395241
 10
-77.0065882088
 20
104.1824124712
 10
-84.7307681799
 20
106.1252578918
 10
-92.3082636181
 20
108.2519123635
 10
-99.725956486
 20
110.5586942564
 10
-106.971005394
 20
113.0416101073
 10
-114.0308678307
 20
115.6963615322
 10
-120.8933218768
 20
118.5183526687
 10
-127.5464873629
 20
121.5026981314
 10
-133.9788464367
 20
124.6442314697
 10
-140.1792635026
 20
127.9375141121
 10
-146.1370044988
 20
131.3768447811
 10
-151.8417554808
 20
134.956269363
 10
-157.283640476
 20
138.669591216
 10
-162.4532385815
 20
142.5103818976
 10
-167.3416002725
 20
146.4719922932
 10
-171.9402628967
 20
150.5475641269
 10
-176.2412653238
 20
154.7300418349
 10
-180.2371617281
 20
159.0121847796
 10
-183.9210344785
 20
163.3865797845
 10
-187.2865061142
 20
167.8456539677
 10
-190.3277503851
 20
172.3816878525
 10
-193.0395023385
 20
176.9868287303
 10
-195.4170674335
 20
181.6531042559
 10
-197.4563296677
 20
186.3724362487
 10
-199.1537587034
 20
191.1366546778
 10
-200.5064159791
 20
195.9375118052
 10
-201.5119597963
 20
200.766696465
 10
-202.1686493739
 20
205.6158484508
 10
-202.4753478616
 20
210.4765729895
 10
-202.4315243078
 20
215.3404552733
 10
-202.0372545793
 20
220.1990750282
 10
-201.2932212293
 20
225.0440210903
 10
-200.2007123164
 20
229.8669059674
 10
-198.7616191742
 20
234.6593803595
 10
-196.9784331376
 20
239.4131476126
 10
-194.8542412293
 20
244.1199780817
 10
-192.3927208158
 20
248.7717233783
 10
-189.5981332415
 20
253.3603304762
 10
-186.4753164511
 20
257.8778556533
 10
-183.0296766144
 20
262.316478243
 10
-179.2671787672
 20
266.668514174
 10
-175.194336485
 20
270.9264292722
 10
-170.8182006061
 20
275.0828523038
 10
-166.1463470262
 20
279.1305877367
 10
-161.1868635825
 20
283.0626281969
 10
-155.9483360523
 20
286.8721665997
 10
-150.4398332897
 20
290.552607934
 10
-144.6708915253
 20
294.0975806792
 10
-138.6514978577
 20
297.5009478361
 10
-132.3920729636
 20
300.7568175505
 10
-125.903453058
 20
303.8595533137
 10
-119.1968711346
 20
306.8037837196
 10
-112.2839375192
 20
309.5844117643
 10
-105.1766197706
 20
312.1966236697
 10
-97.8872219621
 20
314.6358972167
 10
-90.428363381
 20
316.8980095746
 10
-82.8129566825
 20
318.979044611
 10
-75.0541855353
 20
320.8753996719
 10
-67.1654817981
 20
322.5837918181
 10
-59.1605022673
 20
324.1012635088
 10
-51.0531050334
 20
325.4251877216
 10
-42.8573254914
 20
326.5532725004
 10
-34.587352042
 20
327.483564923
 10
-26.2575015291
 20
328.2144544822
 10
-17.882194455
 20
328.744675874
 10
-9.4759300157
 20
329.0733111877
 10
-1.0532609998
 20
329.199791495
 10
7.3712314044
 20
329.1238978354
 10
15.7829628523
 20
328.8457615948
 10
24.1673710906
 20
328.365864278
 10
32.5099411677
 20
327.6850366756
 10
40.7962305614
 20
326.8044574252
 10
49.0118941817
 20
325.7256509714
 10
57.1427092051
 20
324.4504849264
 10
65.1745996962
 20
322.9811668371
 10
73.0936609763
 20
321.3202403631
 10
80.8861836949
 20
319.4705808733
 10
88.538677563
 20
317.4353904684
 10
96.0378947071
 20
315.218192437
 10
103.370852604
 20
312.8228251564
 10
110.5248565558
 20
310.2534354476
 10
117.4875216669
 20
307.5144713965
 10
124.2467942842
 20
304.6106746531
 10
130.7909728644
 20
301.5470722235
 10
137.1087282317
 20
298.3289677665
 10
143.1891231903
 20
294.9619324123
  0
LWPOLYLINE
  5
79
330
1F
100
AcDbEntity
  8
0
  6
Continuous
 62
     7
370
    25
100
AcDbPolyline
 90
      146
 70
   128
 43
0.0
 10
132.5825214725
 20
288.8388715737
 10
138.2013760524
 20
285.4514832819
 10
143.5607719892
 20
281.9267618711
 10
148.6506475769
 20
278.2713246372
 10
153.4614471061
 20
274.4920342818
 10
157.9841388031
 20
270.5959860276
 10
162.210231787
 20
266.5904942981
 10
166.1317920097
 20
262.4830789855
 10
169.7414571517
 20
258.2814513329
 10
173.0324504439
 20
253.9934994572
 10
175.9985933901
 20
249.62727354
 10
178.634317367
 20
245.1909707143
 10
180.9346740781
 20
240.692919675
 10
182.8953448442
 20
236.1415650429
 10
184.5126487107
 20
231.545451511
 10
185.7835493585
 20
226.913207802
 10
186.7056608046
 20
222.2535304695
 10
187.277251881
 20
217.5751675708
 10
187.4972494853
 20
212.8869022435
 10
187.3652405948
 20
208.1975362157
 10
186.8814730425
 20
203.5158732824
 10
186.0468550515
 20
198.8507027764
 10
184.8629535297
 20
194.2107830678
 10
183.3319911287
 20
189.6048251213
 10
181.4568420703
 20
185.0414761414
 10
179.2410267509
 20
180.5293033392
 10
176.6887051324
 20
176.0767778475
 10
173.8046689318
 20
171.6922588178
 10
170.5943326258
 20
167.3839777264
 10
167.0637232853
 20
163.1600229209
 10
163.2194692605
 20
159.0283244351
 10
159.0687877367
 20
154.9966391012
 10
154.6194711846
 20
151.0725359871
 10
149.8798727313
 20
147.2633821864
 10
144.8588904775
 20
143.5763289874
 10
139.5659507929
 20
140.0182984472
 10
134.0109906187
 20
136.5959703963
 10
128.204438812
 20
133.3157698981
 10
122.1571965674
 20
130.1838551863
 10
115.8806169501
 20
127.2061061035
 10
109.3864835827
 20
124.3881130624
 10
102.6869885218
 20
121.7351665506
 10
95.7947093696
 20
119.2522471979
 10
88.72258566
 20
116.944016426
 10
81.4838945662
 20
114.814807697
 10
74.0922259744
 20
112.8686183777
 10
66.5614569701
 20
111.1091022353
 10
58.9057257852
 20
109.5395625775
 10
51.1394052552
 20
108.162946051
 10
43.2770758351
 20
106.9818371095
 10
35.3334982272
 20
105.9984531615
 10
27.3235856682
 20
105.2146404078
 10
19.2623759322
 20
104.6318703749
 10
11.165003098
 20
104.2512371525
 10
3.0466691371
 20
104.0734553399
 10
-5.0773846268
 20
104.0988587037
 10
-13.1919061315
 20
104.3273995519
 10
-21.2816612109
 20
104.7586488228
 10
-29.331462195
 20
105.3917968911
 10
-37.3261964237
 20
106.2256550873
 10
-45.2508546187
 20
107.2586579299
 10
-53.0905590623
 20
108.4888660639
 10
-60.8305915286
 20
109.9139699021
 10
-68.4564209154
 20
111.531293961
 10
-75.9537305248
 20
113.3378018836
 10
-83.3084449414
 20
115.3301021401
 10
-90.5067564573
 20
117.5044543949
 10
-97.5351509948
 20
119.8567765288
 10
-104.3804334776
 20
122.3826523029
 10
-111.0297526031
 20
125.0773396492
 10
-117.4706249692
 20
127.9357795739
 10
-123.6909585113
 20
130.9526056546
 10
-129.679075203
 20
134.1221541157
 10
-135.4237329809
 20
137.438474461
 10
-140.9141468503
 20
140.8953406456
 10
-146.1400091328
 20
144.4862627645
 10
-151.091508818
 20
148.2044992367
 10
-155.7593499827
 20
152.0430694615
 10
-160.1347692427
 20
155.9947669246
 10
-164.2095522057
 20
160.0521727268
 10
-167.9760488923
 20
164.2076695127
 10
-171.4271880985
 20
168.4534557713
 10
-174.5564906712
 20
172.7815604825
 10
-177.3580816717
 20
177.1838580819
 10
-179.8267014057
 20
181.6520837159
 10
-181.9577152975
 20
186.1778487576
 10
-183.7471225912
 20
190.752656556
 10
-185.1915638616
 20
195.3679183876
 10
-186.2883273211
 20
200.0149695805
 10
-187.035353911
 20
204.6850857816
 10
-187.4312411669
 20
209.3694993357
 10
-187.4752458517
 20
214.0594157459
 10
-187.1672853514
 20
218.7460301842
 10
-186.5079378296
 20
223.4205440215
 10
-185.4984411423
 20
228.0741813467
 10
-184.1406905142
 20
232.6982054418
 10
-182.43723498
 20
237.2839351849
 10
-180.3912725997
 20
241.8227613475
 10
-178.0066444538
 20
246.3061627576
 10
-175.2878274325
 20
250.7257222977
 10
-172.2399258307
 20
255.0731427064
 10
-168.8686617651
 20
259.3402621562
 10
-165.1803644318
 20
263.5190695762
 10
-161.1819582236
 20
267.6017196922
 10
-156.8809497304
 20
271.580547755
 10
-152.2854136463
 20
275.4480839308
 10
-147.40397761
 20
279.1970673245
 10
-142.2458060078
 20
282.8204596115
 10
-136.8205827677
 20
286.3114582513
 10
-131.1384931796
 20
289.6635092589
 10
-125.2102047729
 20
292.8703195086
 10
-119.0468472897
 20
295.9258685493
 10
-112.6599917897
 20
298.824419907
 10
-106.0616289267
 20
301.5605318543
 10
-99.2641464376
 20
304.129067627
 10
-92.2803058854
 20
306.5252050675
 10
-85.1232187012
 20
308.7444456782
 10
-77.8063215681
 20
310.7826230666
 10
-70.3433511962
 20
312.6359107677
 10
-62.7483185324
 20
314.3008294275
 10
-55.035482457
 20
315.7742533352
 10
-47.2193230138
 20
317.0534162913
 10
-39.3145142256
 20
318.1359168011
 10
-31.3358965447
 20
319.0197225829
 10
-23.2984489923
 20
319.7031743837
 10
-15.2172610364
 20
320.1849890942
 10
-7.1075042629
 20
320.4642621576
 10
1.0155961073
 20
320.540469268
 10
9.1367898018
 20
320.4134673544
 10
17.2408301282
 20
320.0834948496
 10
25.3125025975
 20
319.5511712426
 10
33.336653488
 20
318.8174959153
 10
41.2982182949
 20
317.8838462665
 10
49.182250012
 20
316.7519751258
 10
56.9739471938
 20
315.424007463
 10
64.6586817427
 20
313.9024363987
 10
72.2220263728
 20
312.1901185236
 10
79.6497816947
 20
310.2902685355
 10
86.9280028738
 20
308.2064532043
 10
94.0430258106
 20
305.9425846755
 10
100.9814927927
 20
303.5029131258
 10
107.7303775734
 20
300.8920187835
 10
114.2770098268
 20
298.11480333
 10
120.6090989348
 20
295.1764806972
 10
126.7147570617
 20
292.0825672787
 10
132.5825214725
 20
288.8388715737
  0
LWPOLYLINE
  5
7A
330
1F
100
AcDbEntity
  8
0
  6
Continuous
 62
     7
370
    25
100
AcDbPolyline
 90
       70
 70
   128
 43
0.0
 10
193.2980583059
 20
122.3196976088
 10
193.2447013832
 20
122.1126142388
 10
191.8428757125
 20
117.3930139953
 10
190.095336213
 20
112.7120121006
 10
188.005232069
 20
108.0780440365
 10
185.5763297895
 20
103.4994605267
 10
182.8130064204
 20
98.9845124881
 10
179.7202416573
 20
94.5413361623
 10
176.3036088713
 20
90.1779384533
 10
172.5692650656
 20
85.9021824987
 10
168.5239397803
 20
81.7217734998
 10
164.1749229648
 20
77.6442448362
 10
159.5300518415
 20
73.67694449
 10
154.5976967819
 20
69.8270218046
 10
149.3867462235
 20
66.101414601
 10
143.9065906512
 20
62.5068366752
 10
138.1671056758
 20
59.0497656995
 10
132.1786342372
 20
55.7364315495
 10
125.9519679656
 20
52.5728050773
 10
119.4983277346
 20
49.5645873516
 10
112.82934344
 20
46.7171993841
 10
105.9570330424
 20
44.0357723604
 10
98.8937809095
 20
41.5251383932
 10
91.6523154991
 20
39.1898218146
 10
84.2456864214
 20
37.0340310229
 10
76.6872409225
 20
35.0616508988
 10
68.9905998321
 20
33.2762358047
 10
61.1696330177
 20
31.6810031792
 10
53.2384343901
 20
30.2788277393
 10
45.2112965054
 20
29.0722363
 10
37.1026848084
 20
28.0634032206
 10
28.9272115657
 20
27.2541464864
 10
20.6996095325
 20
26.6459244329
 10
12.4347054038
 20
26.2398331172
 10
4.1473930955
 20
26.0366043433
 10
-4.1473930955
 20
26.0366043433
 10
-12.4347054038
 20
26.2398331172
 10
-20.6996095325
 20
26.6459244329
 10
-28.9272115657
 20
27.2541464864
 10
-37.1026848084
 20
28.0634032206
 10
-45.2112965054
 20
29.0722363
 10
-53.2384343902
 20
30.2788277393
 10
-61.1696330177
 20
31.6810031792
 10
-68.9905998321
 20
33.2762358047
 10
-76.6872409225
 20
35.0616508988
 10
-84.2456864214
 20
37.0340310229
 10
-91.6523154991
 20
39.1898218146
 10
-98.8937809095
 20
41.5251383932
 10
-105.9570330424
 20
44.0357723604
 10
-112.82934344
 20
46.7171993841
 10
-119.4983277346
 20
49.5645873516
 10
-125.9519679656
 20
52.5728050773
 10
-132.1786342372
 20
55.7364315495
 10
-138.1671056758
 20
59.0497656995
 10
-143.9065906512
 20
62.5068366752
 10
-149.3867462235
 20
66.101414601
 10
-154.5976967819
 20
69.8270218046
 10
-159.5300518415
 20
73.67694449
 10
-164.1749229648
 20
77.6442448362
 10
-168.5239397803
 20
81.7217734998
 10
-172.5692650656
 20
85.9021824987
 10
-176.3036088713
 20
90.1779384533
 10
-179.7202416573
 20
94.5413361623
 10
-182.8130064204
 20
98.9845124881
 10
-185.5763297895
 20
103.4994605267
 10
-188.005232069
 20
108.0780440365
 10
-190.095336213
 20
112.7120121006
 10
-191.8428757125
 20
117.3930139953
 10
-193.2447013832
 20
122.1126142388
 10
-193.295593505
 20
122.3100729615
  0
LWPOLYLINE
  5
7B
330
1F
100
AcDbEntity
  8
0
  6
Continuous
 62
     7
370
    25
100
AcDbPolyline
 90
       70
 70
   128
 43
0.0
 10
188.896450079
 20
109.9566211303
 10
188.6709661001
 20
108.8105042441
 10
187.5311347996
 20
104.1366239822
 10
186.0440390079
 20
99.495380281
 10
184.2124324841
 20
94.8953676553
 10
182.0397069419
 20
90.3451042696
 10
179.5298857688
 20
85.8530161642
 10
176.6876165759
 20
81.4274216522
 10
173.5181625913
 20
77.0765159158
 10
170.0273929142
 20
72.8083558309
 10
166.2217716466
 20
68.6308450473
 10
162.1083459228
 20
64.5517193534
 10
157.6947328605
 20
60.5785323508
 10
152.9891054549
 20
56.7186414674
 10
148.0001774448
 20
52.9791943324
 10
142.7371871764
 20
49.3671155411
 10
137.209880496
 20
45.889093832
 10
131.4284927033
 20
42.5515697004
 10
125.4037295976
 20
39.3607234729
 10
119.1467476531
 20
36.3224638622
 10
112.6691333601
 20
33.4424170254
 10
105.982881769
 20
30.7259161466
 10
99.1003742787
 20
28.1779915598
 10
92.0343557085
 20
25.8033614349
 10
84.7979106983
 20
23.6064230402
 10
77.4044394783
 20
21.5912445999
 10
69.8676330552
 20
19.7615577606
 10
62.2014478596
 20
18.120750681
 10
54.4200799016
 20
16.6718617583
 10
46.5379384833
 20
15.417574001
 10
38.5696195162
 20
14.3602100615
 10
30.5298784927
 20
13.5017279343
 10
22.4336031623
 20
12.8437173306
 10
14.2957859632
 20
12.3873967347
 10
6.1314962595
 20
12.1336111472
 10
-2.0441475639
 20
12.0828305207
 10
-10.2160060965
 20
12.2351488891
 10
-18.3689469376
 20
12.5902841939
 10
-26.4878727176
 20
13.1475788063
 10
-34.557749055
 20
13.9060007449
 10
-42.5636323964
 20
14.8641455869
 10
-50.490697689
 20
16.0202390687
 10
-58.3242658326
 20
17.3721403711
 10
-66.0498308625
 20
18.9173460844
 10
-73.6530868105
 20
20.652994843
 10
-81.1199541971
 20
22.5758726252
 10
-88.4366061026
 20
24.682418704
 10
-95.5894937721
 20
26.9687322408
 10
-102.5653717043
 20
29.4305795094
 10
-109.3513221791
 20
32.0634017354
 10
-115.9347791784
 20
34.8623235381
 10
-122.3035516554
 20
37.8221619585
 10
-128.4458461095
 20
40.9374360575
 10
-134.3502884254
 20
44.2023770644
 10
-140.0059449352
 20
47.6109390601
 10
-145.402342665
 20
51.1568101724
 10
-150.5294887284
 20
54.8334242644
 10
-155.3778888313
 20
58.6339730932
 10
-159.9385648527
 20
62.5514189171
 10
-164.2030714706
 20
66.5785075284
 10
-168.1635118004
 20
70.7077816859
 10
-171.8125520184
 20
74.9315949246
 10
-175.143434942
 20
79.2421257146
 10
-178.1499925429
 20
83.6313919453
 10
-180.8266573686
 20
88.0912657059
 10
-183.1684728518
 20
92.613488337
 10
-185.1711024896
 20
97.1896857233
 10
-186.8308378728
 20
101.8113838007
 10
-188.1446055535
 20
106.4700242483
 10
-188.896450079
 20
109.9566211303
  0
LWPOLYLINE
  5
7C
330
1F
100
AcDbEntity
  8
0
  6
Continuous
 62
     1
370
    25
100
AcDbPolyline
 90
       73
 70
   128
 43
0.0
 10
197.9548747303
 20
146.0406760491
 10
197.5867097155
 20
143.6806936423
 10
196.5740398303
 20
138.8823244986
 10
195.2118684758
 20
134.1128658057
 10
193.502617543
 20
129.3807974871
 10
191.4493260177
 20
124.6945329874
 10
189.0556445774
 20
120.062404314
 10
186.3258291001
 20
115.4926472226
 10
183.2647330984
 20
110.9933865746
 10
179.877799089
 20
106.5726218912
 10
176.1710489172
 20
102.2382131306
 10
172.1510730494
 20
97.9978667136
 10
167.825018856
 20
93.8591218212
 10
163.2005779036
 20
89.8293369908
 10
158.2859722793
 20
85.9156770329
 10
153.0899399726
 20
82.125100292
 10
147.6217193394
 20
78.4643462752
 10
141.8910326763
 20
74.9399236695
 10
135.9080689352
 20
71.5580987698
 10
129.6834656072
 20
68.3248843373
 10
123.2282898099
 20
65.2460289093
 10
116.5540186102
 20
62.3270065784
 10
109.6725186189
 20
59.5730072597
 10
102.5960248918
 20
56.9889274635
 10
95.3371191765
 20
54.5793615895
 10
87.9087075423
 20
52.3485937577
 10
80.3239974343
 20
50.3005901921
 10
72.59647419
 20
48.4389921681
 10
64.739877064
 20
46.7671095392
 10
56.768174799
 20
45.2879148517
 10
48.6955407909
 20
44.0040380597
 10
40.5363278883
 20
42.9177618493
 10
32.3050428741
 20
42.03101758
 10
24.0163206725
 20
41.3453818507
 10
15.6848983291
 20
40.8620736968
 10
7.325588809
 20
40.5819524224
 10
-1.0467453408
 20
40.5055160731
 10
-9.4172184155
 20
40.6329005498
 10
-17.7709480195
 20
40.9638793675
 10
-26.0930815265
 20
41.4978640581
 10
-34.3688224867
 20
42.2339052162
 10
-42.5834569348
 20
43.1706941876
 10
-50.7223795504
 20
44.3065653955
 10
-58.7711196263
 20
45.6394993025
 10
-66.7153667961
 20
47.1671260007
 10
-74.5409964785
 20
48.8867294256
 10
-82.2340949893
 20
50.795252185
 10
-89.7809842802
 20
52.8893009952
 10
-97.1682462574
 20
55.1651527138
 10
-104.3827466387
 20
57.6187609594
 10
-111.4116583058
 20
60.2457633061
 10
-118.2424841101
 20
63.0414890397
 10
-124.8630790928
 20
66.0009674618
 10
-131.2616720774
 20
69.1189367277
 10
-137.4268865992
 20
72.389853202
 10
-143.3477611317
 20
75.8079013144
 10
-149.0137685761
 20
79.3670039002
 10
-154.414834978
 20
83.0608330049
 10
-159.5413574384
 20
86.882821135
 10
-164.3842211873
 20
90.8261729353
 10
-168.9348157899
 20
94.88387727
 10
-173.1850504549
 20
99.048719689
 10
-177.1273684203
 20
103.3132952544
 10
-180.7547603885
 20
107.6700217065
 10
-184.060776989
 20
112.1111529447
 10
-187.039540245
 20
116.6287927996
 10
-189.6857540241
 20
121.2149090725
 10
-191.9947134547
 20
125.8613478161
 10
-193.9623132913
 20
130.5598478317
 10
-195.585055213
 20
135.3020553579
 10
-196.8600540441
 20
140.0795389226
 10
-197.7850428832
 20
144.8838043345
 10
-197.9548111076
 20
146.0402149321
  0
LWPOLYLINE
  5
7D
330
1F
100
AcDbEntity
  8
0
  6
Continuous
 62
     1
370
    25
100
AcDbPolyline
 90
       14
 70
   128
 43
0.0
 10
129.8781890613
 20
231.4867142622
 10
135.4576376156
 20
228.1210412485
 10
140.7756165185
 20
224.6171389651
 10
145.8218606412
 20
220.9817708855
 10
150.5866293762
 20
217.221954247
 10
155.060725439
 20
213.3449465066
 10
159.2355126216
 20
209.3582313313
 10
163.1029324625
 20
205.269504153
 10
166.655519802
 20
201.0866573141
 10
169.8864171916
 20
196.8177648335
 10
172.7893881307
 20
192.471066821
 10
175.3588291051
 20
188.0549535723
 10
177.5897804033
 20
183.577949373
 10
179.0462193652
 20
180.1653248465
  0
LWPOLYLINE
  5
7E
330
1F
100
AcDbEntity
  8
0
  6
Continuous
 62
     1
370
    25
100
AcDbPolyline
 90
       50
 70
   128
 43
0.0
 10
-179.0462193652
 20
180.1653248465
 10
-178.0941100867
 20
182.4501944803
 10
-175.9484797876
 20
186.9410753591
 10
-173.4632216277
 20
191.3732153715
 10
-170.6431328235
 20
195.7380592961
 10
-167.4936569043
 20
200.0271818108
 10
-164.0208732052
 20
204.2323037562
 10
-160.2314851322
 20
208.3453081167
 10
-156.132807223
 20
212.3582556882
 10
-151.7327510275
 20
216.2634004033
 10
-147.039809837
 20
220.053204283
 10
-142.0630422895
 20
223.7203519871
 10
-136.812054884
 20
227.2577649348
 10
-131.2969834376
 20
230.6586149682
 10
-125.5284735209
 20
233.9163375327
 10
-119.5176599083
 20
237.024644348
 10
-113.2761450859
 20
239.9775355466
 10
-106.8159768551
 20
242.7693112545
 10
-100.1496250769
 20
245.3945825943
 10
-93.2899576023
 20
247.8482820867
 10
-86.2502154333
 20
250.125673432
 10
-79.0439871646
 20
252.2223606528
 10
-71.6851827537
 20
254.1342965792
 10
-64.1880066713
 20
255.8577906609
 10
-56.5669304823
 20
257.3895160911
 10
-48.8366649124
 20
258.7265162279
 10
-41.012131452
 20
259.8662103018
 10
-33.1084335539
 20
260.8063983967
 10
-25.1408274796
 20
261.545265697
 10
-17.1246928503
 20
262.0813859902
 10
-9.0755029608
 20
262.41372442
 10
-1.0087949111
 20
262.5416394838
 10
7.0598603839
 20
262.4648842713
 10
15.1148882508
 20
262.1836069406
 10
23.1407403204
 20
261.6983504326
 10
31.121924541
 20
261.0100514227
 10
39.0430350818
 20
260.1200385131
 10
46.8887820701
 20
259.030029668
 10
54.6440211054
 20
257.7421288973
 10
62.2937824917
 20
256.2588221958
 10
69.8233001334
 20
254.5829727441
 10
77.2180400373
 20
252.7178153822
 10
84.4637283679
 20
250.666950365
 10
91.5463789991
 20
248.4343364133
 10
98.4523205112
 20
246.0242830722
 10
105.1682225809
 20
243.4414423925
 10
111.6811217119
 20
240.6907999508
 10
117.9784462584
 20
237.7776652266
 10
124.0480406911
 20
234.7076613528
 10
129.8781890613
 20
231.4867142622
  0
CIRCLE
  5
7F
330
1B
100
AcDbEntity
 67
     1
  8
0
  6
Continuous
 62
     7
370
    25
100
AcDbCircle
 10
0.0
 20
0.0
 30
0.0
 40
202.5000000000004
  0
CIRCLE
  5
80
330
1B
100
AcDbEntity
 67
     1
  8
0
  6
Continuous
 62
     7
370
    25
100
AcDbCircle
 10
0.0
 20
0.0
 30
0.0
 40
183.6754964269718
  0
CIRCLE
  5
81
330
1B
100
AcDbEntity
 67
     1
  8
0
  6
Continuous
 62
     7
370
    25
100
AcDbCircle
 10
0.0
 20
0.0
 30
0.0
 40
187.5
  0
CIRCLE
  5
82
330
1B
100
AcDbEntity
 67
     1
  8
0
  6
Continuous
 62
     7
370
    25
100
AcDbCircle
 10
0.0
 20
0.0
 30
0.0
 40
34.9175359259423
  0
CIRCLE
  5
83
330
1B
100
AcDbEntity
 67
     1
  8
0
  6
Continuous
 62
     7
370
    25
100
AcDbCircle
 10
0.0
 20
0.0
 30
0.0
 40
23.00000000000015
  0
VIEWPORT
  5
1F1
330
1B
100
AcDbEntity
 67
     1
  8
0
100
AcDbViewport
 10
0.0
 20
0.0
 30
0.0
 40
205.6
 41
156.0
 68
     1
 69
     1
 12
0.0109564813
 22
147.980600436
 13
0.0
 23
0.0
 14
10.0
 24
10.0
 15
10.0
 25
10.0
 16
0.0
 26
0.0
 36
1.0
 17
0.0
 27
0.0
 37
0.0
 42
50.0
 43
0.0
 44
0.0
 45
369.6871497605
 50
0.0
 51
0.0
 72
   100
 90
   557152
  1

281
     0
 71
     1
 74
     0
110
0.0
120
0.0
130
0.0
111
1.0
121
0.0
131
0.0
112
0.0
122
1.0
132
0.0
 79
     0
146
0.0
170
     0
 61
     5
348
2F
292
     1
282
     1
141
0.0
142
0.0
 63
   256
361
1F2
  0
ENDSEC
  0
SECTION
  2
OBJECTS
  0
DICTIONARY
  5
C
330
0
100
AcDbDictionary
281
     1
  3
ACAD_DETAILVIEWSTYLE
350
211
  3
ACAD_GROUP
350
D
  3
ACAD_LAYOUT
350
1A
  3
ACAD_MATERIAL
350
43
  3
ACAD_MLEADERSTYLE
350
6B
  3
ACAD_MLINESTYLE
350
17
  3
ACAD_PLOTSETTINGS
350
19
  3
ACAD_PLOTSTYLENAME
350
E
  3
ACAD_SCALELIST
350
47
  3
ACAD_SECTIONVIEWSTYLE
350
212
  3
ACAD_TABLESTYLE
350
69
  3
ACAD_VISUALSTYLE
350
2A
  3
ACDB_RECOMPOSE_DATA
350
20E
  3
AcDbVariableDictionary
350
209
  0
SUN
  5
6D
330
29
100
AcDbSun
 90
        1
290
     0
 63
     7
421
 16777215
 40
1.0
291
     1
 91
  2455826
 92
 54000000
292
     0
 70
     2
 71
   256
280
     1
  0
SUN
  5
1F4
330
1F3
100
AcDbSun
 90
        1
290
     0
 63
     7
421
 16777215
 40
1.0
291
     1
 91
  2455826
 92
 54000000
292
     0
 70
     2
 71
   256
280
     1
  0
SUN
  5
1F6
330
1F5
100
AcDbSun
 90
        1
290
     0
 63
     7
421
 16777215
 40
1.0
291
     1
 91
  2455826
 92
 54000000
292
     0
 70
     2
 71
   256
280
     1
  0
SUN
  5
1F8
330
1F7
100
AcDbSun
 90
        1
290
     0
 63
     7
421
 16777215
 40
1.0
291
     1
 91
  2455826
 92
 54000000
292
     0
 70
     2
 71
   256
280
     1
  0
SUN
  5
1FA
330
1F9
100
AcDbSun
 90
        1
290
     0
 63
     7
421
 16777215
 40
1.0
291
     1
 91
  2455826
 92
 54000000
292
     0
 70
     2
 71
   256
280
     1
  0
SUN
  5
1FC
330
1FB
100
AcDbSun
 90
        1
290
     0
 63
     7
421
 16777215
 40
1.0
291
     1
 91
  2455826
 92
 54000000
292
     0
 70
     2
 71
   256
280
     1
  0
SUN
  5
1FE
330
1FD
100
AcDbSun
 90
        1
290
     0
 63
     7
421
 16777215
 40
1.0
291
     1
 91
  2455826
 92
 54000000
292
     0
 70
     2
 71
   256
280
     1
  0
SUN
  5
200
330
1FF
100
AcDbSun
 90
        1
290
     0
 63
     7
421
 16777215
 40
1.0
291
     1
 91
  2455826
 92
 54000000
292
     0
 70
     2
 71
   256
280
     1
  0
SUN
  5
202
330
201
100
AcDbSun
 90
        1
290
     0
 63
     7
421
 16777215
 40
1.0
291
     1
 91
  2455826
 92
 54000000
292
     0
 70
     2
 71
   256
280
     1
  0
SUN
  5
204
330
203
100
AcDbSun
 90
        1
290
     0
 63
     7
421
 16777215
 40
1.0
291
     1
 91
  2455826
 92
 54000000
292
     0
 70
     2
 71
   256
280
     1
  0
SUN
  5
206
330
205
100
AcDbSun
 90
        1
290
     0
 63
     7
421
 16777215
 40
1.0
291
     1
 91
  2455826
 92
 54000000
292
     0
 70
     2
 71
   256
280
     1
  0
SUN
  5
208
330
207
100
AcDbSun
 90
        1
290
     0
 63
     7
421
 16777215
 40
1.0
291
     1
 91
  2455826
 92
 54000000
292
     0
 70
     2
 71
   256
280
     1
  0
SUN
  5
1F2
330
1F1
100
AcDbSun
 90
        1
290
     0
 63
     7
421
 16777215
 40
1.0
291
     1
 91
  2455826
 92
 54000000
292
     0
 70
     2
 71
   256
280
     1
  0
DICTIONARY
  5
211
102
{ACAD_REACTORS
330
C
102
}
330
C
100
AcDbDictionary
281
     1
  0
DICTIONARY
  5
D
102
{ACAD_REACTORS
330
C
102
}
330
C
100
AcDbDictionary
281
     1
  0
DICTIONARY
  5
1A
102
{ACAD_REACTORS
330
C
102
}
330
C
100
AcDbDictionary
281
     1
  3
_Dimetrisch
350
1D9
  3
_Isometrisch
350
1B9
  3
_Links
350
AB
  3
_Normal auf
350
129
  3
_Oben
350
1E
  3
_Rechts
350
184
  3
_Rückseite
350
153
  3
_Trimetrisch
350
1C9
  3
_Unten
350
1AE
  3
_Vorderseite
350
26
  3
Beschriftungsansicht  1
350
D5
  3
Beschriftungsansicht  2
350
FF
  3
Model
350
22
  0
DICTIONARY
  5
43
102
{ACAD_REACTORS
330
C
102
}
330
C
100
AcDbDictionary
281
     1
  3
ByBlock
350
45
  3
ByLayer
350
44
  3
Global
350
46
  0
DICTIONARY
  5
6B
102
{ACAD_REACTORS
330
C
102
}
330
C
100
AcDbDictionary
281
     1
  3
Standard
350
6C
  0
DICTIONARY
  5
17
102
{ACAD_REACTORS
330
C
102
}
330
C
100
AcDbDictionary
281
     1
  3
Standard
350
18
  0
DICTIONARY
  5
19
102
{ACAD_REACTORS
330
C
102
}
330
C
100
AcDbDictionary
281
     1
  0
ACDBDICTIONARYWDFLT
  5
E
102
{ACAD_REACTORS
330
C
102
}
330
C
100
AcDbDictionary
281
     1
  3
Normal
350
F
100
AcDbDictionaryWithDefault
340
F
  0
DICTIONARY
  5
47
102
{ACAD_REACTORS
330
C
102
}
330
C
100
AcDbDictionary
281
     1
  3
A0
350
48
  3
A1
350
49
  3
A2
350
4A
  3
A3
350
4B
  3
A4
350
4C
  3
A5
350
4D
  3
A6
350
4E
  3
A7
350
4F
  3
A8
350
50
  3
A9
350
51
  3
B0
350
52
  3
B1
350
53
  3
B2
350
54
  3
B3
350
55
  3
B4
350
56
  3
B5
350
57
  3
B6
350
58
  3
B7
350
59
  3
B8
350
5A
  3
B9
350
5B
  3
C0
350
5C
  3
C1
350
5D
  3
C2
350
5E
  3
C3
350
5F
  3
C4
350
60
  3
C5
350
61
  3
C6
350
62
  3
C7
350
63
  3
C8
350
64
  3
C9
350
65
  3
D0
350
66
  3
D1
350
67
  3
D2
350
68
  0
DICTIONARY
  5
212
102
{ACAD_REACTORS
330
C
102
}
330
C
100
AcDbDictionary
281
     1
  0
DICTIONARY
  5
69
102
{ACAD_REACTORS
330
C
102
}
330
C
100
AcDbDictionary
281
     1
  3
Standard
350
6A
  0
DICTIONARY
  5
2A
102
{ACAD_REACTORS
330
C
102
}
330
C
100
AcDbDictionary
281
     1
  3
2dWireframe
350
2F
  3
Basic
350
32
  3
Brighten
350
36
  3
ColorChange
350
3A
  3
Conceptual
350
34
  3
Dim
350
35
  3
EdgeColorOff
350
3D
  3
Facepattern
350
39
  3
Flat
350
2B
  3
FlatWithEdges
350
2C
  3
Gouraud
350
2D
  3
GouraudWithEdges
350
2E
  3
Hidden
350
31
  3
JitterOff
350
3B
  3
Linepattern
350
38
  3
OverhangOff
350
3C
  3
Realistic
350
33
  3
Shaded
350
42
  3
Shaded with edges
350
41
  3
Shades of Gray
350
3E
  3
Sketchy
350
3F
  3
Thicken
350
37
  3
Wireframe
350
30
  3
X-Ray
350
40
  0
XRECORD
  5
20E
102
{ACAD_REACTORS
330
C
102
}
330
C
100
AcDbXrecord
280
     1
 90
        1
330
6A
  0
DICTIONARY
  5
209
102
{ACAD_REACTORS
330
C
102
}
330
C
100
AcDbDictionary
281
     1
  3
CANNOSCALE
350
20A
  3
CMLEADERSTYLE
350
210
  3
CTABLESTYLE
350
20F
  0
LAYOUT
  5
1D9
102
{ACAD_REACTORS
330
1A
102
}
330
1A
100
AcDbPlotSettings
  1

  2
none_device
  4
ISO_A4_(210.00_x_297.00_MM)
  6

 40
7.5
 41
20.0
 42
7.5
 43
20.0
 44
210.0
 45
297.0
 46
0.0
 47
0.0
 48
0.0
 49
0.0
140
0.0
141
0.0
142
1.0
143
2.0769230769
 70
   688
 72
     1
 73
     1
 74
     1
  7

 75
     0
 76
     0
 77
     2
 78
   300
147
0.4814814815
148
202.5
149
202.5
100
AcDbLayout
  1
_Dimetrisch
 70
     1
 71
    12
 10
0.0
 20
0.0
 11
0.0
 21
0.0
 12
0.0
 22
0.0
 32
0.0
 14
0.0
 24
0.0
 34
0.0
 15
0.0
 25
0.0
 35
0.0
146
0.0
 13
0.0
 23
0.0
 33
0.0
 16
1.0
 26
0.0
 36
0.0
 17
0.0
 27
1.0
 37
0.0
 76
     0
330
1D8
331
207
  0
LAYOUT
  5
1B9
102
{ACAD_REACTORS
330
1A
102
}
330
1A
100
AcDbPlotSettings
  1

  2
none_device
  4
ISO_A4_(210.00_x_297.00_MM)
  6

 40
7.5
 41
20.0
 42
7.5
 43
20.0
 44
210.0
 45
297.0
 46
0.0
 47
0.0
 48
0.0
 49
0.0
140
0.0
141
0.0
142
1.0
143
2.0769230769
 70
   688
 72
     1
 73
     1
 74
     1
  7

 75
     0
 76
     0
 77
     2
 78
   300
147
0.4814814815
148
202.5
149
202.5
100
AcDbLayout
  1
_Isometrisch
 70
     1
 71
    10
 10
0.0
 20
0.0
 11
0.0
 21
0.0
 12
0.0
 22
0.0
 32
0.0
 14
0.0
 24
0.0
 34
0.0
 15
0.0
 25
0.0
 35
0.0
146
0.0
 13
0.0
 23
0.0
 33
0.0
 16
1.0
 26
0.0
 36
0.0
 17
0.0
 27
1.0
 37
0.0
 76
     0
330
1B8
331
203
  0
LAYOUT
  5
AB
102
{ACAD_REACTORS
330
1A
102
}
330
1A
100
AcDbPlotSettings
  1

  2
none_device
  4
ISO_A4_(210.00_x_297.00_MM)
  6

 40
7.5
 41
20.0
 42
7.5
 43
20.0
 44
210.0
 45
297.0
 46
0.0
 47
0.0
 48
0.0
 49
0.0
140
0.0
141
0.0
142
1.0
143
2.0769230769
 70
   688
 72
     1
 73
     1
 74
     1
  7

 75
     0
 76
     0
 77
     2
 78
   300
147
0.4814814815
148
202.5
149
202.5
100
AcDbLayout
  1
_Links
 70
     1
 71
     3
 10
0.0
 20
0.0
 11
0.0
 21
0.0
 12
0.0
 22
0.0
 32
0.0
 14
0.0
 24
0.0
 34
0.0
 15
0.0
 25
0.0
 35
0.0
146
0.0
 13
0.0
 23
0.0
 33
0.0
 16
1.0
 26
0.0
 36
0.0
 17
0.0
 27
1.0
 37
0.0
 76
     0
330
AA
331
1F5
  0
LAYOUT
  5
129
102
{ACAD_REACTORS
330
1A
102
}
330
1A
100
AcDbPlotSettings
  1

  2
none_device
  4
ISO_A4_(210.00_x_297.00_MM)
  6

 40
7.5
 41
20.0
 42
7.5
 43
20.0
 44
210.0
 45
297.0
 46
0.0
 47
0.0
 48
0.0
 49
0.0
140
0.0
141
0.0
142
1.0
143
2.0769230769
 70
   688
 72
     1
 73
     1
 74
     1
  7

 75
     0
 76
     0
 77
     2
 78
   300
147
0.4814814815
148
202.5
149
202.5
100
AcDbLayout
  1
_Normal auf
 70
     1
 71
     6
 10
0.0
 20
0.0
 11
0.0
 21
0.0
 12
0.0
 22
0.0
 32
0.0
 14
0.0
 24
0.0
 34
0.0
 15
0.0
 25
0.0
 35
0.0
146
0.0
 13
0.0
 23
0.0
 33
0.0
 16
1.0
 26
0.0
 36
0.0
 17
0.0
 27
1.0
 37
0.0
 76
     0
330
128
331
1FB
  0
LAYOUT
  5
1E
102
{ACAD_REACTORS
330
1A
102
}
330
1A
100
AcDbPlotSettings
  1

  2
none_device
  4
ISO_A4_(210.00_x_297.00_MM)
  6

 40
7.5
 41
20.0
 42
7.5
 43
20.0
 44
210.0
 45
297.0
 46
0.0
 47
0.0
 48
0.0
 49
0.0
140
0.0
141
0.0
142
1.0
143
2.0769230769
 70
   688
 72
     1
 73
     1
 74
     1
  7

 75
     0
 76
     0
 77
     2
 78
   300
147
0.4814814815
148
202.5
149
202.5
100
AcDbLayout
  1
_Oben
 70
     1
 71
     1
 10
-244.0384615385
 20
-218.0769230769
 11
372.8076923077
 21
218.0769230769
 12
0.0
 22
0.0
 32
0.0
 14
-202.5
 24
-202.5
 34
0.0
 15
202.5
 25
202.5
 35
0.0
146
0.0
 13
0.0
 23
0.0
 33
0.0
 16
1.0
 26
0.0
 36
0.0
 17
0.0
 27
1.0
 37
0.0
 76
     0
330
1B
331
1F1
  0
LAYOUT
  5
184
102
{ACAD_REACTORS
330
1A
102
}
330
1A
100
AcDbPlotSettings
  1

  2
none_device
  4
ISO_A4_(210.00_x_297.00_MM)
  6

 40
7.5
 41
20.0
 42
7.5
 43
20.0
 44
210.0
 45
297.0
 46
0.0
 47
0.0
 48
0.0
 49
0.0
140
0.0
141
0.0
142
1.0
143
2.0769230769
 70
   688
 72
     1
 73
     1
 74
     1
  7

 75
     0
 76
     0
 77
     2
 78
   300
147
0.4814814815
148
202.5
149
202.5
100
AcDbLayout
  1
_Rechts
 70
     1
 71
     8
 10
0.0
 20
0.0
 11
0.0
 21
0.0
 12
0.0
 22
0.0
 32
0.0
 14
0.0
 24
0.0
 34
0.0
 15
0.0
 25
0.0
 35
0.0
146
0.0
 13
0.0
 23
0.0
 33
0.0
 16
1.0
 26
0.0
 36
0.0
 17
0.0
 27
1.0
 37
0.0
 76
     0
330
183
331
1FF
  0
LAYOUT
  5
153
102
{ACAD_REACTORS
330
1A
102
}
330
1A
100
AcDbPlotSettings
  1

  2
none_device
  4
ISO_A4_(210.00_x_297.00_MM)
  6

 40
7.5
 41
20.0
 42
7.5
 43
20.0
 44
210.0
 45
297.0
 46
0.0
 47
0.0
 48
0.0
 49
0.0
140
0.0
141
0.0
142
1.0
143
2.0769230769
 70
   688
 72
     1
 73
     1
 74
     1
  7

 75
     0
 76
     0
 77
     2
 78
   300
147
0.4814814815
148
202.5
149
202.5
100
AcDbLayout
  1
_Rückseite
 70
     1
 71
     7
 10
0.0
 20
0.0
 11
0.0
 21
0.0
 12
0.0
 22
0.0
 32
0.0
 14
0.0
 24
0.0
 34
0.0
 15
0.0
 25
0.0
 35
0.0
146
0.0
 13
0.0
 23
0.0
 33
0.0
 16
1.0
 26
0.0
 36
0.0
 17
0.0
 27
1.0
 37
0.0
 76
     0
330
152
331
1FD
  0
LAYOUT
  5
1C9
102
{ACAD_REACTORS
330
1A
102
}
330
1A
100
AcDbPlotSettings
  1

  2
none_device
  4
ISO_A4_(210.00_x_297.00_MM)
  6

 40
7.5
 41
20.0
 42
7.5
 43
20.0
 44
210.0
 45
297.0
 46
0.0
 47
0.0
 48
0.0
 49
0.0
140
0.0
141
0.0
142
1.0
143
2.0769230769
 70
   688
 72
     1
 73
     1
 74
     1
  7

 75
     0
 76
     0
 77
     2
 78
   300
147
0.4814814815
148
202.5
149
202.5
100
AcDbLayout
  1
_Trimetrisch
 70
     1
 71
    11
 10
0.0
 20
0.0
 11
0.0
 21
0.0
 12
0.0
 22
0.0
 32
0.0
 14
0.0
 24
0.0
 34
0.0
 15
0.0
 25
0.0
 35
0.0
146
0.0
 13
0.0
 23
0.0
 33
0.0
 16
1.0
 26
0.0
 36
0.0
 17
0.0
 27
1.0
 37
0.0
 76
     0
330
1C8
331
205
  0
LAYOUT
  5
1AE
102
{ACAD_REACTORS
330
1A
102
}
330
1A
100
AcDbPlotSettings
  1

  2
none_device
  4
ISO_A4_(210.00_x_297.00_MM)
  6

 40
7.5
 41
20.0
 42
7.5
 43
20.0
 44
210.0
 45
297.0
 46
0.0
 47
0.0
 48
0.0
 49
0.0
140
0.0
141
0.0
142
1.0
143
2.0769230769
 70
   688
 72
     1
 73
     1
 74
     1
  7

 75
     0
 76
     0
 77
     2
 78
   300
147
0.4814814815
148
202.5
149
202.5
100
AcDbLayout
  1
_Unten
 70
     1
 71
     9
 10
0.0
 20
0.0
 11
0.0
 21
0.0
 12
0.0
 22
0.0
 32
0.0
 14
0.0
 24
0.0
 34
0.0
 15
0.0
 25
0.0
 35
0.0
146
0.0
 13
0.0
 23
0.0
 33
0.0
 16
1.0
 26
0.0
 36
0.0
 17
0.0
 27
1.0
 37
0.0
 76
     0
330
1AD
331
201
  0
LAYOUT
  5
26
102
{ACAD_REACTORS
330
1A
102
}
330
1A
100
AcDbPlotSettings
  1

  2
none_device
  4
ISO_A4_(210.00_x_297.00_MM)
  6

 40
7.5
 41
20.0
 42
7.5
 43
20.0
 44
210.0
 45
297.0
 46
0.0
 47
0.0
 48
0.0
 49
0.0
140
0.0
141
0.0
142
1.0
143
2.0769230769
 70
   688
 72
     1
 73
     1
 74
     1
  7

 75
     0
 76
     0
 77
     2
 78
   300
147
0.4814814815
148
202.5
149
202.5
100
AcDbLayout
  1
_Vorderseite
 70
     1
 71
     2
 10
0.0
 20
0.0
 11
0.0
 21
0.0
 12
0.0
 22
0.0
 32
0.0
 14
0.0
 24
0.0
 34
0.0
 15
0.0
 25
0.0
 35
0.0
146
0.0
 13
0.0
 23
0.0
 33
0.0
 16
1.0
 26
0.0
 36
0.0
 17
0.0
 27
1.0
 37
0.0
 76
     0
330
23
331
1F3
  0
LAYOUT
  5
D5
102
{ACAD_REACTORS
330
1A
102
}
330
1A
100
AcDbPlotSettings
  1

  2
none_device
  4
ISO_A4_(210.00_x_297.00_MM)
  6

 40
7.5
 41
20.0
 42
7.5
 43
20.0
 44
210.0
 45
297.0
 46
0.0
 47
0.0
 48
0.0
 49
0.0
140
0.0
141
0.0
142
1.0
143
2.0769230769
 70
   688
 72
     1
 73
     1
 74
     1
  7

 75
     0
 76
     0
 77
     2
 78
   300
147
0.4814814815
148
202.5
149
202.5
100
AcDbLayout
  1
Beschriftungsansicht  1
 70
     1
 71
     4
 10
0.0
 20
0.0
 11
0.0
 21
0.0
 12
0.0
 22
0.0
 32
0.0
 14
0.0
 24
0.0
 34
0.0
 15
0.0
 25
0.0
 35
0.0
146
0.0
 13
0.0
 23
0.0
 33
0.0
 16
1.0
 26
0.0
 36
0.0
 17
0.0
 27
1.0
 37
0.0
 76
     0
330
D4
331
1F7
  0
LAYOUT
  5
FF
102
{ACAD_REACTORS
330
1A
102
}
330
1A
100
AcDbPlotSettings
  1

  2
none_device
  4
ISO_A4_(210.00_x_297.00_MM)
  6

 40
7.5
 41
20.0
 42
7.5
 43
20.0
 44
210.0
 45
297.0
 46
0.0
 47
0.0
 48
0.0
 49
0.0
140
0.0
141
0.0
142
1.0
143
2.0769230769
 70
   688
 72
     1
 73
     1
 74
     1
  7

 75
     0
 76
     0
 77
     2
 78
   300
147
0.4814814815
148
202.5
149
202.5
100
AcDbLayout
  1
Beschriftungsansicht  2
 70
     1
 71
     5
 10
0.0
 20
0.0
 11
0.0
 21
0.0
 12
0.0
 22
0.0
 32
0.0
 14
0.0
 24
0.0
 34
0.0
 15
0.0
 25
0.0
 35
0.0
146
0.0
 13
0.0
 23
0.0
 33
0.0
 16
1.0
 26
0.0
 36
0.0
 17
0.0
 27
1.0
 37
0.0
 76
     0
330
FE
331
1F9
  0
LAYOUT
  5
22
102
{ACAD_REACTORS
330
1A
102
}
330
1A
100
AcDbPlotSettings
  1

  2
none_device
  4
ANSI_A_(11.00_x_8.50_Inches)
  6

 40
6.35
 41
19.05
 42
6.35000508
 43
19.05000254
 44
279.4
 45
215.9
 46
133.3435360879
 47
1.6313123041
 48
0.0
 49
0.0
140
0.0
141
0.0
142
0.0232177397
143
1.0
 70
  1696
 72
     0
 73
     0
 74
     0
  7

 75
     0
 76
     0
 77
     2
 78
   300
147
0.0179189148
148
-1300.4909072572
149
0.0
100
AcDbLayout
  1
Model
 70
     1
 71
     0
 10
0.0
 20
0.0
 11
420.0
 21
297.0
 12
0.0
 22
0.0
 32
0.0
 14
-202.4753478616
 24
-33.2385906231
 34
0.0
 15
202.4972608241
 25
329.199791495
 35
0.0
146
0.0
 13
0.0
 23
0.0
 33
0.0
 16
1.0
 26
0.0
 36
0.0
 17
0.0
 27
1.0
 37
0.0
 76
     0
330
1F
331
29
  0
MATERIAL
  5
45
102
{ACAD_REACTORS
330
43
102
}
330
43
100
AcDbMaterial
  1
ByBlock
 72
     1
 94
      127
  0
MATERIAL
  5
44
102
{ACAD_REACTORS
330
43
102
}
330
43
100
AcDbMaterial
  1
ByLayer
 72
     1
 94
      127
  0
MATERIAL
  5
46
102
{ACAD_REACTORS
330
43
102
}
330
43
100
AcDbMaterial
  1
Global
 72
     1
 94
      127
  0
MLEADERSTYLE
  5
6C
102
{ACAD_REACTORS
330
6B
102
}
330
6B
100
AcDbMLeaderStyle
170
     2
171
     1
172
     0
 90
        2
 40
0.0
 41
0.0
173
     1
 91
-1056964608
340
14
 92
       -2
290
     1
 42
2.0
291
     1
 43
8.0
  3
Standard
341
0
 44
4.0
300

342
11
174
     1
178
     6
175
     1
176
     0
 93
-1056964608
 45
4.0
292
     0
297
     0
 46
4.0
343
0
 94
-1056964608
 47
1.0
 49
1.0
140
1.0
293
     1
141
0.0
294
     1
177
     0
142
1.0
295
     0
296
     0
143
3.75
1001
ACAD_MLEADERVER
1070
     2
  0
MLINESTYLE
  5
18
102
{ACAD_REACTORS
330
17
102
}
330
17
100
AcDbMlineStyle
  2
Standard
 70
     0
  3

 62
   256
 51
90.0
 52
90.0
 71
     2
 49
0.5
 62
   256
  6
BYLAYER
 49
-0.5
 62
   256
  6
BYLAYER
  0
ACDBPLACEHOLDER
  5
F
102
{ACAD_REACTORS
330
E
102
}
330
E
  0
SCALE
  5
48
102
{ACAD_REACTORS
330
47
102
}
330
47
100
AcDbScale
 70
     0
300
1:1
140
1.0
141
1.0
290
     1
  0
SCALE
  5
49
102
{ACAD_REACTORS
330
47
102
}
330
47
100
AcDbScale
 70
     0
300
1:2
140
1.0
141
2.0
290
     0
  0
SCALE
  5
4A
102
{ACAD_REACTORS
330
47
102
}
330
47
100
AcDbScale
 70
     0
300
1:4
140
1.0
141
4.0
290
     0
  0
SCALE
  5
4B
102
{ACAD_REACTORS
330
47
102
}
330
47
100
AcDbScale
 70
     0
300
1:5
140
1.0
141
5.0
290
     0
  0
SCALE
  5
4C
102
{ACAD_REACTORS
330
47
102
}
330
47
100
AcDbScale
 70
     0
300
1:8
140
1.0
141
8.0
290
     0
  0
SCALE
  5
4D
102
{ACAD_REACTORS
330
47
102
}
330
47
100
AcDbScale
 70
     0
300
1:10
140
1.0
141
10.0
290
     0
  0
SCALE
  5
4E
102
{ACAD_REACTORS
330
47
102
}
330
47
100
AcDbScale
 70
     0
300
1:16
140
1.0
141
16.0
290
     0
  0
SCALE
  5
4F
102
{ACAD_REACTORS
330
47
102
}
330
47
100
AcDbScale
 70
     0
300
1:20
140
1.0
141
20.0
290
     0
  0
SCALE
  5
50
102
{ACAD_REACTORS
330
47
102
}
330
47
100
AcDbScale
 70
     0
300
1:30
140
1.0
141
30.0
290
     0
  0
SCALE
  5
51
102
{ACAD_REACTORS
330
47
102
}
330
47
100
AcDbScale
 70
     0
300
1:40
140
1.0
141
40.0
290
     0
  0
SCALE
  5
52
102
{ACAD_REACTORS
330
47
102
}
330
47
100
AcDbScale
 70
     0
300
1:50
140
1.0
141
50.0
290
     0
  0
SCALE
  5
53
102
{ACAD_REACTORS
330
47
102
}
330
47
100
AcDbScale
 70
     0
300
1:100
140
1.0
141
100.0
290
     0
  0
SCALE
  5
54
102
{ACAD_REACTORS
330
47
102
}
330
47
100
AcDbScale
 70
     0
300
2:1
140
2.0
141
1.0
290
     0
  0
SCALE
  5
55
102
{ACAD_REACTORS
330
47
102
}
330
47
100
AcDbScale
 70
     0
300
4:1
140
4.0
141
1.0
290
     0
  0
SCALE
  5
56
102
{ACAD_REACTORS
330
47
102
}
330
47
100
AcDbScale
 70
     0
300
8:1
140
8.0
141
1.0
290
     0
  0
SCALE
  5
57
102
{ACAD_REACTORS
330
47
102
}
330
47
100
AcDbScale
 70
     0
300
10:1
140
10.0
141
1.0
290
     0
  0
SCALE
  5
58
102
{ACAD_REACTORS
330
47
102
}
330
47
100
AcDbScale
 70
     0
300
100:1
140
100.0
141
1.0
290
     0
  0
SCALE
  5
59
102
{ACAD_REACTORS
330
47
102
}
330
47
100
AcDbScale
 70
     0
300
1/128" = 1'-0"
140
0.0078125
141
12.0
290
     0
  0
SCALE
  5
5A
102
{ACAD_REACTORS
330
47
102
}
330
47
100
AcDbScale
 70
     0
300
1/64" = 1'-0"
140
0.015625
141
12.0
290
     0
  0
SCALE
  5
5B
102
{ACAD_REACTORS
330
47
102
}
330
47
100
AcDbScale
 70
     0
300
1/32" = 1'-0"
140
0.03125
141
12.0
290
     0
  0
SCALE
  5
5C
102
{ACAD_REACTORS
330
47
102
}
330
47
100
AcDbScale
 70
     0
300
1/16" = 1'-0"
140
0.0625
141
12.0
290
     0
  0
SCALE
  5
5D
102
{ACAD_REACTORS
330
47
102
}
330
47
100
AcDbScale
 70
     0
300
3/32" = 1'-0"
140
0.09375
141
12.0
290
     0
  0
SCALE
  5
5E
102
{ACAD_REACTORS
330
47
102
}
330
47
100
AcDbScale
 70
     0
300
1/8" = 1'-0"
140
0.125
141
12.0
290
     0
  0
SCALE
  5
5F
102
{ACAD_REACTORS
330
47
102
}
330
47
100
AcDbScale
 70
     0
300
3/16" = 1'-0"
140
0.1875
141
12.0
290
     0
  0
SCALE
  5
60
102
{ACAD_REACTORS
330
47
102
}
330
47
100
AcDbScale
 70
     0
300
1/4" = 1'-0"
140
0.25
141
12.0
290
     0
  0
SCALE
  5
61
102
{ACAD_REACTORS
330
47
102
}
330
47
100
AcDbScale
 70
     0
300
3/8" = 1'-0"
140
0.375
141
12.0
290
     0
  0
SCALE
  5
62
102
{ACAD_REACTORS
330
47
102
}
330
47
100
AcDbScale
 70
     0
300
1/2" = 1'-0"
140
0.5
141
12.0
290
     0
  0
SCALE
  5
63
102
{ACAD_REACTORS
330
47
102
}
330
47
100
AcDbScale
 70
     0
300
3/4" = 1'-0"
140
0.75
141
12.0
290
     0
  0
SCALE
  5
64
102
{ACAD_REACTORS
330
47
102
}
330
47
100
AcDbScale
 70
     0
300
1" = 1'-0"
140
1.0
141
12.0
290
     0
  0
SCALE
  5
65
102
{ACAD_REACTORS
330
47
102
}
330
47
100
AcDbScale
 70
     0
300
1-1/2" = 1'-0"
140
1.5
141
12.0
290
     0
  0
SCALE
  5
66
102
{ACAD_REACTORS
330
47
102
}
330
47
100
AcDbScale
 70
     0
300
3" = 1'-0"
140
3.0
141
12.0
290
     0
  0
SCALE
  5
67
102
{ACAD_REACTORS
330
47
102
}
330
47
100
AcDbScale
 70
     0
300
6" = 1'-0"
140
6.0
141
12.0
290
     0
  0
SCALE
  5
68
102
{ACAD_REACTORS
330
47
102
}
330
47
100
AcDbScale
 70
     0
300
1'-0" = 1'-0"
140
12.0
141
12.0
290
     0
  0
TABLESTYLE
  5
6A
102
{ACAD_REACTORS
330
69
102
}
102
{ACAD_XDICTIONARY
360
20B
102
}
330
69
100
AcDbTableStyle
  3
Standard
 70
     0
 71
     0
 40
0.06
 41
0.06
280
     0
281
     0
  7
Standard
140
4.5
170
     2
 62
     0
 63
   257
283
     0
 90
        4
 91
        0
  1

274
    -2
284
     1
 64
     0
275
    -2
285
     1
 65
     0
276
    -2
286
     1
 66
     0
277
    -2
287
     1
 67
     0
278
    -2
288
     1
 68
     0
279
    -2
289
     1
 69
     0
  7
Standard
140
6.0
170
     5
 62
     0
 63
   257
283
     0
 90
        4
 91
        0
  1

274
    -2
284
     1
 64
     0
275
    -2
285
     1
 65
     0
276
    -2
286
     1
 66
     0
277
    -2
287
     1
 67
     0
278
    -2
288
     1
 68
     0
279
    -2
289
     1
 69
     0
  7
Standard
140
4.5
170
     5
 62
     0
 63
   257
283
     0
 90
        4
 91
        0
  1

274
    -2
284
     1
 64
     0
275
    -2
285
     1
 65
     0
276
    -2
286
     1
 66
     0
277
    -2
287
     1
 67
     0
278
    -2
288
     1
 68
     0
279
    -2
289
     1
 69
     0
  0
VISUALSTYLE
  5
2F
102
{ACAD_REACTORS
330
2A
102
}
330
2A
100
AcDbVisualStyle
  2
2dWireframe
 70
     4
 71
     0
 72
     2
 73
     0
 90
        0
 40
0.6
 41
30.0
 62
     5
 63
     7
421
 16777215
 74
     1
 91
        4
 64
     7
 65
   257
 75
     1
175
     1
 42
1.0
 92
        0
 66
   257
 43
1.0
 76
     1
 77
     6
 78
     2
 67
     7
 79
     5
170
     0
171
     0
290
     0
174
     0
 93
        1
 44
0.0
173
     0
291
     0
 45
0.0
  0
VISUALSTYLE
  5
32
102
{ACAD_REACTORS
330
2A
102
}
330
2A
100
AcDbVisualStyle
  2
Basic
 70
     7
 71
     1
 72
     0
 73
     1
 90
        0
 40
0.6
 41
30.0
 62
     5
 63
     7
421
 16777215
 74
     0
 91
        4
 64
     7
 65
   257
 75
     1
175
     1
 42
1.0
 92
        8
 66
     7
 43
1.0
 76
     1
 77
     6
 78
     2
 67
     7
 79
     5
170
     0
171
     0
290
     0
174
     0
 93
        1
 44
0.0
173
     0
291
     1
 45
0.0
  0
VISUALSTYLE
  5
36
102
{ACAD_REACTORS
330
2A
102
}
330
2A
100
AcDbVisualStyle
  2
Brighten
 70
    12
 71
     2
 72
     2
 73
     0
 90
        0
 40
0.6
 41
30.0
 62
     5
 63
     7
421
 16777215
 74
     1
 91
        4
 64
     7
 65
   257
 75
     1
175
     1
 42
1.0
 92
        8
 66
     7
 43
1.0
 76
     1
 77
     6
 78
     2
 67
     7
 79
     5
170
     0
171
     0
290
     0
174
     0
 93
        1
 44
50.0
173
     0
291
     1
 45
0.0
  0
VISUALSTYLE
  5
3A
102
{ACAD_REACTORS
330
2A
102
}
330
2A
100
AcDbVisualStyle
  2
ColorChange
 70
    16
 71
     2
 72
     2
 73
     3
 90
        0
 40
0.6
 41
30.0
 62
     5
 63
     8
421
  8421504
 74
     1
 91
        4
 64
     7
 65
   257
 75
     1
175
     1
 42
1.0
 92
        8
 66
     8
424
  8421504
 43
1.0
 76
     1
 77
     6
 78
     2
 67
     7
 79
     5
170
     0
171
     0
290
     0
174
     0
 93
        1
 44
0.0
173
     0
291
     1
 45
0.0
  0
VISUALSTYLE
  5
34
102
{ACAD_REACTORS
330
2A
102
}
330
2A
100
AcDbVisualStyle
  2
Conceptual
 70
     9
 71
     3
 72
     2
 73
     0
 90
        0
 40
0.6
 41
30.0
 62
     5
 63
     7
421
 16777215
 74
     2
 91
        2
 64
     7
 65
   257
 75
     1
175
     1
 42
179.0
 92
        8
 66
     7
 43
1.0
 76
     1
 77
     6
 78
     2
 67
     7
 79
     3
170
     0
171
     0
290
     0
174
     0
 93
        1
 44
0.0
173
     0
291
     0
 45
0.0
  0
VISUALSTYLE
  5
35
102
{ACAD_REACTORS
330
2A
102
}
330
2A
100
AcDbVisualStyle
  2
Dim
 70
    11
 71
     2
 72
     2
 73
     0
 90
        0
 40
0.6
 41
30.0
 62
     5
 63
     7
421
 16777215
 74
     1
 91
        4
 64
     7
 65
   257
 75
     1
175
     1
 42
1.0
 92
        8
 66
     7
 43
1.0
 76
     1
 77
     6
 78
     2
 67
     7
 79
     5
170
     0
171
     0
290
     0
174
     0
 93
        1
 44
-50.0
173
     0
291
     1
 45
0.0
  0
VISUALSTYLE
  5
3D
102
{ACAD_REACTORS
330
2A
102
}
330
2A
100
AcDbVisualStyle
  2
EdgeColorOff
 70
    22
 71
     2
 72
     2
 73
     0
 90
        0
 40
0.6
 41
30.0
 62
     5
 63
     7
421
 16777215
 74
     1
 91
        4
 64
     7
 65
   257
 75
     1
175
     1
 42
1.0
 92
        8
 66
     7
 43
1.0
 76
     1
 77
     6
 78
     2
 67
     7
 79
     5
170
     0
171
     0
290
     0
174
     0
 93
        1
 44
0.0
173
     0
291
     1
 45
0.0
  0
VISUALSTYLE
  5
39
102
{ACAD_REACTORS
330
2A
102
}
330
2A
100
AcDbVisualStyle
  2
Facepattern
 70
    15
 71
     2
 72
     2
 73
     0
 90
        0
 40
0.6
 41
30.0
 62
     5
 63
     7
421
 16777215
 74
     1
 91
        4
 64
     7
 65
   257
 75
     1
175
     1
 42
1.0
 92
        8
 66
     7
 43
1.0
 76
     1
 77
     6
 78
     2
 67
     7
 79
     5
170
     0
171
     0
290
     0
174
     0
 93
        1
 44
0.0
173
     0
291
     1
 45
0.0
  0
VISUALSTYLE
  5
2B
102
{ACAD_REACTORS
330
2A
102
}
330
2A
100
AcDbVisualStyle
  2
Flat
 70
     0
 71
     2
 72
     1
 73
     1
 90
        2
 40
0.6
 41
30.0
 62
     5
 63
     7
421
 16777215
 74
     0
 91
        0
 64
     7
 65
   257
 75
     1
175
     1
 42
1.0
 92
        8
 66
     7
 43
1.0
 76
     1
 77
     6
 78
     2
 67
     7
 79
     5
170
     0
171
     0
290
     0
174
     0
 93
       13
 44
0.0
173
     0
291
     1
 45
0.0
  0
VISUALSTYLE
  5
2C
102
{ACAD_REACTORS
330
2A
102
}
330
2A
100
AcDbVisualStyle
  2
FlatWithEdges
 70
     1
 71
     2
 72
     1
 73
     1
 90
        2
 40
0.6
 41
30.0
 62
     5
 63
     7
421
 16777215
 74
     1
 91
        0
 64
     7
 65
   257
 75
     1
175
     1
 42
1.0
 92
        0
 66
   257
 43
1.0
 76
     1
 77
     6
 78
     2
 67
     7
 79
     5
170
     0
171
     0
290
     0
174
     0
 93
       13
 44
0.0
173
     0
291
     1
 45
0.0
  0
VISUALSTYLE
  5
2D
102
{ACAD_REACTORS
330
2A
102
}
330
2A
100
AcDbVisualStyle
  2
Gouraud
 70
     2
 71
     2
 72
     2
 73
     1
 90
        2
 40
0.6
 41
30.0
 62
     5
 63
     7
421
 16777215
 74
     0
 91
        0
 64
     7
 65
   257
 75
     1
175
     1
 42
1.0
 92
        0
 66
     7
 43
1.0
 76
     1
 77
     6
 78
     2
 67
     7
 79
     5
170
     0
171
     0
290
     0
174
     0
 93
       13
 44
0.0
173
     0
291
     1
 45
0.0
  0
VISUALSTYLE
  5
2E
102
{ACAD_REACTORS
330
2A
102
}
330
2A
100
AcDbVisualStyle
  2
GouraudWithEdges
 70
     3
 71
     2
 72
     2
 73
     1
 90
        2
 40
0.6
 41
30.0
 62
     5
 63
     7
421
 16777215
 74
     1
 91
        0
 64
     7
 65
   257
 75
     1
175
     1
 42
1.0
 92
        0
 66
   257
 43
1.0
 76
     1
 77
     6
 78
     2
 67
     7
 79
     5
170
     0
171
     0
290
     0
174
     0
 93
       13
 44
0.0
173
     0
291
     1
 45
0.0
  0
VISUALSTYLE
  5
31
102
{ACAD_REACTORS
330
2A
102
}
330
2A
100
AcDbVisualStyle
  2
Hidden
 70
     6
 71
     1
 72
     2
 73
     2
 90
        0
 40
0.6
 41
30.0
 62
     5
 63
     7
421
 16777215
 74
     2
 91
        2
 64
     7
 65
   257
 75
     2
175
     1
 42
40.0
 92
        0
 66
   257
 43
1.0
 76
     1
 77
     6
 78
     2
 67
     7
 79
     3
170
     0
171
     0
290
     0
174
     0
 93
        1
 44
0.0
173
     0
291
     0
 45
0.0
  0
VISUALSTYLE
  5
3B
102
{ACAD_REACTORS
330
2A
102
}
330
2A
100
AcDbVisualStyle
  2
JitterOff
 70
    20
 71
     2
 72
     2
 73
     0
 90
        0
 40
0.6
 41
30.0
 62
     5
 63
     7
421
 16777215
 74
     1
 91
        4
 64
     7
 65
   257
 75
     1
175
     1
 42
1.0
 92
       10
 66
     7
 43
1.0
 76
     1
 77
     6
 78
     2
 67
     7
 79
     5
170
     0
171
     0
290
     0
174
     0
 93
        1
 44
0.0
173
     0
291
     1
 45
0.0
  0
VISUALSTYLE
  5
38
102
{ACAD_REACTORS
330
2A
102
}
330
2A
100
AcDbVisualStyle
  2
Linepattern
 70
    14
 71
     2
 72
     2
 73
     0
 90
        0
 40
0.6
 41
30.0
 62
     5
 63
     7
421
 16777215
 74
     1
 91
        4
 64
     7
 65
   257
 75
     7
175
     7
 42
1.0
 92
        8
 66
     7
 43
1.0
 76
     1
 77
     6
 78
     2
 67
     7
 79
     5
170
     0
171
     0
290
     0
174
     0
 93
        1
 44
0.0
173
     0
291
     1
 45
0.0
  0
VISUALSTYLE
  5
3C
102
{ACAD_REACTORS
330
2A
102
}
330
2A
100
AcDbVisualStyle
  2
OverhangOff
 70
    21
 71
     2
 72
     2
 73
     0
 90
        0
 40
0.6
 41
30.0
 62
     5
 63
     7
421
 16777215
 74
     1
 91
        4
 64
     7
 65
   257
 75
     1
175
     1
 42
1.0
 92
        9
 66
     7
 43
1.0
 76
     1
 77
     6
 78
     2
 67
     7
 79
     5
170
     0
171
     0
290
     0
174
     0
 93
        1
 44
0.0
173
     0
291
     1
 45
0.0
  0
VISUALSTYLE
  5
33
102
{ACAD_REACTORS
330
2A
102
}
330
2A
100
AcDbVisualStyle
  2
Realistic
 70
     8
 71
     2
 72
     3
 73
     0
 90
        2
 40
0.6
 41
30.0
 62
     5
 63
     7
421
 16777215
 74
     0
 91
        0
 64
     7
 65
   257
 75
     1
175
     1
 42
1.0
 92
        8
 66
   257
 43
1.0
 76
     1
 77
     6
 78
     2
 67
     7
 79
     3
170
     0
171
     0
290
     0
174
     0
 93
       13
 44
0.0
173
     0
291
     0
 45
0.0
  0
VISUALSTYLE
  5
42
102
{ACAD_REACTORS
330
2A
102
}
330
2A
100
AcDbVisualStyle
  2
Shaded
 70
    27
 71
     2
 72
     2
 73
     1
 90
        2
 40
0.6
 41
30.0
 62
     5
 63
     7
421
 16777215
 74
     0
 91
        4
 64
     7
 65
   257
 75
     1
175
     1
 42
1.0
 92
        8
 66
   257
 43
1.0
 76
     1
 77
     6
 78
     2
 67
     8
425
  7895160
 79
     3
170
     0
171
     0
290
     0
174
     0
 93
        5
 44
0.0
173
     0
291
     0
 45
0.0
  0
VISUALSTYLE
  5
41
102
{ACAD_REACTORS
330
2A
102
}
330
2A
100
AcDbVisualStyle
  2
Shaded with edges
 70
    26
 71
     2
 72
     2
 73
     1
 90
        2
 40
0.6
 41
30.0
 62
     5
 63
     7
421
 16777215
 74
     1
 91
       10
 64
     7
 65
   257
 75
     2
175
     1
 42
1.0
 92
        8
 66
   257
 43
1.0
 76
     1
 77
     6
 78
     2
 67
     7
 79
     3
170
     0
171
     0
290
     0
174
     0
 93
        5
 44
0.0
173
     0
291
     0
 45
0.0
  0
VISUALSTYLE
  5
3E
102
{ACAD_REACTORS
330
2A
102
}
330
2A
100
AcDbVisualStyle
  2
Shades of Gray
 70
    23
 71
     2
 72
     2
 73
     3
 90
        0
 40
0.6
 41
30.0
 62
     5
 63
     7
421
 16777215
 74
     2
 91
        2
 64
     7
 65
     7
 75
     1
175
     1
 42
40.0
 92
        8
 66
     7
 43
1.0
 76
     1
 77
     6
 78
     2
 67
     7
 79
     3
170
     0
171
     0
290
     0
174
     0
 93
        1
 44
0.0
173
     0
291
     0
 45
0.0
  0
VISUALSTYLE
  5
3F
102
{ACAD_REACTORS
330
2A
102
}
330
2A
100
AcDbVisualStyle
  2
Sketchy
 70
    24
 71
     1
 72
     2
 73
     2
 90
        0
 40
0.6
 41
30.0
 62
     5
 63
     7
421
 16777215
 74
     2
 91
        2
 64
     7
 65
     7
 75
     1
175
     1
 42
40.0
 92
       11
 66
     7
 43
1.0
 76
     1
 77
     6
 78
     2
 67
     7
 79
     6
170
     0
171
     0
290
     0
174
     0
 93
        1
 44
0.0
173
     0
291
     0
 45
0.0
  0
VISUALSTYLE
  5
37
102
{ACAD_REACTORS
330
2A
102
}
330
2A
100
AcDbVisualStyle
  2
Thicken
 70
    13
 71
     2
 72
     2
 73
     0
 90
        0
 40
0.6
 41
30.0
 62
     5
 63
     7
421
 16777215
 74
     1
 91
        4
 64
     7
 65
   257
 75
     1
175
     1
 42
1.0
 92
       12
 66
     7
 43
1.0
 76
     1
 77
     6
 78
     2
 67
     7
 79
     5
170
     0
171
     0
290
     0
174
     0
 93
        1
 44
0.0
173
     0
291
     1
 45
0.0
  0
VISUALSTYLE
  5
30
102
{ACAD_REACTORS
330
2A
102
}
330
2A
100
AcDbVisualStyle
  2
Wireframe
 70
     5
 71
     0
 72
     2
 73
     0
 90
        0
 40
0.6
 41
30.0
 62
     5
 63
     7
421
 16777215
 74
     1
 91
        4
 64
     7
 65
   257
 75
     1
175
     1
 42
1.0
 92
        0
 66
   257
 43
1.0
 76
     1
 77
     6
 78
     2
 67
     7
 79
     3
170
     0
171
     0
290
     0
174
     0
 93
        1
 44
0.0
173
     0
291
     0
 45
0.0
  0
VISUALSTYLE
  5
40
102
{ACAD_REACTORS
330
2A
102
}
330
2A
100
AcDbVisualStyle
  2
X-Ray
 70
    25
 71
     2
 72
     2
 73
     1
 90
        1
 40
0.5
 41
30.0
 62
     5
 63
     7
421
 16777215
 74
     1
 91
        0
 64
     7
 65
   257
 75
     1
175
     1
 42
1.0
 92
        8
 66
     7
 43
1.0
 76
     1
 77
     6
 78
     2
 67
     7
 79
     3
170
     0
171
     0
290
     0
174
     0
 93
       13
 44
0.0
173
     0
291
     0
 45
0.0
  0
DICTIONARYVAR
  5
20A
102
{ACAD_REACTORS
330
209
102
}
330
209
100
DictionaryVariables
280
     0
  1
1:1
  0
DICTIONARYVAR
  5
210
102
{ACAD_REACTORS
330
209
102
}
330
209
100
DictionaryVariables
280
     0
  1
Standard
  0
DICTIONARYVAR
  5
20F
102
{ACAD_REACTORS
330
209
102
}
330
209
100
DictionaryVariables
280
     0
  1
Standard
  0
DICTIONARY
  5
20B
330
6A
100
AcDbDictionary
280
     1
281
     1
  3
ACAD_ROUNDTRIP_2008_TABLESTYLE_CELLSTYLEMAP
360
20C
  0
CELLSTYLEMAP
  5
20C
102
{ACAD_REACTORS
330
20B
102
}
330
20B
100
AcDbCellStyleMap
 90
        3
300
CELLSTYLE
  1
TABLEFORMAT_BEGIN
 90
        5
170
     1
 91
        0
 92
    32768
 62
   257
 93
        1
300
CONTENTFORMAT
  1
CONTENTFORMAT_BEGIN
 90
        0
 91
        0
 92
        4
 93
        0
300

 40
0.0
140
1.0
 94
        5
 62
     0
340
11
144
6.0
309
CONTENTFORMAT_END
171
     1
301
MARGIN
  1
CELLMARGIN_BEGIN
 40
1.5
 40
1.5
 40
1.5
 40
1.5
 40
1.5
 40
1.5
309
CELLMARGIN_END
 94
        6
 95
        1
302
GRIDFORMAT
  1
GRIDFORMAT_BEGIN
 90
        0
 91
        1
 62
     0
 92
       -2
340
14
 93
        0
 40
0.045
309
GRIDFORMAT_END
 95
        2
302
GRIDFORMAT
  1
GRIDFORMAT_BEGIN
 90
        0
 91
        1
 62
     0
 92
       -2
340
14
 93
        0
 40
0.045
309
GRIDFORMAT_END
 95
        4
302
GRIDFORMAT
  1
GRIDFORMAT_BEGIN
 90
        0
 91
        1
 62
     0
 92
       -2
340
14
 93
        0
 40
0.045
309
GRIDFORMAT_END
 95
        8
302
GRIDFORMAT
  1
GRIDFORMAT_BEGIN
 90
        0
 91
        1
 62
     0
 92
       -2
340
14
 93
        0
 40
0.045
309
GRIDFORMAT_END
 95
       16
302
GRIDFORMAT
  1
GRIDFORMAT_BEGIN
 90
        0
 91
        1
 62
     0
 92
       -2
340
14
 93
        0
 40
0.045
309
GRIDFORMAT_END
 95
       32
302
GRIDFORMAT
  1
GRIDFORMAT_BEGIN
 90
        0
 91
        1
 62
     0
 92
       -2
340
14
 93
        0
 40
0.045
309
GRIDFORMAT_END
309
TABLEFORMAT_END
  1
CELLSTYLE_BEGIN
 90
        1
 91
        1
300
_TITLE
309
CELLSTYLE_END
300
CELLSTYLE
  1
TABLEFORMAT_BEGIN
 90
        5
170
     1
 91
        0
 92
        0
 62
   257
 93
        1
300
CONTENTFORMAT
  1
CONTENTFORMAT_BEGIN
 90
        0
 91
        0
 92
        4
 93
        0
300

 40
0.0
140
1.0
 94
        5
 62
     0
340
11
144
4.5
309
CONTENTFORMAT_END
171
     1
301
MARGIN
  1
CELLMARGIN_BEGIN
 40
1.5
 40
1.5
 40
1.5
 40
1.5
 40
1.5
 40
1.5
309
CELLMARGIN_END
 94
        6
 95
        1
302
GRIDFORMAT
  1
GRIDFORMAT_BEGIN
 90
        0
 91
        1
 62
     0
 92
       -2
340
14
 93
        0
 40
0.045
309
GRIDFORMAT_END
 95
        2
302
GRIDFORMAT
  1
GRIDFORMAT_BEGIN
 90
        0
 91
        1
 62
     0
 92
       -2
340
14
 93
        0
 40
0.045
309
GRIDFORMAT_END
 95
        4
302
GRIDFORMAT
  1
GRIDFORMAT_BEGIN
 90
        0
 91
        1
 62
     0
 92
       -2
340
14
 93
        0
 40
0.045
309
GRIDFORMAT_END
 95
        8
302
GRIDFORMAT
  1
GRIDFORMAT_BEGIN
 90
        0
 91
        1
 62
     0
 92
       -2
340
14
 93
        0
 40
0.045
309
GRIDFORMAT_END
 95
       16
302
GRIDFORMAT
  1
GRIDFORMAT_BEGIN
 90
        0
 91
        1
 62
     0
 92
       -2
340
14
 93
        0
 40
0.045
309
GRIDFORMAT_END
 95
       32
302
GRIDFORMAT
  1
GRIDFORMAT_BEGIN
 90
        0
 91
        1
 62
     0
 92
       -2
340
14
 93
        0
 40
0.045
309
GRIDFORMAT_END
309
TABLEFORMAT_END
  1
CELLSTYLE_BEGIN
 90
        2
 91
        1
300
_HEADER
309
CELLSTYLE_END
300
CELLSTYLE
  1
TABLEFORMAT_BEGIN
 90
        5
170
     1
 91
        0
 92
        0
 62
   257
 93
        1
300
CONTENTFORMAT
  1
CONTENTFORMAT_BEGIN
 90
        0
 91
        0
 92
        4
 93
        0
300

 40
0.0
140
1.0
 94
        2
 62
     0
340
11
144
4.5
309
CONTENTFORMAT_END
171
     1
301
MARGIN
  1
CELLMARGIN_BEGIN
 40
1.5
 40
1.5
 40
1.5
 40
1.5
 40
1.5
 40
1.5
309
CELLMARGIN_END
 94
        6
 95
        1
302
GRIDFORMAT
  1
GRIDFORMAT_BEGIN
 90
        0
 91
        1
 62
     0
 92
       -2
340
14
 93
        0
 40
0.045
309
GRIDFORMAT_END
 95
        2
302
GRIDFORMAT
  1
GRIDFORMAT_BEGIN
 90
        0
 91
        1
 62
     0
 92
       -2
340
14
 93
        0
 40
0.045
309
GRIDFORMAT_END
 95
        4
302
GRIDFORMAT
  1
GRIDFORMAT_BEGIN
 90
        0
 91
        1
 62
     0
 92
       -2
340
14
 93
        0
 40
0.045
309
GRIDFORMAT_END
 95
        8
302
GRIDFORMAT
  1
GRIDFORMAT_BEGIN
 90
        0
 91
        1
 62
     0
 92
       -2
340
14
 93
        0
 40
0.045
309
GRIDFORMAT_END
 95
       16
302
GRIDFORMAT
  1
GRIDFORMAT_BEGIN
 90
        0
 91
        1
 62
     0
 92
       -2
340
14
 93
        0
 40
0.045
309
GRIDFORMAT_END
 95
       32
302
GRIDFORMAT
  1
GRIDFORMAT_BEGIN
 90
        0
 91
        1
 62
     0
 92
       -2
340
14
 93
        0
 40
0.045
309
GRIDFORMAT_END
309
TABLEFORMAT_END
  1
CELLSTYLE_BEGIN
 90
        3
 91
        2
300
_DATA
309
CELLSTYLE_END
  0
ENDSEC
  0
EOF
