  0
SECTION
  2
HEADER
  9
$ACADVER
  1
AC1021
  9
$ACADMAINTVER
 70
    25
  9
$DWGCODEPAGE
  3
ANSI_1252
  9
$INSBASE
 10
0.0
 20
0.0
 30
0.0
  9
$EXTMIN
 10
-247.4806889364
 20
-54.7796498569
 30
0.0
  9
$EXTMAX
 10
247.4972628965
 20
334.7642194381
 30
0.0
  9
$LIMMIN
 10
0.0
 20
0.0
  9
$LIMMAX
 10
420.0
 20
297.0
  9
$ORTHOMODE
 70
     0
  9
$REGENMODE
 70
     1
  9
$FILLMODE
 70
     1
  9
$QTEXTMODE
 70
     0
  9
$MIRRTEXT
 70
     1
  9
$LTSCALE
 40
1.0
  9
$ATTMODE
 70
     1
  9
$TEXTSIZE
 40
3.5
  9
$TRACEWID
 40
1.0
  9
$TEXTSTYLE
  7
Standard
  9
$CLAYER
  8
0
  9
$CELTYPE
  6
ByLayer
  9
$CECOLOR
 62
   256
  9
$CELTSCALE
 40
1.0
  9
$DISPSILH
 70
     0
  9
$DIMSCALE
 40
1.0
  9
$DIMASZ
 40
7.4083333333
  9
$DIMEXO
 40
1.0
  9
$DIMDLI
 40
3.75
  9
$DIMRND
 40
0.0
  9
$DIMDLE
 40
0.0
  9
$DIMEXE
 40
1.0
  9
$DIMTP
 40
0.0
  9
$DIMTM
 40
0.0
  9
$DIMTXT
 40
9.8777777778
  9
$DIMCEN
 40
2.5
  9
$DIMTSZ
 40
0.0
  9
$DIMTOL
 70
     0
  9
$DIMLIM
 70
     0
  9
$DIMTIH
 70
     1
  9
$DIMTOH
 70
     1
  9
$DIMSE1
 70
     0
  9
$DIMSE2
 70
     0
  9
$DIMTAD
 70
     1
  9
$DIMZIN
 70
     0
  9
$DIMBLK
  1

  9
$DIMASO
 70
     1
  9
$DIMSHO
 70
     1
  9
$DIMPOST
  1

  9
$DIMAPOST
  1

  9
$DIMALT
 70
     0
  9
$DIMALTD
 70
     3
  9
$DIMALTF
 40
0.0393700787
  9
$DIMLFAC
 40
1.0
  9
$DIMTOFL
 70
     1
  9
$DIMTVP
 40
0.0
  9
$DIMTIX
 70
     0
  9
$DIMSOXD
 70
     0
  9
$DIMSAH
 70
     0
  9
$DIMBLK1
  1

  9
$DIMBLK2
  1

  9
$DIMSTYLE
  2
ISO-25
  9
$DIMCLRD
 70
     0
  9
$DIMCLRE
 70
     0
  9
$DIMCLRT
 70
     0
  9
$DIMTFAC
 40
1.0
  9
$DIMGAP
 40
1.524
  9
$DIMJUST
 70
     0
  9
$DIMSD1
 70
     0
  9
$DIMSD2
 70
     0
  9
$DIMTOLJ
 70
     0
  9
$DIMTZIN
 70
     0
  9
$DIMALTZ
 70
     0
  9
$DIMALTTZ
 70
     0
  9
$DIMUPT
 70
     0
  9
$DIMDEC
 70
     2
  9
$DIMTDEC
 70
     2
  9
$DIMALTU
 70
     2
  9
$DIMALTTD
 70
     3
  9
$DIMTXSTY
  7
Standard
  9
$DIMAUNIT
 70
     0
  9
$DIMADEC
 70
     2
  9
$DIMALTRND
 40
0.0
  9
$DIMAZIN
 70
     0
  9
$DIMDSEP
 70
    44
  9
$DIMATFIT
 70
     3
  9
$DIMFRAC
 70
     0
  9
$DIMLDRBLK
  1

  9
$DIMLUNIT
 70
     2
  9
$DIMLWD
 70
    -2
  9
$DIMLWE
 70
    -2
  9
$DIMTMOVE
 70
     0
  9
$DIMFXL
 40
1.0
  9
$DIMFXLON
 70
     0
  9
$DIMJOGANG
 40
0.7853981634
  9
$DIMTFILL
 70
     0
  9
$DIMTFILLCLR
 70
     0
  9
$DIMARCSYM
 70
     0
  9
$DIMLTYPE
  6

  9
$DIMLTEX1
  6

  9
$DIMLTEX2
  6

  9
$LUNITS
 70
     2
  9
$LUPREC
 70
     2
  9
$SKETCHINC
 40
1.0
  9
$FILLETRAD
 40
10.0
  9
$AUNITS
 70
     0
  9
$AUPREC
 70
     2
  9
$MENU
  1
.
  9
$ELEVATION
 40
0.0
  9
$PELEVATION
 40
0.0
  9
$THICKNESS
 40
0.0
  9
$LIMCHECK
 70
     0
  9
$CHAMFERA
 40
0.0
  9
$CHAMFERB
 40
0.0
  9
$CHAMFERC
 40
0.0
  9
$CHAMFERD
 40
0.0
  9
$SKPOLY
 70
     0
  9
$TDCREATE
 40
2458221.658042187
  9
$TDUCREATE
 40
2458221.574708854
  9
$TDUPDATE
 40
2458221.658069086
  9
$TDUUPDATE
 40
2458221.574735752
  9
$TDINDWG
 40
0.0000000116
  9
$TDUSRTIMER
 40
0.0000000116
  9
$USRTIMER
 70
     1
  9
$ANGBASE
 50
0.0
  9
$ANGDIR
 70
     0
  9
$PDMODE
 70
     0
  9
$PDSIZE
 40
-1.0
  9
$PLINEWID
 40
0.0
  9
$SPLFRAME
 70
     0
  9
$SPLINETYPE
 70
     6
  9
$SPLINESEGS
 70
     8
  9
$HANDSEED
  5
185
  9
$SURFTAB1
 70
     6
  9
$SURFTAB2
 70
     6
  9
$SURFTYPE
 70
     6
  9
$SURFU
 70
     6
  9
$SURFV
 70
     6
  9
$UCSBASE
  2

  9
$UCSNAME
  2

  9
$UCSORG
 10
0.0
 20
0.0
 30
0.0
  9
$UCSXDIR
 10
1.0
 20
0.0
 30
0.0
  9
$UCSYDIR
 10
0.0
 20
1.0
 30
0.0
  9
$UCSORTHOREF
  2

  9
$UCSORTHOVIEW
 70
     0
  9
$UCSORGTOP
 10
0.0
 20
0.0
 30
0.0
  9
$UCSORGBOTTOM
 10
0.0
 20
0.0
 30
0.0
  9
$UCSORGLEFT
 10
0.0
 20
0.0
 30
0.0
  9
$UCSORGRIGHT
 10
0.0
 20
0.0
 30
0.0
  9
$UCSORGFRONT
 10
0.0
 20
0.0
 30
0.0
  9
$UCSORGBACK
 10
0.0
 20
0.0
 30
0.0
  9
$PUCSBASE
  2

  9
$PUCSNAME
  2

  9
$PUCSORG
 10
0.0
 20
0.0
 30
0.0
  9
$PUCSXDIR
 10
1.0
 20
0.0
 30
0.0
  9
$PUCSYDIR
 10
0.0
 20
1.0
 30
0.0
  9
$PUCSORTHOREF
  2

  9
$PUCSORTHOVIEW
 70
     0
  9
$PUCSORGTOP
 10
0.0
 20
0.0
 30
0.0
  9
$PUCSORGBOTTOM
 10
0.0
 20
0.0
 30
0.0
  9
$PUCSORGLEFT
 10
0.0
 20
0.0
 30
0.0
  9
$PUCSORGRIGHT
 10
0.0
 20
0.0
 30
0.0
  9
$PUCSORGFRONT
 10
0.0
 20
0.0
 30
0.0
  9
$PUCSORGBACK
 10
0.0
 20
0.0
 30
0.0
  9
$USERI1
 70
     0
  9
$USERI2
 70
     0
  9
$USERI3
 70
     0
  9
$USERI4
 70
     0
  9
$USERI5
 70
     0
  9
$USERR1
 40
0.0
  9
$USERR2
 40
0.0
  9
$USERR3
 40
0.0
  9
$USERR4
 40
0.0
  9
$USERR5
 40
0.0
  9
$WORLDVIEW
 70
     1
  9
$SHADEDGE
 70
     3
  9
$SHADEDIF
 70
    70
  9
$TILEMODE
 70
     1
  9
$MAXACTVP
 70
    64
  9
$PINSBASE
 10
0.0
 20
0.0
 30
0.0
  9
$PLIMCHECK
 70
     0
  9
$PEXTMIN
 10
-247.4999999999
 20
-247.5
 30
0.0
  9
$PEXTMAX
 10
247.5000000001
 20
247.5
 30
0.0
  9
$PLIMMIN
 10
-298.2692307692
 20
-266.5384615385
  9
$PLIMMAX
 10
455.6538461539
 20
266.5384615385
  9
$UNITMODE
 70
     0
  9
$VISRETAIN
 70
     1
  9
$PLINEGEN
 70
     0
  9
$PSLTSCALE
 70
     1
  9
$TREEDEPTH
 70
  3020
  9
$CMLSTYLE
  2
Standard
  9
$CMLJUST
 70
     0
  9
$CMLSCALE
 40
20.0
  9
$PROXYGRAPHICS
 70
     1
  9
$MEASUREMENT
 70
     1
  9
$CELWEIGHT
370
    -1
  9
$ENDCAPS
280
     0
  9
$JOINSTYLE
280
     0
  9
$LWDISPLAY
290
     1
  9
$INSUNITS
 70
     4
  9
$HYPERLINKBASE
  1

  9
$STYLESHEET
  1

  9
$XEDIT
290
     1
  9
$CEPSNTYPE
380
     0
  9
$PSTYLEMODE
290
     1
  9
$FINGERPRINTGUID
  2
{4FDD1FF6-77B1-4240-9D09-4C864996DA50}
  9
$VERSIONGUID
  2
{FAEB1C32-E019-11D5-929B-00C0DF256EC4}
  9
$EXTNAMES
290
     1
  9
$PSVPSCALE
 40
0.0
  9
$OLESTARTUP
290
     0
  9
$SORTENTS
280
   127
  9
$INDEXCTL
280
     0
  9
$HIDETEXT
280
     1
  9
$XCLIPFRAME
290
     0
  9
$HALOGAP
280
     0
  9
$OBSCOLOR
 70
   257
  9
$OBSLTYPE
280
     0
  9
$INTERSECTIONDISPLAY
280
     0
  9
$INTERSECTIONCOLOR
 70
   257
  9
$DIMASSOC
280
     2
  9
$PROJECTNAME
  1

  9
$CAMERADISPLAY
290
     0
  9
$LENSLENGTH
 40
50.0
  9
$CAMERAHEIGHT
 40
0.0
  9
$STEPSPERSEC
 40
2.0
  9
$STEPSIZE
 40
6.0
  9
$3DDWFPREC
 40
2.0
  9
$PSOLWIDTH
 40
5.0
  9
$PSOLHEIGHT
 40
80.0
  9
$LOFTANG1
 40
1.5707963268
  9
$LOFTANG2
 40
1.5707963268
  9
$LOFTMAG1
 40
0.0
  9
$LOFTMAG2
 40
0.0
  9
$LOFTPARAM
 70
     7
  9
$LOFTNORMALS
280
     1
  9
$LATITUDE
 40
37.795
  9
$LONGITUDE
 40
-122.394
  9
$NORTHDIRECTION
 40
0.0
  9
$TIMEZONE
 70
 -8000
  9
$LIGHTGLYPHDISPLAY
280
     1
  9
$TILEMODELIGHTSYNCH
280
     1
  9
$CMATERIAL
347
44
  9
$SOLIDHIST
280
     0
  9
$SHOWHIST
280
     1
  9
$DWFFRAME
280
     2
  9
$DGNFRAME
280
     2
  9
$REALWORLDSCALE
290
     1
  9
$INTERFERECOLOR
 62
   256
  9
$CSHADOW
280
     0
  9
$SHADOWPLANELOCATION
 40
0.0
  0
ENDSEC
  0
SECTION
  2
CLASSES
  0
CLASS
  1
ACDBDICTIONARYWDFLT
  2
AcDbDictionaryWithDefault
  3
ObjectDBX Classes
 90
        0
 91
        4
280
     0
281
     0
  0
CLASS
  1
VISUALSTYLE
  2
AcDbVisualStyle
  3
ObjectDBX Classes
 90
     4095
 91
        4
280
     0
281
     0
  0
CLASS
  1
MATERIAL
  2
AcDbMaterial
  3
ObjectDBX Classes
 90
     1153
 91
        4
280
     0
281
     0
  0
CLASS
  1
SCALE
  2
AcDbScale
  3
ObjectDBX Classes
 90
     1153
 91
        4
280
     0
281
     0
  0
CLASS
  1
TABLESTYLE
  2
AcDbTableStyle
  3
ObjectDBX Classes
 90
     4095
 91
        4
280
     0
281
     0
  0
CLASS
  1
MLEADERSTYLE
  2
AcDbMLeaderStyle
  3
ACDB_MLEADERSTYLE_CLASS
 90
     4095
 91
        4
280
     0
281
     0
  0
CLASS
  1
SUN
  2
AcDbSun
  3
SCENEOE
 90
     1153
 91
        4
280
     0
281
     0
  0
CLASS
  1
DICTIONARYVAR
  2
AcDbDictionaryVar
  3
ObjectDBX Classes
 90
        0
 91
        4
280
     0
281
     0
  0
CLASS
  1
CELLSTYLEMAP
  2
AcDbCellStyleMap
  3
ObjectDBX Classes
 90
     1152
 91
        4
280
     0
281
     0
  0
ENDSEC
  0
SECTION
  2
TABLES
  0
TABLE
  2
VPORT
  5
8
330
0
100
AcDbSymbolTable
 70
     1
  0
VPORT
  5
29
330
8
100
AcDbSymbolTableRecord
100
AcDbViewportTableRecord
  2
*Active
 70
     0
 10
0.0
 20
0.0
 11
1.0
 21
1.0
 12
0.00828698
 22
139.9922847906
 13
0.0
 23
0.0
 14
10.0
 24
10.0
 15
10.0
 25
10.0
 16
0.0
 26
0.0
 36
1.0
 17
0.0
 27
0.0
 37
0.0
 40
397.3347466809
 41
1.2706603565
 42
50.0
 43
0.0
 44
0.0
 50
0.0
 51
0.0
 71
     0
 72
   100
 73
     1
 74
     3
 75
     0
 76
     0
 77
     0
 78
     0
281
     0
 65
     1
110
0.0
120
0.0
130
0.0
111
1.0
121
0.0
131
0.0
112
0.0
122
1.0
132
0.0
 79
     0
146
0.0
348
2F
 60
     3
 61
     5
292
     1
282
     1
141
0.0
142
0.0
 63
   250
361
6D
  0
ENDTAB
  0
TABLE
  2
LTYPE
  5
5
330
0
100
AcDbSymbolTable
 70
     6
  0
LTYPE
  5
14
330
5
100
AcDbSymbolTableRecord
100
AcDbLinetypeTableRecord
  2
ByBlock
 70
     0
  3

 72
    65
 73
     0
 40
0.0
  0
LTYPE
  5
15
330
5
100
AcDbSymbolTableRecord
100
AcDbLinetypeTableRecord
  2
ByLayer
 70
     0
  3

 72
    65
 73
     0
 40
0.0
  0
LTYPE
  5
16
330
5
100
AcDbSymbolTableRecord
100
AcDbLinetypeTableRecord
  2
Continuous
 70
     0
  3
Solid line
 72
    65
 73
     0
 40
0.0
  0
LTYPE
  5
6E
330
5
100
AcDbSymbolTableRecord
100
AcDbLinetypeTableRecord
  2
HIDDEN
 70
     0
  3
Hidden __ __ __ __ __ __ __ __ __ __ __ __ __ __
 72
    65
 73
     2
 40
1.905
 49
1.27
 74
     0
 49
-0.635
 74
     0
  0
LTYPE
  5
6F
330
5
100
AcDbSymbolTableRecord
100
AcDbLinetypeTableRecord
  2
PHANTOM
 70
     0
  3
Phantom ______  __  __  ______  __  __  ______
 72
    65
 73
     6
 40
12.7
 49
6.35
 74
     0
 49
-1.27
 74
     0
 49
1.27
 74
     0
 49
-1.27
 74
     0
 49
1.27
 74
     0
 49
-1.27
 74
     0
  0
LTYPE
  5
70
330
5
100
AcDbSymbolTableRecord
100
AcDbLinetypeTableRecord
  2
CENTER
 70
     0
  3
Center ____ _ ____ _ ____ _ ____ _ ____ _ ____
 72
    65
 73
     4
 40
10.16
 49
6.35
 74
     0
 49
-1.27
 74
     0
 49
1.27
 74
     0
 49
-1.27
 74
     0
  0
LTYPE
  5
71
330
5
100
AcDbSymbolTableRecord
100
AcDbLinetypeTableRecord
  2
CENTERX2
 70
     0
  3
Center (2x) ________  __  ________  __  _____
 72
    65
 73
     4
 40
20.32
 49
12.7
 74
     0
 49
-2.54
 74
     0
 49
2.54
 74
     0
 49
-2.54
 74
     0
  0
LTYPE
  5
72
330
5
100
AcDbSymbolTableRecord
100
AcDbLinetypeTableRecord
  2
DOT2
 70
     0
  3
Dot (.5x) ........................................
 72
    65
 73
     2
 40
0.635
 49
0.0
 74
     0
 49
-0.635
 74
     0
  0
ENDTAB
  0
TABLE
  2
LAYER
  5
2
330
0
100
AcDbSymbolTable
 70
     1
  0
LAYER
  5
10
330
2
100
AcDbSymbolTableRecord
100
AcDbLayerTableRecord
  2
0
 70
     0
 62
     7
  6
Continuous
370
    -3
390
F
347
46
  0
ENDTAB
  0
TABLE
  2
STYLE
  5
3
330
0
100
AcDbSymbolTable
 70
     1
  0
STYLE
  5
11
330
3
100
AcDbSymbolTableRecord
100
AcDbTextStyleTableRecord
  2
Standard
 70
     0
 40
0.0
 41
1.0
 50
0.0
 71
     0
 42
3.5
  3
txt
  4

  0
ENDTAB
  0
TABLE
  2
VIEW
  5
6
330
0
100
AcDbSymbolTable
 70
     0
  0
ENDTAB
  0
TABLE
  2
UCS
  5
7
330
0
100
AcDbSymbolTable
 70
     0
  0
ENDTAB
  0
TABLE
  2
APPID
  5
9
330
0
100
AcDbSymbolTable
 70
     2
  0
APPID
  5
12
330
9
100
AcDbSymbolTableRecord
100
AcDbRegAppTableRecord
  2
ACAD
 70
     0
  0
APPID
  5
17F
330
9
100
AcDbSymbolTableRecord
100
AcDbRegAppTableRecord
  2
ACAD_MLEADERVER
 70
     0
  0
ENDTAB
  0
TABLE
  2
DIMSTYLE
  5
A
330
0
100
AcDbSymbolTable
 70
     1
100
AcDbDimStyleTable
  0
DIMSTYLE
105
27
330
A
100
AcDbSymbolTableRecord
100
AcDbDimStyleTableRecord
  2
ISO-25
 70
     0
 41
2.5
 42
0.625
 43
3.75
 44
1.25
 73
     0
 74
     0
 77
     1
 78
     8
140
2.5
141
2.5
143
0.0393700787
147
0.625
171
     3
172
     1
178
     0
271
     2
272
     2
274
     3
278
    44
283
     0
284
     8
340
11
  0
ENDTAB
  0
TABLE
  2
BLOCK_RECORD
  5
1
330
0
100
AcDbSymbolTable
 70
     9
  0
BLOCK_RECORD
  5
1F
330
1
100
AcDbSymbolTableRecord
100
AcDbBlockTableRecord
  2
*Model_Space
340
22
 70
     0
280
     1
281
     0
  0
BLOCK_RECORD
  5
1B
330
1
100
AcDbSymbolTableRecord
100
AcDbBlockTableRecord
  2
*Paper_Space
340
1E
 70
     0
280
     1
281
     0
  0
BLOCK_RECORD
  5
23
330
1
100
AcDbSymbolTableRecord
100
AcDbBlockTableRecord
  2
*Paper_Space0
340
26
 70
     0
280
     1
281
     0
  0
BLOCK_RECORD
  5
9E
330
1
100
AcDbSymbolTableRecord
100
AcDbBlockTableRecord
  2
*Paper_Space1
340
9F
 70
     0
280
     1
281
     0
  0
BLOCK_RECORD
  5
C2
330
1
100
AcDbSymbolTableRecord
100
AcDbBlockTableRecord
  2
*Paper_Space2
340
C3
 70
     0
280
     1
281
     0
  0
BLOCK_RECORD
  5
E6
330
1
100
AcDbSymbolTableRecord
100
AcDbBlockTableRecord
  2
*Paper_Space3
340
E7
 70
     0
280
     1
281
     0
  0
BLOCK_RECORD
  5
110
330
1
100
AcDbSymbolTableRecord
100
AcDbBlockTableRecord
  2
*Paper_Space4
340
111
 70
     0
280
     1
281
     0
  0
BLOCK_RECORD
  5
134
330
1
100
AcDbSymbolTableRecord
100
AcDbBlockTableRecord
  2
*Paper_Space5
340
135
 70
     0
280
     1
281
     0
  0
BLOCK_RECORD
  5
140
330
1
100
AcDbSymbolTableRecord
100
AcDbBlockTableRecord
  2
*Paper_Space6
340
141
 70
     0
280
     1
281
     0
  0
BLOCK_RECORD
  5
14B
330
1
100
AcDbSymbolTableRecord
100
AcDbBlockTableRecord
  2
*Paper_Space7
340
14C
 70
     0
280
     1
281
     0
  0
BLOCK_RECORD
  5
156
330
1
100
AcDbSymbolTableRecord
100
AcDbBlockTableRecord
  2
*Paper_Space8
340
157
 70
     0
280
     1
281
     0
  0
ENDTAB
  0
ENDSEC
  0
SECTION
  2
BLOCKS
  0
BLOCK
  5
20
330
1F
100
AcDbEntity
  8
0
100
AcDbBlockBegin
  2
*Model_Space
 70
     0
 10
0.0
 20
0.0
 30
0.0
  3
*Model_Space
  1

  0
ENDBLK
  5
21
330
1F
100
AcDbEntity
  8
0
100
AcDbBlockEnd
  0
BLOCK
  5
1C
330
1B
100
AcDbEntity
 67
     1
  8
0
100
AcDbBlockBegin
  2
*Paper_Space
 70
     0
 10
0.0
 20
0.0
 30
0.0
  3
*Paper_Space
  1

  0
ENDBLK
  5
1D
330
1B
100
AcDbEntity
 67
     1
  8
0
100
AcDbBlockEnd
  0
BLOCK
  5
24
330
23
100
AcDbEntity
  8
0
100
AcDbBlockBegin
  2
*Paper_Space0
 70
     0
 10
0.0
 20
0.0
 30
0.0
  3
*Paper_Space0
  1

  0
LINE
  5
8E
330
23
100
AcDbEntity
  8
0
  6
Continuous
 62
     7
370
    25
100
AcDbLine
 10
225.0
 20
132.3231030176
 30
0.0
 11
225.0
 21
145.0
 31
0.0
  0
LINE
  5
8F
330
23
100
AcDbEntity
  8
0
  6
Continuous
 62
     7
370
    25
100
AcDbLine
 10
-225.0
 20
145.0
 30
0.0
 11
-225.0
 21
132.3231030176
 31
0.0
  0
LINE
  5
90
330
23
100
AcDbEntity
  8
0
  6
Continuous
 62
     7
370
    25
100
AcDbLine
 10
247.5
 20
235.0
 30
0.0
 11
-247.5
 21
235.0
 31
0.0
  0
LINE
  5
91
330
23
100
AcDbEntity
  8
0
  6
Continuous
 62
     7
370
    25
100
AcDbLine
 10
230.4102312578
 20
145.0
 30
0.0
 11
-230.4102312578
 21
145.0
 31
0.0
  0
LINE
  5
92
330
23
100
AcDbEntity
  8
0
  6
Continuous
 62
     7
370
    25
100
AcDbLine
 10
225.0
 20
132.3231030176
 30
0.0
 11
-225.0
 21
132.3231030176
 31
0.0
  0
LINE
  5
93
330
23
100
AcDbEntity
  8
0
  6
Continuous
 62
     7
370
    25
100
AcDbLine
 10
90.0
 20
5.0
 30
0.0
 11
-90.0
 21
5.0
 31
0.0
  0
LINE
  5
94
330
23
100
AcDbEntity
  8
0
  6
Continuous
 62
     7
370
    25
100
AcDbLine
 10
57.5
 20
0.0
 30
0.0
 11
-57.5
 21
0.0
 31
0.0
  0
LINE
  5
95
330
23
100
AcDbEntity
  8
0
  6
Continuous
 62
     1
370
    25
100
AcDbLine
 10
95.5414198911
 20
8.0
 30
0.0
 11
-95.5414198911
 21
8.0
 31
0.0
  0
ARC
  5
96
330
23
100
AcDbEntity
  8
0
  6
Continuous
 62
     7
370
    25
100
AcDbCircle
 10
1.9712183568
 20
235.0
 30
0.0
 40
245.5287816431508
100
AcDbArc
 50
338.4966390435
 51
0.0
  0
ARC
  5
97
330
23
100
AcDbEntity
  8
0
  6
Continuous
 62
     7
370
    25
100
AcDbCircle
 10
-1.9712183569
 20
235.0
 30
0.0
 40
245.5287816431497
100
AcDbArc
 50
180.0
 51
201.5033609565
  0
ARC
  5
98
330
23
100
AcDbEntity
  8
0
  6
Continuous
 62
     7
370
    25
100
AcDbCircle
 10
1.9712183569
 20
235.0
 30
0.0
 40
245.5287816431435
100
AcDbArc
 50
292.4016295906
 51
335.2798342043
  0
ARC
  5
99
330
23
100
AcDbEntity
  8
0
  6
Continuous
 62
     7
370
    25
100
AcDbCircle
 10
-1.9712183569
 20
235.0
 30
0.0
 40
245.5287816431437
100
AcDbArc
 50
204.7201657957
 51
247.5983704094
  0
ARC
  5
9A
330
23
100
AcDbEntity
  8
0
  6
Continuous
 62
     7
370
    25
100
AcDbCircle
 10
106.9743200475
 20
-19.7360558482
 30
0.0
 40
30.0000000000015
100
AcDbArc
 50
112.4016295906
 51
124.4586045134
  0
ARC
  5
9B
330
23
100
AcDbEntity
  8
0
  6
Continuous
 62
     7
370
    25
100
AcDbCircle
 10
-106.9743200475
 20
-19.7360558482
 30
0.0
 40
30.00000000000073
100
AcDbArc
 50
55.5413954866
 51
67.5983704094
  0
ARC
  5
9C
330
23
100
AcDbEntity
  8
0
  6
Continuous
 62
     7
370
    25
100
AcDbCircle
 10
62.5
 20
0.0
 30
0.0
 40
5.000000000000028
100
AcDbArc
 50
90.0
 51
180.0
  0
ARC
  5
9D
330
23
100
AcDbEntity
  8
0
  6
Continuous
 62
     7
370
    25
100
AcDbCircle
 10
-62.5
 20
0.0
 30
0.0
 40
5.000000000000028
100
AcDbArc
 50
0.0
 51
90.0
  0
VIEWPORT
  5
169
330
23
100
AcDbEntity
  8
0
100
AcDbViewport
 10
0.0
 20
0.0
 30
0.0
 40
205.6
 41
156.0
 68
     1
 69
     1
 12
0.00828698
 22
139.9922847906
 13
0.0
 23
0.0
 14
10.0
 24
10.0
 15
10.0
 25
10.0
 16
0.0
 26
0.0
 36
1.0
 17
0.0
 27
0.0
 37
0.0
 42
50.0
 43
0.0
 44
0.0
 45
397.3347466809
 50
0.0
 51
0.0
 72
   100
 90
   557152
  1

281
     0
 71
     1
 74
     0
110
0.0
120
0.0
130
0.0
111
1.0
121
0.0
131
0.0
112
0.0
122
1.0
132
0.0
 79
     0
146
0.0
170
     0
 61
     5
348
2F
292
     1
282
     1
141
0.0
142
0.0
 63
   256
361
16A
  0
ENDBLK
  5
25
330
23
100
AcDbEntity
  8
0
100
AcDbBlockEnd
  0
BLOCK
  5
A0
330
9E
100
AcDbEntity
  8
0
100
AcDbBlockBegin
  2
*Paper_Space1
 70
     0
 10
0.0
 20
0.0
 30
0.0
  3
*Paper_Space1
  1

  0
LINE
  5
B2
330
9E
100
AcDbEntity
  8
0
  6
Continuous
 62
     7
370
    25
100
AcDbLine
 10
225.0
 20
132.3231030176
 30
0.0
 11
225.0
 21
145.0
 31
0.0
  0
LINE
  5
B3
330
9E
100
AcDbEntity
  8
0
  6
Continuous
 62
     7
370
    25
100
AcDbLine
 10
-225.0
 20
145.0
 30
0.0
 11
-225.0
 21
132.3231030176
 31
0.0
  0
LINE
  5
B4
330
9E
100
AcDbEntity
  8
0
  6
Continuous
 62
     7
370
    25
100
AcDbLine
 10
247.5
 20
235.0
 30
0.0
 11
-247.5
 21
235.0
 31
0.0
  0
LINE
  5
B5
330
9E
100
AcDbEntity
  8
0
  6
Continuous
 62
     7
370
    25
100
AcDbLine
 10
230.4102312578
 20
145.0
 30
0.0
 11
-230.4102312578
 21
145.0
 31
0.0
  0
LINE
  5
B6
330
9E
100
AcDbEntity
  8
0
  6
Continuous
 62
     7
370
    25
100
AcDbLine
 10
225.0
 20
132.3231030176
 30
0.0
 11
-225.0
 21
132.3231030176
 31
0.0
  0
LINE
  5
B7
330
9E
100
AcDbEntity
  8
0
  6
Continuous
 62
     7
370
    25
100
AcDbLine
 10
90.0
 20
5.0
 30
0.0
 11
-90.0
 21
5.0
 31
0.0
  0
LINE
  5
B8
330
9E
100
AcDbEntity
  8
0
  6
Continuous
 62
     7
370
    25
100
AcDbLine
 10
57.5
 20
0.0
 30
0.0
 11
-57.5
 21
0.0
 31
0.0
  0
LINE
  5
B9
330
9E
100
AcDbEntity
  8
0
  6
Continuous
 62
     1
370
    25
100
AcDbLine
 10
95.5414198911
 20
8.0
 30
0.0
 11
-95.5414198911
 21
8.0
 31
0.0
  0
ARC
  5
BA
330
9E
100
AcDbEntity
  8
0
  6
Continuous
 62
     7
370
    25
100
AcDbCircle
 10
1.9712183568
 20
235.0
 30
0.0
 40
245.5287816431508
100
AcDbArc
 50
338.4966390435
 51
0.0
  0
ARC
  5
BB
330
9E
100
AcDbEntity
  8
0
  6
Continuous
 62
     7
370
    25
100
AcDbCircle
 10
-1.9712183569
 20
235.0
 30
0.0
 40
245.5287816431497
100
AcDbArc
 50
180.0
 51
201.5033609565
  0
ARC
  5
BC
330
9E
100
AcDbEntity
  8
0
  6
Continuous
 62
     7
370
    25
100
AcDbCircle
 10
1.9712183569
 20
235.0
 30
0.0
 40
245.5287816431435
100
AcDbArc
 50
292.4016295906
 51
335.2798342043
  0
ARC
  5
BD
330
9E
100
AcDbEntity
  8
0
  6
Continuous
 62
     7
370
    25
100
AcDbCircle
 10
-1.9712183569
 20
235.0
 30
0.0
 40
245.5287816431437
100
AcDbArc
 50
204.7201657957
 51
247.5983704094
  0
ARC
  5
BE
330
9E
100
AcDbEntity
  8
0
  6
Continuous
 62
     7
370
    25
100
AcDbCircle
 10
106.9743200475
 20
-19.7360558482
 30
0.0
 40
30.0000000000015
100
AcDbArc
 50
112.4016295906
 51
124.4586045134
  0
ARC
  5
BF
330
9E
100
AcDbEntity
  8
0
  6
Continuous
 62
     7
370
    25
100
AcDbCircle
 10
-106.9743200475
 20
-19.7360558482
 30
0.0
 40
30.00000000000073
100
AcDbArc
 50
55.5413954866
 51
67.5983704094
  0
ARC
  5
C0
330
9E
100
AcDbEntity
  8
0
  6
Continuous
 62
     7
370
    25
100
AcDbCircle
 10
62.5
 20
0.0
 30
0.0
 40
5.000000000000028
100
AcDbArc
 50
90.0
 51
180.0
  0
ARC
  5
C1
330
9E
100
AcDbEntity
  8
0
  6
Continuous
 62
     7
370
    25
100
AcDbCircle
 10
-62.5
 20
0.0
 30
0.0
 40
5.000000000000028
100
AcDbArc
 50
0.0
 51
90.0
  0
VIEWPORT
  5
16B
330
9E
100
AcDbEntity
  8
0
100
AcDbViewport
 10
0.0
 20
0.0
 30
0.0
 40
205.6
 41
156.0
 68
     1
 69
     1
 12
0.00828698
 22
139.9922847906
 13
0.0
 23
0.0
 14
10.0
 24
10.0
 15
10.0
 25
10.0
 16
0.0
 26
0.0
 36
1.0
 17
0.0
 27
0.0
 37
0.0
 42
50.0
 43
0.0
 44
0.0
 45
397.3347466809
 50
0.0
 51
0.0
 72
   100
 90
   557152
  1

281
     0
 71
     1
 74
     0
110
0.0
120
0.0
130
0.0
111
1.0
121
0.0
131
0.0
112
0.0
122
1.0
132
0.0
 79
     0
146
0.0
170
     0
 61
     5
348
2F
292
     1
282
     1
141
0.0
142
0.0
 63
   256
361
16C
  0
ENDBLK
  5
A1
330
9E
100
AcDbEntity
  8
0
100
AcDbBlockEnd
  0
BLOCK
  5
C4
330
C2
100
AcDbEntity
  8
0
100
AcDbBlockBegin
  2
*Paper_Space2
 70
     0
 10
0.0
 20
0.0
 30
0.0
  3
*Paper_Space2
  1

  0
LINE
  5
D6
330
C2
100
AcDbEntity
  8
0
  6
Continuous
 62
     7
370
    25
100
AcDbLine
 10
225.0
 20
132.3231030176
 30
0.0
 11
225.0
 21
145.0
 31
0.0
  0
LINE
  5
D7
330
C2
100
AcDbEntity
  8
0
  6
Continuous
 62
     7
370
    25
100
AcDbLine
 10
-225.0
 20
145.0
 30
0.0
 11
-225.0
 21
132.3231030176
 31
0.0
  0
LINE
  5
D8
330
C2
100
AcDbEntity
  8
0
  6
Continuous
 62
     7
370
    25
100
AcDbLine
 10
247.5
 20
235.0
 30
0.0
 11
-247.5
 21
235.0
 31
0.0
  0
LINE
  5
D9
330
C2
100
AcDbEntity
  8
0
  6
Continuous
 62
     7
370
    25
100
AcDbLine
 10
230.4102312578
 20
145.0
 30
0.0
 11
-230.4102312578
 21
145.0
 31
0.0
  0
LINE
  5
DA
330
C2
100
AcDbEntity
  8
0
  6
Continuous
 62
     7
370
    25
100
AcDbLine
 10
225.0
 20
132.3231030176
 30
0.0
 11
-225.0
 21
132.3231030176
 31
0.0
  0
LINE
  5
DB
330
C2
100
AcDbEntity
  8
0
  6
Continuous
 62
     7
370
    25
100
AcDbLine
 10
90.0
 20
5.0
 30
0.0
 11
-90.0
 21
5.0
 31
0.0
  0
LINE
  5
DC
330
C2
100
AcDbEntity
  8
0
  6
Continuous
 62
     7
370
    25
100
AcDbLine
 10
57.5
 20
0.0
 30
0.0
 11
-57.5
 21
0.0
 31
0.0
  0
LINE
  5
DD
330
C2
100
AcDbEntity
  8
0
  6
Continuous
 62
     1
370
    25
100
AcDbLine
 10
95.5414198911
 20
8.0
 30
0.0
 11
-95.5414198911
 21
8.0
 31
0.0
  0
ARC
  5
DE
330
C2
100
AcDbEntity
  8
0
  6
Continuous
 62
     7
370
    25
100
AcDbCircle
 10
1.9712183568
 20
235.0
 30
0.0
 40
245.5287816431508
100
AcDbArc
 50
338.4966390435
 51
0.0
  0
ARC
  5
DF
330
C2
100
AcDbEntity
  8
0
  6
Continuous
 62
     7
370
    25
100
AcDbCircle
 10
-1.9712183569
 20
235.0
 30
0.0
 40
245.5287816431497
100
AcDbArc
 50
180.0
 51
201.5033609565
  0
ARC
  5
E0
330
C2
100
AcDbEntity
  8
0
  6
Continuous
 62
     7
370
    25
100
AcDbCircle
 10
1.9712183569
 20
235.0
 30
0.0
 40
245.5287816431435
100
AcDbArc
 50
292.4016295906
 51
335.2798342043
  0
ARC
  5
E1
330
C2
100
AcDbEntity
  8
0
  6
Continuous
 62
     7
370
    25
100
AcDbCircle
 10
-1.9712183569
 20
235.0
 30
0.0
 40
245.5287816431437
100
AcDbArc
 50
204.7201657957
 51
247.5983704094
  0
ARC
  5
E2
330
C2
100
AcDbEntity
  8
0
  6
Continuous
 62
     7
370
    25
100
AcDbCircle
 10
106.9743200475
 20
-19.7360558482
 30
0.0
 40
30.0000000000015
100
AcDbArc
 50
112.4016295906
 51
124.4586045134
  0
ARC
  5
E3
330
C2
100
AcDbEntity
  8
0
  6
Continuous
 62
     7
370
    25
100
AcDbCircle
 10
-106.9743200475
 20
-19.7360558482
 30
0.0
 40
30.00000000000073
100
AcDbArc
 50
55.5413954866
 51
67.5983704094
  0
ARC
  5
E4
330
C2
100
AcDbEntity
  8
0
  6
Continuous
 62
     7
370
    25
100
AcDbCircle
 10
62.5
 20
0.0
 30
0.0
 40
5.000000000000028
100
AcDbArc
 50
90.0
 51
180.0
  0
ARC
  5
E5
330
C2
100
AcDbEntity
  8
0
  6
Continuous
 62
     7
370
    25
100
AcDbCircle
 10
-62.5
 20
0.0
 30
0.0
 40
5.000000000000028
100
AcDbArc
 50
0.0
 51
90.0
  0
VIEWPORT
  5
16D
330
C2
100
AcDbEntity
  8
0
100
AcDbViewport
 10
0.0
 20
0.0
 30
0.0
 40
205.6
 41
156.0
 68
     1
 69
     1
 12
0.00828698
 22
139.9922847906
 13
0.0
 23
0.0
 14
10.0
 24
10.0
 15
10.0
 25
10.0
 16
0.0
 26
0.0
 36
1.0
 17
0.0
 27
0.0
 37
0.0
 42
50.0
 43
0.0
 44
0.0
 45
397.3347466809
 50
0.0
 51
0.0
 72
   100
 90
   557152
  1

281
     0
 71
     1
 74
     0
110
0.0
120
0.0
130
0.0
111
1.0
121
0.0
131
0.0
112
0.0
122
1.0
132
0.0
 79
     0
146
0.0
170
     0
 61
     5
348
2F
292
     1
282
     1
141
0.0
142
0.0
 63
   256
361
16E
  0
ENDBLK
  5
C5
330
C2
100
AcDbEntity
  8
0
100
AcDbBlockEnd
  0
BLOCK
  5
E8
330
E6
100
AcDbEntity
  8
0
100
AcDbBlockBegin
  2
*Paper_Space3
 70
     0
 10
0.0
 20
0.0
 30
0.0
  3
*Paper_Space3
  1

  0
LINE
  5
100
330
E6
100
AcDbEntity
  8
0
  6
Continuous
 62
     7
370
    25
100
AcDbLine
 10
225.0
 20
132.3231030176
 30
0.0
 11
225.0
 21
145.0
 31
0.0
  0
LINE
  5
101
330
E6
100
AcDbEntity
  8
0
  6
Continuous
 62
     7
370
    25
100
AcDbLine
 10
-225.0
 20
145.0
 30
0.0
 11
-225.0
 21
132.3231030176
 31
0.0
  0
LINE
  5
102
330
E6
100
AcDbEntity
  8
0
  6
Continuous
 62
     7
370
    25
100
AcDbLine
 10
247.5
 20
235.0
 30
0.0
 11
-247.5
 21
235.0
 31
0.0
  0
LINE
  5
103
330
E6
100
AcDbEntity
  8
0
  6
Continuous
 62
     7
370
    25
100
AcDbLine
 10
230.4102312578
 20
145.0
 30
0.0
 11
-230.4102312578
 21
145.0
 31
0.0
  0
LINE
  5
104
330
E6
100
AcDbEntity
  8
0
  6
Continuous
 62
     7
370
    25
100
AcDbLine
 10
225.0
 20
132.3231030176
 30
0.0
 11
-225.0
 21
132.3231030176
 31
0.0
  0
LINE
  5
105
330
E6
100
AcDbEntity
  8
0
  6
Continuous
 62
     7
370
    25
100
AcDbLine
 10
90.0
 20
5.0
 30
0.0
 11
-90.0
 21
5.0
 31
0.0
  0
LINE
  5
106
330
E6
100
AcDbEntity
  8
0
  6
Continuous
 62
     7
370
    25
100
AcDbLine
 10
57.5
 20
0.0
 30
0.0
 11
-57.5
 21
0.0
 31
0.0
  0
LINE
  5
107
330
E6
100
AcDbEntity
  8
0
  6
Continuous
 62
     1
370
    25
100
AcDbLine
 10
95.5414198911
 20
8.0
 30
0.0
 11
-95.5414198911
 21
8.0
 31
0.0
  0
ARC
  5
108
330
E6
100
AcDbEntity
  8
0
  6
Continuous
 62
     7
370
    25
100
AcDbCircle
 10
1.9712183568
 20
235.0
 30
0.0
 40
245.5287816431508
100
AcDbArc
 50
338.4966390435
 51
0.0
  0
ARC
  5
109
330
E6
100
AcDbEntity
  8
0
  6
Continuous
 62
     7
370
    25
100
AcDbCircle
 10
-1.9712183569
 20
235.0
 30
0.0
 40
245.5287816431497
100
AcDbArc
 50
180.0
 51
201.5033609565
  0
ARC
  5
10A
330
E6
100
AcDbEntity
  8
0
  6
Continuous
 62
     7
370
    25
100
AcDbCircle
 10
1.9712183569
 20
235.0
 30
0.0
 40
245.5287816431435
100
AcDbArc
 50
292.4016295906
 51
335.2798342043
  0
ARC
  5
10B
330
E6
100
AcDbEntity
  8
0
  6
Continuous
 62
     7
370
    25
100
AcDbCircle
 10
-1.9712183569
 20
235.0
 30
0.0
 40
245.5287816431437
100
AcDbArc
 50
204.7201657957
 51
247.5983704094
  0
ARC
  5
10C
330
E6
100
AcDbEntity
  8
0
  6
Continuous
 62
     7
370
    25
100
AcDbCircle
 10
106.9743200475
 20
-19.7360558482
 30
0.0
 40
30.0000000000015
100
AcDbArc
 50
112.4016295906
 51
124.4586045134
  0
ARC
  5
10D
330
E6
100
AcDbEntity
  8
0
  6
Continuous
 62
     7
370
    25
100
AcDbCircle
 10
-106.9743200475
 20
-19.7360558482
 30
0.0
 40
30.00000000000073
100
AcDbArc
 50
55.5413954866
 51
67.5983704094
  0
ARC
  5
10E
330
E6
100
AcDbEntity
  8
0
  6
Continuous
 62
     7
370
    25
100
AcDbCircle
 10
62.5
 20
0.0
 30
0.0
 40
5.000000000000028
100
AcDbArc
 50
90.0
 51
180.0
  0
ARC
  5
10F
330
E6
100
AcDbEntity
  8
0
  6
Continuous
 62
     7
370
    25
100
AcDbCircle
 10
-62.5
 20
0.0
 30
0.0
 40
5.000000000000028
100
AcDbArc
 50
0.0
 51
90.0
  0
VIEWPORT
  5
16F
330
E6
100
AcDbEntity
  8
0
100
AcDbViewport
 10
0.0
 20
0.0
 30
0.0
 40
205.6
 41
156.0
 68
     1
 69
     1
 12
0.00828698
 22
139.9922847906
 13
0.0
 23
0.0
 14
10.0
 24
10.0
 15
10.0
 25
10.0
 16
0.0
 26
0.0
 36
1.0
 17
0.0
 27
0.0
 37
0.0
 42
50.0
 43
0.0
 44
0.0
 45
397.3347466809
 50
0.0
 51
0.0
 72
   100
 90
   557152
  1

281
     0
 71
     1
 74
     0
110
0.0
120
0.0
130
0.0
111
1.0
121
0.0
131
0.0
112
0.0
122
1.0
132
0.0
 79
     0
146
0.0
170
     0
 61
     5
348
2F
292
     1
282
     1
141
0.0
142
0.0
 63
   256
361
170
  0
ENDBLK
  5
E9
330
E6
100
AcDbEntity
  8
0
100
AcDbBlockEnd
  0
BLOCK
  5
112
330
110
100
AcDbEntity
  8
0
100
AcDbBlockBegin
  2
*Paper_Space4
 70
     0
 10
0.0
 20
0.0
 30
0.0
  3
*Paper_Space4
  1

  0
LINE
  5
124
330
110
100
AcDbEntity
  8
0
  6
Continuous
 62
     7
370
    25
100
AcDbLine
 10
225.0
 20
132.3231030176
 30
0.0
 11
225.0
 21
145.0
 31
0.0
  0
LINE
  5
125
330
110
100
AcDbEntity
  8
0
  6
Continuous
 62
     7
370
    25
100
AcDbLine
 10
-225.0
 20
145.0
 30
0.0
 11
-225.0
 21
132.3231030176
 31
0.0
  0
LINE
  5
126
330
110
100
AcDbEntity
  8
0
  6
Continuous
 62
     7
370
    25
100
AcDbLine
 10
247.5
 20
235.0
 30
0.0
 11
-247.5
 21
235.0
 31
0.0
  0
LINE
  5
127
330
110
100
AcDbEntity
  8
0
  6
Continuous
 62
     7
370
    25
100
AcDbLine
 10
230.4102312578
 20
145.0
 30
0.0
 11
-230.4102312578
 21
145.0
 31
0.0
  0
LINE
  5
128
330
110
100
AcDbEntity
  8
0
  6
Continuous
 62
     7
370
    25
100
AcDbLine
 10
225.0
 20
132.3231030176
 30
0.0
 11
-225.0
 21
132.3231030176
 31
0.0
  0
LINE
  5
129
330
110
100
AcDbEntity
  8
0
  6
Continuous
 62
     7
370
    25
100
AcDbLine
 10
90.0
 20
5.0
 30
0.0
 11
-90.0
 21
5.0
 31
0.0
  0
LINE
  5
12A
330
110
100
AcDbEntity
  8
0
  6
Continuous
 62
     7
370
    25
100
AcDbLine
 10
57.5
 20
0.0
 30
0.0
 11
-57.5
 21
0.0
 31
0.0
  0
LINE
  5
12B
330
110
100
AcDbEntity
  8
0
  6
Continuous
 62
     1
370
    25
100
AcDbLine
 10
95.5414198911
 20
8.0
 30
0.0
 11
-95.5414198911
 21
8.0
 31
0.0
  0
ARC
  5
12C
330
110
100
AcDbEntity
  8
0
  6
Continuous
 62
     7
370
    25
100
AcDbCircle
 10
1.9712183568
 20
235.0
 30
0.0
 40
245.5287816431508
100
AcDbArc
 50
338.4966390435
 51
0.0
  0
ARC
  5
12D
330
110
100
AcDbEntity
  8
0
  6
Continuous
 62
     7
370
    25
100
AcDbCircle
 10
-1.9712183569
 20
235.0
 30
0.0
 40
245.5287816431497
100
AcDbArc
 50
180.0
 51
201.5033609565
  0
ARC
  5
12E
330
110
100
AcDbEntity
  8
0
  6
Continuous
 62
     7
370
    25
100
AcDbCircle
 10
1.9712183569
 20
235.0
 30
0.0
 40
245.5287816431435
100
AcDbArc
 50
292.4016295906
 51
335.2798342043
  0
ARC
  5
12F
330
110
100
AcDbEntity
  8
0
  6
Continuous
 62
     7
370
    25
100
AcDbCircle
 10
-1.9712183569
 20
235.0
 30
0.0
 40
245.5287816431437
100
AcDbArc
 50
204.7201657957
 51
247.5983704094
  0
ARC
  5
130
330
110
100
AcDbEntity
  8
0
  6
Continuous
 62
     7
370
    25
100
AcDbCircle
 10
106.9743200475
 20
-19.7360558482
 30
0.0
 40
30.0000000000015
100
AcDbArc
 50
112.4016295906
 51
124.4586045134
  0
ARC
  5
131
330
110
100
AcDbEntity
  8
0
  6
Continuous
 62
     7
370
    25
100
AcDbCircle
 10
-106.9743200475
 20
-19.7360558482
 30
0.0
 40
30.00000000000073
100
AcDbArc
 50
55.5413954866
 51
67.5983704094
  0
ARC
  5
132
330
110
100
AcDbEntity
  8
0
  6
Continuous
 62
     7
370
    25
100
AcDbCircle
 10
62.5
 20
0.0
 30
0.0
 40
5.000000000000028
100
AcDbArc
 50
90.0
 51
180.0
  0
ARC
  5
133
330
110
100
AcDbEntity
  8
0
  6
Continuous
 62
     7
370
    25
100
AcDbCircle
 10
-62.5
 20
0.0
 30
0.0
 40
5.000000000000028
100
AcDbArc
 50
0.0
 51
90.0
  0
VIEWPORT
  5
171
330
110
100
AcDbEntity
  8
0
100
AcDbViewport
 10
0.0
 20
0.0
 30
0.0
 40
205.6
 41
156.0
 68
     1
 69
     1
 12
0.00828698
 22
139.9922847906
 13
0.0
 23
0.0
 14
10.0
 24
10.0
 15
10.0
 25
10.0
 16
0.0
 26
0.0
 36
1.0
 17
0.0
 27
0.0
 37
0.0
 42
50.0
 43
0.0
 44
0.0
 45
397.3347466809
 50
0.0
 51
0.0
 72
   100
 90
   557152
  1

281
     0
 71
     1
 74
     0
110
0.0
120
0.0
130
0.0
111
1.0
121
0.0
131
0.0
112
0.0
122
1.0
132
0.0
 79
     0
146
0.0
170
     0
 61
     5
348
2F
292
     1
282
     1
141
0.0
142
0.0
 63
   256
361
172
  0
ENDBLK
  5
113
330
110
100
AcDbEntity
  8
0
100
AcDbBlockEnd
  0
BLOCK
  5
136
330
134
100
AcDbEntity
  8
0
100
AcDbBlockBegin
  2
*Paper_Space5
 70
     0
 10
0.0
 20
0.0
 30
0.0
  3
*Paper_Space5
  1

  0
CIRCLE
  5
138
330
134
100
AcDbEntity
  8
0
  6
Continuous
 62
     7
370
    25
100
AcDbCircle
 10
0.0
 20
0.0
 30
0.0
 40
62.49999999999996
  0
CIRCLE
  5
139
330
134
100
AcDbEntity
  8
0
  6
Continuous
 62
     7
370
    25
100
AcDbCircle
 10
0.0
 20
0.0
 30
0.0
 40
57.50000000000003
  0
CIRCLE
  5
13A
330
134
100
AcDbEntity
  8
0
  6
Continuous
 62
     7
370
    25
100
AcDbCircle
 10
0.0
 20
0.0
 30
0.0
 40
22.99999999999999
  0
CIRCLE
  5
13B
330
134
100
AcDbEntity
  8
0
  6
Continuous
 62
     7
370
    25
100
AcDbCircle
 10
0.0
 20
0.0
 30
0.0
 40
90.00000000000004
  0
CIRCLE
  5
13C
330
134
100
AcDbEntity
  8
0
  6
Continuous
 62
     7
370
    25
100
AcDbCircle
 10
0.0
 20
0.0
 30
0.0
 40
95.54141989114353
  0
CIRCLE
  5
13D
330
134
100
AcDbEntity
  8
0
  6
Continuous
 62
     7
370
    25
100
AcDbCircle
 10
0.0
 20
0.0
 30
0.0
 40
224.9999999999999
  0
CIRCLE
  5
13E
330
134
100
AcDbEntity
  8
0
  6
Continuous
 62
     7
370
    25
100
AcDbCircle
 10
0.0
 20
0.0
 30
0.0
 40
230.4102312578199
  0
CIRCLE
  5
13F
330
134
100
AcDbEntity
  8
0
  6
Continuous
 62
     7
370
    25
100
AcDbCircle
 10
0.0000000001
 20
0.0
 30
0.0
 40
247.500000000001
  0
VIEWPORT
  5
173
330
134
100
AcDbEntity
  8
0
100
AcDbViewport
 10
0.0
 20
0.0
 30
0.0
 40
205.6
 41
156.0
 68
     1
 69
     1
 12
0.00828698
 22
139.9922847906
 13
0.0
 23
0.0
 14
10.0
 24
10.0
 15
10.0
 25
10.0
 16
0.0
 26
0.0
 36
1.0
 17
0.0
 27
0.0
 37
0.0
 42
50.0
 43
0.0
 44
0.0
 45
397.3347466809
 50
0.0
 51
0.0
 72
   100
 90
   557152
  1

281
     0
 71
     1
 74
     0
110
0.0
120
0.0
130
0.0
111
1.0
121
0.0
131
0.0
112
0.0
122
1.0
132
0.0
 79
     0
146
0.0
170
     0
 61
     5
348
2F
292
     1
282
     1
141
0.0
142
0.0
 63
   256
361
174
  0
ENDBLK
  5
137
330
134
100
AcDbEntity
  8
0
100
AcDbBlockEnd
  0
BLOCK
  5
142
330
140
100
AcDbEntity
  8
0
100
AcDbBlockBegin
  2
*Paper_Space6
 70
     0
 10
0.0
 20
0.0
 30
0.0
  3
*Paper_Space6
  1

  0
SPLINE
  5
144
330
140
100
AcDbEntity
  8
0
  6
Continuous
 62
     7
370
    25
100
AcDbSpline
210
0.0
220
0.0
230
1.0
 70
     8
 71
     3
 72
    21
 73
    17
 74
     0
 42
0.000000001
 43
0.00000001
 40
0.0
 40
0.0
 40
0.0
 40
0.0
 40
0.0124475645644886
 40
0.0910872502114779
 40
0.1695829043118748
 40
0.2479350626534349
 40
0.3261444614806628
 40
0.4042119886909159
 40
0.4821386439336285
 40
0.5599255062909099
 40
0.6375737084142274
 40
0.7150844161686712
 40
0.7924588129942877
 40
0.8696980883335553
 40
0.9468034295969605
 40
0.9999999999999999
 40
0.9999999999999999
 40
0.9999999999999999
 40
0.9999999999999999
 10
221.2391197389842
 20
81.29353564026937
 30
0.0
 10
221.4591578546933
 20
81.71554370996573
 30
0.0
 10
223.0693255945611
 20
84.80366222797375
 30
0.0
 10
225.7832304796939
 20
90.69641117876066
 30
0.0
 10
229.3546431487169
 20
98.96172421740224
 30
0.0
 10
232.5879109289585
 20
107.3499405639441
 30
0.0
 10
235.5153963859628
 20
115.8313938480226
 30
0.0
 10
238.1255571175261
 20
124.3991427687437
 30
0.0
 10
240.4191665116001
 20
133.0401757663535
 30
0.0
 10
242.3941651386264
 20
141.7431220396985
 30
0.0
 10
244.0501374090456
 20
150.4962060115028
 30
0.0
 10
245.3854836282438
 20
159.2878143790435
 30
0.0
 10
246.4042141598224
 20
168.1063449984451
 30
0.0
 10
247.0916228864417
 20
176.9403224106576
 30
0.0
 10
247.4621035392995
 20
184.8697635601469
 30
0.0
 10
247.4650136313183
 20
189.852109325421
 30
0.0
 10
247.4662016945859
 20
191.8861831458663
 30
0.0
  0
SPLINE
  5
145
330
140
100
AcDbEntity
  8
0
  6
Continuous
 62
     7
370
    25
100
AcDbSpline
210
0.0
220
0.0
230
1.0
 70
     8
 71
     3
 72
    21
 73
    17
 74
     0
 42
0.000000001
 43
0.00000001
 40
0.0
 40
0.0
 40
0.0
 40
0.0
 40
0.0109423588432286
 40
0.087816244030194
 40
0.1645594412689659
 40
0.2411730773550368
 40
0.3176583083638417
 40
0.394016294899889
 40
0.4702482113408997
 40
0.5463552574004765
 40
0.6223386721449592
 40
0.6981997506451104
 40
0.7739398634986924
 40
0.8495604795162948
 40
0.9250631919202734
 40
1.0
 40
1.0
 40
1.0
 40
1.0
 10
-247.480688936417
 20
191.8871212081494
 30
0.0
 10
-247.4868949441807
 20
191.4688508007981
 30
0.0
 10
-247.5367003197889
 20
188.1120849801184
 30
0.0
 10
-247.3277295221857
 20
181.8210684963764
 30
0.0
 10
-246.8345826133658
 20
173.0332834475236
 30
0.0
 10
-245.9988202869588
 20
164.2841303195368
 30
0.0
 10
-244.8617132890506
 20
155.5847852207009
 30
0.0
 10
-243.4159209796933
 20
146.9458721894293
 30
0.0
 10
-241.667558616925
 20
138.3779475695729
 30
0.0
 10
-239.6195445751699
 20
129.8913817835137
 30
0.0
 10
-237.2762346702315
 20
121.4962775343249
 30
0.0
 10
-234.6414429288871
 20
113.2028423637937
 30
0.0
 10
-231.7216659211889
 20
105.0199134354234
 30
0.0
 10
-228.5151198242153
 20
96.96040532194371
 30
0.0
 10
-225.0590849720875
 20
89.03673640839432
 30
0.0
 10
-222.5271865997907
 20
83.87238081470758
 30
0.0
 10
-221.265999500868
 20
81.29991632708324
 30
0.0
  0
SPLINE
  5
146
330
140
100
AcDbEntity
  8
0
  6
Continuous
 62
     7
370
    25
100
AcDbSpline
210
0.0
220
0.0
230
1.0
 70
     8
 71
     3
 72
    65
 73
    61
 74
     0
 42
0.000000001
 43
0.00000001
 40
0.0
 40
0.0
 40
0.0
 40
0.0
 40
0.0158407926811554
 40
0.0326494650237269
 40
0.0494348777546045
 40
0.0661978368457887
 40
0.0829392652628234
 40
0.0996602215086298
 40
0.1163619203089204
 40
0.1330457555383281
 40
0.1497133254286452
 40
0.1663664600131467
 40
0.1830072506349227
 40
0.1996380811726671
 40
0.2162616604032354
 40
0.2328810546161
 40
0.249499719211432
 40
0.2661215275474056
 40
0.2827507947572398
 40
0.2993922936511813
 40
0.3160512591905868
 40
0.3327333774337118
 40
0.3494447543999978
 40
0.3661918601057796
 40
0.382981443241236
 40
0.3998204127494225
 40
0.4167156840881913
 40
0.4336739903183068
 40
0.4507016614018732
 40
0.4678043791261722
 40
0.4849869196260279
 40
0.5022529000672509
 40
0.5196045499074661
 40
0.537042355093454
 40
0.5545651902334785
 40
0.5721703292912863
 40
0.5898534175730094
 40
0.6076086352430818
 40
0.6254289412024526
 40
0.6433063741666692
 40
0.6612323821444287
 40
0.6791981507165196
 40
0.6971949043222062
 40
0.7152141617480774
 40
0.7332479352911988
 40
0.7512888708988307
 40
0.7693303327959226
 40
0.7873664401964434
 40
0.8053920657120326
 40
0.8234028054221874
 40
0.8413949297847271
 40
0.8593653231509963
 40
0.8773114180068033
 40
0.895231128459135
 40
0.913122786083418
 40
0.9309850801016443
 40
0.9488170029844722
 40
0.9666178019340828
 40
0.9843869362680392
 40
1.0
 40
1.0
 40
1.0
 40
1.0
 10
-212.6920147302749
 20
65.6922725622595
 30
0.0
 10
-211.289143860208
 20
63.3850362250695
 30
0.0
 10
-208.3976860697439
 20
58.62959035763059
 30
0.0
 10
-203.7037124000988
 20
51.62900730528734
 30
0.0
 10
-198.6975645019243
 20
44.65542704128541
 30
0.0
 10
-193.4532557689707
 20
37.87287225398753
 30
0.0
 10
-187.985031969525
 20
31.28408694810525
 30
0.0
 10
-182.2981090975068
 20
24.89699893779854
 30
0.0
 10
-176.4002595156862
 20
18.71776299050083
 30
0.0
 10
-170.2986815156831
 20
12.75262063919994
 30
0.0
 10
-164.0008028656393
 20
7.00740469202607
 30
0.0
 10
-157.5140305848134
 20
1.487676671935778
 30
0.0
 10
-150.8457812457469
 20
-3.801301602327126
 30
0.0
 10
-144.0034352884883
 20
-8.854548117469399
 30
0.0
 10
-136.9943113294329
 20
-13.66734920814008
 30
0.0
 10
-129.825635644373
 20
-18.23524080057489
 30
0.0
 10
-122.5045146481562
 20
-22.55398603670203
 30
0.0
 10
-115.0379098390996
 20
-26.61954783238853
 30
0.0
 10
-107.4326173517637
 20
-30.42805643969977
 30
0.0
 10
-99.69525402483164
 20
-33.9757719188374
 30
0.0
 10
-91.83225244052785
 20
-37.2590418350804
 30
0.0
 10
-83.84986768328167
 20
-40.27425490016796
 30
0.0
 10
-75.75419879908907
 20
-43.01779184729502
 30
0.0
 10
-67.55122795527316
 20
-45.48597551801968
 30
0.0
 10
-59.24688002097205
 20
-47.67502293332339
 30
0.0
 10
-50.84710460031559
 20
-49.58100295977754
 30
0.0
 10
-42.35798136038386
 20
-51.19980397161876
 30
0.0
 10
-33.78584774573816
 20
-52.52711651649035
 30
0.0
 10
-25.13744586569725
 20
-53.55843624864602
 30
0.0
 10
-16.42008258015666
 20
-54.28909211161724
 30
0.0
 10
-7.641793820669471
 20
-54.71430375530058
 30
0.0
 10
1.188498649454889
 20
-54.82927033717174
 30
0.0
 10
10.06082230989093
 20
-54.62929084279668
 30
0.0
 10
18.96406717921273
 20
-54.10991583032919
 30
0.0
 10
27.88595593156602
 20
-53.26711525579788
 30
0.0
 10
36.81308688753029
 20
-52.09744730502709
 30
0.0
 10
45.7309996766925
 20
-50.59822458037689
 30
0.0
 10
54.62429706670733
 20
-48.76766633547415
 30
0.0
 10
63.47683589263312
 20
-46.60501985121486
 30
0.0
 10
72.2719547894936
 20
-44.1106433764238
 30
0.0
 10
80.99271968286419
 20
-41.28604664000231
 30
0.0
 10
89.62216767863842
 20
-38.13388973467443
 30
0.0
 10
98.14353248408204
 20
-34.65794530286105
 30
0.0
 10
106.5404389525033
 20
-30.86303178028567
 30
0.0
 10
114.7970596336022
 20
-26.75492673256345
 30
0.0
 10
122.8982312588993
 20
-22.34026918378712
 30
0.0
 10
130.8295331773783
 20
-17.62645867869714
 30
0.0
 10
138.5773324424504
 20
-12.62155704902336
 30
0.0
 10
146.1288018988208
 20
-7.33419710345612
 30
0.0
 10
153.4719171304455
 20
-1.773500235802528
 30
0.0
 10
160.595440782544
 20
4.050994613663997
 30
0.0
 10
167.4888904406283
 20
10.12939611691378
 30
0.0
 10
174.1425279228904
 20
16.45150033797123
 30
0.0
 10
180.5472476889439
 20
23.00688151280092
 30
0.0
 10
186.6948337093674
 20
29.78475467576537
 30
0.0
 10
192.5768469023821
 20
36.774655389993
 30
0.0
 10
198.1886195554407
 20
43.96405084191909
 30
0.0
 10
203.5142509101742
 20
51.34735280967998
 30
0.0
 10
208.3803964475581
 20
58.5918341750272
 30
0.0
 10
211.3283329093796
 20
63.45915157932669
 30
0.0
 10
212.7071013105887
 20
65.73562650428369
 30
0.0
  0
LWPOLYLINE
  5
147
330
140
100
AcDbEntity
  8
0
  6
Continuous
 62
     7
370
    25
100
AcDbPolyline
 90
      168
 70
   128
 43
0.0
 10
175.0089283437
 20
292.9175946312
 10
181.4680343519
 20
289.0458347211
 10
187.67029265
 20
285.0365574736
 10
193.606924635
 20
280.8954375724
 10
199.2695276681
 20
276.6283363097
 10
204.650086968
 20
272.24129329
 10
209.7409869545
 20
267.7405178822
 10
214.5350220282
 20
263.1323804307
 10
219.0254067684
 20
258.4234032386
 10
223.2057855376
 20
253.6202513366
 10
227.0702414773
 20
248.7297230491
 10
230.6133048821
 20
243.7587403721
 10
233.8299609419
 20
238.7143391756
 10
236.71565684
 20
233.6036592454
 10
239.2663081963
 20
228.4339341775
 10
241.4783048491
 20
223.2124811396
 10
243.3485159645
 20
217.9466905146
 10
244.8742944678
 20
212.6440154403
 10
246.0534807902
 20
207.3119612603
 10
246.8844059253
 20
201.958074901
 10
247.3658937915
 20
196.5899341899
 10
247.4972628965
 20
191.2151371299
 10
247.278327302
 20
185.8412911451
 10
246.7093968869
 20
180.4760023137
 10
245.7912769087
 20
175.1268646019
 10
244.5252668634
 20
169.8014491162
 10
242.9131586467
 20
164.5072933865
 10
240.9572340175
 20
159.2518906983
 10
238.6602613684
 20
154.0426794865
 10
236.0254918074
 20
148.8870328069
 10
233.056654556
 20
143.792247901
 10
229.7579516715
 20
138.765535867
 10
226.134052099
 20
133.8140114538
 10
222.1900850629
 20
128.9446829903
 10
217.9316328077
 20
124.1644424667
 10
213.3647226962
 20
119.4800557787
 10
208.4958186792
 20
114.8981531519
 10
203.3318121456
 20
110.4252197571
 10
197.8800121694
 20
106.0675865313
 10
192.1481351638
 20
101.8314212172
 10
186.1442939596
 20
97.7227196329
 10
179.8769863228
 20
93.7472971861
 10
173.3550829265
 20
89.9107806428
 10
166.5878147956
 20
86.2186001631
 10
159.5847602413
 20
82.6759816155
 10
152.3558313044
 20
79.2879391806
 10
144.9112597254
 20
76.0592682534
 10
137.2615824628
 20
72.9945386567
 10
129.4176267794
 20
70.0980881725
 10
121.3904949173
 20
67.3740164026
 10
113.1915483841
 20
64.8261789658
 10
104.8323918716
 20
62.4581820413
 10
96.3248568313
 20
60.2733772638
 10
87.6809847276
 20
58.2748569802
 10
78.9130099949
 20
56.4654498725
 10
70.0333427209
 20
54.8477169541
 10
61.0545510817
 20
53.423947945
 10
51.9893435528
 20
52.1961580311
 10
42.8505509218
 20
51.1660850117
 10
33.6511081277
 20
50.33518684
 10
24.4040359531
 20
49.7046395594
 10
15.1224225945
 20
49.2753356391
 10
5.8194051378
 20
49.0478827107
 10
-3.4918490361
 20
49.0226027085
 10
-12.7981608882
 20
49.1995314135
 10
-22.0863583747
 20
49.5784184028
 10
-31.3432950907
 20
50.1587274044
 10
-40.5558688775
 20
50.9396370556
 10
-49.711040367
 20
51.9200420663
 10
-58.7958514377
 20
53.0985547828
 10
-67.7974435555
 20
54.4735071521
 10
-76.7030759734
 20
56.0429530828
 10
-85.5001437645
 20
57.8046711998
 10
-94.1761956631
 20
59.7561679881
 10
-102.7189516879
 20
61.8946813222
 10
-111.116320523
 20
64.2171843755
 10
-119.356416632
 20
66.7203899049
 10
-127.4275770801
 20
69.4007549026
 10
-135.3183780424
 20
72.2544856119
 10
-143.0176509724
 20
75.277542896
 10
-150.5144984104
 20
78.4656479554
 10
-157.7983094069
 20
81.8142883838
 10
-164.8587745422
 20
85.3187245553
 10
-171.6859005174
 20
88.9739963322
 10
-178.2700242989
 20
92.7749300861
 10
-184.601826796
 20
96.7161460204
 10
-190.6723460503
 20
100.7920657847
 10
-196.4729899204
 20
104.9969203701
 10
-201.9955482438
 20
109.3247582754
 10
-207.2322044567
 20
113.7694539299
 10
-212.1755466577
 20
118.324716364
 10
-216.8185780988
 20
122.9840981129
 10
-221.1547270881
 20
127.741004343
 10
-225.1778562917
 20
132.5887021854
 10
-228.8822714201
 20
137.5203302659
 10
-232.2627292879
 20
142.5289084164
 10
-235.3144452349
 20
147.6073475545
 10
-238.0330998986
 20
152.7484597177
 10
-240.4148453272
 20
157.9449682366
 10
-242.4563104265
 20
163.1895180343
 10
-244.1546057309
 20
168.4746860372
 10
-245.5073274932
 20
173.792991681
 10
-246.5125610871
 20
179.1369074987
 10
-247.1688837169
 20
184.4988697751
 10
-247.4753664313
 20
189.8712892521
 10
-247.4315754382
 20
195.2465618708
 10
-247.037572719
 20
200.6170795339
 10
-246.2939159403
 20
205.9752408742
 10
-245.2016576652
 20
211.3134620134
 10
-243.7623438632
 20
216.6241872964
 10
-241.978011722
 20
221.8998999856
 10
-239.8511867642
 20
227.1331328995
 10
-237.3848792727
 20
232.3164789822
 10
-234.58258003
 20
237.4426017869
 10
-231.4482553773
 20
242.50424586
 10
-227.9863416006
 20
247.4942470103
 10
-224.2017386518
 20
252.4055424492
 10
-220.099803213
 20
257.2311807872
 10
-215.6863411154
 20
261.9643318729
 10
-210.9675991208
 20
266.5982964602
 10
-205.9502560809
 20
271.1265156903
 10
-200.6414134839
 20
275.5425803755
 10
-195.0485854025
 20
279.8402400698
 10
-189.1796878598
 20
284.0134119166
 10
-183.0430276237
 20
288.0561892578
 10
-176.6472904506
 20
291.9628499942
 10
-170.0015287914
 20
295.7278646843
 10
-163.1151489784
 20
299.3459043709
 10
-155.9978979123
 20
302.8118481234
 10
-148.6598492661
 20
306.1207902859
 10
-141.111389227
 20
309.2680474209
 10
-133.3632017961
 20
312.2491649378
 10
-125.4262536663
 20
315.0599233982
 10
-117.3117787001
 20
317.6963444878
 10
-109.0312620295
 20
320.1546966472
 10
-100.5964237998
 20
322.431500354
 10
-92.0192025813
 20
324.5235330471
 10
-83.3117384716
 20
326.4278336881
 10
-74.4863559123
 20
328.1417069525
 10
-65.5555462456
 20
329.6627270443
 10
-56.5319500339
 20
330.9887411296
 10
-47.4283391686
 20
332.1178723838
 10
-38.2575987928
 20
333.0485226478
 10
-29.032709064
 20
333.7793746904
 10
-19.7667267821
 20
334.309394072
 10
-10.4727669089
 20
334.6378306097
 10
-1.1639840052
 20
334.7642194381
 10
8.1464463877
 20
334.688381668
 10
17.4453463967
 20
334.4104246394
 10
26.7195544687
 20
333.9307417692
 10
35.9559439992
 20
333.2500119951
 10
45.1414419117
 20
332.3691988137
 10
54.2630471612
 20
331.2895489178
 10
63.3078491353
 20
330.0125904309
 10
72.2630459283
 20
328.5401307451
 10
81.1159624605
 20
326.8742539624
 10
89.8540684186
 20
325.017317945
 10
98.4649959907
 20
322.9719509783
 10
106.9365573718
 20
320.7410480504
 10
115.256762014
 20
318.3277667551
 10
123.413833598
 20
315.735522822
 10
131.3962267013
 20
312.9679852827
 10
139.192643139
 20
310.029071277
 10
146.7920479554
 20
306.922940509
 10
154.1836850428
 20
303.6539893596
 10
161.3570923655
 20
300.2268446635
 10
168.3021167676
 20
296.6463571608
 10
175.0089283437
 20
292.9175946312
  0
LWPOLYLINE
  5
148
330
140
100
AcDbEntity
  8
0
  6
Continuous
 62
     7
370
    25
100
AcDbPolyline
 90
       68
 70
   128
 43
0.0
 10
221.2789312266
 20
81.3236486139
 10
219.6143061438
 20
78.1600512059
 10
216.727570981
 20
73.2442045084
 10
213.510795477
 20
68.3971202294
 10
209.9688782504
 20
63.6261796787
 10
206.1072130569
 20
58.9386482118
 10
201.9316805756
 20
54.3416641659
 10
197.4486394536
 20
49.8422279894
 10
192.6649166232
 20
45.4471915814
 10
187.5877969051
 20
41.1632478575
 10
182.2250119151
 20
36.9969205572
 10
176.5847282903
 20
32.9545543098
 10
170.6755352522
 20
29.0423049723
 10
164.5064315271
 20
25.2661302551
 10
158.0868116422
 20
21.6317806495
 10
151.4264516199
 20
18.1447906703
 10
144.5354940898
 20
14.8104704281
 10
137.4244328435
 20
11.6338975427
 10
130.1040968543
 20
8.6199094106
 10
122.5856337865
 20
5.7730958386
 10
114.880493019
 20
3.097792054
 10
107.0004082104
 20
0.5980721034
 10
98.95737943
 20
-1.7222573522
 10
90.7636548838
 20
-3.8596628337
 10
82.4317122628
 20
-5.8108894251
 10
73.9742397413
 20
-7.5729657302
 10
65.4041166548
 20
-9.1432083975
 10
56.7343938871
 20
-10.5192262064
 10
47.9782739959
 20
-11.6989237087
 10
39.1490911076
 20
-12.6805044198
 10
30.2602906111
 20
-13.462473554
 10
21.3254086836
 20
-14.0436403015
 10
12.3580516762
 20
-14.4231196411
 10
3.3718753947
 20
-14.6003336884
 10
-5.6194356969
 20
-14.5750125756
 10
-14.6021893148
 20
-14.3471948626
 10
-23.5627062071
 20
-13.9172274782
 10
-32.4873409845
 20
-13.2857651918
 10
-41.3625029005
 20
-12.4537696163
 10
-50.1746765473
 20
-11.4225077437
 10
-58.9104424381
 20
-10.1935500158
 10
-67.5564974424
 20
-8.7687679324
 10
-76.0996750447
 20
-7.1503312017
 10
-84.5269653946
 20
-5.3407044358
 10
-92.8255351191
 20
-3.3426433978
 10
-100.9827468652
 20
-1.159190805
 10
-108.9861785452
 20
1.2063283043
 10
-116.8236422526
 20
3.7503116349
 10
-124.4832028231
 20
6.4688851197
 10
-131.9531960094
 20
9.3579088197
 10
-139.2222462439
 20
12.4129832283
 10
-146.2792839624
 20
15.6294559713
 10
-153.1135624604
 20
19.0024288912
 10
-159.714674259
 20
22.5267655065
 10
-166.0725669538
 20
26.197098834
 10
-172.1775585231
 20
30.0078395614
 10
-178.0203520717
 20
33.9531845593
 10
-183.5920499888
 20
38.0271257179
 10
-188.8841674974
 20
42.2234590968
 10
-193.8886455757
 20
46.5357943726
 10
-198.597863229
 20
50.9575645699
 10
-203.0046490955
 20
55.4820360621
 10
-207.1022923674
 20
60.1023188255
 10
-210.8845530098
 20
64.8113769314
 10
-214.3456712636
 20
69.6020392612
 10
-217.4803764168
 20
74.4670104264
 10
-220.2838948303
 20
79.3988818784
 10
-221.282209919
 20
81.330170727
  0
LWPOLYLINE
  5
149
330
140
100
AcDbEntity
  8
0
  6
Continuous
 62
     7
370
    25
100
AcDbPolyline
 90
      162
 70
   128
 43
0.0
 10
164.4023266259
 20
286.7945337925
 10
170.6914838128
 20
283.0193522486
 10
176.7207060257
 20
279.1053913028
 10
182.4808117537
 20
275.0586112721
 10
187.9630293058
 20
270.8851747349
 10
193.159010169
 20
266.5914371468
 10
198.0608417216
 20
262.1839371617
 10
202.6610592826
 20
257.6693866752
 10
206.9526574796
 20
253.054660603
 10
210.9291009163
 20
248.3467864116
 10
214.5843341254
 20
243.5529334168
 10
217.9127907896
 20
238.6804018661
 10
220.9094022184
 20
233.7366118213
 10
223.5696050669
 20
228.7290918591
 10
225.889348285
 20
223.6654676063
 10
227.8650992865
 20
218.5534501276
 10
229.4938493283
 20
213.4008241823
 10
230.773118093
 20
208.2154363697
 10
231.7009574651
 20
203.0051831802
 10
232.2759544985
 20
197.7779989699
 10
232.4972335673
 20
192.5418438782
 10
232.3644577001
 20
187.3046917056
 10
231.8778290927
 20
182.0745177709
 10
231.0380888002
 20
176.8592867663
 10
229.8465156084
 20
171.6669406284
 10
228.3049240869
 20
166.5053864438
 10
226.4156618252
 20
161.3824844082
 10
224.1816058581
 20
156.3060358564
 10
221.6061582843
 20
151.2837713821
 10
218.6932410857
 20
146.3233390657
 10
215.4472901546
 20
141.4322928274
 10
211.873248539
 20
136.6180809237
 10
207.9765589146
 20
131.8880346055
 10
203.7631552971
 20
127.2493569528
 10
199.239454005
 20
122.7091119067
 10
194.4123438892
 20
118.2742135115
 10
189.2891758423
 20
113.9514153858
 10
183.8777516041
 20
109.7473004382
 10
178.1863118811
 20
105.6682708422
 10
172.2235237971
 20
101.7205382871
 10
165.998467695
 20
97.9101145184
 10
159.5206233081
 20
94.2428021829
 10
152.7998553252
 20
90.7241859924
 10
145.8463983671
 20
87.3596242189
 10
138.6708414018
 20
84.1542405351
 10
131.2841116191
 20
81.1129162116
 10
123.6974577898
 20
78.2402826836
 10
115.9224331364
 20
75.5407144982
 10
107.9708777389
 20
73.0183226523
 10
99.8549005045
 20
70.6769483328
 10
91.5868607278
 20
68.5201570665
 10
83.1793492697
 20
66.5512332907
 10
74.6451693831
 20
64.7731753516
 10
65.9973172164
 20
63.188690938
 10
57.2489620219
 20
61.8001929585
 10
48.4134261016
 20
60.6097958664
 10
39.5041645192
 20
59.6193124401
 10
30.5347446104
 20
58.8302510224
 10
21.5188253224
 20
58.2438132238
 10
12.470136413
 20
57.8608920924
 10
3.4024575427
 20
57.6820707537
 10
-5.6704027091
 20
57.7076215233
 10
-14.7346278729
 20
57.9375054915
 10
-23.776414629
 20
58.3713725829
 10
-32.7819938276
 20
59.0085620896
 10
-41.737651457
 20
59.848103677
 10
-50.6297495279
 20
60.8887188617
 10
-59.4447468417
 20
62.1288229586
 10
-68.1692196116
 20
63.5665274936
 10
-76.7898819046
 20
65.1996430798
 10
-85.293605874
 20
67.0256827516
 10
-93.667441751
 20
69.0418657519
 10
-101.8986375648
 20
71.2451217664
 10
-109.9746585619
 20
73.6320955996
 10
-117.8832062945
 20
76.1991522842
 10
-125.6122373489
 20
78.9423826163
 10
-133.1499816857
 20
81.8576091085
 10
-140.4849605637
 20
84.9403923519
 10
-147.6060040199
 20
88.186037776
 10
-154.5022678798
 20
91.5896027982
 10
-161.163250271
 20
95.1459043504
 10
-167.5788076162
 20
98.8495267719
 10
-173.7391700798
 20
102.6948300568
 10
-179.6349564458
 20
106.6759584424
 10
-185.2571884042
 20
110.7868493269
 10
-190.5973042231
 20
115.0212425016
 10
-195.6471717869
 20
119.3726896841
 10
-200.3991009803
 20
123.8345643381
 10
-204.8458553991
 20
128.4000717645
 10
-208.9806633697
 20
133.0622594487
 10
-212.7972282616
 20
137.8140276478
 10
-216.289738076
 20
142.6481402026
 10
-219.4528742967
 20
147.5572355571
 10
-222.2818199888
 20
152.5338379689
 10
-224.7722671348
 20
157.5703688934
 10
-226.9204231944
 20
162.6591585247
 10
-228.7230168804
 20
167.7924574757
 10
-230.1773031398
 20
172.9624485788
 10
-231.2810673345
 20
178.1612587904
 10
-232.0326286138
 20
183.38097118
 10
-232.4308424739
 20
188.6136369866
 10
-232.4751025006
 20
193.8512877235
 10
-232.1653412933
 20
199.0859473124
 10
-231.5020305672
 20
204.3096442303
 10
-230.4861804351
 20
209.5144236484
 10
-229.1193378692
 20
214.6923595463
 10
-227.4035843453
 20
219.8355667816
 10
-225.341532673
 20
224.9362130981
 10
-222.9363230168
 20
229.9865310528
 10
-220.1916181142
 20
234.9788298446
 10
-217.1115976982
 20
239.9055070258
 10
-213.7009521318
 20
244.7590600798
 10
-209.9648752655
 20
249.5320978459
 10
-205.9090565281
 20
254.2173517749
 10
-201.5396722627
 20
258.8076869979
 10
-196.8633763206
 20
263.2961131914
 10
-191.8872899292
 20
267.6757952229
 10
-186.6189908474
 20
271.940063559
 10
-181.0665018256
 20
276.0824244224
 10
-175.2382783886
 20
280.0965696808
 10
-169.1431959595
 20
283.9763864532
 10
-162.7905363432
 20
287.7159664185
 10
-156.1899735927
 20
291.3096148133
 10
-149.3515592761
 20
294.7518591039
 10
-142.2857071705
 20
298.0374573201
 10
-135.0031774031
 20
301.1614060377
 10
-127.5150600655
 20
304.1189479981
 10
-119.8327583251
 20
306.9055793528
 10
-111.9679710604
 20
309.5170565219
 10
-103.9326750451
 20
311.9494026564
 10
-95.7391067094
 20
314.1989136944
 10
-87.3997435066
 20
316.2621640016
 10
-78.9272849111
 20
318.1360115881
 10
-70.3346330798
 20
319.8176028932
 10
-61.6348732042
 20
321.3043771306
 10
-52.8412535834
 20
322.5940701885
 10
-43.9671654497
 20
323.6847180771
 10
-35.0261225754
 20
324.5746599196
 10
-26.031740694
 20
325.2625404812
 10
-16.9977167655
 20
325.7473122335
 10
-7.9378081182
 20
326.0282369489
 10
1.1341885015
 20
326.1048868254
 10
10.2044579392
 20
325.977145138
 10
19.2591876707
 20
325.6452064162
 10
28.2845888362
 20
325.1095761479
 10
37.2669172386
 20
324.3710700096
 10
46.1924942731
 20
323.4308126244
 10
55.0477277585
 20
322.2902358491
 10
63.8191326346
 20
320.9510765941
 10
72.4933514988
 20
319.415374178
 10
81.0571749465
 20
317.6854672222
 10
89.4975616873
 20
315.7639900898
 10
97.8016584043
 20
313.6538688734
 10
105.9568193282
 20
311.3583169396
 10
113.9506254939
 20
308.8808300352
 10
121.7709036533
 20
306.2251809643
 10
129.4057448127
 20
303.3954138423
 10
136.8435223684
 20
300.3958379378
 10
144.0729098121
 20
297.23102111
 10
151.0828979791
 20
293.9057828529
 10
157.8628118138
 20
290.4251869559
 10
164.4023266259
 20
286.7945337925
  0
LWPOLYLINE
  5
14A
330
140
100
AcDbEntity
  8
0
  6
Continuous
 62
     7
370
    25
100
AcDbPolyline
 90
       68
 70
   128
 43
0.0
 10
216.9242834374
 20
73.5601056954
 10
216.1403452358
 20
71.9570294713
 10
213.5017797074
 20
67.0557616053
 10
210.5298564942
 20
62.2184970261
 10
207.2292159015
 20
57.4527885482
 10
203.6050114878
 20
52.7660772597
 10
199.6629020179
 20
48.1656809039
 10
195.409042628
 20
43.6587824536
 10
190.8500752145
 20
39.2524188958
 10
185.9931180638
 20
34.9534702441
 10
180.845754738
 20
30.7686487964
 10
175.4160222338
 20
26.7044886547
 10
169.712398434
 20
22.7673355226
 10
163.7437888702
 20
18.9633367974
 10
157.5195128176
 20
15.2984319715
 10
151.0492887444
 20
11.7783433588
 10
144.3432191374
 20
8.4085671597
 10
137.4117747284
 20
5.1943648798
 10
130.2657781449
 20
2.1407551143
 10
122.9163870123
 20
-0.7474942874
 10
115.3750765324
 20
-3.465873667
 10
107.6536215663
 20
-6.0101385976
 10
99.7640782495
 20
-8.3763165116
 10
91.7187651671
 20
-10.560712903
 10
83.5302441207
 20
-12.5599170963
 10
75.2113005136
 20
-14.3708075713
 10
66.7749233889
 20
-15.9905568376
 10
58.2342851481
 20
-17.4166358489
 10
49.6027209838
 20
-18.6468179522
 10
40.8937080588
 20
-19.6791823641
 10
32.1208444631
 20
-20.5121171702
 10
23.2978279818
 20
-21.1443218417
 10
14.4384347077
 20
-21.5748092659
 10
5.5564975317
 20
-21.8029072879
 10
-3.3341154556
 20
-21.8282597597
 10
-12.2195226174
 20
-21.6508270964
 10
-21.0858504451
 20
-21.2708863381
 10
-29.9192552204
 20
-20.6890307171
 10
-38.7059446303
 20
-19.906168732
 10
-47.4321993024
 20
-18.9235227288
 10
-56.0843942258
 20
-17.7426269925
 10
-64.6490200252
 20
-16.3653253517
 10
-73.1127040542
 20
-14.7937682994
 10
-81.4622312747
 20
-13.0304096355
 10
-89.6845648913
 20
-11.078002635
 10
-97.766866706
 20
-8.9395957498
 10
-105.696517164
 20
-6.6185278485
 10
-113.4611350573
 20
-4.1184230029
 10
-121.0485968569
 20
-1.44318483
 10
-128.4470556419
 20
1.4030096032
 10
-135.644959597
 20
4.4157163022
 10
-142.6310700498
 20
7.590231283
 10
-149.394479018
 20
10.9215979173
 10
-155.9246262414
 20
14.4046146715
 10
-162.2113156703
 20
18.0338432285
 10
-168.2447313854
 20
21.8036169787
 10
-174.0154529243
 20
25.7080498679
 10
-179.5144699904
 20
29.7410455875
 10
-184.7331965212
 20
33.8963070936
 10
-189.6634840948
 20
38.1673464385
 10
-194.2976346524
 20
42.5474949013
 10
-198.628412518
 20
47.0299134002
 10
-202.649055696
 20
51.6076031707
 10
-206.3532864295
 20
56.2734166937
 10
-209.7353210018
 20
61.0200688552
 10
-212.7898787675
 20
65.8401483214
 10
-215.5121903972
 20
70.7261291103
 10
-216.9242834374
 20
73.5601056954
  0
VIEWPORT
  5
175
330
140
100
AcDbEntity
  8
0
100
AcDbViewport
 10
0.0
 20
0.0
 30
0.0
 40
205.6
 41
156.0
 68
     1
 69
     1
 12
0.00828698
 22
139.9922847906
 13
0.0
 23
0.0
 14
10.0
 24
10.0
 15
10.0
 25
10.0
 16
0.0
 26
0.0
 36
1.0
 17
0.0
 27
0.0
 37
0.0
 42
50.0
 43
0.0
 44
0.0
 45
397.3347466809
 50
0.0
 51
0.0
 72
   100
 90
   557152
  1

281
     0
 71
     1
 74
     0
110
0.0
120
0.0
130
0.0
111
1.0
121
0.0
131
0.0
112
0.0
122
1.0
132
0.0
 79
     0
146
0.0
170
     0
 61
     5
348
2F
292
     1
282
     1
141
0.0
142
0.0
 63
   256
361
176
  0
ENDBLK
  5
143
330
140
100
AcDbEntity
  8
0
100
AcDbBlockEnd
  0
BLOCK
  5
14D
330
14B
100
AcDbEntity
  8
0
100
AcDbBlockBegin
  2
*Paper_Space7
 70
     0
 10
0.0
 20
0.0
 30
0.0
  3
*Paper_Space7
  1

  0
SPLINE
  5
14F
330
14B
100
AcDbEntity
  8
0
  6
Continuous
 62
     7
370
    25
100
AcDbSpline
210
0.0
220
0.0
230
1.0
 70
     8
 71
     3
 72
    20
 73
    16
 74
     0
 42
0.000000001
 43
0.00000001
 40
0.0
 40
0.0
 40
0.0
 40
0.0
 40
0.0354383930682389
 40
0.1184324581725769
 40
0.2012522874128865
 40
0.2839000538043203
 40
0.3663779415259497
 40
0.4486881118990335
 40
0.5308326774919037
 40
0.6128136828238215
 40
0.6946330904396761
 40
0.7762927713779111
 40
0.8577944992588667
 40
0.9391399473930369
 40
1.0
 40
1.0
 40
1.0
 40
1.0
 10
223.8232108140406
 20
96.21176694960398
 30
0.0
 10
224.3812438827328
 20
97.3688031331729
 30
0.0
 10
226.2461486468833
 20
101.2355314904892
 30
0.0
 10
229.0979381684043
 20
107.9532984708767
 30
0.0
 10
232.380025600913
 20
116.3406146762185
 30
0.0
 10
235.3292262049686
 20
124.8325249975743
 30
0.0
 10
237.9661296750748
 20
133.4065615548096
 30
0.0
 10
240.2832001970656
 20
142.0538369746259
 30
0.0
 10
242.2808657071432
 20
150.7618624819661
 30
0.0
 10
243.9582627611607
 20
159.5191512242697
 30
0.0
 10
245.3142481921302
 20
168.3140080817649
 30
0.0
 10
246.3525372992771
 20
177.1348521917636
 30
0.0
 10
247.0601790306822
 20
185.9702066193983
 30
0.0
 10
247.4526065355152
 20
194.072179289065
 30
0.0
 10
247.4649751663544
 20
199.2269969067539
 30
0.0
 10
247.4702686009939
 20
201.4331174137444
 30
0.0
  0
SPLINE
  5
150
330
14B
100
AcDbEntity
  8
0
  6
Continuous
 62
     7
370
    25
100
AcDbSpline
210
0.0
220
0.0
230
1.0
 70
     8
 71
     3
 72
    21
 73
    17
 74
     0
 42
0.000000001
 43
0.00000001
 40
0.0
 40
0.0
 40
0.0
 40
0.0
 40
0.0307352384087054
 40
0.1117221548741683
 40
0.1925573747517079
 40
0.2732421671270238
 40
0.3537777297519245
 40
0.4341651885916845
 40
0.5144056091726363
 40
0.5945000099149984
 40
0.6744493776678451
 40
0.754254685726485
 40
0.8339169146859498
 40
0.9134370765639822
 40
0.992816242716004
 40
1.0
 40
1.0
 40
1.0
 40
1.0
 10
-247.4627456385582
 20
201.4335668082699
 30
0.0
 10
-247.4723893062515
 20
200.3190949549104
 30
0.0
 10
-247.5074439012819
 20
196.2680056043667
 30
0.0
 10
-247.239873703486
 20
189.2877709789581
 30
0.0
 10
-246.6647673199345
 20
180.5125763574618
 30
0.0
 10
-245.7581023723675
 20
171.7803200074945
 30
0.0
 10
-244.5485614037924
 20
163.1018632337564
 30
0.0
 10
-243.0324723515343
 20
154.4878356208038
 30
0.0
 10
-241.2153181773977
 20
145.9486823604404
 30
0.0
 10
-239.1003497377161
 20
137.4947741560073
 30
0.0
 10
-236.6926783017846
 20
129.1358480386764
 30
0.0
 10
-233.9942205322821
 20
120.883055586773
 30
0.0
 10
-231.0197351978316
 20
112.7412762652204
 30
0.0
 10
-227.7378132516089
 20
104.7376735736457
 30
0.0
 10
-225.3334205704343
 20
99.21247382307115
 30
0.0
 10
-223.9464518018374
 20
96.39674345871867
 30
0.0
 10
-223.8313488617033
 20
96.16306923987558
 30
0.0
  0
SPLINE
  5
151
330
14B
100
AcDbEntity
  8
0
  6
Continuous
 62
     7
370
    25
100
AcDbSpline
210
0.0
220
0.0
230
1.0
 70
     8
 71
     3
 72
    67
 73
    63
 74
     0
 42
0.000000001
 43
0.00000001
 40
0.0
 40
0.0
 40
0.0
 40
0.0
 40
0.0159567542659957
 40
0.0322838155316279
 40
0.048583242857575
 40
0.0648555165017638
 40
0.081101205412598
 40
0.0973209861200264
 40
0.1135156645724798
 40
0.1296862013124543
 40
0.1458337403986635
 40
0.1619596424795585
 40
0.1780655223905074
 40
0.1941532915703522
 40
0.2102252054530934
 40
0.2262839157615857
 40
0.2423325272812882
 40
0.2583746581866065
 40
0.274414502291134
 40
0.2904568906588604
 40
0.3065073488217632
 40
0.3225721444029506
 40
0.3386583182937166
 40
0.3547736908024825
 40
0.3709268326035965
 40
0.3871269891984044
 40
0.4033839473953181
 40
0.4197078335244638
 40
0.4361088362283047
 40
0.4525968521363811
 40
0.4691810608031827
 40
0.4858694459617128
 40
0.5026682929370418
 40
0.5195817055777014
 40
0.5366109387125015
 40
0.5537544974573108
 40
0.5710080813227761
 40
0.588364588528059
 40
0.6058144689675818
 40
0.6233462568608075
 40
0.6409472148686717
 40
0.6586040083077056
 40
0.6763033331749209
 40
0.6940324411570624
 40
0.7099433027293445
 40
0.7276472874101583
 40
0.7435479602295848
 40
0.7612421067723293
 40
0.7771359160059932
 40
0.7947979040397454
 40
0.812483462501819
 40
0.8301415825322045
 40
0.8477681012284998
 40
0.8653607878615015
 40
0.8829180264333347
 40
0.9004386786306651
 40
0.9179219916144638
 40
0.9353675203986344
 40
0.9527750628804286
 40
0.9701446060459267
 40
0.9874762818303977
 40
1.0
 40
1.0
 40
1.0
 40
1.0
 10
-216.2120446725712
 20
81.35974218088087
 30
0.0
 10
-214.8263221149127
 20
78.93388569086358
 30
0.0
 10
-212.0227186574855
 20
74.02587607158823
 30
0.0
 10
-207.4801870153512
 20
66.8322041749502
 30
0.0
 10
-202.6786420149751
 20
59.74356284712001
 30
0.0
 10
-197.637061043643
 20
52.84053382815139
 30
0.0
 10
-192.3692943895224
 20
46.12651546171245
 30
0.0
 10
-186.8808050242426
 20
39.60936900992988
 30
0.0
 10
-181.17946375106
 20
33.29535402485205
 30
0.0
 10
-175.2726298365147
 20
27.19074379458497
 30
0.0
 10
-169.1678944421299
 20
21.30138997904801
 30
0.0
 10
-162.8728417248759
 20
15.6328378936826
 30
0.0
 10
-156.3950691296551
 20
10.19029754822218
 30
0.0
 10
-149.7421348680988
 20
4.978656826514189
 30
0.0
 10
-142.9215213744246
 20
0.002487711775731
 30
0.0
 10
-135.9405912265877
 20
-4.733940451598265
 30
0.0
 10
-128.8065423491435
 20
-9.226643408840578
 30
0.0
 10
-121.5263616261333
 20
-13.47189831443041
 30
0.0
 10
-114.1067786836227
 20
-17.46621322396641
 30
0.0
 10
-106.5542216508821
 20
-21.20628874179509
 30
0.0
 10
-98.87477764283939
 20
-24.68897099569839
 30
0.0
 10
-91.07416158948585
 20
-27.91119533886954
 30
0.0
 10
-83.15769807403277
 20
-30.86992064950572
 30
0.0
 10
-75.13032187164313
 20
-33.56205483775165
 30
0.0
 10
-66.99660376552616
 20
-35.98437324536108
 30
0.0
 10
-58.76080872527912
 20
-38.13343306091196
 30
0.0
 10
-50.42699337419622
 20
-40.00548864701728
 30
0.0
 10
-41.99914852099658
 20
-41.59641467461292
 30
0.0
 10
-33.4813900717271
 20
-42.9016459629161
 30
0.0
 10
-24.87819762738334
 20
-43.91614458828294
 30
0.0
 10
-16.19469441750505
 20
-44.63440568709179
 30
0.0
 10
-7.436955067893776
 20
-45.05051287919812
 30
0.0
 10
1.387680390370599
 20
-45.15825179638466
 30
0.0
 10
10.27027046475607
 20
-44.95128640541485
 30
0.0
 10
19.20006037403111
 20
-44.42340004100134
 30
0.0
 10
28.16437126966404
 20
-43.56877652115784
 30
0.0
 10
37.14863651746619
 20
-42.38229280402353
 30
0.0
 10
46.1365130739983
 20
-40.85980838424147
 30
0.0
 10
55.11012395471543
 20
-38.99842259883168
 30
0.0
 10
64.05043438087581
 20
-36.79666567081036
 30
0.0
 10
72.93769207368753
 20
-34.25460977709316
 30
0.0
 10
81.75189620444445
 20
-31.37388866029378
 30
0.0
 10
90.47319293517323
 20
-28.15766145845272
 30
0.0
 10
98.78508130862437
 20
-24.73292590170173
 30
0.0
 10
106.9698368892087
 20
-21.01393638331239
 30
0.0
 10
114.7307708971399
 20
-17.14804187966929
 30
0.0
 10
122.6227546928665
 20
-12.85904452466141
 30
0.0
 10
130.0843399806573
 20
-8.452175718755214
 30
0.0
 10
137.6432405152503
 20
-3.615986123778753
 30
0.0
 10
145.0240804937507
 20
1.486135977691927
 30
0.0
 10
152.4552644853158
 20
7.047113009186284
 30
0.0
 10
159.6673258170359
 20
12.8796275927454
 30
0.0
 10
166.6430682594934
 20
18.96810804333403
 30
0.0
 10
173.372797963484
 20
25.30170878492398
 30
0.0
 10
179.8477760574974
 20
31.86952337904741
 30
0.0
 10
186.0598882304095
 20
38.66054611554171
 30
0.0
 10
192.0019945041245
 20
45.66345988575774
 30
0.0
 10
197.6663652944707
 20
52.86751059196364
 30
0.0
 10
203.0502981858256
 20
60.25933768185081
 30
0.0
 10
208.1350545778986
 20
67.83483201424632
 30
0.0
 10
212.5210324941361
 20
74.84678660795055
 30
0.0
 10
215.0801275090921
 20
79.4046055153083
 30
0.0
 10
216.1536147585266
 20
81.31651595774429
 30
0.0
  0
LWPOLYLINE
  5
152
330
14B
100
AcDbEntity
  8
0
  6
Continuous
 62
     7
370
    25
100
AcDbPolyline
 90
      168
 70
   128
 43
0.0
 10
115.5071087602
 20
314.1727948491
 10
123.6590409439
 20
311.8552738156
 10
131.6359475832
 20
309.3814642635
 10
139.4265382589
 20
306.7548675938
 10
147.0197862608
 20
303.9792014601
 10
154.4049441957
 20
301.0583945076
 10
161.5715591983
 20
297.996580812
 10
168.5094877265
 20
294.7980940279
 10
175.2089099182
 20
291.467461256
 10
181.6603434906
 20
288.0093966344
 10
187.8546571607
 20
284.4287946668
 10
193.7830835704
 20
280.730723295
 10
199.4372316949
 20
276.9204167254
 10
204.8090987198
 20
273.003268021
 10
209.8910813682
 20
268.9848214677
 10
214.6759866617
 20
264.8707647272
 10
219.1570421021
 20
260.6669207867
 10
223.3279052565
 20
256.3792397174
 10
227.1826727345
 20
252.0137902522
 10
230.7158885437
 20
247.5767511968
 10
233.9225518123
 20
243.0744026837
 10
236.7981238671
 20
238.5131172838
 10
239.3385346572
 20
233.8993509865
 10
241.5401885154
 20
229.2396340621
 10
243.3999692468
 20
224.5405618189
 10
244.9152445398
 20
219.808785268
 10
246.0838696915
 20
215.0510017101
 10
246.9041906439
 20
210.2739452558
 10
247.3750463243
 20
205.4843772943
 10
247.4957702891
 20
200.6890769234
 10
247.2661916671
 20
195.8948313547
 10
246.6866354011
 20
191.1084263065
 10
245.7579217883
 20
186.3366364001
 10
244.4813653188
 20
181.5862155704
 10
242.8587728157
 20
176.8638875068
 10
240.8924408772
 20
172.1763361367
 10
238.5851526262
 20
167.530196165
 10
235.9401737712
 20
162.932043683
 10
232.9612479842
 20
158.3883868616
 10
229.6525916013
 20
153.9056567388
 10
226.0188876557
 20
149.4901981178
 10
222.065279249
 20
145.1482605867
 10
217.7973622718
 20
140.8859896723
 10
213.2211774834
 20
136.7094181427
 10
208.3432019615
 20
132.6244574676
 10
203.1703399351
 20
128.6368894523
 10
197.7099130118
 20
124.7523580532
 10
191.9696498154
 20
120.9763613902
 10
185.9576750466
 20
117.3142439644
 10
179.6824979833
 20
113.7711890933
 10
173.153000437
 20
110.3522115751
 10
166.3784241813
 20
107.0621505901
 10
159.3683578712
 20
103.9056628516
 10
152.1327234719
 20
100.8872160151
 10
144.6817622146
 20
98.0110823545
 10
137.0260201018
 20
95.2813327155
 10
129.1763329803
 20
92.7018307534
 10
121.1438112046
 20
90.2762274647
 10
112.939823911
 20
88.0079560197
 10
104.575982926
 20
85.900226903
 10
96.0641263313
 20
83.9560233694
 10
87.416301708
 20
82.1780972217
 10
78.644749085
 20
80.5689649154
 10
69.761883614
 20
79.1309039974
 10
60.7802779978
 20
77.8659498822
 10
51.7126446949
 20
76.7758929707
 10
42.5718179261
 20
75.8622761168
 10
33.3707355095
 20
75.1263924429
 10
24.1224205486
 20
74.56928351
 10
14.8399629988
 20
74.1917378435
 10
5.5365011408
 20
73.9942898172
 10
-3.7747970154
 20
73.9772188965
 10
-13.0807523685
 20
74.1405492435
 10
-22.3681933794
 20
74.4840496824
 10
-31.6239747139
 20
75.0072340267
 10
-40.8349958485
 20
75.7093617674
 10
-49.9882196128
 20
76.5894391212
 10
-59.0706906422
 20
77.6462204371
 10
-68.0695537145
 20
78.8782099593
 10
-76.9720719453
 20
80.2836639444
 10
-85.7656448156
 20
81.8605931294
 10
-94.4378260064
 20
83.6067655475
 10
-102.9763410149
 20
85.5197096867
 10
-111.3691045279
 20
87.5967179887
 10
-119.6042375272
 20
89.8348506804
 10
-127.670084103
 20
92.2309399352
 10
-135.5552279513
 20
94.7815943568
 10
-143.2485085329
 20
97.483203779
 10
-150.7390368692
 20
100.3319443759
 10
-158.0162109551
 20
103.3237840736
 10
-165.0697307645
 20
106.4544882577
 10
-171.8896128288
 20
109.7196257664
 10
-178.4662043675
 20
113.1145751627
 10
-184.7901969508
 20
116.6345312755
 10
-190.8526396743
 20
120.2745120004
 10
-196.6449518283
 20
124.0293653517
 10
-202.1589350427
 20
127.8937767544
 10
-207.3867848908
 20
131.8622765664
 10
-212.3211019357
 20
135.9292478199
 10
-216.9549022035
 20
140.0889341718
 10
-221.281627068
 20
144.3354480514
 10
-225.2951525341
 20
148.662778993
 10
-228.9897979052
 20
153.0648021436
 10
-232.3603338239
 20
157.5352869318
 10
-235.4019896737
 20
162.0679058862
 10
-238.1104603307
 20
166.6562435914
 10
-240.4819122577
 20
171.2938057687
 10
-242.5129889295
 20
175.9740284673
 10
-244.2008155843
 20
180.6902873553
 10
-245.5430032923
 20
185.4359070957
 10
-246.5376523367
 20
190.2041707945
 10
-247.1833549031
 20
194.9883295075
 10
-247.4791970718
 20
199.7816117931
 10
-247.4247601112
 20
204.5772332962
 10
-247.0201210707
 20
209.3684063508
 10
-246.2658526716
 20
214.1483495874
 10
-245.1630224966
 20
218.9102975306
 10
-243.7131914785
 20
223.6475101757
 10
-241.9184116908
 20
228.353282528
 10
-239.7812234437
 20
233.0209540929
 10
-237.3046516882
 20
237.6439183033
 10
-234.4922017346
 20
242.2156318702
 10
-231.3478542913
 20
246.7296240444
 10
-227.8760598307
 20
251.1795057746
 10
-224.0817322893
 20
255.558978751
 10
-219.9702421137
 20
259.8618443192
 10
-215.5474086584
 20
264.0820122543
 10
-210.8194919496
 20
268.2135093803
 10
-205.7931838246
 20
272.2504880252
 10
-200.4755984606
 20
276.1872342971
 10
-194.874262305
 20
280.0181761718
 10
-188.9971034227
 20
283.7378913796
 10
-182.852440275
 20
287.3411150794
 10
-176.4489699455
 20
290.8227473112
 10
-169.7957558302
 20
294.1778602137
 10
-162.9022148098
 20
297.4017049999
 10
-155.7781039208
 20
300.489718678
 10
-148.4335065455
 20
303.43753051
 10
-140.8788181401
 20
306.2409681977
 10
-133.1247315213
 20
308.8960637887
 10
-125.1822217316
 20
311.3990592921
 10
-117.0625305054
 20
313.7464119975
 10
-108.7771503578
 20
315.9347994899
 10
-100.3378083177
 20
317.9611243513
 10
-91.7564493301
 20
319.8225185455
 10
-83.0452193492
 20
321.5163474772
 10
-74.2164481466
 20
323.040213721
 10
-65.282631861
 20
324.3919604145
 10
-56.2564153101
 20
325.5696743116
 10
-47.1505740942
 20
326.5716884898
 10
-37.9779965132
 20
327.3965847102
 10
-28.751665325
 20
328.0431954244
 10
-19.4846393697
 20
328.5106054272
 10
-10.1900350862
 20
328.7981531521
 10
-0.8810079475
 20
328.9054316074
 10
8.4292661594
 20
328.8322889524
 10
17.7276095826
 20
328.5788287124
 10
27.0008615569
 20
328.145409632
 10
36.2358968309
 20
327.5326451675
 10
45.4196442451
 20
326.7414026184
 10
54.5391052318
 20
325.7728019001
 10
63.5813722139
 20
324.6282139586
 10
72.5336468736
 20
323.3092588301
 10
81.3832582671
 20
321.8178033481
 10
90.1176807592
 20
320.1559585012
 10
98.7245517514
 20
318.3260764447
 10
107.1916891805
 20
316.3307471722
 10
115.5071087602
 20
314.1727948491
  0
LWPOLYLINE
  5
153
330
14B
100
AcDbEntity
  8
0
  6
Continuous
 62
     7
370
    25
100
AcDbPolyline
 90
       71
 70
   128
 43
0.0
 10
223.8610835716
 20
96.196823576
 10
223.7161885196
 20
95.892291339
 10
221.394668978
 20
91.4183874931
 10
218.7360018749
 20
86.9945405617
 10
215.7442359218
 20
82.6274873341
 10
212.4239270846
 20
78.323878112
 10
208.7801316461
 20
74.0902665823
 10
204.8183985057
 20
69.9330998371
 10
200.5447607294
 20
65.8587085555
 10
195.9657263626
 20
61.8732973635
 10
191.0882685194
 20
57.9829353849
 10
185.9198147635
 20
54.1935469992
 10
180.4682357975
 20
50.5109028198
 10
174.7418334768
 20
46.9406109065
 10
168.7493281676
 20
43.4881082249
 10
162.4998454671
 20
40.158652367
 10
156.0029023064
 20
36.957313545
 10
149.2683924585
 20
33.8889668698
 10
142.3065714708
 20
30.9582849272
 10
135.1280410485
 20
28.1697306625
 10
127.7437329092
 20
25.5275505838
 10
120.1648921362
 20
23.0357682955
 10
112.4030600538
 20
20.6981783711
 10
104.470056652
 20
18.5183405743
 10
96.3779625863
 20
16.4995744387
 10
88.1391007814
 20
14.644954212
 10
79.7660176646
 20
12.9573041748
 10
71.2714640604
 20
11.43919434
 10
62.6683757728
 20
10.0929365382
 10
53.9698538861
 20
8.9205808981
 10
45.1891448143
 20
7.9239127239
 10
36.339620129
 20
7.1044497769
 10
27.4347561965
 20
6.463439964
 10
18.4881136558
 20
6.0018594372
 10
9.5133167675
 20
5.7204111078
 10
0.5240326671
 20
5.619523575
 10
-8.4660494487
 20
5.6993504739
 10
-17.4432391676
 20
5.9597702413
 10
-26.3938657105
 20
6.4003863009
 10
-35.3042987497
 20
7.0205276671
 10
-44.1609691654
 20
7.8192499668
 10
-52.9503897095
 20
8.7953368778
 10
-61.6591755442
 20
9.9473019808
 10
-70.2740646254
 20
11.2733910228
 10
-78.781937898
 20
12.771584589
 10
-87.1698392743
 20
14.4396011777
 10
-95.4249953642
 20
16.2749006749
 10
-103.5348349266
 20
18.274688222
 10
-111.4870080136
 20
20.4359184726
 10
-119.2694047774
 20
22.7553002295
 10
-126.8701739113
 20
25.2293014568
 10
-134.2777406978
 20
27.8541546588
 10
-141.4808246345
 20
30.6258626169
 10
-148.4684566127
 20
33.5402044773
 10
-155.2299956216
 20
36.5927421779
 10
-161.7551449526
 20
39.7788272074
 10
-168.0339678795
 20
43.0936076837
 10
-174.0569027907
 20
46.5320357431
 10
-179.8147777499
 20
50.0888752268
 10
-185.2988244633
 20
53.7587096548
 10
-190.5006916323
 20
57.5359504748
 10
-195.4124576714
 20
61.4148455721
 10
-200.0266427709
 20
65.3894880291
 10
-204.3362202881
 20
69.4538251212
 10
-208.3346274474
 20
73.6016675333
 10
-212.0157753342
 20
77.8266987855
 10
-215.3740581674
 20
82.1224848523
 10
-218.4043618363
 20
86.4824839601
 10
-221.1020716881
 20
90.9000565494
 10
-223.4630795559
 20
95.3684753858
 10
-223.8553903444
 20
96.1847918511
  0
LWPOLYLINE
  5
154
330
14B
100
AcDbEntity
  8
0
  6
Continuous
 62
     7
370
    25
100
AcDbPolyline
 90
      162
 70
   128
 43
0.0
 10
108.5066779262
 20
307.340159747
 10
116.4468289349
 20
305.0791042312
 10
124.2096506312
 20
302.6602147987
 10
131.7833215181
 20
300.0871750191
 10
139.1563081442
 20
297.3639032078
 10
146.317382667
 20
294.4945464583
 10
153.2556399512
 20
291.4834743277
 10
159.9605141755
 20
288.3352721822
 10
166.4217949224
 20
285.0547342143
 10
172.6296427272
 20
281.6468561423
 10
178.5746040616
 20
278.1168276023
 10
184.2476257301
 20
274.4700242455
 10
189.6400686565
 20
270.7119995519
 10
194.7437210397
 20
266.8484763732
 10
199.5508108591
 20
262.8853382179
 10
204.0540177096
 20
258.8286202916
 10
208.2464839502
 20
254.6845003067
 10
212.1218251462
 20
250.4592890742
 10
215.6741397924
 20
246.159420894
 10
218.8980182994
 20
241.791443756
 10
221.788551232
 20
237.3620093689
 10
224.3413367854
 20
232.8778630305
 10
226.5524874883
 20
228.3458333562
 10
228.4186361229
 20
223.7728218796
 10
229.9369408526
 20
219.1657925427
 10
231.1050895498
 20
214.5317610914
 10
231.9213033168
 20
209.8777843911
 10
232.3843391945
 20
205.2109496808
 10
232.4934920557
 20
200.5383637798
 10
232.2485956786
 20
195.8671422657
 10
231.650023
 20
191.2043986384
 10
230.6986855474
 20
186.5572334873
 10
229.3960320508
 20
181.9327236783
 10
227.7440462365
 20
177.3379115772
 10
225.7452438065
 20
172.7797943247
 10
223.4026686072
 20
168.2653131816
 10
220.7198879941
 20
163.8013429581
 10
217.7009873997
 20
159.3946815443
 10
214.3505641115
 20
155.0520395589
 10
210.6737202716
 20
150.7800301291
 10
206.6760551066
 20
146.5851588207
 10
202.3636564012
 20
142.4738137307
 10
197.7430912272
 20
138.4522557596
 10
192.8213959433
 20
134.5266090767
 10
187.6060654796
 20
130.7028517945
 10
182.1050419239
 20
126.9868068644
 10
176.3267024279
 20
123.3841332101
 10
170.2798464495
 20
119.9003171091
 10
163.9736823527
 20
116.5406638389
 10
157.4178133855
 20
113.310289597
 10
150.6222230547
 20
110.2141137106
 10
143.5972599235
 20
107.256851145
 10
136.3536218521
 20
104.443005323
 10
128.9023397062
 20
101.7768612679
 10
121.2547605596
 20
99.2624790773
 10
113.4225304139
 20
96.9036877403
 10
105.4175764634
 20
94.7040793072
 10
97.2520889329
 20
92.6670034188
 10
88.9385025127
 20
90.7955622057
 10
80.4894774237
 20
89.092605564
 10
71.9178801375
 20
87.5607268159
 10
63.2367637827
 20
86.20225876
 10
54.4593482677
 20
85.0192701192
 10
45.5990001485
 20
84.0135623898
 10
36.6692122736
 20
83.186667099
 10
27.6835832371
 20
82.5398434718
 10
18.6557966697
 20
82.074076514
 10
9.5996004013
 20
81.7900755118
 10
0.528785525
 20
81.6882729519
 10
-8.5428346045
 20
81.7688238627
 10
-17.601445406
 20
82.0316055786
 10
-26.6332521095
 20
82.4762179263
 10
-35.6245007633
 20
83.1019838346
 10
-44.5614991787
 20
83.9079503651
 10
-53.4306377813
 20
84.8928901639
 10
-62.2184103361
 20
86.0553033301
 10
-70.9114345149
 20
87.3934197001
 10
-79.4964722759
 20
88.9052015435
 10
-87.9604500227
 20
90.5883466658
 10
-96.2904785133
 20
92.4402919148
 10
-104.4738724883
 20
94.4582170832
 10
-112.4981699887
 20
96.6390492039
 10
-120.3511513328
 20
98.9794672293
 10
-128.0208577256
 20
101.4759070888
 10
-135.4956094693
 20
104.1245671163
 10
-142.76402375
 20
106.9214138394
 10
-149.8150319715
 20
109.862188122
 10
-156.6378966116
 20
112.9424116499
 10
-163.2222275728
 20
116.1573937508
 10
-169.5579980051
 20
119.5022385372
 10
-175.6355595753
 20
122.9718523623
 10
-181.4456571595
 20
126.5609515764
 10
-186.9794429376
 20
130.2640705737
 10
-192.2284898667
 20
134.0755701145
 10
-197.184804514
 20
137.989645914
 10
-201.8408392299
 20
142.0003374801
 10
-206.1895036416
 20
146.1015371914
 10
-210.2241754505
 20
150.286999597
 10
-213.9387105169
 20
154.5503509282
 10
-217.3274522167
 20
158.8850988041
 10
-220.3852400552
 20
163.2846421188
 10
-223.107417526
 20
167.7422810934
 10
-225.4898392017
 20
172.2512274791
 10
-227.5288770472
 20
176.8046148944
 10
-229.2214259441
 20
181.3955092812
 10
-230.5649084197
 20
186.0169194647
 10
-231.5572785717
 20
190.6618077995
 10
-232.1970251842
 20
195.3231008868
 10
-232.4831740286
 20
199.9937003462
 10
-232.4152893473
 20
204.6664936251
 10
-231.9934745175
 20
209.3343648301
 10
-231.2183718937
 20
213.9902055633
 10
-230.0911618293
 20
218.6269257474
 10
-228.6135608792
 20
223.2374644222
 10
-226.7878191861
 20
227.814800498
 10
-224.6167170532
 20
232.3519634468
 10
-222.1035607112
 20
236.842043918
 10
-219.2521772824
 20
241.2782042596
 10
-216.0669089536
 20
245.6536889311
 10
-212.552606363
 20
249.9618347913
 10
-208.7146212137
 20
254.1960812444
 10
-204.5587981241
 20
258.3499802318
 10
-200.0914657272
 20
262.4172060503
 10
-195.3194270333
 20
266.3915649859
 10
-190.2499490703
 20
270.2670047457
 10
-184.8907518168
 20
274.037623674
 10
-179.2499964462
 20
277.6976797402
 10
-173.3362728986
 20
281.2415992826
 10
-167.1585867995
 20
284.6639854965
 10
-160.7263457457
 20
287.959626652
 10
-154.0493449793
 20
291.1235040314
 10
-147.1377524712
 20
294.1507995712
 10
-140.0020934366
 20
297.0369031998
 10
-132.6532343072
 20
299.7774198573
 10
-125.1023661834
 20
302.368176189
 10
-117.3609877916
 20
304.8052269002
 10
-109.4408879743
 20
307.0848607648
 10
-101.354127737
 20
309.2036062765
 10
-93.1130218817
 20
311.1582369352
 10
-84.7301202532
 20
312.9457761609
 10
-76.2181886278
 20
314.5635018262
 10
-67.5901892735
 20
316.0089504019
 10
-58.85926121
 20
317.2799207081
 10
-50.0387002006
 20
318.3744772667
 10
-41.1419385048
 20
319.2909532486
 10
-32.182524423
 20
320.027953012
 10
-23.1741016651
 20
320.584354228
 10
-14.1303885729
 20
320.9593095892
 10
-5.0651572298
 20
321.1522481005
 10
4.0077875123
 20
321.1628759483
 10
13.0746290551
 20
320.9911769481
 10
22.1215600945
 20
320.6374125693
 10
31.1348036469
 20
320.1021215367
 10
40.100634029
 20
319.3861190101
 10
49.0053977602
 20
318.4904953433
 10
57.8355343541
 20
317.4166144234
 10
66.5775969692
 20
316.166111594
 10
75.2182728862
 20
314.7408911645
 10
83.744403781
 20
313.1431235106
 10
92.1430057625
 20
311.3752417689
 10
100.4012891454
 20
309.4399381316
 10
108.5066779262
 20
307.340159747
  0
LWPOLYLINE
  5
155
330
14B
100
AcDbEntity
  8
0
  6
Continuous
 62
     7
370
    25
100
AcDbPolyline
 90
       71
 70
   128
 43
0.0
 10
219.8547097841
 20
88.7823183569
 10
219.635123499
 20
88.268224579
 10
217.5341267711
 20
83.8188577571
 10
215.0934763271
 20
79.415714347
 10
212.3169829529
 20
75.0656693342
 10
209.2089818134
 20
70.7755147979
 10
205.7743256834
 20
66.5519493049
 10
202.0183773707
 20
62.4015674515
 10
197.9470013428
 20
58.3308495663
 10
193.56655457
 20
54.3461515919
 10
188.8838765999
 20
50.4536951613
 10
183.9062788785
 20
46.6595578831
 10
178.6415333335
 20
42.9696638524
 10
173.0978602403
 20
39.3897744005
 10
167.2839153862
 20
35.9254790999
 10
161.2087765561
 20
32.5821870366
 10
154.881929358
 20
29.3651183641
 10
148.3132524129
 20
26.2792961534
 10
141.5130019299
 20
23.3295385495
 10
134.491795693
 20
20.5204512487
 10
127.2605964823
 20
17.8564203074
 10
119.8306949569
 20
15.3416052937
 10
112.213692026
 20
12.9799327927
 10
104.4214807357
 20
10.7750902756
 10
96.4662276988
 20
8.7305203424
 10
88.3603540985
 20
6.8494153462
 10
80.1165162943
 20
5.1347124093
 10
71.7475860604
 20
3.5890888366
 10
63.2666304877
 20
2.214957936
 10
54.6868915818
 20
1.0144652497
 10
46.0217655863
 20
-0.0105147954
 10
37.2847820671
 20
-0.8583818148
 10
28.4895827865
 20
-1.5278119646
 10
19.6499004044
 20
-2.0177600092
 10
10.7795370354
 20
-2.3274609529
 10
1.8923426989
 20
-2.4564312344
 10
-6.997806306
 20
-2.4044694819
 10
-15.8770290672
 20
-2.1716568275
 10
-24.7314617321
 20
-1.7583567806
 10
-33.5472791554
 20
-1.1652146601
 10
-42.3107164845
 20
-0.393156587
 10
-51.0080906525
 20
0.5566119616
 10
-59.6258217419
 20
1.682608035
 10
-68.1504541887
 20
2.9830735238
 10
-76.5686777912
 20
4.4559779056
 10
-84.8673484926
 20
6.0990214151
 10
-93.0335089037
 20
7.9096386349
 10
-101.0544085343
 20
9.885002501
 10
-108.9175237019
 20
12.0220287174
 10
-116.6105770856
 20
14.3173805713
 10
-124.1215568956
 20
16.7674741431
 10
-131.4387356287
 20
19.3684839027
 10
-138.5506883788
 20
22.1163486821
 10
-145.4463106759
 20
25.0067780166
 10
-152.1148358245
 20
28.0352588439
 10
-158.545851714
 20
31.1970625507
 10
-164.7293170766
 20
34.4872523558
 10
-170.6555771651
 20
37.9006910185
 10
-176.3153788279
 20
41.4320488595
 10
-181.6998849566
 20
45.0758120826
 10
-186.800688284
 20
48.8262913842
 10
-191.6098245112
 20
52.677630836
 10
-196.1197847429
 20
56.6238170287
 10
-200.3235272115
 20
60.658688461
 10
-204.2144882722
 20
64.77594516
 10
-207.7865926513
 20
68.9691585183
 10
-211.0342629316
 20
73.2317813308
 10
-213.9524282616
 20
77.5571580182
 10
-216.5365322726
 20
81.9385350181
 10
-218.7825401929
 20
86.3690713305
 10
-219.8547097841
 20
88.7823183569
  0
VIEWPORT
  5
177
330
14B
100
AcDbEntity
  8
0
100
AcDbViewport
 10
0.0
 20
0.0
 30
0.0
 40
205.6
 41
156.0
 68
     1
 69
     1
 12
0.00828698
 22
139.9922847906
 13
0.0
 23
0.0
 14
10.0
 24
10.0
 15
10.0
 25
10.0
 16
0.0
 26
0.0
 36
1.0
 17
0.0
 27
0.0
 37
0.0
 42
50.0
 43
0.0
 44
0.0
 45
397.3347466809
 50
0.0
 51
0.0
 72
   100
 90
   557152
  1

281
     0
 71
     1
 74
     0
110
0.0
120
0.0
130
0.0
111
1.0
121
0.0
131
0.0
112
0.0
122
1.0
132
0.0
 79
     0
146
0.0
170
     0
 61
     5
348
2F
292
     1
282
     1
141
0.0
142
0.0
 63
   256
361
178
  0
ENDBLK
  5
14E
330
14B
100
AcDbEntity
  8
0
100
AcDbBlockEnd
  0
BLOCK
  5
158
330
156
100
AcDbEntity
  8
0
100
AcDbBlockBegin
  2
*Paper_Space8
 70
     0
 10
0.0
 20
0.0
 30
0.0
  3
*Paper_Space8
  1

  0
SPLINE
  5
15A
330
156
100
AcDbEntity
  8
0
  6
Continuous
 62
     7
370
    25
100
AcDbSpline
210
0.0
220
0.0
230
1.0
 70
     8
 71
     3
 72
    19
 73
    15
 74
     0
 42
0.000000001
 43
0.00000001
 40
0.0
 40
0.0
 40
0.0
 40
0.0
 40
0.0905479543339033
 40
0.1825070469717217
 40
0.2742207009060558
 40
0.3656954534461869
 40
0.4569372044205176
 40
0.5479512582569047
 40
0.6387423624505355
 40
0.7293147424871086
 40
0.8196721333711409
 40
0.9098178079578292
 40
0.9997546023131597
 40
1.0
 40
1.0
 40
1.0
 40
1.0
 10
228.1398661015807
 20
125.9595337756845
 30
0.0
 10
229.2653844701696
 20
128.7014787367478
 30
0.0
 10
231.5339617701726
 20
134.2281003096361
 30
0.0
 10
234.5520048702306
 20
142.6839636332249
 30
0.0
 10
237.290182704946
 20
151.264771629429
 30
0.0
 10
239.700056944711
 20
159.9197916402932
 30
0.0
 10
241.7888442408108
 20
168.6340689475182
 30
0.0
 10
243.553956134947
 20
177.396826389931
 30
0.0
 10
244.9970364812216
 20
186.1962369770103
 30
0.0
 10
246.1148240596788
 20
195.0207699982608
 30
0.0
 10
246.9216473444345
 20
203.8590854827389
 30
0.0
 10
247.3688422494271
 20
212.6991914642555
 30
0.0
 10
247.5524860553876
 20
218.6025373983938
 30
0.0
 10
247.4997128385962
 20
221.5537256947679
 30
0.0
 10
247.4995692356848
 20
221.5617562689307
 30
0.0
  0
SPLINE
  5
15B
330
156
100
AcDbEntity
  8
0
  6
Continuous
 62
     7
370
    25
100
AcDbSpline
210
0.0
220
0.0
230
1.0
 70
     8
 71
     3
 72
    19
 73
    15
 74
     0
 42
0.000000001
 43
0.00000001
 40
0.0
 40
0.0
 40
0.0
 40
0.0
 40
0.0667650188499599
 40
0.1563891758885605
 40
0.2458100184924054
 40
0.3350289290988007
 40
0.4240469398585821
 40
0.5128647456250106
 40
0.6014827156244668
 40
0.6899009040862225
 40
0.7781190601353714
 40
0.8661366372894893
 40
0.9539528029511455
 40
0.9999999999999999
 40
0.9999999999999999
 40
0.9999999999999999
 40
0.9999999999999999
 10
-247.4698230042256
 20
221.5601287454134
 30
0.0
 10
-247.4650370459404
 20
219.3758577585945
 30
0.0
 10
-247.4538265035791
 20
214.2594607975819
 30
0.0
 10
-247.0668970866658
 20
206.2246384384385
 30
0.0
 10
-246.371065483512
 20
197.475333708254
 30
0.0
 10
-245.3553394982033
 20
188.7764513803128
 30
0.0
 10
-244.0365553083483
 20
180.1386376774564
 30
0.0
 10
-242.4147698517473
 20
171.5724724677112
 30
0.0
 10
-240.4953787701261
 20
163.0881574978006
 30
0.0
 10
-238.2812795741219
 20
154.6963940799876
 30
0.0
 10
-235.7821105771651
 20
146.4051169555795
 30
0.0
 10
-232.9851669818794
 20
138.2315662090671
 30
0.0
 10
-230.4390945904804
 20
131.431276442156
 30
0.0
 10
-228.718966508523
 20
127.4038840513202
 30
0.0
 10
-228.1272655745605
 20
126.0185152150769
 30
0.0
  0
SPLINE
  5
15C
330
156
100
AcDbEntity
  8
0
  6
Continuous
 62
     7
370
    25
100
AcDbSpline
210
0.0
220
0.0
230
1.0
 70
     8
 71
     3
 72
    35
 73
    31
 74
     0
 42
0.000000001
 43
0.00000001
 40
0.0
 40
0.0
 40
0.0
 40
0.0
 40
0.002507180782781
 40
0.039505858049547
 40
0.0764498329786374
 40
0.1133502295216957
 40
0.1502180287108007
 40
0.187063031360429
 40
0.223893411364331
 40
0.2607156587784363
 40
0.2975347330712096
 40
0.3343543024493959
 40
0.3711769968103494
 40
0.40800463839726
 40
0.4448384363834242
 40
0.4816791434768055
 40
0.5185271781380775
 40
0.5553827179608085
 40
0.5922457699324692
 40
0.6291162226841398
 40
0.6659938849733454
 40
0.7028785137812523
 40
0.7397698346477457
 40
0.7807884917903933
 40
0.8217802682704253
 40
0.8626332266008566
 40
0.9033500490141402
 40
0.943936044252724
 40
0.9843961699614362
 40
1.0
 40
1.0
 40
1.0
 40
1.0
 10
48.78239352450321
 20
-19.83155016775354
 30
0.0
 10
48.96798953695659
 20
-19.7977036468748
 30
0.0
 10
51.8924414842999
 20
-19.26438117627813
 30
0.0
 10
57.5021632261414
 20
-17.97632633195548
 30
0.0
 10
65.59271072994505
 20
-15.94959874897148
 30
0.0
 10
73.59481254605714
 20
-13.62546991047248
 30
0.0
 10
81.50913660465547
 20
-11.04460598016053
 30
0.0
 10
89.3269944133029
 20
-8.199230994232199
 30
0.0
 10
97.0418565240608
 20
-5.094758541161551
 30
0.0
 10
104.6462363955901
 20
-1.733387312846848
 30
0.0
 10
112.1325670980064
 20
1.881448816744791
 30
0.0
 10
119.4930460343876
 20
5.746237036775057
 30
0.0
 10
126.7197666017011
 20
9.857058973682095
 30
0.0
 10
133.8047693057049
 20
14.2096740988009
 30
0.0
 10
140.7401044233013
 20
18.7995016352976
 30
0.0
 10
147.5178797809359
 20
23.621634756214
 30
0.0
 10
154.1303012771936
 20
28.67084896991548
 30
0.0
 10
160.5697056161892
 20
33.94161368809054
 30
0.0
 10
166.8285871009419
 20
39.42810303022545
 30
0.0
 10
172.8996197285143
 20
45.12420903065886
 30
0.0
 10
178.7756752284083
 20
51.02354650686898
 30
0.0
 10
184.4498395306062
 20
57.11948837891127
 30
0.0
 10
190.1189331664663
 20
63.63913089070698
 30
0.0
 10
195.7459140607645
 20
70.5980461967402
 30
0.0
 10
201.2860039879333
 20
78.00232186942598
 30
0.0
 10
206.5297421843355
 20
85.59146010912366
 30
0.0
 10
211.4745265574785
 20
93.3432850733084
 30
0.0
 10
216.0920678231674
 20
101.2581643435362
 30
0.0
 10
219.5787964038231
 20
107.6447422427034
 30
0.0
 10
221.4183331721608
 20
111.4415527581076
 30
0.0
 10
221.9303166506764
 20
112.4982885018012
 30
0.0
  0
SPLINE
  5
15E
330
156
100
AcDbEntity
  8
0
  6
Continuous
 62
     7
370
    25
100
AcDbSpline
210
0.0
220
0.0
230
1.0
 70
     8
 71
     3
 72
    35
 73
    31
 74
     0
 42
0.000000001
 43
0.00000001
 40
0.0
 40
0.0
 40
0.0
 40
0.0
 40
0.024835545934884
 40
0.062784993197397
 40
0.1006430673391516
 40
0.1384087746852355
 40
0.1760810494566494
 40
0.2136587705324362
 40
0.2511407830427415
 40
0.2885259262279463
 40
0.3258130693904526
 40
0.3630011582649059
 40
0.4000892747704002
 40
0.4370767139178327
 40
0.473963082670048
 40
0.5107484268380819
 40
0.5474333936918039
 40
0.5840194399093275
 40
0.6205090968034195
 40
0.6569063074033413
 40
0.6932168527780774
 40
0.7294488875830893
 40
0.7656136064305608
 40
0.8017260619156868
 40
0.8378061495809201
 40
0.8738797610000665
 40
0.9099800781798594
 40
0.9461489342663224
 40
0.9824380920839481
 40
1.0
 40
1.0
 40
1.0
 40
1.0
 10
-221.6013792528425
 20
111.8226605356261
 30
0.0
 10
-220.7705649592605
 20
110.1555962797165
 30
0.0
 10
-218.6702419018326
 20
105.9412086338267
 30
0.0
 10
-215.0034145002306
 20
99.34119565197686
 30
0.0
 10
-210.6486902758792
 20
92.02030955475246
 30
0.0
 10
-206.0441412606946
 20
84.87754021272339
 30
0.0
 10
-201.2106447442101
 20
77.91370261022317
 30
0.0
 10
-196.1523254443832
 20
71.13780982116657
 30
0.0
 10
-190.8780647284972
 20
64.55625850112925
 30
0.0
 10
-185.3957352506671
 20
58.17570091317247
 30
0.0
 10
-179.7137137052939
 20
52.00226335167251
 30
0.0
 10
-173.8404470963613
 20
46.04173999005351
 30
0.0
 10
-167.7845340605683
 20
40.29952655566282
 30
0.0
 10
-161.5546631073564
 20
34.78062375811121
 30
0.0
 10
-155.1595820476096
 20
29.48962259977803
 30
0.0
 10
-148.608050337575
 20
24.43069532738412
 30
0.0
 10
-141.9087850111306
 20
19.60758612266211
 30
0.0
 10
-135.0703945715895
 20
15.02360388664654
 30
0.0
 10
-128.1012989988515
 20
10.68161720823552
 30
0.0
 10
-121.0096320034043
 20
6.584054169363612
 30
0.0
 10
-113.8031225445446
 20
2.732904145910014
 30
0.0
 10
-106.4889477067022
 20
-0.8702584069652519
 30
0.0
 10
-99.07356510462122
 20
-4.224288926964248
 30
0.0
 10
-91.56247315429566
 20
-7.328281337033338
 30
0.0
 10
-83.96007415211083
 20
-10.18205685071431
 30
0.0
 10
-76.2689817146894
 20
-12.78399336066822
 30
0.0
 10
-68.49124582995452
 20
-15.13861002167283
 30
0.0
 10
-60.62231309106597
 20
-17.22746987749718
 30
0.0
 10
-54.05234267624912
 20
-18.78908473307647
 30
0.0
 10
-50.08700781873138
 20
-19.55437731052012
 30
0.0
 10
-48.79383293583418
 20
-19.80395450255512
 30
0.0
  0
LWPOLYLINE
  5
15F
330
156
100
AcDbEntity
  8
0
  6
Continuous
 62
     7
370
    25
100
AcDbPolyline
 90
      168
 70
   128
 43
0.0
 10
87.5044641518
 20
298.7318083648
 10
96.1509736876
 20
297.5800346223
 10
104.6613922722
 20
296.3206631984
 10
113.0236743597
 20
294.9554765924
 10
121.225984075
 20
293.4864070733
 10
129.2567119658
 20
291.9155339447
 10
137.1044914348
 20
290.2450806018
 10
144.7582148279
 20
288.4774113846
 10
152.2070491553
 20
286.6150282312
 10
159.440451425
 20
284.6605671367
 10
166.4481835651
 20
282.6167944222
 10
173.2203269143
 20
280.4866028194
 10
179.7472962609
 20
278.2730073763
 10
186.0198534098
 20
275.9791411898
 10
192.0291202577
 20
273.608250971
 10
197.7665913594
 20
271.1636924497
 10
203.2241459662
 20
268.6489256253
 10
208.3940595197
 20
266.067509869
 10
213.2690145854
 20
263.4230988861
 10
217.8421112096
 20
260.7194355446
 10
222.1068766855
 20
257.9603465777
 10
226.0572747143
 20
255.1497371672
 10
229.6877139495
 20
252.2915854166
 10
232.9930559102
 20
249.3899367199
 10
235.9686222545
 20
246.4488980365
 10
238.6102014011
 20
243.4726320777
 10
240.9140544899
 20
240.4653514152
 10
242.8769206747
 20
237.4313125184
 10
244.4960217377
 20
234.3748097302
 10
245.7690660226
 20
231.3001691884
 10
246.6942516774
 20
228.2117427029
 10
247.2702692054
 20
225.1139015961
 10
247.4963033181
 20
222.0110305156
 10
247.3720340896
 20
218.9075212284
 10
246.897637409
 20
215.8077664049
 10
246.0737847318
 20
212.7161534015
 10
244.9016421293
 20
209.6370580505
 10
243.3828686383
 20
206.5748384673
 10
241.5196139128
 20
203.533828881
 10
239.3145151816
 20
200.5183335009
 10
236.7706935153
 20
197.5326204233
 10
233.8917494091
 20
194.5809155913
 10
230.6817576863
 20
191.667396813
 10
227.1452617313
 20
188.7961878483
 10
223.2872670587
 20
185.9713525726
 10
219.1132342285
 20
183.1968892242
 10
214.6290711174
 20
180.4767247459
 10
209.8411245568
 20
177.8147092262
 10
204.7561713498
 20
175.2146104503
 10
199.3814086789
 20
172.6801085675
 10
193.7244439197
 20
170.2147908817
 10
187.7932838733
 20
167.8221467743
 10
181.5963234333
 20
165.5055627655
 10
175.1423337044
 20
163.2683177211
 10
168.4404495873
 20
161.1135782111
 10
161.5001568495
 20
159.0443940284
 10
154.3312786993
 20
157.0636938718
 10
146.9439618821
 20
155.1742812008
 10
139.3486623188
 20
153.3788302679
 10
131.5561303065
 20
151.6798823331
 10
123.5773953029
 20
150.0798420672
 10
115.4237503152
 20
148.5809741482
 10
107.1067359161
 20
147.185400056
 10
98.6381239094
 20
145.8950950699
 10
90.0299006685
 20
144.7118854721
 10
81.2942501707
 20
143.6374459635
 10
72.4435367525
 20
142.6732972932
 10
63.4902876089
 20
141.8208041057
 10
54.4471750629
 20
141.0811730098
 10
45.3269986292
 20
140.4554508707
 10
36.1426668976
 20
139.944523328
 10
26.9071792626
 20
139.5491135425
 10
17.6336075242
 20
139.2697811727
 10
8.3350773863
 20
139.1069215822
 10
-0.9752501216
 20
139.0607652805
 10
-10.2841972721
 20
139.1313775968
 10
-19.5785882913
 20
139.3186585871
 10
-28.8452680082
 20
139.6223431763
 10
-38.0711204738
 20
140.0420015327
 10
-47.2430875256
 20
140.5770396769
 10
-56.34818727
 20
141.2267003222
 10
-65.3735324563
 20
141.9900639465
 10
-74.3063487179
 20
142.8660500941
 10
-83.133992652
 20
143.8534189045
 10
-91.843969716
 20
144.9507728676
 10
-100.4239519112
 20
146.1565588016
 10
-108.8617952323
 20
147.4690700512
 10
-117.1455568556
 20
148.8864489036
 10
-125.263512043
 20
150.4066892175
 10
-133.2041707365
 20
152.0276392629
 10
-140.9562938218
 20
153.747004766
 10
-148.5089090355
 20
155.5623521573
 10
-155.8513264954
 20
157.4711120157
 10
-162.9731538306
 20
159.4705827049
 10
-169.8643108908
 20
161.5579341978
 10
-176.515044014
 20
163.7302120818
 10
-182.915939831
 20
165.9843417404
 10
-189.0579385896
 20
168.3171327052
 10
-194.9323469774
 20
170.7252831714
 10
-200.5308504262
 20
173.2053846714
 10
-205.8455248804
 20
175.7539268987
 10
-210.8688480127
 20
178.3673026769
 10
-215.5937098708
 20
181.0418130648
 10
-220.0134229413
 20
183.7736725919
 10
-224.1217316144
 20
186.5590146167
 10
-227.9128210386
 20
189.393896799
 10
-231.3813253508
 20
192.27430668
 10
-234.522335271
 20
195.1961673616
 10
-237.331405051
 20
198.1553432769
 10
-239.8045587664
 20
201.1476460431
 10
-241.9382959449
 20
204.1688403904
 10
-243.7295965201
 20
207.214650156
 10
-245.1759251062
 20
210.2807643367
 10
-246.275234587
 20
213.3628431908
 10
-247.0259690127
 20
216.4565243804
 10
-247.4270658028
 20
219.5574291456
 10
-247.4779572496
 20
222.6611685025
 10
-247.178571322
 20
225.7633494552
 10
-246.5293317671
 20
228.8595812134
 10
-245.5311575112
 20
231.9454814072
 10
-244.185461358
 20
235.0166822901
 10
-242.4941479902
 20
238.0688369205
 10
-240.4596112726
 20
241.097625315
 10
-238.0847308645
 20
244.0987605623
 10
-235.3728681435
 20
247.067994891
 10
-232.327861448
 20
250.0011256819
 10
-228.9540206445
 20
252.8940014164
 10
-225.2561210274
 20
255.7425275525
 10
-221.23939656
 20
258.5426723198
 10
-216.9095324668
 20
261.2904724266
 10
-212.2726571861
 20
263.9820386692
 10
-207.3353336964
 20
266.6135614364
 10
-202.1045502269
 20
269.1813161022
 10
-196.5877103668
 20
271.6816682968
 10
-190.7926225859
 20
274.1110790513
 10
-184.727489183
 20
276.4661098066
 10
-178.4008946761
 20
278.7434272798
 10
-171.8217936524
 20
280.9398081829
 10
-164.9994980936
 20
283.0521437842
 10
-157.9436641962
 20
285.0774443088
 10
-150.664278704
 20
287.0128431705
 10
-143.1716447733
 20
288.8556010285
 10
-135.4763673894
 20
290.6031096651
 10
-127.589338357
 20
292.2528956772
 10
-119.5217208838
 20
293.8026239773
 10
-111.2849337801
 20
295.2501010983
 10
-102.890635297
 20
296.5932782981
 10
-94.3507066252
 20
297.8302544597
 10
-85.677235079
 20
298.9592787815
 10
-76.8824969872
 20
299.9787532559
 10
-67.9789403183
 20
300.8872349308
 10
-58.9791670611
 20
301.683437952
 10
-49.8959153882
 20
302.3662353831
 10
-40.7420416267
 20
302.9346608008
 10
-31.5305020611
 20
303.3879096623
 10
-22.2743345958
 20
303.7253404447
 10
-12.9866403007
 20
303.9464755523
 10
-3.6805648684
 20
304.0510019932
 10
5.6307199918
 20
304.0387718219
 10
14.9340351976
 20
303.9098023489
 10
24.2162129465
 20
303.6642761159
 10
33.464115354
 20
303.3025406379
 10
42.6646530482
 20
302.8251079111
 10
51.804803697
 20
302.232653688
 10
60.8716304393
 20
301.5260165214
 10
69.8523001955
 20
300.7061965771
 10
78.734101832
 20
299.7743542187
 10
87.5044641518
 20
298.7318083648
  0
LWPOLYLINE
  5
160
330
156
100
AcDbEntity
  8
0
  6
Continuous
 62
     7
370
    25
100
AcDbPolyline
 90
       75
 70
   128
 43
0.0
 10
228.1613162234
 20
126.0027510134
 10
227.5950480626
 20
124.738050567
 10
226.0207719674
 20
121.7872078667
 10
224.102303519
 20
118.8590860224
 10
221.8425642282
 20
115.9581440807
 10
219.2449953054
 20
113.0887996977
 10
216.3135524194
 20
110.2554224116
 10
213.0526996743
 20
107.4623269885
 10
209.467402811
 20
104.7137668522
 10
205.5631216451
 20
102.0139276062
 10
201.3458017528
 20
99.3669206605
 10
196.8218654168
 20
96.77677697
 10
191.9982018457
 20
94.2474408963
 10
186.8821566836
 20
91.782764201
 10
181.4815208233
 20
89.3865001801
 10
175.8045185424
 20
87.0622979486
 10
169.859794979
 20
84.8136968829
 10
163.6564029664
 20
82.6441212317
 10
157.2037892475
 20
80.5568749008
 10
150.5117800885
 20
78.555136422
 10
143.5905663155
 20
76.6419541128
 10
136.4506877955
 20
74.8202414344
 10
129.1030173858
 20
73.0927725547
 10
121.5587443762
 20
71.4621781237
 10
113.8293574503
 20
69.9309412679
 10
105.9266271892
 20
68.5013938083
 10
97.8625881477
 20
67.1757127101
 10
89.649520527
 20
65.9559167668
 10
81.2999314743
 20
64.8438635264
 10
72.8265360366
 20
63.8412464626
 10
64.2422377973
 20
62.9495923957
 10
55.5601092266
 20
62.170259168
 10
46.7933717744
 20
61.5044335752
 10
37.9553757355
 20
60.95312956
 10
29.0595799202
 20
60.5171866674
 10
20.1195311581
 20
60.1972687665
 10
11.1488436688
 20
59.9938630396
 10
2.1611783296
 20
59.90727924
 10
-6.8297781277
 20
59.9376492206
 10
-15.8103339595
 20
60.0849267328
 10
-24.7668132606
 20
60.3488874974
 10
-33.6855767905
 20
60.7291295456
 10
-42.5530427434
 20
61.2250738315
 10
-51.3557074313
 20
61.8359651137
 10
-60.0801658481
 20
62.5608731057
 10
-68.7131320825
 20
63.3986938921
 10
-77.2414595511
 20
64.34815161
 10
-85.6521610179
 20
65.407800392
 10
-93.9324283719
 20
66.5760265677
 10
-102.0696521318
 20
67.8510511214
 10
-110.051440648
 20
69.2309324011
 10
-117.8656389732
 20
70.7135690751
 10
-125.5003473724
 20
72.2967033323
 10
-132.943939444
 20
73.9779243204
 10
-140.185079825
 20
75.7546718172
 10
-147.2127414533
 20
77.6242401294
 10
-154.0162223592
 20
79.5837822126
 10
-160.5851619637
 20
81.6303140077
 10
-166.9095568552
 20
83.7607189842
 10
-172.9797760236
 20
85.9717528868
 10
-178.7865755263
 20
88.2600486755
 10
-184.3211125656
 20
90.6221216534
 10
-189.5749589545
 20
93.0543747729
 10
-194.5401139515
 20
95.5531041137
 10
-199.2090164447
 20
98.1145045232
 10
-203.5745564656
 20
100.7346754111
 10
-207.6300860169
 20
103.4096266893
 10
-211.369429196
 20
106.1352848483
 10
-214.7868916002
 20
108.9074991602
 10
-217.8772689978
 20
111.722048
 10
-220.6358552539
 20
114.5746452741
 10
-223.0584494966
 20
117.4609469473
 10
-225.1413625146
 20
120.3765576582
 10
-226.8814223748
 20
123.3170374128
 10
-228.1639005552
 20
126.0088731868
  0
LWPOLYLINE
  5
161
330
156
100
AcDbEntity
  8
0
  6
Continuous
 62
     7
370
    25
100
AcDbPolyline
 90
      162
 70
   128
 43
0.0
 10
82.2011632941
 20
294.0547366322
 10
90.6239428282
 20
292.9304819649
 10
98.908717046
 20
291.6975420163
 10
107.0428696029
 20
290.3577943504
 10
115.0140135262
 20
288.9132791821
 10
122.8100100786
 20
287.3661962696
 10
130.4189872433
 20
285.718901565
 10
137.8293578033
 20
283.9739036264
 10
145.0298369865
 20
282.1338597979
 10
152.0094596508
 20
280.2015721627
 10
158.7575969822
 20
278.1799832761
 10
165.2639726807
 20
276.0721716845
 10
171.5186786093
 20
273.8813472373
 10
177.5121898826
 20
271.6108461988
 10
183.2353793716
 20
269.2641261675
 10
188.6795316027
 20
266.8447608109
 10
193.8363560302
 20
264.3564344234
 10
198.697999661
 20
261.8029363156
 10
203.2570590138
 20
259.1881550439
 10
207.5065913932
 20
256.516072489
 10
211.4401254625
 20
253.7907577917
 10
215.051671098
 20
251.0163611568
 10
218.3357285115
 20
248.1971075328
 10
221.2872966252
 20
245.3372901778
 10
223.9018806878
 20
242.441264122
 10
226.175499119
 20
239.5134395354
 10
228.1046895731
 20
236.5582750118
 10
229.6865142111
 20
233.5802707793
 10
230.918564175
 20
230.5839618473
 10
231.798963256
 20
227.5739110998
 10
232.3263707515
 20
224.5547023478
 10
232.499983507
 20
221.5309333481
 10
232.3195371387
 20
218.5072088022
 10
231.7853064368
 20
215.4881333437
 10
230.8981049465
 20
212.4783045266
 10
229.6592837293
 20
209.4823058236
 10
228.0707293055
 20
206.5046996467
 10
226.1348607817
 20
203.5500203988
 10
223.8546261661
 20
200.6227675691
 10
221.2334978799
 20
197.7273988808
 10
218.2754674693
 20
194.8683235028
 10
214.9850395265
 20
192.0498953353
 10
211.3672248306
 20
189.2764063795
 10
207.4275327166
 20
186.5520802016
 10
203.1719626858
 20
183.8810655009
 10
198.6069952692
 20
181.2674297923
 10
193.7395821593
 20
178.7151532118
 10
188.5771356234
 20
176.2281224557
 10
183.127517216
 20
173.8101248615
 10
177.3990258071
 20
171.4648426408
 10
171.400384944
 20
169.1958472715
 10
165.1407295673
 20
167.0065940593
 10
158.6295920998
 20
164.9004168757
 10
151.8768879296
 20
162.8805230812
 10
144.8929003114
 20
160.9499886407
 10
137.6882647063
 20
159.1117534399
 10
130.2739525859
 20
157.3686168077
 10
122.6612547246
 20
155.7232332536
 10
114.8617640055
 20
154.1781084254
 10
106.8873577664
 20
152.7355952934
 10
98.7501797126
 20
151.3978905671
 10
90.4626214241
 20
150.1670313502
 10
82.0373034852
 20
149.0448920381
 10
73.4870562651
 20
148.033181464
 10
64.8249003802
 20
147.1334402963
 10
56.0640268649
 20
146.3470386922
 10
47.2177770846
 20
145.6751742117
 10
38.2996224184
 20
145.1188699936
 10
29.3231437448
 20
144.6789731975
 10
20.3020107602
 20
144.3561537136
 10
11.2499611621
 20
144.1509031427
 10
2.1807797288
 20
144.0635340476
 10
-6.8917226723
 20
144.094179477
 10
-15.9537301166
 20
144.242792763
 10
-24.9914426615
 20
144.5091475921
 10
-33.9910973616
 20
144.8928383497
 10
-42.9389892273
 20
145.3932807382
 10
-51.8214920952
 20
146.0097126664
 10
-60.6250793787
 20
146.7411954101
 10
-69.3363446665
 20
147.5866150417
 10
-77.9420221385
 20
148.5446841266
 10
-86.4290067674
 20
149.6139436837
 10
-94.7843742756
 20
150.7927654069
 10
-102.9954008166
 20
152.0793541453
 10
-111.0495823514
 20
153.4717506364
 10
-118.93465369
 20
154.96783449
 10
-126.6386071695
 20
156.5653274173
 10
-134.1497109394
 20
158.2617967
 10
-141.4565268278
 20
160.0546588951
 10
-148.5479277593
 20
161.9411837695
 10
-155.4131146999
 20
163.9184984567
 10
-162.0416331025
 20
165.9835918328
 10
-168.4233888269
 20
168.1333191012
 10
-174.5486635117
 20
170.3644065817
 10
-180.4081293741
 20
172.6734566963
 10
-185.9928634139
 20
175.0569531424
 10
-191.2943610026
 20
177.5112662482
 10
-196.3045488337
 20
180.0326584996
 10
-201.0157972176
 20
182.6172902321
 10
-205.4209317002
 20
185.261225478
 10
-209.5132439883
 20
187.96043796
 10
-213.2865021653
 20
190.7108172226
 10
-216.7349601814
 20
193.5081748921
 10
-219.8533666038
 20
196.348251054
 10
-222.636972614
 20
199.2267207408
 10
-225.0815392392
 20
202.1392005181
 10
-227.1833438076
 20
205.0812551596
 10
-228.9391856176
 20
208.0484044012
 10
-230.3463908118
 20
211.0361297642
 10
-231.4028164486
 20
214.0398814357
 10
-232.1068537662
 20
217.0550851973
 10
-232.4574306319
 20
220.077149391
 10
-232.4540131749
 20
223.1014719117
 10
-232.0966065994
 20
226.1234472149
 10
-231.3857551768
 20
229.1384733308
 10
-230.3225414163
 20
232.1419588719
 10
-228.9085844173
 20
235.1293300252
 10
-227.1460374031
 20
238.0960375171
 10
-225.0375844418
 20
241.0375635415
 10
-222.5864363598
 20
243.9494286396
 10
-219.7963258511
 20
246.827198521
 10
-216.6715017938
 20
249.6664908169
 10
-213.2167227796
 20
252.4629817535
 10
-209.4372498669
 20
255.2124127365
 10
-205.3388385696
 20
257.9105968358
 10
-200.9277300922
 20
260.5534251623
 10
-196.2106418251
 20
263.1368731243
 10
-191.1947571157
 20
265.6570065567
 10
-185.887714329
 20
268.109987712
 10
-180.2975952158
 20
270.4920811045
 10
-174.4329126055
 20
272.7996591989
 10
-168.3025974422
 20
275.0292079344
 10
-161.9159851848
 20
277.1773320761
 10
-155.2828015901
 20
279.2407603852
 10
-148.4131479028
 20
281.2163506008
 10
-141.3174854721
 20
283.1010942248
 10
-134.0066198216
 20
284.8921211036
 10
-126.4916841936
 20
286.5867037987
 10
-118.7841225956
 20
288.1822617401
 10
-110.8956723725
 20
289.6763651564
 10
-102.8383463328
 20
291.0667387745
 10
-94.6244144549
 20
292.3512652846
 10
-86.2663852022
 20
293.5279885649
 10
-77.7769864746
 20
294.5951166598
 10
-69.1691462261
 20
295.5510245093
 10
-60.4559727774
 20
296.3942564234
 10
-51.6507348544
 20
297.123528299
 10
-42.7668413821
 20
297.7377295753
 10
-33.8178210648
 20
298.2359249251
 10
-24.8173017844
 20
298.617355679
 10
-15.7789898469
 20
298.881440981
 10
-6.7166491107
 20
299.0277786727
 10
2.3559199742
 20
299.0561459059
 10
11.4249013815
 20
298.966499482
 10
20.4764845486
 20
298.7589759176
 10
29.4968854074
 20
298.4338912371
 10
38.4723673753
 20
297.9917404907
 10
47.3892622737
 20
297.433197001
 10
56.2339911426
 20
296.7591113377
 10
64.9930849188
 20
295.9705100221
 10
73.6532049474
 20
295.0685939638
 10
82.2011632941
 20
294.0547366322
  0
LWPOLYLINE
  5
162
330
156
100
AcDbEntity
  8
0
  6
Continuous
 62
     7
370
    25
100
AcDbPolyline
 90
       78
 70
   128
 43
0.0
 10
224.3992927486
 20
119.278624333
 10
223.9933722608
 20
117.6688956526
 10
222.978609426
 20
114.7246888305
 10
221.6156919618
 20
111.7961438012
 10
219.9067479019
 20
108.88783314
 10
217.8544455597
 20
106.004297829
 10
215.4619893616
 20
103.1500401661
 10
212.733114844
 20
100.3295167358
 10
209.6720828205
 20
97.5471314508
 10
206.2836727293
 20
94.8072286753
 10
202.5731751704
 20
92.1140864423
 10
198.5463836454
 20
89.4719097737
 10
194.2095855112
 20
86.8848241146
 10
189.5695521633
 20
84.3568688923
 10
184.633528463
 20
81.8919912087
 10
179.4092214253
 20
79.4940396778
 10
173.9047881854
 20
77.1667584162
 10
168.1288232626
 20
74.9137811973
 10
162.0903451403
 20
72.7386257776
 10
155.7987821854
 20
70.6446884042
 10
149.2639579266
 20
68.6352385115
 10
142.4960757161
 20
66.7134136172
 10
135.5057027987
 20
64.8822144226
 10
128.3037538118
 20
63.1445001279
 10
120.901473744
 20
61.5029839678
 10
113.3104203768
 20
59.9602289748
 10
105.5424462389
 20
58.5186439776
 10
97.6096800999
 20
57.1804798403
 10
89.5245080323
 20
55.9478259471
 10
81.2995540727
 20
54.8226069409
 10
72.9476605102
 20
53.8065797176
 10
64.4818678352
 20
52.901330683
 10
55.9153943781
 20
52.1082732761
 10
47.2616156702
 20
51.4286457618
 10
38.5340435597
 20
50.8635092978
 10
29.7463051145
 20
50.4137462777
 10
20.9121213449
 20
50.080058953
 10
12.0452857803
 20
49.8629683369
 10
3.1596429318
 20
49.7628133906
 10
-5.7309333241
 20
49.7797504941
 10
-14.6125614079
 20
49.9137532021
 10
-23.4713737117
 20
50.1646122854
 10
-32.2935382516
 20
50.5319360573
 10
-41.065280265
 20
51.0151509853
 10
-49.7729037181
 20
51.6135025866
 10
-58.4028126904
 20
52.3260566063
 10
-66.9415326035
 20
53.1517004758
 10
-75.3757312598
 20
54.0891450503
 10
-83.6922396595
 20
55.1369266213
 10
-91.8780725618
 20
56.2934092023
 10
-99.9204487604
 20
57.5567870829
 10
-107.8068110395
 20
58.9250876488
 10
-115.5248457806
 20
60.3961744608
 10
-123.0625021886
 20
61.9677505916
 10
-130.4080111079
 20
63.6373622116
 10
-137.5499033982
 20
65.4024024205
 10
-144.4770278425
 20
67.2601153176
 10
-151.1785685582
 20
69.2076003045
 10
-157.6440618852
 20
71.2418166148
 10
-163.863412723
 20
73.359588061
 10
-169.8269102935
 20
75.5576079946
 10
-175.5252433034
 20
77.8324444683
 10
-180.9495144819
 20
80.180545595
 10
-186.0912544735
 20
82.5982450934
 10
-190.9424350616
 20
85.081768013
 10
-195.4954817037
 20
87.6272366273
 10
-199.7432853577
 20
90.2306764893
 10
-203.6792135826
 20
92.8880226368
 10
-207.2971208937
 20
95.5951259392
 10
-210.5913583582
 20
98.347759576
 10
-213.5567824153
 20
101.1416256366
 10
-216.1887629073
 20
103.9723618307
 10
-218.4831903092
 20
106.8355482998
 10
-220.436482145
 20
109.7267145182
 10
-222.0455885813
 20
112.6413462729
 10
-223.3079971894
 20
115.5748927125
 10
-224.2217368682
 20
118.5227734525
 10
-224.3992927486
 20
119.278624333
  0
LWPOLYLINE
  5
163
330
156
100
AcDbEntity
  8
0
  6
Continuous
 62
     7
370
    25
100
AcDbPolyline
 90
       27
 70
   128
 43
0.0
 10
64.5442707002
 20
-16.1932557972
 10
62.6267244634
 20
-16.8314966897
 10
58.4445776196
 20
-18.0997696725
 10
54.0317767286
 20
-19.2780069507
 10
49.4057370997
 20
-20.3615585599
 10
44.5847155978
 20
-21.346148217
 10
39.5877385922
 20
-22.2278901964
 10
34.4345268683
 20
-23.0033046654
 10
29.1454177985
 20
-23.6693314173
 10
23.74128508
 20
-24.2233419488
 10
18.2434563555
 20
-24.6631498334
 10
12.6736290435
 20
-24.9870193503
 10
7.0537847077
 20
-25.1936723345
 10
1.4061023063
 20
-25.2822932212
 10
-4.2471293386
 20
-25.2525322641
 10
-9.8835995044
 20
-25.1045069161
 10
-15.4810636182
 20
-24.8388013657
 10
-21.0174310466
 20
-24.4564642313
 10
-26.4708522766
 20
-23.9590044229
 10
-31.8198051461
 20
-23.348385187
 10
-37.0431797817
 20
-22.6270163589
 10
-42.1203619102
 20
-21.7977448517
 10
-47.0313142131
 20
-20.8638434212
 10
-51.7566554054
 20
-19.8289977498
 10
-56.2777367242
 20
-18.6972919004
 10
-60.576715527
 20
-17.4731921991
 10
-64.3278312016
 20
-16.2672430985
  0
LINE
  5
165
330
156
100
AcDbEntity
  8
0
  6
Continuous
 62
     7
370
    25
100
AcDbLine
 10
-221.9634432791
 20
112.5385391775
 30
0.0
 11
-221.866384234
 21
112.3466325192
 31
0.0
  0
ARC
  5
166
330
156
100
AcDbEntity
  8
0
  6
Continuous
 62
     1
370
    25
100
AcDbCircle
 10
0.0003816245
 20
240.4334496939
 30
0.0
 40
264.8051621597286
100
AcDbArc
 50
259.3638657474
 51
280.633002438
  0
VIEWPORT
  5
179
330
156
100
AcDbEntity
  8
0
100
AcDbViewport
 10
0.0
 20
0.0
 30
0.0
 40
205.6
 41
156.0
 68
     1
 69
     1
 12
0.00828698
 22
139.9922847906
 13
0.0
 23
0.0
 14
10.0
 24
10.0
 15
10.0
 25
10.0
 16
0.0
 26
0.0
 36
1.0
 17
0.0
 27
0.0
 37
0.0
 42
50.0
 43
0.0
 44
0.0
 45
397.3347466809
 50
0.0
 51
0.0
 72
   100
 90
   557152
  1

281
     0
 71
     1
 74
     0
110
0.0
120
0.0
130
0.0
111
1.0
121
0.0
131
0.0
112
0.0
122
1.0
132
0.0
 79
     0
146
0.0
170
     0
 61
     5
348
2F
292
     1
282
     1
141
0.0
142
0.0
 63
   256
361
17A
  0
ENDBLK
  5
159
330
156
100
AcDbEntity
  8
0
100
AcDbBlockEnd
  0
ENDSEC
  0
SECTION
  2
ENTITIES
  0
SPLINE
  5
73
330
1F
100
AcDbEntity
  8
0
  6
Continuous
 62
     7
370
    25
100
AcDbSpline
210
0.0
220
0.0
230
1.0
 70
     8
 71
     3
 72
    21
 73
    17
 74
     0
 42
0.000000001
 43
0.00000001
 40
0.0
 40
0.0
 40
0.0
 40
0.0
 40
0.0124475645644886
 40
0.0910872502114779
 40
0.1695829043118748
 40
0.2479350626534349
 40
0.3261444614806628
 40
0.4042119886909159
 40
0.4821386439336285
 40
0.5599255062909099
 40
0.6375737084142274
 40
0.7150844161686712
 40
0.7924588129942877
 40
0.8696980883335553
 40
0.9468034295969605
 40
0.9999999999999999
 40
0.9999999999999999
 40
0.9999999999999999
 40
0.9999999999999999
 10
221.2391197389842
 20
81.29353564026937
 30
0.0
 10
221.4591578546933
 20
81.71554370996573
 30
0.0
 10
223.0693255945611
 20
84.80366222797375
 30
0.0
 10
225.7832304796939
 20
90.69641117876066
 30
0.0
 10
229.3546431487169
 20
98.96172421740224
 30
0.0
 10
232.5879109289585
 20
107.3499405639441
 30
0.0
 10
235.5153963859628
 20
115.8313938480226
 30
0.0
 10
238.1255571175261
 20
124.3991427687437
 30
0.0
 10
240.4191665116001
 20
133.0401757663535
 30
0.0
 10
242.3941651386264
 20
141.7431220396985
 30
0.0
 10
244.0501374090456
 20
150.4962060115028
 30
0.0
 10
245.3854836282438
 20
159.2878143790435
 30
0.0
 10
246.4042141598224
 20
168.1063449984451
 30
0.0
 10
247.0916228864417
 20
176.9403224106576
 30
0.0
 10
247.4621035392995
 20
184.8697635601469
 30
0.0
 10
247.4650136313183
 20
189.852109325421
 30
0.0
 10
247.4662016945859
 20
191.8861831458663
 30
0.0
  0
SPLINE
  5
74
330
1F
100
AcDbEntity
  8
0
  6
Continuous
 62
     7
370
    25
100
AcDbSpline
210
0.0
220
0.0
230
1.0
 70
     8
 71
     3
 72
    21
 73
    17
 74
     0
 42
0.000000001
 43
0.00000001
 40
0.0
 40
0.0
 40
0.0
 40
0.0
 40
0.0109423588432286
 40
0.087816244030194
 40
0.1645594412689659
 40
0.2411730773550368
 40
0.3176583083638417
 40
0.394016294899889
 40
0.4702482113408997
 40
0.5463552574004765
 40
0.6223386721449592
 40
0.6981997506451104
 40
0.7739398634986924
 40
0.8495604795162948
 40
0.9250631919202734
 40
1.0
 40
1.0
 40
1.0
 40
1.0
 10
-247.480688936417
 20
191.8871212081494
 30
0.0
 10
-247.4868949441807
 20
191.4688508007981
 30
0.0
 10
-247.5367003197889
 20
188.1120849801184
 30
0.0
 10
-247.3277295221857
 20
181.8210684963764
 30
0.0
 10
-246.8345826133658
 20
173.0332834475236
 30
0.0
 10
-245.9988202869588
 20
164.2841303195368
 30
0.0
 10
-244.8617132890506
 20
155.5847852207009
 30
0.0
 10
-243.4159209796933
 20
146.9458721894293
 30
0.0
 10
-241.667558616925
 20
138.3779475695729
 30
0.0
 10
-239.6195445751699
 20
129.8913817835137
 30
0.0
 10
-237.2762346702315
 20
121.4962775343249
 30
0.0
 10
-234.6414429288871
 20
113.2028423637937
 30
0.0
 10
-231.7216659211889
 20
105.0199134354234
 30
0.0
 10
-228.5151198242153
 20
96.96040532194371
 30
0.0
 10
-225.0590849720875
 20
89.03673640839432
 30
0.0
 10
-222.5271865997907
 20
83.87238081470758
 30
0.0
 10
-221.265999500868
 20
81.29991632708324
 30
0.0
  0
SPLINE
  5
75
330
1F
100
AcDbEntity
  8
0
  6
Continuous
 62
     7
370
    25
100
AcDbSpline
210
0.0
220
0.0
230
1.0
 70
     8
 71
     3
 72
    65
 73
    61
 74
     0
 42
0.000000001
 43
0.00000001
 40
0.0
 40
0.0
 40
0.0
 40
0.0
 40
0.0158407926811554
 40
0.0326494650237269
 40
0.0494348777546045
 40
0.0661978368457887
 40
0.0829392652628234
 40
0.0996602215086298
 40
0.1163619203089204
 40
0.1330457555383281
 40
0.1497133254286452
 40
0.1663664600131467
 40
0.1830072506349227
 40
0.1996380811726671
 40
0.2162616604032354
 40
0.2328810546161
 40
0.249499719211432
 40
0.2661215275474056
 40
0.2827507947572398
 40
0.2993922936511813
 40
0.3160512591905868
 40
0.3327333774337118
 40
0.3494447543999978
 40
0.3661918601057796
 40
0.382981443241236
 40
0.3998204127494225
 40
0.4167156840881913
 40
0.4336739903183068
 40
0.4507016614018732
 40
0.4678043791261722
 40
0.4849869196260279
 40
0.5022529000672509
 40
0.5196045499074661
 40
0.537042355093454
 40
0.5545651902334785
 40
0.5721703292912863
 40
0.5898534175730094
 40
0.6076086352430818
 40
0.6254289412024526
 40
0.6433063741666692
 40
0.6612323821444287
 40
0.6791981507165196
 40
0.6971949043222062
 40
0.7152141617480774
 40
0.7332479352911988
 40
0.7512888708988307
 40
0.7693303327959226
 40
0.7873664401964434
 40
0.8053920657120326
 40
0.8234028054221874
 40
0.8413949297847271
 40
0.8593653231509963
 40
0.8773114180068033
 40
0.895231128459135
 40
0.913122786083418
 40
0.9309850801016443
 40
0.9488170029844722
 40
0.9666178019340828
 40
0.9843869362680392
 40
1.0
 40
1.0
 40
1.0
 40
1.0
 10
-212.6920147302749
 20
65.6922725622595
 30
0.0
 10
-211.289143860208
 20
63.3850362250695
 30
0.0
 10
-208.3976860697439
 20
58.62959035763059
 30
0.0
 10
-203.7037124000988
 20
51.62900730528734
 30
0.0
 10
-198.6975645019243
 20
44.65542704128541
 30
0.0
 10
-193.4532557689707
 20
37.87287225398753
 30
0.0
 10
-187.985031969525
 20
31.28408694810525
 30
0.0
 10
-182.2981090975068
 20
24.89699893779854
 30
0.0
 10
-176.4002595156862
 20
18.71776299050083
 30
0.0
 10
-170.2986815156831
 20
12.75262063919994
 30
0.0
 10
-164.0008028656393
 20
7.00740469202607
 30
0.0
 10
-157.5140305848134
 20
1.487676671935778
 30
0.0
 10
-150.8457812457469
 20
-3.801301602327126
 30
0.0
 10
-144.0034352884883
 20
-8.854548117469399
 30
0.0
 10
-136.9943113294329
 20
-13.66734920814008
 30
0.0
 10
-129.825635644373
 20
-18.23524080057489
 30
0.0
 10
-122.5045146481562
 20
-22.55398603670203
 30
0.0
 10
-115.0379098390996
 20
-26.61954783238853
 30
0.0
 10
-107.4326173517637
 20
-30.42805643969977
 30
0.0
 10
-99.69525402483164
 20
-33.9757719188374
 30
0.0
 10
-91.83225244052785
 20
-37.2590418350804
 30
0.0
 10
-83.84986768328167
 20
-40.27425490016796
 30
0.0
 10
-75.75419879908907
 20
-43.01779184729502
 30
0.0
 10
-67.55122795527316
 20
-45.48597551801968
 30
0.0
 10
-59.24688002097205
 20
-47.67502293332339
 30
0.0
 10
-50.84710460031559
 20
-49.58100295977754
 30
0.0
 10
-42.35798136038386
 20
-51.19980397161876
 30
0.0
 10
-33.78584774573816
 20
-52.52711651649035
 30
0.0
 10
-25.13744586569725
 20
-53.55843624864602
 30
0.0
 10
-16.42008258015666
 20
-54.28909211161724
 30
0.0
 10
-7.641793820669471
 20
-54.71430375530058
 30
0.0
 10
1.188498649454889
 20
-54.82927033717174
 30
0.0
 10
10.06082230989093
 20
-54.62929084279668
 30
0.0
 10
18.96406717921273
 20
-54.10991583032919
 30
0.0
 10
27.88595593156602
 20
-53.26711525579788
 30
0.0
 10
36.81308688753029
 20
-52.09744730502709
 30
0.0
 10
45.7309996766925
 20
-50.59822458037689
 30
0.0
 10
54.62429706670733
 20
-48.76766633547415
 30
0.0
 10
63.47683589263312
 20
-46.60501985121486
 30
0.0
 10
72.2719547894936
 20
-44.1106433764238
 30
0.0
 10
80.99271968286419
 20
-41.28604664000231
 30
0.0
 10
89.62216767863842
 20
-38.13388973467443
 30
0.0
 10
98.14353248408204
 20
-34.65794530286105
 30
0.0
 10
106.5404389525033
 20
-30.86303178028567
 30
0.0
 10
114.7970596336022
 20
-26.75492673256345
 30
0.0
 10
122.8982312588993
 20
-22.34026918378712
 30
0.0
 10
130.8295331773783
 20
-17.62645867869714
 30
0.0
 10
138.5773324424504
 20
-12.62155704902336
 30
0.0
 10
146.1288018988208
 20
-7.33419710345612
 30
0.0
 10
153.4719171304455
 20
-1.773500235802528
 30
0.0
 10
160.595440782544
 20
4.050994613663997
 30
0.0
 10
167.4888904406283
 20
10.12939611691378
 30
0.0
 10
174.1425279228904
 20
16.45150033797123
 30
0.0
 10
180.5472476889439
 20
23.00688151280092
 30
0.0
 10
186.6948337093674
 20
29.78475467576537
 30
0.0
 10
192.5768469023821
 20
36.774655389993
 30
0.0
 10
198.1886195554407
 20
43.96405084191909
 30
0.0
 10
203.5142509101742
 20
51.34735280967998
 30
0.0
 10
208.3803964475581
 20
58.5918341750272
 30
0.0
 10
211.3283329093796
 20
63.45915157932669
 30
0.0
 10
212.7071013105887
 20
65.73562650428369
 30
0.0
  0
LWPOLYLINE
  5
76
330
1F
100
AcDbEntity
  8
0
  6
Continuous
 62
     7
370
    25
100
AcDbPolyline
 90
      168
 70
   128
 43
0.0
 10
175.0089283437
 20
292.9175946312
 10
181.4680343519
 20
289.0458347211
 10
187.67029265
 20
285.0365574736
 10
193.606924635
 20
280.8954375724
 10
199.2695276681
 20
276.6283363097
 10
204.650086968
 20
272.24129329
 10
209.7409869545
 20
267.7405178822
 10
214.5350220282
 20
263.1323804307
 10
219.0254067684
 20
258.4234032386
 10
223.2057855376
 20
253.6202513366
 10
227.0702414773
 20
248.7297230491
 10
230.6133048821
 20
243.7587403721
 10
233.8299609419
 20
238.7143391756
 10
236.71565684
 20
233.6036592454
 10
239.2663081963
 20
228.4339341775
 10
241.4783048491
 20
223.2124811396
 10
243.3485159645
 20
217.9466905146
 10
244.8742944678
 20
212.6440154403
 10
246.0534807902
 20
207.3119612603
 10
246.8844059253
 20
201.958074901
 10
247.3658937915
 20
196.5899341899
 10
247.4972628965
 20
191.2151371299
 10
247.278327302
 20
185.8412911451
 10
246.7093968869
 20
180.4760023137
 10
245.7912769087
 20
175.1268646019
 10
244.5252668634
 20
169.8014491162
 10
242.9131586467
 20
164.5072933865
 10
240.9572340175
 20
159.2518906983
 10
238.6602613684
 20
154.0426794865
 10
236.0254918074
 20
148.8870328069
 10
233.056654556
 20
143.792247901
 10
229.7579516715
 20
138.765535867
 10
226.134052099
 20
133.8140114538
 10
222.1900850629
 20
128.9446829903
 10
217.9316328077
 20
124.1644424667
 10
213.3647226962
 20
119.4800557787
 10
208.4958186792
 20
114.8981531519
 10
203.3318121456
 20
110.4252197571
 10
197.8800121694
 20
106.0675865313
 10
192.1481351638
 20
101.8314212172
 10
186.1442939596
 20
97.7227196329
 10
179.8769863228
 20
93.7472971861
 10
173.3550829265
 20
89.9107806428
 10
166.5878147956
 20
86.2186001631
 10
159.5847602413
 20
82.6759816155
 10
152.3558313044
 20
79.2879391806
 10
144.9112597254
 20
76.0592682534
 10
137.2615824628
 20
72.9945386567
 10
129.4176267794
 20
70.0980881725
 10
121.3904949173
 20
67.3740164026
 10
113.1915483841
 20
64.8261789658
 10
104.8323918716
 20
62.4581820413
 10
96.3248568313
 20
60.2733772638
 10
87.6809847276
 20
58.2748569802
 10
78.9130099949
 20
56.4654498725
 10
70.0333427209
 20
54.8477169541
 10
61.0545510817
 20
53.423947945
 10
51.9893435528
 20
52.1961580311
 10
42.8505509218
 20
51.1660850117
 10
33.6511081277
 20
50.33518684
 10
24.4040359531
 20
49.7046395594
 10
15.1224225945
 20
49.2753356391
 10
5.8194051378
 20
49.0478827107
 10
-3.4918490361
 20
49.0226027085
 10
-12.7981608882
 20
49.1995314135
 10
-22.0863583747
 20
49.5784184028
 10
-31.3432950907
 20
50.1587274044
 10
-40.5558688775
 20
50.9396370556
 10
-49.711040367
 20
51.9200420663
 10
-58.7958514377
 20
53.0985547828
 10
-67.7974435555
 20
54.4735071521
 10
-76.7030759734
 20
56.0429530828
 10
-85.5001437645
 20
57.8046711998
 10
-94.1761956631
 20
59.7561679881
 10
-102.7189516879
 20
61.8946813222
 10
-111.116320523
 20
64.2171843755
 10
-119.356416632
 20
66.7203899049
 10
-127.4275770801
 20
69.4007549026
 10
-135.3183780424
 20
72.2544856119
 10
-143.0176509724
 20
75.277542896
 10
-150.5144984104
 20
78.4656479554
 10
-157.7983094069
 20
81.8142883838
 10
-164.8587745422
 20
85.3187245553
 10
-171.6859005174
 20
88.9739963322
 10
-178.2700242989
 20
92.7749300861
 10
-184.601826796
 20
96.7161460204
 10
-190.6723460503
 20
100.7920657847
 10
-196.4729899204
 20
104.9969203701
 10
-201.9955482438
 20
109.3247582754
 10
-207.2322044567
 20
113.7694539299
 10
-212.1755466577
 20
118.324716364
 10
-216.8185780988
 20
122.9840981129
 10
-221.1547270881
 20
127.741004343
 10
-225.1778562917
 20
132.5887021854
 10
-228.8822714201
 20
137.5203302659
 10
-232.2627292879
 20
142.5289084164
 10
-235.3144452349
 20
147.6073475545
 10
-238.0330998986
 20
152.7484597177
 10
-240.4148453272
 20
157.9449682366
 10
-242.4563104265
 20
163.1895180343
 10
-244.1546057309
 20
168.4746860372
 10
-245.5073274932
 20
173.792991681
 10
-246.5125610871
 20
179.1369074987
 10
-247.1688837169
 20
184.4988697751
 10
-247.4753664313
 20
189.8712892521
 10
-247.4315754382
 20
195.2465618708
 10
-247.037572719
 20
200.6170795339
 10
-246.2939159403
 20
205.9752408742
 10
-245.2016576652
 20
211.3134620134
 10
-243.7623438632
 20
216.6241872964
 10
-241.978011722
 20
221.8998999856
 10
-239.8511867642
 20
227.1331328995
 10
-237.3848792727
 20
232.3164789822
 10
-234.58258003
 20
237.4426017869
 10
-231.4482553773
 20
242.50424586
 10
-227.9863416006
 20
247.4942470103
 10
-224.2017386518
 20
252.4055424492
 10
-220.099803213
 20
257.2311807872
 10
-215.6863411154
 20
261.9643318729
 10
-210.9675991208
 20
266.5982964602
 10
-205.9502560809
 20
271.1265156903
 10
-200.6414134839
 20
275.5425803755
 10
-195.0485854025
 20
279.8402400698
 10
-189.1796878598
 20
284.0134119166
 10
-183.0430276237
 20
288.0561892578
 10
-176.6472904506
 20
291.9628499942
 10
-170.0015287914
 20
295.7278646843
 10
-163.1151489784
 20
299.3459043709
 10
-155.9978979123
 20
302.8118481234
 10
-148.6598492661
 20
306.1207902859
 10
-141.111389227
 20
309.2680474209
 10
-133.3632017961
 20
312.2491649378
 10
-125.4262536663
 20
315.0599233982
 10
-117.3117787001
 20
317.6963444878
 10
-109.0312620295
 20
320.1546966472
 10
-100.5964237998
 20
322.431500354
 10
-92.0192025813
 20
324.5235330471
 10
-83.3117384716
 20
326.4278336881
 10
-74.4863559123
 20
328.1417069525
 10
-65.5555462456
 20
329.6627270443
 10
-56.5319500339
 20
330.9887411296
 10
-47.4283391686
 20
332.1178723838
 10
-38.2575987928
 20
333.0485226478
 10
-29.032709064
 20
333.7793746904
 10
-19.7667267821
 20
334.309394072
 10
-10.4727669089
 20
334.6378306097
 10
-1.1639840052
 20
334.7642194381
 10
8.1464463877
 20
334.688381668
 10
17.4453463967
 20
334.4104246394
 10
26.7195544687
 20
333.9307417692
 10
35.9559439992
 20
333.2500119951
 10
45.1414419117
 20
332.3691988137
 10
54.2630471612
 20
331.2895489178
 10
63.3078491353
 20
330.0125904309
 10
72.2630459283
 20
328.5401307451
 10
81.1159624605
 20
326.8742539624
 10
89.8540684186
 20
325.017317945
 10
98.4649959907
 20
322.9719509783
 10
106.9365573718
 20
320.7410480504
 10
115.256762014
 20
318.3277667551
 10
123.413833598
 20
315.735522822
 10
131.3962267013
 20
312.9679852827
 10
139.192643139
 20
310.029071277
 10
146.7920479554
 20
306.922940509
 10
154.1836850428
 20
303.6539893596
 10
161.3570923655
 20
300.2268446635
 10
168.3021167676
 20
296.6463571608
 10
175.0089283437
 20
292.9175946312
  0
LWPOLYLINE
  5
77
330
1F
100
AcDbEntity
  8
0
  6
Continuous
 62
     7
370
    25
100
AcDbPolyline
 90
       68
 70
   128
 43
0.0
 10
221.2789312266
 20
81.3236486139
 10
219.6143061438
 20
78.1600512059
 10
216.727570981
 20
73.2442045084
 10
213.510795477
 20
68.3971202294
 10
209.9688782504
 20
63.6261796787
 10
206.1072130569
 20
58.9386482118
 10
201.9316805756
 20
54.3416641659
 10
197.4486394536
 20
49.8422279894
 10
192.6649166232
 20
45.4471915814
 10
187.5877969051
 20
41.1632478575
 10
182.2250119151
 20
36.9969205572
 10
176.5847282903
 20
32.9545543098
 10
170.6755352522
 20
29.0423049723
 10
164.5064315271
 20
25.2661302551
 10
158.0868116422
 20
21.6317806495
 10
151.4264516199
 20
18.1447906703
 10
144.5354940898
 20
14.8104704281
 10
137.4244328435
 20
11.6338975427
 10
130.1040968543
 20
8.6199094106
 10
122.5856337865
 20
5.7730958386
 10
114.880493019
 20
3.097792054
 10
107.0004082104
 20
0.5980721034
 10
98.95737943
 20
-1.7222573522
 10
90.7636548838
 20
-3.8596628337
 10
82.4317122628
 20
-5.8108894251
 10
73.9742397413
 20
-7.5729657302
 10
65.4041166548
 20
-9.1432083975
 10
56.7343938871
 20
-10.5192262064
 10
47.9782739959
 20
-11.6989237087
 10
39.1490911076
 20
-12.6805044198
 10
30.2602906111
 20
-13.462473554
 10
21.3254086836
 20
-14.0436403015
 10
12.3580516762
 20
-14.4231196411
 10
3.3718753947
 20
-14.6003336884
 10
-5.6194356969
 20
-14.5750125756
 10
-14.6021893148
 20
-14.3471948626
 10
-23.5627062071
 20
-13.9172274782
 10
-32.4873409845
 20
-13.2857651918
 10
-41.3625029005
 20
-12.4537696163
 10
-50.1746765473
 20
-11.4225077437
 10
-58.9104424381
 20
-10.1935500158
 10
-67.5564974424
 20
-8.7687679324
 10
-76.0996750447
 20
-7.1503312017
 10
-84.5269653946
 20
-5.3407044358
 10
-92.8255351191
 20
-3.3426433978
 10
-100.9827468652
 20
-1.159190805
 10
-108.9861785452
 20
1.2063283043
 10
-116.8236422526
 20
3.7503116349
 10
-124.4832028231
 20
6.4688851197
 10
-131.9531960094
 20
9.3579088197
 10
-139.2222462439
 20
12.4129832283
 10
-146.2792839624
 20
15.6294559713
 10
-153.1135624604
 20
19.0024288912
 10
-159.714674259
 20
22.5267655065
 10
-166.0725669538
 20
26.197098834
 10
-172.1775585231
 20
30.0078395614
 10
-178.0203520717
 20
33.9531845593
 10
-183.5920499888
 20
38.0271257179
 10
-188.8841674974
 20
42.2234590968
 10
-193.8886455757
 20
46.5357943726
 10
-198.597863229
 20
50.9575645699
 10
-203.0046490955
 20
55.4820360621
 10
-207.1022923674
 20
60.1023188255
 10
-210.8845530098
 20
64.8113769314
 10
-214.3456712636
 20
69.6020392612
 10
-217.4803764168
 20
74.4670104264
 10
-220.2838948303
 20
79.3988818784
 10
-221.282209919
 20
81.330170727
  0
LWPOLYLINE
  5
78
330
1F
100
AcDbEntity
  8
0
  6
Continuous
 62
     7
370
    25
100
AcDbPolyline
 90
      162
 70
   128
 43
0.0
 10
164.4023266259
 20
286.7945337925
 10
170.6914838128
 20
283.0193522486
 10
176.7207060257
 20
279.1053913028
 10
182.4808117537
 20
275.0586112721
 10
187.9630293058
 20
270.8851747349
 10
193.159010169
 20
266.5914371468
 10
198.0608417216
 20
262.1839371617
 10
202.6610592826
 20
257.6693866752
 10
206.9526574796
 20
253.054660603
 10
210.9291009163
 20
248.3467864116
 10
214.5843341254
 20
243.5529334168
 10
217.9127907896
 20
238.6804018661
 10
220.9094022184
 20
233.7366118213
 10
223.5696050669
 20
228.7290918591
 10
225.889348285
 20
223.6654676063
 10
227.8650992865
 20
218.5534501276
 10
229.4938493283
 20
213.4008241823
 10
230.773118093
 20
208.2154363697
 10
231.7009574651
 20
203.0051831802
 10
232.2759544985
 20
197.7779989699
 10
232.4972335673
 20
192.5418438782
 10
232.3644577001
 20
187.3046917056
 10
231.8778290927
 20
182.0745177709
 10
231.0380888002
 20
176.8592867663
 10
229.8465156084
 20
171.6669406284
 10
228.3049240869
 20
166.5053864438
 10
226.4156618252
 20
161.3824844082
 10
224.1816058581
 20
156.3060358564
 10
221.6061582843
 20
151.2837713821
 10
218.6932410857
 20
146.3233390657
 10
215.4472901546
 20
141.4322928274
 10
211.873248539
 20
136.6180809237
 10
207.9765589146
 20
131.8880346055
 10
203.7631552971
 20
127.2493569528
 10
199.239454005
 20
122.7091119067
 10
194.4123438892
 20
118.2742135115
 10
189.2891758423
 20
113.9514153858
 10
183.8777516041
 20
109.7473004382
 10
178.1863118811
 20
105.6682708422
 10
172.2235237971
 20
101.7205382871
 10
165.998467695
 20
97.9101145184
 10
159.5206233081
 20
94.2428021829
 10
152.7998553252
 20
90.7241859924
 10
145.8463983671
 20
87.3596242189
 10
138.6708414018
 20
84.1542405351
 10
131.2841116191
 20
81.1129162116
 10
123.6974577898
 20
78.2402826836
 10
115.9224331364
 20
75.5407144982
 10
107.9708777389
 20
73.0183226523
 10
99.8549005045
 20
70.6769483328
 10
91.5868607278
 20
68.5201570665
 10
83.1793492697
 20
66.5512332907
 10
74.6451693831
 20
64.7731753516
 10
65.9973172164
 20
63.188690938
 10
57.2489620219
 20
61.8001929585
 10
48.4134261016
 20
60.6097958664
 10
39.5041645192
 20
59.6193124401
 10
30.5347446104
 20
58.8302510224
 10
21.5188253224
 20
58.2438132238
 10
12.470136413
 20
57.8608920924
 10
3.4024575427
 20
57.6820707537
 10
-5.6704027091
 20
57.7076215233
 10
-14.7346278729
 20
57.9375054915
 10
-23.776414629
 20
58.3713725829
 10
-32.7819938276
 20
59.0085620896
 10
-41.737651457
 20
59.848103677
 10
-50.6297495279
 20
60.8887188617
 10
-59.4447468417
 20
62.1288229586
 10
-68.1692196116
 20
63.5665274936
 10
-76.7898819046
 20
65.1996430798
 10
-85.293605874
 20
67.0256827516
 10
-93.667441751
 20
69.0418657519
 10
-101.8986375648
 20
71.2451217664
 10
-109.9746585619
 20
73.6320955996
 10
-117.8832062945
 20
76.1991522842
 10
-125.6122373489
 20
78.9423826163
 10
-133.1499816857
 20
81.8576091085
 10
-140.4849605637
 20
84.9403923519
 10
-147.6060040199
 20
88.186037776
 10
-154.5022678798
 20
91.5896027982
 10
-161.163250271
 20
95.1459043504
 10
-167.5788076162
 20
98.8495267719
 10
-173.7391700798
 20
102.6948300568
 10
-179.6349564458
 20
106.6759584424
 10
-185.2571884042
 20
110.7868493269
 10
-190.5973042231
 20
115.0212425016
 10
-195.6471717869
 20
119.3726896841
 10
-200.3991009803
 20
123.8345643381
 10
-204.8458553991
 20
128.4000717645
 10
-208.9806633697
 20
133.0622594487
 10
-212.7972282616
 20
137.8140276478
 10
-216.289738076
 20
142.6481402026
 10
-219.4528742967
 20
147.5572355571
 10
-222.2818199888
 20
152.5338379689
 10
-224.7722671348
 20
157.5703688934
 10
-226.9204231944
 20
162.6591585247
 10
-228.7230168804
 20
167.7924574757
 10
-230.1773031398
 20
172.9624485788
 10
-231.2810673345
 20
178.1612587904
 10
-232.0326286138
 20
183.38097118
 10
-232.4308424739
 20
188.6136369866
 10
-232.4751025006
 20
193.8512877235
 10
-232.1653412933
 20
199.0859473124
 10
-231.5020305672
 20
204.3096442303
 10
-230.4861804351
 20
209.5144236484
 10
-229.1193378692
 20
214.6923595463
 10
-227.4035843453
 20
219.8355667816
 10
-225.341532673
 20
224.9362130981
 10
-222.9363230168
 20
229.9865310528
 10
-220.1916181142
 20
234.9788298446
 10
-217.1115976982
 20
239.9055070258
 10
-213.7009521318
 20
244.7590600798
 10
-209.9648752655
 20
249.5320978459
 10
-205.9090565281
 20
254.2173517749
 10
-201.5396722627
 20
258.8076869979
 10
-196.8633763206
 20
263.2961131914
 10
-191.8872899292
 20
267.6757952229
 10
-186.6189908474
 20
271.940063559
 10
-181.0665018256
 20
276.0824244224
 10
-175.2382783886
 20
280.0965696808
 10
-169.1431959595
 20
283.9763864532
 10
-162.7905363432
 20
287.7159664185
 10
-156.1899735927
 20
291.3096148133
 10
-149.3515592761
 20
294.7518591039
 10
-142.2857071705
 20
298.0374573201
 10
-135.0031774031
 20
301.1614060377
 10
-127.5150600655
 20
304.1189479981
 10
-119.8327583251
 20
306.9055793528
 10
-111.9679710604
 20
309.5170565219
 10
-103.9326750451
 20
311.9494026564
 10
-95.7391067094
 20
314.1989136944
 10
-87.3997435066
 20
316.2621640016
 10
-78.9272849111
 20
318.1360115881
 10
-70.3346330798
 20
319.8176028932
 10
-61.6348732042
 20
321.3043771306
 10
-52.8412535834
 20
322.5940701885
 10
-43.9671654497
 20
323.6847180771
 10
-35.0261225754
 20
324.5746599196
 10
-26.031740694
 20
325.2625404812
 10
-16.9977167655
 20
325.7473122335
 10
-7.9378081182
 20
326.0282369489
 10
1.1341885015
 20
326.1048868254
 10
10.2044579392
 20
325.977145138
 10
19.2591876707
 20
325.6452064162
 10
28.2845888362
 20
325.1095761479
 10
37.2669172386
 20
324.3710700096
 10
46.1924942731
 20
323.4308126244
 10
55.0477277585
 20
322.2902358491
 10
63.8191326346
 20
320.9510765941
 10
72.4933514988
 20
319.415374178
 10
81.0571749465
 20
317.6854672222
 10
89.4975616873
 20
315.7639900898
 10
97.8016584043
 20
313.6538688734
 10
105.9568193282
 20
311.3583169396
 10
113.9506254939
 20
308.8808300352
 10
121.7709036533
 20
306.2251809643
 10
129.4057448127
 20
303.3954138423
 10
136.8435223684
 20
300.3958379378
 10
144.0729098121
 20
297.23102111
 10
151.0828979791
 20
293.9057828529
 10
157.8628118138
 20
290.4251869559
 10
164.4023266259
 20
286.7945337925
  0
LWPOLYLINE
  5
79
330
1F
100
AcDbEntity
  8
0
  6
Continuous
 62
     7
370
    25
100
AcDbPolyline
 90
       68
 70
   128
 43
0.0
 10
216.9242834374
 20
73.5601056954
 10
216.1403452358
 20
71.9570294713
 10
213.5017797074
 20
67.0557616053
 10
210.5298564942
 20
62.2184970261
 10
207.2292159015
 20
57.4527885482
 10
203.6050114878
 20
52.7660772597
 10
199.6629020179
 20
48.1656809039
 10
195.409042628
 20
43.6587824536
 10
190.8500752145
 20
39.2524188958
 10
185.9931180638
 20
34.9534702441
 10
180.845754738
 20
30.7686487964
 10
175.4160222338
 20
26.7044886547
 10
169.712398434
 20
22.7673355226
 10
163.7437888702
 20
18.9633367974
 10
157.5195128176
 20
15.2984319715
 10
151.0492887444
 20
11.7783433588
 10
144.3432191374
 20
8.4085671597
 10
137.4117747284
 20
5.1943648798
 10
130.2657781449
 20
2.1407551143
 10
122.9163870123
 20
-0.7474942874
 10
115.3750765324
 20
-3.465873667
 10
107.6536215663
 20
-6.0101385976
 10
99.7640782495
 20
-8.3763165116
 10
91.7187651671
 20
-10.560712903
 10
83.5302441207
 20
-12.5599170963
 10
75.2113005136
 20
-14.3708075713
 10
66.7749233889
 20
-15.9905568376
 10
58.2342851481
 20
-17.4166358489
 10
49.6027209838
 20
-18.6468179522
 10
40.8937080588
 20
-19.6791823641
 10
32.1208444631
 20
-20.5121171702
 10
23.2978279818
 20
-21.1443218417
 10
14.4384347077
 20
-21.5748092659
 10
5.5564975317
 20
-21.8029072879
 10
-3.3341154556
 20
-21.8282597597
 10
-12.2195226174
 20
-21.6508270964
 10
-21.0858504451
 20
-21.2708863381
 10
-29.9192552204
 20
-20.6890307171
 10
-38.7059446303
 20
-19.906168732
 10
-47.4321993024
 20
-18.9235227288
 10
-56.0843942258
 20
-17.7426269925
 10
-64.6490200252
 20
-16.3653253517
 10
-73.1127040542
 20
-14.7937682994
 10
-81.4622312747
 20
-13.0304096355
 10
-89.6845648913
 20
-11.078002635
 10
-97.766866706
 20
-8.9395957498
 10
-105.696517164
 20
-6.6185278485
 10
-113.4611350573
 20
-4.1184230029
 10
-121.0485968569
 20
-1.44318483
 10
-128.4470556419
 20
1.4030096032
 10
-135.644959597
 20
4.4157163022
 10
-142.6310700498
 20
7.590231283
 10
-149.394479018
 20
10.9215979173
 10
-155.9246262414
 20
14.4046146715
 10
-162.2113156703
 20
18.0338432285
 10
-168.2447313854
 20
21.8036169787
 10
-174.0154529243
 20
25.7080498679
 10
-179.5144699904
 20
29.7410455875
 10
-184.7331965212
 20
33.8963070936
 10
-189.6634840948
 20
38.1673464385
 10
-194.2976346524
 20
42.5474949013
 10
-198.628412518
 20
47.0299134002
 10
-202.649055696
 20
51.6076031707
 10
-206.3532864295
 20
56.2734166937
 10
-209.7353210018
 20
61.0200688552
 10
-212.7898787675
 20
65.8401483214
 10
-215.5121903972
 20
70.7261291103
 10
-216.9242834374
 20
73.5601056954
  0
CIRCLE
  5
7A
330
1B
100
AcDbEntity
 67
     1
  8
0
  6
Continuous
 62
     7
370
    25
100
AcDbCircle
 10
0.0000000001
 20
0.0
 30
0.0
 40
247.500000000001
  0
CIRCLE
  5
7B
330
1B
100
AcDbEntity
 67
     1
  8
0
  6
Continuous
 62
     7
370
    25
100
AcDbCircle
 10
0.0
 20
0.0
 30
0.0
 40
37.50000000000003
  0
CIRCLE
  5
7C
330
1B
100
AcDbEntity
 67
     1
  8
0
  6
Continuous
 62
     7
370
    25
100
AcDbCircle
 10
0.0
 20
0.0
 30
0.0
 40
232.4999999999999
  0
CIRCLE
  5
7D
330
1B
100
AcDbEntity
 67
     1
  8
0
  6
Continuous
 62
     7
370
    25
100
AcDbCircle
 10
0.0
 20
0.0
 30
0.0
 40
22.99999999999999
  0
VIEWPORT
  5
167
330
1B
100
AcDbEntity
 67
     1
  8
0
100
AcDbViewport
 10
0.0
 20
0.0
 30
0.0
 40
205.6
 41
156.0
 68
     1
 69
     1
 12
0.00828698
 22
139.9922847906
 13
0.0
 23
0.0
 14
10.0
 24
10.0
 15
10.0
 25
10.0
 16
0.0
 26
0.0
 36
1.0
 17
0.0
 27
0.0
 37
0.0
 42
50.0
 43
0.0
 44
0.0
 45
397.3347466809
 50
0.0
 51
0.0
 72
   100
 90
   557152
  1

281
     0
 71
     1
 74
     0
110
0.0
120
0.0
130
0.0
111
1.0
121
0.0
131
0.0
112
0.0
122
1.0
132
0.0
 79
     0
146
0.0
170
     0
 61
     5
348
2F
292
     1
282
     1
141
0.0
142
0.0
 63
   256
361
168
  0
ENDSEC
  0
SECTION
  2
OBJECTS
  0
DICTIONARY
  5
C
330
0
100
AcDbDictionary
281
     1
  3
ACAD_DETAILVIEWSTYLE
350
183
  3
ACAD_GROUP
350
D
  3
ACAD_LAYOUT
350
1A
  3
ACAD_MATERIAL
350
43
  3
ACAD_MLEADERSTYLE
350
6B
  3
ACAD_MLINESTYLE
350
17
  3
ACAD_PLOTSETTINGS
350
19
  3
ACAD_PLOTSTYLENAME
350
E
  3
ACAD_SCALELIST
350
47
  3
ACAD_SECTIONVIEWSTYLE
350
184
  3
ACAD_TABLESTYLE
350
69
  3
ACAD_VISUALSTYLE
350
2A
  3
ACDB_RECOMPOSE_DATA
350
180
  3
AcDbVariableDictionary
350
17B
  0
SUN
  5
6D
330
29
100
AcDbSun
 90
        1
290
     0
 63
     7
421
 16777215
 40
1.0
291
     1
 91
  2455826
 92
 54000000
292
     0
 70
     2
 71
   256
280
     1
  0
SUN
  5
16A
330
169
100
AcDbSun
 90
        1
290
     0
 63
     7
421
 16777215
 40
1.0
291
     1
 91
  2455826
 92
 54000000
292
     0
 70
     2
 71
   256
280
     1
  0
SUN
  5
16C
330
16B
100
AcDbSun
 90
        1
290
     0
 63
     7
421
 16777215
 40
1.0
291
     1
 91
  2455826
 92
 54000000
292
     0
 70
     2
 71
   256
280
     1
  0
SUN
  5
16E
330
16D
100
AcDbSun
 90
        1
290
     0
 63
     7
421
 16777215
 40
1.0
291
     1
 91
  2455826
 92
 54000000
292
     0
 70
     2
 71
   256
280
     1
  0
SUN
  5
170
330
16F
100
AcDbSun
 90
        1
290
     0
 63
     7
421
 16777215
 40
1.0
291
     1
 91
  2455826
 92
 54000000
292
     0
 70
     2
 71
   256
280
     1
  0
SUN
  5
172
330
171
100
AcDbSun
 90
        1
290
     0
 63
     7
421
 16777215
 40
1.0
291
     1
 91
  2455826
 92
 54000000
292
     0
 70
     2
 71
   256
280
     1
  0
SUN
  5
174
330
173
100
AcDbSun
 90
        1
290
     0
 63
     7
421
 16777215
 40
1.0
291
     1
 91
  2455826
 92
 54000000
292
     0
 70
     2
 71
   256
280
     1
  0
SUN
  5
176
330
175
100
AcDbSun
 90
        1
290
     0
 63
     7
421
 16777215
 40
1.0
291
     1
 91
  2455826
 92
 54000000
292
     0
 70
     2
 71
   256
280
     1
  0
SUN
  5
178
330
177
100
AcDbSun
 90
        1
290
     0
 63
     7
421
 16777215
 40
1.0
291
     1
 91
  2455826
 92
 54000000
292
     0
 70
     2
 71
   256
280
     1
  0
SUN
  5
17A
330
179
100
AcDbSun
 90
        1
290
     0
 63
     7
421
 16777215
 40
1.0
291
     1
 91
  2455826
 92
 54000000
292
     0
 70
     2
 71
   256
280
     1
  0
SUN
  5
168
330
167
100
AcDbSun
 90
        1
290
     0
 63
     7
421
 16777215
 40
1.0
291
     1
 91
  2455826
 92
 54000000
292
     0
 70
     2
 71
   256
280
     1
  0
DICTIONARY
  5
183
102
{ACAD_REACTORS
330
C
102
}
330
C
100
AcDbDictionary
281
     1
  0
DICTIONARY
  5
D
102
{ACAD_REACTORS
330
C
102
}
330
C
100
AcDbDictionary
281
     1
  0
DICTIONARY
  5
1A
102
{ACAD_REACTORS
330
C
102
}
330
C
100
AcDbDictionary
281
     1
  3
_Dimetrisch
350
157
  3
_Isometrisch
350
141
  3
_Links
350
9F
  3
_Normal auf
350
C3
  3
_Oben
350
1E
  3
_Rechts
350
111
  3
_Rückseite
350
E7
  3
_Trimetrisch
350
14C
  3
_Unten
350
135
  3
_Vorderseite
350
26
  3
Model
350
22
  0
DICTIONARY
  5
43
102
{ACAD_REACTORS
330
C
102
}
330
C
100
AcDbDictionary
281
     1
  3
ByBlock
350
45
  3
ByLayer
350
44
  3
Global
350
46
  0
DICTIONARY
  5
6B
102
{ACAD_REACTORS
330
C
102
}
330
C
100
AcDbDictionary
281
     1
  3
Standard
350
6C
  0
DICTIONARY
  5
17
102
{ACAD_REACTORS
330
C
102
}
330
C
100
AcDbDictionary
281
     1
  3
Standard
350
18
  0
DICTIONARY
  5
19
102
{ACAD_REACTORS
330
C
102
}
330
C
100
AcDbDictionary
281
     1
  0
ACDBDICTIONARYWDFLT
  5
E
102
{ACAD_REACTORS
330
C
102
}
330
C
100
AcDbDictionary
281
     1
  3
Normal
350
F
100
AcDbDictionaryWithDefault
340
F
  0
DICTIONARY
  5
47
102
{ACAD_REACTORS
330
C
102
}
330
C
100
AcDbDictionary
281
     1
  3
A0
350
48
  3
A1
350
49
  3
A2
350
4A
  3
A3
350
4B
  3
A4
350
4C
  3
A5
350
4D
  3
A6
350
4E
  3
A7
350
4F
  3
A8
350
50
  3
A9
350
51
  3
B0
350
52
  3
B1
350
53
  3
B2
350
54
  3
B3
350
55
  3
B4
350
56
  3
B5
350
57
  3
B6
350
58
  3
B7
350
59
  3
B8
350
5A
  3
B9
350
5B
  3
C0
350
5C
  3
C1
350
5D
  3
C2
350
5E
  3
C3
350
5F
  3
C4
350
60
  3
C5
350
61
  3
C6
350
62
  3
C7
350
63
  3
C8
350
64
  3
C9
350
65
  3
D0
350
66
  3
D1
350
67
  3
D2
350
68
  0
DICTIONARY
  5
184
102
{ACAD_REACTORS
330
C
102
}
330
C
100
AcDbDictionary
281
     1
  0
DICTIONARY
  5
69
102
{ACAD_REACTORS
330
C
102
}
330
C
100
AcDbDictionary
281
     1
  3
Standard
350
6A
  0
DICTIONARY
  5
2A
102
{ACAD_REACTORS
330
C
102
}
330
C
100
AcDbDictionary
281
     1
  3
2dWireframe
350
2F
  3
Basic
350
32
  3
Brighten
350
36
  3
ColorChange
350
3A
  3
Conceptual
350
34
  3
Dim
350
35
  3
EdgeColorOff
350
3D
  3
Facepattern
350
39
  3
Flat
350
2B
  3
FlatWithEdges
350
2C
  3
Gouraud
350
2D
  3
GouraudWithEdges
350
2E
  3
Hidden
350
31
  3
JitterOff
350
3B
  3
Linepattern
350
38
  3
OverhangOff
350
3C
  3
Realistic
350
33
  3
Shaded
350
42
  3
Shaded with edges
350
41
  3
Shades of Gray
350
3E
  3
Sketchy
350
3F
  3
Thicken
350
37
  3
Wireframe
350
30
  3
X-Ray
350
40
  0
XRECORD
  5
180
102
{ACAD_REACTORS
330
C
102
}
330
C
100
AcDbXrecord
280
     1
 90
        1
330
6A
  0
DICTIONARY
  5
17B
102
{ACAD_REACTORS
330
C
102
}
330
C
100
AcDbDictionary
281
     1
  3
CANNOSCALE
350
17C
  3
CMLEADERSTYLE
350
182
  3
CTABLESTYLE
350
181
  0
LAYOUT
  5
157
102
{ACAD_REACTORS
330
1A
102
}
330
1A
100
AcDbPlotSettings
  1

  2
none_device
  4
ISO_A4_(210.00_x_297.00_MM)
  6

 40
7.5
 41
20.0
 42
7.5
 43
20.0
 44
210.0
 45
297.0
 46
0.0
 47
0.0
 48
0.0
 49
0.0
140
0.0
141
0.0
142
1.0
143
2.5384615385
 70
   688
 72
     1
 73
     1
 74
     1
  7

 75
     0
 76
     0
 77
     2
 78
   300
147
0.3939393939
148
247.4999999999
149
247.5
100
AcDbLayout
  1
_Dimetrisch
 70
     1
 71
    10
 10
0.0
 20
0.0
 11
0.0
 21
0.0
 12
0.0
 22
0.0
 32
0.0
 14
0.0
 24
0.0
 34
0.0
 15
0.0
 25
0.0
 35
0.0
146
0.0
 13
0.0
 23
0.0
 33
0.0
 16
1.0
 26
0.0
 36
0.0
 17
0.0
 27
1.0
 37
0.0
 76
     0
330
156
331
179
  0
LAYOUT
  5
141
102
{ACAD_REACTORS
330
1A
102
}
330
1A
100
AcDbPlotSettings
  1

  2
none_device
  4
ISO_A4_(210.00_x_297.00_MM)
  6

 40
7.5
 41
20.0
 42
7.5
 43
20.0
 44
210.0
 45
297.0
 46
0.0
 47
0.0
 48
0.0
 49
0.0
140
0.0
141
0.0
142
1.0
143
2.5384615385
 70
   688
 72
     1
 73
     1
 74
     1
  7

 75
     0
 76
     0
 77
     2
 78
   300
147
0.3939393939
148
247.4999999999
149
247.5
100
AcDbLayout
  1
_Isometrisch
 70
     1
 71
     8
 10
0.0
 20
0.0
 11
0.0
 21
0.0
 12
0.0
 22
0.0
 32
0.0
 14
0.0
 24
0.0
 34
0.0
 15
0.0
 25
0.0
 35
0.0
146
0.0
 13
0.0
 23
0.0
 33
0.0
 16
1.0
 26
0.0
 36
0.0
 17
0.0
 27
1.0
 37
0.0
 76
     0
330
140
331
175
  0
LAYOUT
  5
9F
102
{ACAD_REACTORS
330
1A
102
}
330
1A
100
AcDbPlotSettings
  1

  2
none_device
  4
ISO_A4_(210.00_x_297.00_MM)
  6

 40
7.5
 41
20.0
 42
7.5
 43
20.0
 44
210.0
 45
297.0
 46
0.0
 47
0.0
 48
0.0
 49
0.0
140
0.0
141
0.0
142
1.0
143
2.5384615385
 70
   688
 72
     1
 73
     1
 74
     1
  7

 75
     0
 76
     0
 77
     2
 78
   300
147
0.3939393939
148
247.4999999999
149
247.5
100
AcDbLayout
  1
_Links
 70
     1
 71
     3
 10
0.0
 20
0.0
 11
0.0
 21
0.0
 12
0.0
 22
0.0
 32
0.0
 14
0.0
 24
0.0
 34
0.0
 15
0.0
 25
0.0
 35
0.0
146
0.0
 13
0.0
 23
0.0
 33
0.0
 16
1.0
 26
0.0
 36
0.0
 17
0.0
 27
1.0
 37
0.0
 76
     0
330
9E
331
16B
  0
LAYOUT
  5
C3
102
{ACAD_REACTORS
330
1A
102
}
330
1A
100
AcDbPlotSettings
  1

  2
none_device
  4
ISO_A4_(210.00_x_297.00_MM)
  6

 40
7.5
 41
20.0
 42
7.5
 43
20.0
 44
210.0
 45
297.0
 46
0.0
 47
0.0
 48
0.0
 49
0.0
140
0.0
141
0.0
142
1.0
143
2.5384615385
 70
   688
 72
     1
 73
     1
 74
     1
  7

 75
     0
 76
     0
 77
     2
 78
   300
147
0.3939393939
148
247.4999999999
149
247.5
100
AcDbLayout
  1
_Normal auf
 70
     1
 71
     4
 10
0.0
 20
0.0
 11
0.0
 21
0.0
 12
0.0
 22
0.0
 32
0.0
 14
0.0
 24
0.0
 34
0.0
 15
0.0
 25
0.0
 35
0.0
146
0.0
 13
0.0
 23
0.0
 33
0.0
 16
1.0
 26
0.0
 36
0.0
 17
0.0
 27
1.0
 37
0.0
 76
     0
330
C2
331
16D
  0
LAYOUT
  5
1E
102
{ACAD_REACTORS
330
1A
102
}
330
1A
100
AcDbPlotSettings
  1

  2
none_device
  4
ISO_A4_(210.00_x_297.00_MM)
  6

 40
7.5
 41
20.0
 42
7.5
 43
20.0
 44
210.0
 45
297.0
 46
0.0
 47
0.0
 48
0.0
 49
0.0
140
0.0
141
0.0
142
1.0
143
2.5384615385
 70
   688
 72
     1
 73
     1
 74
     1
  7

 75
     0
 76
     0
 77
     2
 78
   300
147
0.3939393939
148
247.4999999999
149
247.5
100
AcDbLayout
  1
_Oben
 70
     1
 71
     1
 10
-298.2692307692
 20
-266.5384615385
 11
455.6538461539
 21
266.5384615385
 12
0.0
 22
0.0
 32
0.0
 14
-247.4999999999
 24
-247.5
 34
0.0
 15
247.5000000001
 25
247.5
 35
0.0
146
0.0
 13
0.0
 23
0.0
 33
0.0
 16
1.0
 26
0.0
 36
0.0
 17
0.0
 27
1.0
 37
0.0
 76
     0
330
1B
331
167
  0
LAYOUT
  5
111
102
{ACAD_REACTORS
330
1A
102
}
330
1A
100
AcDbPlotSettings
  1

  2
none_device
  4
ISO_A4_(210.00_x_297.00_MM)
  6

 40
7.5
 41
20.0
 42
7.5
 43
20.0
 44
210.0
 45
297.0
 46
0.0
 47
0.0
 48
0.0
 49
0.0
140
0.0
141
0.0
142
1.0
143
2.5384615385
 70
   688
 72
     1
 73
     1
 74
     1
  7

 75
     0
 76
     0
 77
     2
 78
   300
147
0.3939393939
148
247.4999999999
149
247.5
100
AcDbLayout
  1
_Rechts
 70
     1
 71
     6
 10
0.0
 20
0.0
 11
0.0
 21
0.0
 12
0.0
 22
0.0
 32
0.0
 14
0.0
 24
0.0
 34
0.0
 15
0.0
 25
0.0
 35
0.0
146
0.0
 13
0.0
 23
0.0
 33
0.0
 16
1.0
 26
0.0
 36
0.0
 17
0.0
 27
1.0
 37
0.0
 76
     0
330
110
331
171
  0
LAYOUT
  5
E7
102
{ACAD_REACTORS
330
1A
102
}
330
1A
100
AcDbPlotSettings
  1

  2
none_device
  4
ISO_A4_(210.00_x_297.00_MM)
  6

 40
7.5
 41
20.0
 42
7.5
 43
20.0
 44
210.0
 45
297.0
 46
0.0
 47
0.0
 48
0.0
 49
0.0
140
0.0
141
0.0
142
1.0
143
2.5384615385
 70
   688
 72
     1
 73
     1
 74
     1
  7

 75
     0
 76
     0
 77
     2
 78
   300
147
0.3939393939
148
247.4999999999
149
247.5
100
AcDbLayout
  1
_Rückseite
 70
     1
 71
     5
 10
0.0
 20
0.0
 11
0.0
 21
0.0
 12
0.0
 22
0.0
 32
0.0
 14
0.0
 24
0.0
 34
0.0
 15
0.0
 25
0.0
 35
0.0
146
0.0
 13
0.0
 23
0.0
 33
0.0
 16
1.0
 26
0.0
 36
0.0
 17
0.0
 27
1.0
 37
0.0
 76
     0
330
E6
331
16F
  0
LAYOUT
  5
14C
102
{ACAD_REACTORS
330
1A
102
}
330
1A
100
AcDbPlotSettings
  1

  2
none_device
  4
ISO_A4_(210.00_x_297.00_MM)
  6

 40
7.5
 41
20.0
 42
7.5
 43
20.0
 44
210.0
 45
297.0
 46
0.0
 47
0.0
 48
0.0
 49
0.0
140
0.0
141
0.0
142
1.0
143
2.5384615385
 70
   688
 72
     1
 73
     1
 74
     1
  7

 75
     0
 76
     0
 77
     2
 78
   300
147
0.3939393939
148
247.4999999999
149
247.5
100
AcDbLayout
  1
_Trimetrisch
 70
     1
 71
     9
 10
0.0
 20
0.0
 11
0.0
 21
0.0
 12
0.0
 22
0.0
 32
0.0
 14
0.0
 24
0.0
 34
0.0
 15
0.0
 25
0.0
 35
0.0
146
0.0
 13
0.0
 23
0.0
 33
0.0
 16
1.0
 26
0.0
 36
0.0
 17
0.0
 27
1.0
 37
0.0
 76
     0
330
14B
331
177
  0
LAYOUT
  5
135
102
{ACAD_REACTORS
330
1A
102
}
330
1A
100
AcDbPlotSettings
  1

  2
none_device
  4
ISO_A4_(210.00_x_297.00_MM)
  6

 40
7.5
 41
20.0
 42
7.5
 43
20.0
 44
210.0
 45
297.0
 46
0.0
 47
0.0
 48
0.0
 49
0.0
140
0.0
141
0.0
142
1.0
143
2.5384615385
 70
   688
 72
     1
 73
     1
 74
     1
  7

 75
     0
 76
     0
 77
     2
 78
   300
147
0.3939393939
148
247.4999999999
149
247.5
100
AcDbLayout
  1
_Unten
 70
     1
 71
     7
 10
0.0
 20
0.0
 11
0.0
 21
0.0
 12
0.0
 22
0.0
 32
0.0
 14
0.0
 24
0.0
 34
0.0
 15
0.0
 25
0.0
 35
0.0
146
0.0
 13
0.0
 23
0.0
 33
0.0
 16
1.0
 26
0.0
 36
0.0
 17
0.0
 27
1.0
 37
0.0
 76
     0
330
134
331
173
  0
LAYOUT
  5
26
102
{ACAD_REACTORS
330
1A
102
}
330
1A
100
AcDbPlotSettings
  1

  2
none_device
  4
ISO_A4_(210.00_x_297.00_MM)
  6

 40
7.5
 41
20.0
 42
7.5
 43
20.0
 44
210.0
 45
297.0
 46
0.0
 47
0.0
 48
0.0
 49
0.0
140
0.0
141
0.0
142
1.0
143
2.5384615385
 70
   688
 72
     1
 73
     1
 74
     1
  7

 75
     0
 76
     0
 77
     2
 78
   300
147
0.3939393939
148
247.4999999999
149
247.5
100
AcDbLayout
  1
_Vorderseite
 70
     1
 71
     2
 10
0.0
 20
0.0
 11
0.0
 21
0.0
 12
0.0
 22
0.0
 32
0.0
 14
0.0
 24
0.0
 34
0.0
 15
0.0
 25
0.0
 35
0.0
146
0.0
 13
0.0
 23
0.0
 33
0.0
 16
1.0
 26
0.0
 36
0.0
 17
0.0
 27
1.0
 37
0.0
 76
     0
330
23
331
169
  0
LAYOUT
  5
22
102
{ACAD_REACTORS
330
1A
102
}
330
1A
100
AcDbPlotSettings
  1

  2
none_device
  4
ANSI_A_(11.00_x_8.50_Inches)
  6

 40
6.35
 41
19.05
 42
6.35000508
 43
19.05000254
 44
279.4
 45
215.9
 46
133.3454504307
 47
12.0868505791
 48
0.0
 49
0.0
140
0.0
141
0.0
142
0.0216021883
143
1.0
 70
  1696
 72
     0
 73
     0
 74
     0
  7

 75
     0
 76
     0
 77
     2
 78
   300
147
0.0179189148
148
-1300.4909072572
149
0.0
100
AcDbLayout
  1
Model
 70
     1
 71
     0
 10
0.0
 20
0.0
 11
420.0
 21
297.0
 12
0.0
 22
0.0
 32
0.0
 14
-247.4806889364
 24
-54.7796498569
 34
0.0
 15
247.4972628965
 25
334.7642194381
 35
0.0
146
0.0
 13
0.0
 23
0.0
 33
0.0
 16
1.0
 26
0.0
 36
0.0
 17
0.0
 27
1.0
 37
0.0
 76
     0
330
1F
331
29
  0
MATERIAL
  5
45
102
{ACAD_REACTORS
330
43
102
}
330
43
100
AcDbMaterial
  1
ByBlock
 72
     1
 94
      127
  0
MATERIAL
  5
44
102
{ACAD_REACTORS
330
43
102
}
330
43
100
AcDbMaterial
  1
ByLayer
 72
     1
 94
      127
  0
MATERIAL
  5
46
102
{ACAD_REACTORS
330
43
102
}
330
43
100
AcDbMaterial
  1
Global
 72
     1
 94
      127
  0
MLEADERSTYLE
  5
6C
102
{ACAD_REACTORS
330
6B
102
}
330
6B
100
AcDbMLeaderStyle
170
     2
171
     1
172
     0
 90
        2
 40
0.0
 41
0.0
173
     1
 91
-1056964608
340
14
 92
       -2
290
     1
 42
2.0
291
     1
 43
8.0
  3
Standard
341
0
 44
4.0
300

342
11
174
     1
178
     6
175
     1
176
     0
 93
-1056964608
 45
4.0
292
     0
297
     0
 46
4.0
343
0
 94
-1056964608
 47
1.0
 49
1.0
140
1.0
293
     1
141
0.0
294
     1
177
     0
142
1.0
295
     0
296
     0
143
3.75
1001
ACAD_MLEADERVER
1070
     2
  0
MLINESTYLE
  5
18
102
{ACAD_REACTORS
330
17
102
}
330
17
100
AcDbMlineStyle
  2
Standard
 70
     0
  3

 62
   256
 51
90.0
 52
90.0
 71
     2
 49
0.5
 62
   256
  6
BYLAYER
 49
-0.5
 62
   256
  6
BYLAYER
  0
ACDBPLACEHOLDER
  5
F
102
{ACAD_REACTORS
330
E
102
}
330
E
  0
SCALE
  5
48
102
{ACAD_REACTORS
330
47
102
}
330
47
100
AcDbScale
 70
     0
300
1:1
140
1.0
141
1.0
290
     1
  0
SCALE
  5
49
102
{ACAD_REACTORS
330
47
102
}
330
47
100
AcDbScale
 70
     0
300
1:2
140
1.0
141
2.0
290
     0
  0
SCALE
  5
4A
102
{ACAD_REACTORS
330
47
102
}
330
47
100
AcDbScale
 70
     0
300
1:4
140
1.0
141
4.0
290
     0
  0
SCALE
  5
4B
102
{ACAD_REACTORS
330
47
102
}
330
47
100
AcDbScale
 70
     0
300
1:5
140
1.0
141
5.0
290
     0
  0
SCALE
  5
4C
102
{ACAD_REACTORS
330
47
102
}
330
47
100
AcDbScale
 70
     0
300
1:8
140
1.0
141
8.0
290
     0
  0
SCALE
  5
4D
102
{ACAD_REACTORS
330
47
102
}
330
47
100
AcDbScale
 70
     0
300
1:10
140
1.0
141
10.0
290
     0
  0
SCALE
  5
4E
102
{ACAD_REACTORS
330
47
102
}
330
47
100
AcDbScale
 70
     0
300
1:16
140
1.0
141
16.0
290
     0
  0
SCALE
  5
4F
102
{ACAD_REACTORS
330
47
102
}
330
47
100
AcDbScale
 70
     0
300
1:20
140
1.0
141
20.0
290
     0
  0
SCALE
  5
50
102
{ACAD_REACTORS
330
47
102
}
330
47
100
AcDbScale
 70
     0
300
1:30
140
1.0
141
30.0
290
     0
  0
SCALE
  5
51
102
{ACAD_REACTORS
330
47
102
}
330
47
100
AcDbScale
 70
     0
300
1:40
140
1.0
141
40.0
290
     0
  0
SCALE
  5
52
102
{ACAD_REACTORS
330
47
102
}
330
47
100
AcDbScale
 70
     0
300
1:50
140
1.0
141
50.0
290
     0
  0
SCALE
  5
53
102
{ACAD_REACTORS
330
47
102
}
330
47
100
AcDbScale
 70
     0
300
1:100
140
1.0
141
100.0
290
     0
  0
SCALE
  5
54
102
{ACAD_REACTORS
330
47
102
}
330
47
100
AcDbScale
 70
     0
300
2:1
140
2.0
141
1.0
290
     0
  0
SCALE
  5
55
102
{ACAD_REACTORS
330
47
102
}
330
47
100
AcDbScale
 70
     0
300
4:1
140
4.0
141
1.0
290
     0
  0
SCALE
  5
56
102
{ACAD_REACTORS
330
47
102
}
330
47
100
AcDbScale
 70
     0
300
8:1
140
8.0
141
1.0
290
     0
  0
SCALE
  5
57
102
{ACAD_REACTORS
330
47
102
}
330
47
100
AcDbScale
 70
     0
300
10:1
140
10.0
141
1.0
290
     0
  0
SCALE
  5
58
102
{ACAD_REACTORS
330
47
102
}
330
47
100
AcDbScale
 70
     0
300
100:1
140
100.0
141
1.0
290
     0
  0
SCALE
  5
59
102
{ACAD_REACTORS
330
47
102
}
330
47
100
AcDbScale
 70
     0
300
1/128" = 1'-0"
140
0.0078125
141
12.0
290
     0
  0
SCALE
  5
5A
102
{ACAD_REACTORS
330
47
102
}
330
47
100
AcDbScale
 70
     0
300
1/64" = 1'-0"
140
0.015625
141
12.0
290
     0
  0
SCALE
  5
5B
102
{ACAD_REACTORS
330
47
102
}
330
47
100
AcDbScale
 70
     0
300
1/32" = 1'-0"
140
0.03125
141
12.0
290
     0
  0
SCALE
  5
5C
102
{ACAD_REACTORS
330
47
102
}
330
47
100
AcDbScale
 70
     0
300
1/16" = 1'-0"
140
0.0625
141
12.0
290
     0
  0
SCALE
  5
5D
102
{ACAD_REACTORS
330
47
102
}
330
47
100
AcDbScale
 70
     0
300
3/32" = 1'-0"
140
0.09375
141
12.0
290
     0
  0
SCALE
  5
5E
102
{ACAD_REACTORS
330
47
102
}
330
47
100
AcDbScale
 70
     0
300
1/8" = 1'-0"
140
0.125
141
12.0
290
     0
  0
SCALE
  5
5F
102
{ACAD_REACTORS
330
47
102
}
330
47
100
AcDbScale
 70
     0
300
3/16" = 1'-0"
140
0.1875
141
12.0
290
     0
  0
SCALE
  5
60
102
{ACAD_REACTORS
330
47
102
}
330
47
100
AcDbScale
 70
     0
300
1/4" = 1'-0"
140
0.25
141
12.0
290
     0
  0
SCALE
  5
61
102
{ACAD_REACTORS
330
47
102
}
330
47
100
AcDbScale
 70
     0
300
3/8" = 1'-0"
140
0.375
141
12.0
290
     0
  0
SCALE
  5
62
102
{ACAD_REACTORS
330
47
102
}
330
47
100
AcDbScale
 70
     0
300
1/2" = 1'-0"
140
0.5
141
12.0
290
     0
  0
SCALE
  5
63
102
{ACAD_REACTORS
330
47
102
}
330
47
100
AcDbScale
 70
     0
300
3/4" = 1'-0"
140
0.75
141
12.0
290
     0
  0
SCALE
  5
64
102
{ACAD_REACTORS
330
47
102
}
330
47
100
AcDbScale
 70
     0
300
1" = 1'-0"
140
1.0
141
12.0
290
     0
  0
SCALE
  5
65
102
{ACAD_REACTORS
330
47
102
}
330
47
100
AcDbScale
 70
     0
300
1-1/2" = 1'-0"
140
1.5
141
12.0
290
     0
  0
SCALE
  5
66
102
{ACAD_REACTORS
330
47
102
}
330
47
100
AcDbScale
 70
     0
300
3" = 1'-0"
140
3.0
141
12.0
290
     0
  0
SCALE
  5
67
102
{ACAD_REACTORS
330
47
102
}
330
47
100
AcDbScale
 70
     0
300
6" = 1'-0"
140
6.0
141
12.0
290
     0
  0
SCALE
  5
68
102
{ACAD_REACTORS
330
47
102
}
330
47
100
AcDbScale
 70
     0
300
1'-0" = 1'-0"
140
12.0
141
12.0
290
     0
  0
TABLESTYLE
  5
6A
102
{ACAD_REACTORS
330
69
102
}
102
{ACAD_XDICTIONARY
360
17D
102
}
330
69
100
AcDbTableStyle
  3
Standard
 70
     0
 71
     0
 40
0.06
 41
0.06
280
     0
281
     0
  7
Standard
140
4.5
170
     2
 62
     0
 63
   257
283
     0
 90
        4
 91
        0
  1

274
    -2
284
     1
 64
     0
275
    -2
285
     1
 65
     0
276
    -2
286
     1
 66
     0
277
    -2
287
     1
 67
     0
278
    -2
288
     1
 68
     0
279
    -2
289
     1
 69
     0
  7
Standard
140
6.0
170
     5
 62
     0
 63
   257
283
     0
 90
        4
 91
        0
  1

274
    -2
284
     1
 64
     0
275
    -2
285
     1
 65
     0
276
    -2
286
     1
 66
     0
277
    -2
287
     1
 67
     0
278
    -2
288
     1
 68
     0
279
    -2
289
     1
 69
     0
  7
Standard
140
4.5
170
     5
 62
     0
 63
   257
283
     0
 90
        4
 91
        0
  1

274
    -2
284
     1
 64
     0
275
    -2
285
     1
 65
     0
276
    -2
286
     1
 66
     0
277
    -2
287
     1
 67
     0
278
    -2
288
     1
 68
     0
279
    -2
289
     1
 69
     0
  0
VISUALSTYLE
  5
2F
102
{ACAD_REACTORS
330
2A
102
}
330
2A
100
AcDbVisualStyle
  2
2dWireframe
 70
     4
 71
     0
 72
     2
 73
     0
 90
        0
 40
0.6
 41
30.0
 62
     5
 63
     7
421
 16777215
 74
     1
 91
        4
 64
     7
 65
   257
 75
     1
175
     1
 42
1.0
 92
        0
 66
   257
 43
1.0
 76
     1
 77
     6
 78
     2
 67
     7
 79
     5
170
     0
171
     0
290
     0
174
     0
 93
        1
 44
0.0
173
     0
291
     0
 45
0.0
  0
VISUALSTYLE
  5
32
102
{ACAD_REACTORS
330
2A
102
}
330
2A
100
AcDbVisualStyle
  2
Basic
 70
     7
 71
     1
 72
     0
 73
     1
 90
        0
 40
0.6
 41
30.0
 62
     5
 63
     7
421
 16777215
 74
     0
 91
        4
 64
     7
 65
   257
 75
     1
175
     1
 42
1.0
 92
        8
 66
     7
 43
1.0
 76
     1
 77
     6
 78
     2
 67
     7
 79
     5
170
     0
171
     0
290
     0
174
     0
 93
        1
 44
0.0
173
     0
291
     1
 45
0.0
  0
VISUALSTYLE
  5
36
102
{ACAD_REACTORS
330
2A
102
}
330
2A
100
AcDbVisualStyle
  2
Brighten
 70
    12
 71
     2
 72
     2
 73
     0
 90
        0
 40
0.6
 41
30.0
 62
     5
 63
     7
421
 16777215
 74
     1
 91
        4
 64
     7
 65
   257
 75
     1
175
     1
 42
1.0
 92
        8
 66
     7
 43
1.0
 76
     1
 77
     6
 78
     2
 67
     7
 79
     5
170
     0
171
     0
290
     0
174
     0
 93
        1
 44
50.0
173
     0
291
     1
 45
0.0
  0
VISUALSTYLE
  5
3A
102
{ACAD_REACTORS
330
2A
102
}
330
2A
100
AcDbVisualStyle
  2
ColorChange
 70
    16
 71
     2
 72
     2
 73
     3
 90
        0
 40
0.6
 41
30.0
 62
     5
 63
     8
421
  8421504
 74
     1
 91
        4
 64
     7
 65
   257
 75
     1
175
     1
 42
1.0
 92
        8
 66
     8
424
  8421504
 43
1.0
 76
     1
 77
     6
 78
     2
 67
     7
 79
     5
170
     0
171
     0
290
     0
174
     0
 93
        1
 44
0.0
173
     0
291
     1
 45
0.0
  0
VISUALSTYLE
  5
34
102
{ACAD_REACTORS
330
2A
102
}
330
2A
100
AcDbVisualStyle
  2
Conceptual
 70
     9
 71
     3
 72
     2
 73
     0
 90
        0
 40
0.6
 41
30.0
 62
     5
 63
     7
421
 16777215
 74
     2
 91
        2
 64
     7
 65
   257
 75
     1
175
     1
 42
179.0
 92
        8
 66
     7
 43
1.0
 76
     1
 77
     6
 78
     2
 67
     7
 79
     3
170
     0
171
     0
290
     0
174
     0
 93
        1
 44
0.0
173
     0
291
     0
 45
0.0
  0
VISUALSTYLE
  5
35
102
{ACAD_REACTORS
330
2A
102
}
330
2A
100
AcDbVisualStyle
  2
Dim
 70
    11
 71
     2
 72
     2
 73
     0
 90
        0
 40
0.6
 41
30.0
 62
     5
 63
     7
421
 16777215
 74
     1
 91
        4
 64
     7
 65
   257
 75
     1
175
     1
 42
1.0
 92
        8
 66
     7
 43
1.0
 76
     1
 77
     6
 78
     2
 67
     7
 79
     5
170
     0
171
     0
290
     0
174
     0
 93
        1
 44
-50.0
173
     0
291
     1
 45
0.0
  0
VISUALSTYLE
  5
3D
102
{ACAD_REACTORS
330
2A
102
}
330
2A
100
AcDbVisualStyle
  2
EdgeColorOff
 70
    22
 71
     2
 72
     2
 73
     0
 90
        0
 40
0.6
 41
30.0
 62
     5
 63
     7
421
 16777215
 74
     1
 91
        4
 64
     7
 65
   257
 75
     1
175
     1
 42
1.0
 92
        8
 66
     7
 43
1.0
 76
     1
 77
     6
 78
     2
 67
     7
 79
     5
170
     0
171
     0
290
     0
174
     0
 93
        1
 44
0.0
173
     0
291
     1
 45
0.0
  0
VISUALSTYLE
  5
39
102
{ACAD_REACTORS
330
2A
102
}
330
2A
100
AcDbVisualStyle
  2
Facepattern
 70
    15
 71
     2
 72
     2
 73
     0
 90
        0
 40
0.6
 41
30.0
 62
     5
 63
     7
421
 16777215
 74
     1
 91
        4
 64
     7
 65
   257
 75
     1
175
     1
 42
1.0
 92
        8
 66
     7
 43
1.0
 76
     1
 77
     6
 78
     2
 67
     7
 79
     5
170
     0
171
     0
290
     0
174
     0
 93
        1
 44
0.0
173
     0
291
     1
 45
0.0
  0
VISUALSTYLE
  5
2B
102
{ACAD_REACTORS
330
2A
102
}
330
2A
100
AcDbVisualStyle
  2
Flat
 70
     0
 71
     2
 72
     1
 73
     1
 90
        2
 40
0.6
 41
30.0
 62
     5
 63
     7
421
 16777215
 74
     0
 91
        0
 64
     7
 65
   257
 75
     1
175
     1
 42
1.0
 92
        8
 66
     7
 43
1.0
 76
     1
 77
     6
 78
     2
 67
     7
 79
     5
170
     0
171
     0
290
     0
174
     0
 93
       13
 44
0.0
173
     0
291
     1
 45
0.0
  0
VISUALSTYLE
  5
2C
102
{ACAD_REACTORS
330
2A
102
}
330
2A
100
AcDbVisualStyle
  2
FlatWithEdges
 70
     1
 71
     2
 72
     1
 73
     1
 90
        2
 40
0.6
 41
30.0
 62
     5
 63
     7
421
 16777215
 74
     1
 91
        0
 64
     7
 65
   257
 75
     1
175
     1
 42
1.0
 92
        0
 66
   257
 43
1.0
 76
     1
 77
     6
 78
     2
 67
     7
 79
     5
170
     0
171
     0
290
     0
174
     0
 93
       13
 44
0.0
173
     0
291
     1
 45
0.0
  0
VISUALSTYLE
  5
2D
102
{ACAD_REACTORS
330
2A
102
}
330
2A
100
AcDbVisualStyle
  2
Gouraud
 70
     2
 71
     2
 72
     2
 73
     1
 90
        2
 40
0.6
 41
30.0
 62
     5
 63
     7
421
 16777215
 74
     0
 91
        0
 64
     7
 65
   257
 75
     1
175
     1
 42
1.0
 92
        0
 66
     7
 43
1.0
 76
     1
 77
     6
 78
     2
 67
     7
 79
     5
170
     0
171
     0
290
     0
174
     0
 93
       13
 44
0.0
173
     0
291
     1
 45
0.0
  0
VISUALSTYLE
  5
2E
102
{ACAD_REACTORS
330
2A
102
}
330
2A
100
AcDbVisualStyle
  2
GouraudWithEdges
 70
     3
 71
     2
 72
     2
 73
     1
 90
        2
 40
0.6
 41
30.0
 62
     5
 63
     7
421
 16777215
 74
     1
 91
        0
 64
     7
 65
   257
 75
     1
175
     1
 42
1.0
 92
        0
 66
   257
 43
1.0
 76
     1
 77
     6
 78
     2
 67
     7
 79
     5
170
     0
171
     0
290
     0
174
     0
 93
       13
 44
0.0
173
     0
291
     1
 45
0.0
  0
VISUALSTYLE
  5
31
102
{ACAD_REACTORS
330
2A
102
}
330
2A
100
AcDbVisualStyle
  2
Hidden
 70
     6
 71
     1
 72
     2
 73
     2
 90
        0
 40
0.6
 41
30.0
 62
     5
 63
     7
421
 16777215
 74
     2
 91
        2
 64
     7
 65
   257
 75
     2
175
     1
 42
40.0
 92
        0
 66
   257
 43
1.0
 76
     1
 77
     6
 78
     2
 67
     7
 79
     3
170
     0
171
     0
290
     0
174
     0
 93
        1
 44
0.0
173
     0
291
     0
 45
0.0
  0
VISUALSTYLE
  5
3B
102
{ACAD_REACTORS
330
2A
102
}
330
2A
100
AcDbVisualStyle
  2
JitterOff
 70
    20
 71
     2
 72
     2
 73
     0
 90
        0
 40
0.6
 41
30.0
 62
     5
 63
     7
421
 16777215
 74
     1
 91
        4
 64
     7
 65
   257
 75
     1
175
     1
 42
1.0
 92
       10
 66
     7
 43
1.0
 76
     1
 77
     6
 78
     2
 67
     7
 79
     5
170
     0
171
     0
290
     0
174
     0
 93
        1
 44
0.0
173
     0
291
     1
 45
0.0
  0
VISUALSTYLE
  5
38
102
{ACAD_REACTORS
330
2A
102
}
330
2A
100
AcDbVisualStyle
  2
Linepattern
 70
    14
 71
     2
 72
     2
 73
     0
 90
        0
 40
0.6
 41
30.0
 62
     5
 63
     7
421
 16777215
 74
     1
 91
        4
 64
     7
 65
   257
 75
     7
175
     7
 42
1.0
 92
        8
 66
     7
 43
1.0
 76
     1
 77
     6
 78
     2
 67
     7
 79
     5
170
     0
171
     0
290
     0
174
     0
 93
        1
 44
0.0
173
     0
291
     1
 45
0.0
  0
VISUALSTYLE
  5
3C
102
{ACAD_REACTORS
330
2A
102
}
330
2A
100
AcDbVisualStyle
  2
OverhangOff
 70
    21
 71
     2
 72
     2
 73
     0
 90
        0
 40
0.6
 41
30.0
 62
     5
 63
     7
421
 16777215
 74
     1
 91
        4
 64
     7
 65
   257
 75
     1
175
     1
 42
1.0
 92
        9
 66
     7
 43
1.0
 76
     1
 77
     6
 78
     2
 67
     7
 79
     5
170
     0
171
     0
290
     0
174
     0
 93
        1
 44
0.0
173
     0
291
     1
 45
0.0
  0
VISUALSTYLE
  5
33
102
{ACAD_REACTORS
330
2A
102
}
330
2A
100
AcDbVisualStyle
  2
Realistic
 70
     8
 71
     2
 72
     3
 73
     0
 90
        2
 40
0.6
 41
30.0
 62
     5
 63
     7
421
 16777215
 74
     0
 91
        0
 64
     7
 65
   257
 75
     1
175
     1
 42
1.0
 92
        8
 66
   257
 43
1.0
 76
     1
 77
     6
 78
     2
 67
     7
 79
     3
170
     0
171
     0
290
     0
174
     0
 93
       13
 44
0.0
173
     0
291
     0
 45
0.0
  0
VISUALSTYLE
  5
42
102
{ACAD_REACTORS
330
2A
102
}
330
2A
100
AcDbVisualStyle
  2
Shaded
 70
    27
 71
     2
 72
     2
 73
     1
 90
        2
 40
0.6
 41
30.0
 62
     5
 63
     7
421
 16777215
 74
     0
 91
        4
 64
     7
 65
   257
 75
     1
175
     1
 42
1.0
 92
        8
 66
   257
 43
1.0
 76
     1
 77
     6
 78
     2
 67
     8
425
  7895160
 79
     3
170
     0
171
     0
290
     0
174
     0
 93
        5
 44
0.0
173
     0
291
     0
 45
0.0
  0
VISUALSTYLE
  5
41
102
{ACAD_REACTORS
330
2A
102
}
330
2A
100
AcDbVisualStyle
  2
Shaded with edges
 70
    26
 71
     2
 72
     2
 73
     1
 90
        2
 40
0.6
 41
30.0
 62
     5
 63
     7
421
 16777215
 74
     1
 91
       10
 64
     7
 65
   257
 75
     2
175
     1
 42
1.0
 92
        8
 66
   257
 43
1.0
 76
     1
 77
     6
 78
     2
 67
     7
 79
     3
170
     0
171
     0
290
     0
174
     0
 93
        5
 44
0.0
173
     0
291
     0
 45
0.0
  0
VISUALSTYLE
  5
3E
102
{ACAD_REACTORS
330
2A
102
}
330
2A
100
AcDbVisualStyle
  2
Shades of Gray
 70
    23
 71
     2
 72
     2
 73
     3
 90
        0
 40
0.6
 41
30.0
 62
     5
 63
     7
421
 16777215
 74
     2
 91
        2
 64
     7
 65
     7
 75
     1
175
     1
 42
40.0
 92
        8
 66
     7
 43
1.0
 76
     1
 77
     6
 78
     2
 67
     7
 79
     3
170
     0
171
     0
290
     0
174
     0
 93
        1
 44
0.0
173
     0
291
     0
 45
0.0
  0
VISUALSTYLE
  5
3F
102
{ACAD_REACTORS
330
2A
102
}
330
2A
100
AcDbVisualStyle
  2
Sketchy
 70
    24
 71
     1
 72
     2
 73
     2
 90
        0
 40
0.6
 41
30.0
 62
     5
 63
     7
421
 16777215
 74
     2
 91
        2
 64
     7
 65
     7
 75
     1
175
     1
 42
40.0
 92
       11
 66
     7
 43
1.0
 76
     1
 77
     6
 78
     2
 67
     7
 79
     6
170
     0
171
     0
290
     0
174
     0
 93
        1
 44
0.0
173
     0
291
     0
 45
0.0
  0
VISUALSTYLE
  5
37
102
{ACAD_REACTORS
330
2A
102
}
330
2A
100
AcDbVisualStyle
  2
Thicken
 70
    13
 71
     2
 72
     2
 73
     0
 90
        0
 40
0.6
 41
30.0
 62
     5
 63
     7
421
 16777215
 74
     1
 91
        4
 64
     7
 65
   257
 75
     1
175
     1
 42
1.0
 92
       12
 66
     7
 43
1.0
 76
     1
 77
     6
 78
     2
 67
     7
 79
     5
170
     0
171
     0
290
     0
174
     0
 93
        1
 44
0.0
173
     0
291
     1
 45
0.0
  0
VISUALSTYLE
  5
30
102
{ACAD_REACTORS
330
2A
102
}
330
2A
100
AcDbVisualStyle
  2
Wireframe
 70
     5
 71
     0
 72
     2
 73
     0
 90
        0
 40
0.6
 41
30.0
 62
     5
 63
     7
421
 16777215
 74
     1
 91
        4
 64
     7
 65
   257
 75
     1
175
     1
 42
1.0
 92
        0
 66
   257
 43
1.0
 76
     1
 77
     6
 78
     2
 67
     7
 79
     3
170
     0
171
     0
290
     0
174
     0
 93
        1
 44
0.0
173
     0
291
     0
 45
0.0
  0
VISUALSTYLE
  5
40
102
{ACAD_REACTORS
330
2A
102
}
330
2A
100
AcDbVisualStyle
  2
X-Ray
 70
    25
 71
     2
 72
     2
 73
     1
 90
        1
 40
0.5
 41
30.0
 62
     5
 63
     7
421
 16777215
 74
     1
 91
        0
 64
     7
 65
   257
 75
     1
175
     1
 42
1.0
 92
        8
 66
     7
 43
1.0
 76
     1
 77
     6
 78
     2
 67
     7
 79
     3
170
     0
171
     0
290
     0
174
     0
 93
       13
 44
0.0
173
     0
291
     0
 45
0.0
  0
DICTIONARYVAR
  5
17C
102
{ACAD_REACTORS
330
17B
102
}
330
17B
100
DictionaryVariables
280
     0
  1
1:1
  0
DICTIONARYVAR
  5
182
102
{ACAD_REACTORS
330
17B
102
}
330
17B
100
DictionaryVariables
280
     0
  1
Standard
  0
DICTIONARYVAR
  5
181
102
{ACAD_REACTORS
330
17B
102
}
330
17B
100
DictionaryVariables
280
     0
  1
Standard
  0
DICTIONARY
  5
17D
330
6A
100
AcDbDictionary
280
     1
281
     1
  3
ACAD_ROUNDTRIP_2008_TABLESTYLE_CELLSTYLEMAP
360
17E
  0
CELLSTYLEMAP
  5
17E
102
{ACAD_REACTORS
330
17D
102
}
330
17D
100
AcDbCellStyleMap
 90
        3
300
CELLSTYLE
  1
TABLEFORMAT_BEGIN
 90
        5
170
     1
 91
        0
 92
    32768
 62
   257
 93
        1
300
CONTENTFORMAT
  1
CONTENTFORMAT_BEGIN
 90
        0
 91
        0
 92
        4
 93
        0
300

 40
0.0
140
1.0
 94
        5
 62
     0
340
11
144
6.0
309
CONTENTFORMAT_END
171
     1
301
MARGIN
  1
CELLMARGIN_BEGIN
 40
1.5
 40
1.5
 40
1.5
 40
1.5
 40
1.5
 40
1.5
309
CELLMARGIN_END
 94
        6
 95
        1
302
GRIDFORMAT
  1
GRIDFORMAT_BEGIN
 90
        0
 91
        1
 62
     0
 92
       -2
340
14
 93
        0
 40
0.045
309
GRIDFORMAT_END
 95
        2
302
GRIDFORMAT
  1
GRIDFORMAT_BEGIN
 90
        0
 91
        1
 62
     0
 92
       -2
340
14
 93
        0
 40
0.045
309
GRIDFORMAT_END
 95
        4
302
GRIDFORMAT
  1
GRIDFORMAT_BEGIN
 90
        0
 91
        1
 62
     0
 92
       -2
340
14
 93
        0
 40
0.045
309
GRIDFORMAT_END
 95
        8
302
GRIDFORMAT
  1
GRIDFORMAT_BEGIN
 90
        0
 91
        1
 62
     0
 92
       -2
340
14
 93
        0
 40
0.045
309
GRIDFORMAT_END
 95
       16
302
GRIDFORMAT
  1
GRIDFORMAT_BEGIN
 90
        0
 91
        1
 62
     0
 92
       -2
340
14
 93
        0
 40
0.045
309
GRIDFORMAT_END
 95
       32
302
GRIDFORMAT
  1
GRIDFORMAT_BEGIN
 90
        0
 91
        1
 62
     0
 92
       -2
340
14
 93
        0
 40
0.045
309
GRIDFORMAT_END
309
TABLEFORMAT_END
  1
CELLSTYLE_BEGIN
 90
        1
 91
        1
300
_TITLE
309
CELLSTYLE_END
300
CELLSTYLE
  1
TABLEFORMAT_BEGIN
 90
        5
170
     1
 91
        0
 92
        0
 62
   257
 93
        1
300
CONTENTFORMAT
  1
CONTENTFORMAT_BEGIN
 90
        0
 91
        0
 92
        4
 93
        0
300

 40
0.0
140
1.0
 94
        5
 62
     0
340
11
144
4.5
309
CONTENTFORMAT_END
171
     1
301
MARGIN
  1
CELLMARGIN_BEGIN
 40
1.5
 40
1.5
 40
1.5
 40
1.5
 40
1.5
 40
1.5
309
CELLMARGIN_END
 94
        6
 95
        1
302
GRIDFORMAT
  1
GRIDFORMAT_BEGIN
 90
        0
 91
        1
 62
     0
 92
       -2
340
14
 93
        0
 40
0.045
309
GRIDFORMAT_END
 95
        2
302
GRIDFORMAT
  1
GRIDFORMAT_BEGIN
 90
        0
 91
        1
 62
     0
 92
       -2
340
14
 93
        0
 40
0.045
309
GRIDFORMAT_END
 95
        4
302
GRIDFORMAT
  1
GRIDFORMAT_BEGIN
 90
        0
 91
        1
 62
     0
 92
       -2
340
14
 93
        0
 40
0.045
309
GRIDFORMAT_END
 95
        8
302
GRIDFORMAT
  1
GRIDFORMAT_BEGIN
 90
        0
 91
        1
 62
     0
 92
       -2
340
14
 93
        0
 40
0.045
309
GRIDFORMAT_END
 95
       16
302
GRIDFORMAT
  1
GRIDFORMAT_BEGIN
 90
        0
 91
        1
 62
     0
 92
       -2
340
14
 93
        0
 40
0.045
309
GRIDFORMAT_END
 95
       32
302
GRIDFORMAT
  1
GRIDFORMAT_BEGIN
 90
        0
 91
        1
 62
     0
 92
       -2
340
14
 93
        0
 40
0.045
309
GRIDFORMAT_END
309
TABLEFORMAT_END
  1
CELLSTYLE_BEGIN
 90
        2
 91
        1
300
_HEADER
309
CELLSTYLE_END
300
CELLSTYLE
  1
TABLEFORMAT_BEGIN
 90
        5
170
     1
 91
        0
 92
        0
 62
   257
 93
        1
300
CONTENTFORMAT
  1
CONTENTFORMAT_BEGIN
 90
        0
 91
        0
 92
        4
 93
        0
300

 40
0.0
140
1.0
 94
        2
 62
     0
340
11
144
4.5
309
CONTENTFORMAT_END
171
     1
301
MARGIN
  1
CELLMARGIN_BEGIN
 40
1.5
 40
1.5
 40
1.5
 40
1.5
 40
1.5
 40
1.5
309
CELLMARGIN_END
 94
        6
 95
        1
302
GRIDFORMAT
  1
GRIDFORMAT_BEGIN
 90
        0
 91
        1
 62
     0
 92
       -2
340
14
 93
        0
 40
0.045
309
GRIDFORMAT_END
 95
        2
302
GRIDFORMAT
  1
GRIDFORMAT_BEGIN
 90
        0
 91
        1
 62
     0
 92
       -2
340
14
 93
        0
 40
0.045
309
GRIDFORMAT_END
 95
        4
302
GRIDFORMAT
  1
GRIDFORMAT_BEGIN
 90
        0
 91
        1
 62
     0
 92
       -2
340
14
 93
        0
 40
0.045
309
GRIDFORMAT_END
 95
        8
302
GRIDFORMAT
  1
GRIDFORMAT_BEGIN
 90
        0
 91
        1
 62
     0
 92
       -2
340
14
 93
        0
 40
0.045
309
GRIDFORMAT_END
 95
       16
302
GRIDFORMAT
  1
GRIDFORMAT_BEGIN
 90
        0
 91
        1
 62
     0
 92
       -2
340
14
 93
        0
 40
0.045
309
GRIDFORMAT_END
 95
       32
302
GRIDFORMAT
  1
GRIDFORMAT_BEGIN
 90
        0
 91
        1
 62
     0
 92
       -2
340
14
 93
        0
 40
0.045
309
GRIDFORMAT_END
309
TABLEFORMAT_END
  1
CELLSTYLE_BEGIN
 90
        3
 91
        2
300
_DATA
309
CELLSTYLE_END
  0
ENDSEC
  0
EOF
