  0
SECTION
  2
HEADER
  9
$ACADVER
  1
AC1021
  9
$ACADMAINTVER
 70
    25
  9
$DWGCODEPAGE
  3
ANSI_1252
  9
$INSBASE
 10
0.0
 20
0.0
 30
0.0
  9
$EXTMIN
 10
-202.4753478616
 20
-33.2385907258
 30
0.0
  9
$EXTMAX
 10
202.4972608241
 20
329.199791495
 30
0.0
  9
$LIMMIN
 10
0.0
 20
0.0
  9
$LIMMAX
 10
420.0
 20
297.0
  9
$ORTHOMODE
 70
     0
  9
$REGENMODE
 70
     1
  9
$FILLMODE
 70
     1
  9
$QTEXTMODE
 70
     0
  9
$MIRRTEXT
 70
     1
  9
$LTSCALE
 40
1.0
  9
$ATTMODE
 70
     1
  9
$TEXTSIZE
 40
3.5
  9
$TRACEWID
 40
1.0
  9
$TEXTSTYLE
  7
Standard
  9
$CLAYER
  8
0
  9
$CELTYPE
  6
ByLayer
  9
$CECOLOR
 62
   256
  9
$CELTSCALE
 40
1.0
  9
$DISPSILH
 70
     0
  9
$DIMSCALE
 40
1.0
  9
$DIMASZ
 40
8.0
  9
$DIMEXO
 40
1.0
  9
$DIMDLI
 40
3.75
  9
$DIMRND
 40
0.0
  9
$DIMDLE
 40
0.0
  9
$DIMEXE
 40
1.0
  9
$DIMTP
 40
0.0
  9
$DIMTM
 40
0.0
  9
$DIMTXT
 40
16.9333333333
  9
$DIMCEN
 40
2.5
  9
$DIMTSZ
 40
0.0
  9
$DIMTOL
 70
     0
  9
$DIMLIM
 70
     0
  9
$DIMTIH
 70
     1
  9
$DIMTOH
 70
     1
  9
$DIMSE1
 70
     0
  9
$DIMSE2
 70
     0
  9
$DIMTAD
 70
     1
  9
$DIMZIN
 70
     0
  9
$DIMBLK
  1

  9
$DIMASO
 70
     1
  9
$DIMSHO
 70
     1
  9
$DIMPOST
  1

  9
$DIMAPOST
  1

  9
$DIMALT
 70
     0
  9
$DIMALTD
 70
     3
  9
$DIMALTF
 40
0.0393700787
  9
$DIMLFAC
 40
1.0
  9
$DIMTOFL
 70
     1
  9
$DIMTVP
 40
0.0
  9
$DIMTIX
 70
     0
  9
$DIMSOXD
 70
     0
  9
$DIMSAH
 70
     0
  9
$DIMBLK1
  1

  9
$DIMBLK2
  1

  9
$DIMSTYLE
  2
ISO-25
  9
$DIMCLRD
 70
     0
  9
$DIMCLRE
 70
     0
  9
$DIMCLRT
 70
     0
  9
$DIMTFAC
 40
1.0
  9
$DIMGAP
 40
1.524
  9
$DIMJUST
 70
     0
  9
$DIMSD1
 70
     0
  9
$DIMSD2
 70
     0
  9
$DIMTOLJ
 70
     0
  9
$DIMTZIN
 70
     0
  9
$DIMALTZ
 70
     0
  9
$DIMALTTZ
 70
     0
  9
$DIMUPT
 70
     0
  9
$DIMDEC
 70
     2
  9
$DIMTDEC
 70
     2
  9
$DIMALTU
 70
     2
  9
$DIMALTTD
 70
     3
  9
$DIMTXSTY
  7
Standard
  9
$DIMAUNIT
 70
     0
  9
$DIMADEC
 70
     2
  9
$DIMALTRND
 40
0.0
  9
$DIMAZIN
 70
     0
  9
$DIMDSEP
 70
    44
  9
$DIMATFIT
 70
     3
  9
$DIMFRAC
 70
     0
  9
$DIMLDRBLK
  1

  9
$DIMLUNIT
 70
     2
  9
$DIMLWD
 70
    -2
  9
$DIMLWE
 70
    -2
  9
$DIMTMOVE
 70
     0
  9
$DIMFXL
 40
1.0
  9
$DIMFXLON
 70
     0
  9
$DIMJOGANG
 40
0.7853981634
  9
$DIMTFILL
 70
     0
  9
$DIMTFILLCLR
 70
     0
  9
$DIMARCSYM
 70
     0
  9
$DIMLTYPE
  6

  9
$DIMLTEX1
  6

  9
$DIMLTEX2
  6

  9
$LUNITS
 70
     2
  9
$LUPREC
 70
     2
  9
$SKETCHINC
 40
1.0
  9
$FILLETRAD
 40
10.0
  9
$AUNITS
 70
     0
  9
$AUPREC
 70
     2
  9
$MENU
  1
.
  9
$ELEVATION
 40
0.0
  9
$PELEVATION
 40
0.0
  9
$THICKNESS
 40
0.0
  9
$LIMCHECK
 70
     0
  9
$CHAMFERA
 40
0.0
  9
$CHAMFERB
 40
0.0
  9
$CHAMFERC
 40
0.0
  9
$CHAMFERD
 40
0.0
  9
$SKPOLY
 70
     0
  9
$TDCREATE
 40
2458221.660999861
  9
$TDUCREATE
 40
2458221.577666528
  9
$TDUPDATE
 40
2458221.661027106
  9
$TDUUPDATE
 40
2458221.577693773
  9
$TDINDWG
 40
0.0000000116
  9
$TDUSRTIMER
 40
0.0000000116
  9
$USRTIMER
 70
     1
  9
$ANGBASE
 50
0.0
  9
$ANGDIR
 70
     0
  9
$PDMODE
 70
     0
  9
$PDSIZE
 40
-1.0
  9
$PLINEWID
 40
0.0
  9
$SPLFRAME
 70
     0
  9
$SPLINETYPE
 70
     6
  9
$SPLINESEGS
 70
     8
  9
$HANDSEED
  5
1B3
  9
$SURFTAB1
 70
     6
  9
$SURFTAB2
 70
     6
  9
$SURFTYPE
 70
     6
  9
$SURFU
 70
     6
  9
$SURFV
 70
     6
  9
$UCSBASE
  2

  9
$UCSNAME
  2

  9
$UCSORG
 10
0.0
 20
0.0
 30
0.0
  9
$UCSXDIR
 10
1.0
 20
0.0
 30
0.0
  9
$UCSYDIR
 10
0.0
 20
1.0
 30
0.0
  9
$UCSORTHOREF
  2

  9
$UCSORTHOVIEW
 70
     0
  9
$UCSORGTOP
 10
0.0
 20
0.0
 30
0.0
  9
$UCSORGBOTTOM
 10
0.0
 20
0.0
 30
0.0
  9
$UCSORGLEFT
 10
0.0
 20
0.0
 30
0.0
  9
$UCSORGRIGHT
 10
0.0
 20
0.0
 30
0.0
  9
$UCSORGFRONT
 10
0.0
 20
0.0
 30
0.0
  9
$UCSORGBACK
 10
0.0
 20
0.0
 30
0.0
  9
$PUCSBASE
  2

  9
$PUCSNAME
  2

  9
$PUCSORG
 10
0.0
 20
0.0
 30
0.0
  9
$PUCSXDIR
 10
1.0
 20
0.0
 30
0.0
  9
$PUCSYDIR
 10
0.0
 20
1.0
 30
0.0
  9
$PUCSORTHOREF
  2

  9
$PUCSORTHOVIEW
 70
     0
  9
$PUCSORGTOP
 10
0.0
 20
0.0
 30
0.0
  9
$PUCSORGBOTTOM
 10
0.0
 20
0.0
 30
0.0
  9
$PUCSORGLEFT
 10
0.0
 20
0.0
 30
0.0
  9
$PUCSORGRIGHT
 10
0.0
 20
0.0
 30
0.0
  9
$PUCSORGFRONT
 10
0.0
 20
0.0
 30
0.0
  9
$PUCSORGBACK
 10
0.0
 20
0.0
 30
0.0
  9
$USERI1
 70
     0
  9
$USERI2
 70
     0
  9
$USERI3
 70
     0
  9
$USERI4
 70
     0
  9
$USERI5
 70
     0
  9
$USERR1
 40
0.0
  9
$USERR2
 40
0.0
  9
$USERR3
 40
0.0
  9
$USERR4
 40
0.0
  9
$USERR5
 40
0.0
  9
$WORLDVIEW
 70
     1
  9
$SHADEDGE
 70
     3
  9
$SHADEDIF
 70
    70
  9
$TILEMODE
 70
     1
  9
$MAXACTVP
 70
    64
  9
$PINSBASE
 10
0.0
 20
0.0
 30
0.0
  9
$PLIMCHECK
 70
     0
  9
$PEXTMIN
 10
-202.5
 20
-202.5
 30
0.0
  9
$PEXTMAX
 10
202.5
 20
202.5
 30
0.0
  9
$PLIMMIN
 10
-244.0384615385
 20
-218.0769230769
  9
$PLIMMAX
 10
372.8076923077
 20
218.0769230769
  9
$UNITMODE
 70
     0
  9
$VISRETAIN
 70
     1
  9
$PLINEGEN
 70
     0
  9
$PSLTSCALE
 70
     1
  9
$TREEDEPTH
 70
  3020
  9
$CMLSTYLE
  2
Standard
  9
$CMLJUST
 70
     0
  9
$CMLSCALE
 40
20.0
  9
$PROXYGRAPHICS
 70
     1
  9
$MEASUREMENT
 70
     1
  9
$CELWEIGHT
370
    -1
  9
$ENDCAPS
280
     0
  9
$JOINSTYLE
280
     0
  9
$LWDISPLAY
290
     1
  9
$INSUNITS
 70
     4
  9
$HYPERLINKBASE
  1

  9
$STYLESHEET
  1

  9
$XEDIT
290
     1
  9
$CEPSNTYPE
380
     0
  9
$PSTYLEMODE
290
     1
  9
$FINGERPRINTGUID
  2
{443BEBE3-4C1B-45F4-BD75-52CA6B44C959}
  9
$VERSIONGUID
  2
{FAEB1C32-E019-11D5-929B-00C0DF256EC4}
  9
$EXTNAMES
290
     1
  9
$PSVPSCALE
 40
0.0
  9
$OLESTARTUP
290
     0
  9
$SORTENTS
280
   127
  9
$INDEXCTL
280
     0
  9
$HIDETEXT
280
     1
  9
$XCLIPFRAME
290
     0
  9
$HALOGAP
280
     0
  9
$OBSCOLOR
 70
   257
  9
$OBSLTYPE
280
     0
  9
$INTERSECTIONDISPLAY
280
     0
  9
$INTERSECTIONCOLOR
 70
   257
  9
$DIMASSOC
280
     2
  9
$PROJECTNAME
  1

  9
$CAMERADISPLAY
290
     0
  9
$LENSLENGTH
 40
50.0
  9
$CAMERAHEIGHT
 40
0.0
  9
$STEPSPERSEC
 40
2.0
  9
$STEPSIZE
 40
6.0
  9
$3DDWFPREC
 40
2.0
  9
$PSOLWIDTH
 40
5.0
  9
$PSOLHEIGHT
 40
80.0
  9
$LOFTANG1
 40
1.5707963268
  9
$LOFTANG2
 40
1.5707963268
  9
$LOFTMAG1
 40
0.0
  9
$LOFTMAG2
 40
0.0
  9
$LOFTPARAM
 70
     7
  9
$LOFTNORMALS
280
     1
  9
$LATITUDE
 40
37.795
  9
$LONGITUDE
 40
-122.394
  9
$NORTHDIRECTION
 40
0.0
  9
$TIMEZONE
 70
 -8000
  9
$LIGHTGLYPHDISPLAY
280
     1
  9
$TILEMODELIGHTSYNCH
280
     1
  9
$CMATERIAL
347
44
  9
$SOLIDHIST
280
     0
  9
$SHOWHIST
280
     1
  9
$DWFFRAME
280
     2
  9
$DGNFRAME
280
     2
  9
$REALWORLDSCALE
290
     1
  9
$INTERFERECOLOR
 62
   256
  9
$CSHADOW
280
     0
  9
$SHADOWPLANELOCATION
 40
0.0
  0
ENDSEC
  0
SECTION
  2
CLASSES
  0
CLASS
  1
ACDBDICTIONARYWDFLT
  2
AcDbDictionaryWithDefault
  3
ObjectDBX Classes
 90
        0
 91
        4
280
     0
281
     0
  0
CLASS
  1
VISUALSTYLE
  2
AcDbVisualStyle
  3
ObjectDBX Classes
 90
     4095
 91
        4
280
     0
281
     0
  0
CLASS
  1
MATERIAL
  2
AcDbMaterial
  3
ObjectDBX Classes
 90
     1153
 91
        4
280
     0
281
     0
  0
CLASS
  1
SCALE
  2
AcDbScale
  3
ObjectDBX Classes
 90
     1153
 91
        4
280
     0
281
     0
  0
CLASS
  1
TABLESTYLE
  2
AcDbTableStyle
  3
ObjectDBX Classes
 90
     4095
 91
        4
280
     0
281
     0
  0
CLASS
  1
MLEADERSTYLE
  2
AcDbMLeaderStyle
  3
ACDB_MLEADERSTYLE_CLASS
 90
     4095
 91
        4
280
     0
281
     0
  0
CLASS
  1
SUN
  2
AcDbSun
  3
SCENEOE
 90
     1153
 91
        4
280
     0
281
     0
  0
CLASS
  1
DICTIONARYVAR
  2
AcDbDictionaryVar
  3
ObjectDBX Classes
 90
        0
 91
        4
280
     0
281
     0
  0
CLASS
  1
CELLSTYLEMAP
  2
AcDbCellStyleMap
  3
ObjectDBX Classes
 90
     1152
 91
        4
280
     0
281
     0
  0
ENDSEC
  0
SECTION
  2
TABLES
  0
TABLE
  2
VPORT
  5
8
330
0
100
AcDbSymbolTable
 70
     1
  0
VPORT
  5
29
330
8
100
AcDbSymbolTableRecord
100
AcDbViewportTableRecord
  2
*Active
 70
     0
 10
0.0
 20
0.0
 11
1.0
 21
1.0
 12
0.0109564813
 22
147.9806003846
 13
0.0
 23
0.0
 14
10.0
 24
10.0
 15
10.0
 25
10.0
 16
0.0
 26
0.0
 36
1.0
 17
0.0
 27
0.0
 37
0.0
 40
369.6871498652
 41
1.1173557453
 42
50.0
 43
0.0
 44
0.0
 50
0.0
 51
0.0
 71
     0
 72
   100
 73
     1
 74
     3
 75
     0
 76
     0
 77
     0
 78
     0
281
     0
 65
     1
110
0.0
120
0.0
130
0.0
111
1.0
121
0.0
131
0.0
112
0.0
122
1.0
132
0.0
 79
     0
146
0.0
348
2F
 60
     3
 61
     5
292
     1
282
     1
141
0.0
142
0.0
 63
   250
361
6D
  0
ENDTAB
  0
TABLE
  2
LTYPE
  5
5
330
0
100
AcDbSymbolTable
 70
     6
  0
LTYPE
  5
14
330
5
100
AcDbSymbolTableRecord
100
AcDbLinetypeTableRecord
  2
ByBlock
 70
     0
  3

 72
    65
 73
     0
 40
0.0
  0
LTYPE
  5
15
330
5
100
AcDbSymbolTableRecord
100
AcDbLinetypeTableRecord
  2
ByLayer
 70
     0
  3

 72
    65
 73
     0
 40
0.0
  0
LTYPE
  5
16
330
5
100
AcDbSymbolTableRecord
100
AcDbLinetypeTableRecord
  2
Continuous
 70
     0
  3
Solid line
 72
    65
 73
     0
 40
0.0
  0
LTYPE
  5
6E
330
5
100
AcDbSymbolTableRecord
100
AcDbLinetypeTableRecord
  2
HIDDEN
 70
     0
  3
Hidden __ __ __ __ __ __ __ __ __ __ __ __ __ __
 72
    65
 73
     2
 40
1.905
 49
1.27
 74
     0
 49
-0.635
 74
     0
  0
LTYPE
  5
6F
330
5
100
AcDbSymbolTableRecord
100
AcDbLinetypeTableRecord
  2
PHANTOM
 70
     0
  3
Phantom ______  __  __  ______  __  __  ______
 72
    65
 73
     6
 40
12.7
 49
6.35
 74
     0
 49
-1.27
 74
     0
 49
1.27
 74
     0
 49
-1.27
 74
     0
 49
1.27
 74
     0
 49
-1.27
 74
     0
  0
LTYPE
  5
70
330
5
100
AcDbSymbolTableRecord
100
AcDbLinetypeTableRecord
  2
CENTER
 70
     0
  3
Center ____ _ ____ _ ____ _ ____ _ ____ _ ____
 72
    65
 73
     4
 40
10.16
 49
6.35
 74
     0
 49
-1.27
 74
     0
 49
1.27
 74
     0
 49
-1.27
 74
     0
  0
LTYPE
  5
71
330
5
100
AcDbSymbolTableRecord
100
AcDbLinetypeTableRecord
  2
CENTERX2
 70
     0
  3
Center (2x) ________  __  ________  __  _____
 72
    65
 73
     4
 40
20.32
 49
12.7
 74
     0
 49
-2.54
 74
     0
 49
2.54
 74
     0
 49
-2.54
 74
     0
  0
LTYPE
  5
72
330
5
100
AcDbSymbolTableRecord
100
AcDbLinetypeTableRecord
  2
DOT2
 70
     0
  3
Dot (.5x) ........................................
 72
    65
 73
     2
 40
0.635
 49
0.0
 74
     0
 49
-0.635
 74
     0
  0
ENDTAB
  0
TABLE
  2
LAYER
  5
2
330
0
100
AcDbSymbolTable
 70
     1
  0
LAYER
  5
10
330
2
100
AcDbSymbolTableRecord
100
AcDbLayerTableRecord
  2
0
 70
     0
 62
     7
  6
Continuous
370
    -3
390
F
347
46
  0
ENDTAB
  0
TABLE
  2
STYLE
  5
3
330
0
100
AcDbSymbolTable
 70
     1
  0
STYLE
  5
11
330
3
100
AcDbSymbolTableRecord
100
AcDbTextStyleTableRecord
  2
Standard
 70
     0
 40
0.0
 41
1.0
 50
0.0
 71
     0
 42
3.5
  3
txt
  4

  0
ENDTAB
  0
TABLE
  2
VIEW
  5
6
330
0
100
AcDbSymbolTable
 70
     0
  0
ENDTAB
  0
TABLE
  2
UCS
  5
7
330
0
100
AcDbSymbolTable
 70
     0
  0
ENDTAB
  0
TABLE
  2
APPID
  5
9
330
0
100
AcDbSymbolTable
 70
     2
  0
APPID
  5
12
330
9
100
AcDbSymbolTableRecord
100
AcDbRegAppTableRecord
  2
ACAD
 70
     0
  0
APPID
  5
1AD
330
9
100
AcDbSymbolTableRecord
100
AcDbRegAppTableRecord
  2
ACAD_MLEADERVER
 70
     0
  0
ENDTAB
  0
TABLE
  2
DIMSTYLE
  5
A
330
0
100
AcDbSymbolTable
 70
     1
100
AcDbDimStyleTable
  0
DIMSTYLE
105
27
330
A
100
AcDbSymbolTableRecord
100
AcDbDimStyleTableRecord
  2
ISO-25
 70
     0
 41
2.5
 42
0.625
 43
3.75
 44
1.25
 73
     0
 74
     0
 77
     1
 78
     8
140
2.5
141
2.5
143
0.0393700787
147
0.625
171
     3
172
     1
178
     0
271
     2
272
     2
274
     3
278
    44
283
     0
284
     8
340
11
  0
ENDTAB
  0
TABLE
  2
BLOCK_RECORD
  5
1
330
0
100
AcDbSymbolTable
 70
    11
  0
BLOCK_RECORD
  5
1F
330
1
100
AcDbSymbolTableRecord
100
AcDbBlockTableRecord
  2
*Model_Space
340
22
 70
     0
280
     1
281
     0
  0
BLOCK_RECORD
  5
1B
330
1
100
AcDbSymbolTableRecord
100
AcDbBlockTableRecord
  2
*Paper_Space
340
1E
 70
     0
280
     1
281
     0
  0
BLOCK_RECORD
  5
23
330
1
100
AcDbSymbolTableRecord
100
AcDbBlockTableRecord
  2
*Paper_Space0
340
26
 70
     0
280
     1
281
     0
  0
BLOCK_RECORD
  5
9C
330
1
100
AcDbSymbolTableRecord
100
AcDbBlockTableRecord
  2
*Paper_Space1
340
9D
 70
     0
280
     1
281
     0
  0
BLOCK_RECORD
  5
BA
330
1
100
AcDbSymbolTableRecord
100
AcDbBlockTableRecord
  2
*Paper_Space2
340
BB
 70
     0
280
     1
281
     0
  0
BLOCK_RECORD
  5
D8
330
1
100
AcDbSymbolTableRecord
100
AcDbBlockTableRecord
  2
*Paper_Space3
340
D9
 70
     0
280
     1
281
     0
  0
BLOCK_RECORD
  5
F6
330
1
100
AcDbSymbolTableRecord
100
AcDbBlockTableRecord
  2
*Paper_Space4
340
F7
 70
     0
280
     1
281
     0
  0
BLOCK_RECORD
  5
114
330
1
100
AcDbSymbolTableRecord
100
AcDbBlockTableRecord
  2
*Paper_Space5
340
115
 70
     0
280
     1
281
     0
  0
BLOCK_RECORD
  5
137
330
1
100
AcDbSymbolTableRecord
100
AcDbBlockTableRecord
  2
*Paper_Space6
340
138
 70
     0
280
     1
281
     0
  0
BLOCK_RECORD
  5
155
330
1
100
AcDbSymbolTableRecord
100
AcDbBlockTableRecord
  2
*Paper_Space7
340
156
 70
     0
280
     1
281
     0
  0
BLOCK_RECORD
  5
15E
330
1
100
AcDbSymbolTableRecord
100
AcDbBlockTableRecord
  2
*Paper_Space8
340
15F
 70
     0
280
     1
281
     0
  0
BLOCK_RECORD
  5
16C
330
1
100
AcDbSymbolTableRecord
100
AcDbBlockTableRecord
  2
*Paper_Space9
340
16D
 70
     0
280
     1
281
     0
  0
BLOCK_RECORD
  5
17A
330
1
100
AcDbSymbolTableRecord
100
AcDbBlockTableRecord
  2
*Paper_Space10
340
17B
 70
     0
280
     1
281
     0
  0
ENDTAB
  0
ENDSEC
  0
SECTION
  2
BLOCKS
  0
BLOCK
  5
20
330
1F
100
AcDbEntity
  8
0
100
AcDbBlockBegin
  2
*Model_Space
 70
     0
 10
0.0
 20
0.0
 30
0.0
  3
*Model_Space
  1

  0
ENDBLK
  5
21
330
1F
100
AcDbEntity
  8
0
100
AcDbBlockEnd
  0
BLOCK
  5
1C
330
1B
100
AcDbEntity
 67
     1
  8
0
100
AcDbBlockBegin
  2
*Paper_Space
 70
     0
 10
0.0
 20
0.0
 30
0.0
  3
*Paper_Space
  1

  0
ENDBLK
  5
1D
330
1B
100
AcDbEntity
 67
     1
  8
0
100
AcDbBlockEnd
  0
BLOCK
  5
24
330
23
100
AcDbEntity
  8
0
100
AcDbBlockBegin
  2
*Paper_Space0
 70
     0
 10
0.0
 20
0.0
 30
0.0
  3
*Paper_Space0
  1

  0
LINE
  5
8F
330
23
100
AcDbEntity
  8
0
  6
Continuous
 62
     7
370
    25
100
AcDbLine
 10
50.0
 20
0.0
 30
0.0
 11
50.0
 21
2.4352894524
 31
0.0
  0
LINE
  5
90
330
23
100
AcDbEntity
  8
0
  6
Continuous
 62
     7
370
    25
100
AcDbLine
 10
-50.0
 20
2.4352894524
 30
0.0
 11
-50.0
 21
0.0
 31
0.0
  0
LINE
  5
91
330
23
100
AcDbEntity
  8
0
  6
Continuous
 62
     7
370
    25
100
AcDbLine
 10
202.5
 20
260.0
 30
0.0
 11
-202.5
 21
260.0
 31
0.0
  0
LINE
  5
92
330
23
100
AcDbEntity
  8
0
  6
Continuous
 62
     7
370
    25
100
AcDbLine
 10
50.0
 20
0.0
 30
0.0
 11
-50.0
 21
0.0
 31
0.0
  0
LINE
  5
93
330
23
100
AcDbEntity
  8
0
  6
Continuous
 62
     1
370
    25
100
AcDbLine
 10
198.5817961995
 20
190.0
 30
0.0
 11
-198.5817961995
 21
190.0
 31
0.0
  0
LINE
  5
94
330
23
100
AcDbEntity
  8
0
  6
Continuous
 62
     1
370
    25
100
AcDbLine
 10
53.3323570267
 20
7.1489893701
 30
0.0
 11
-53.3323570267
 21
7.1489893701
 31
0.0
  0
LINE
  5
95
330
23
100
AcDbEntity
  8
0
  6
Continuous
 62
     1
370
    25
100
AcDbLine
 10
50.0
 20
2.4352894524
 30
0.0
 11
-50.0
 21
2.4352894524
 31
0.0
  0
ARC
  5
96
330
23
100
AcDbEntity
  8
0
  6
Continuous
 62
     7
370
    25
100
AcDbCircle
 10
424.7456170316
 20
260.0
 30
0.0
 40
627.2456170316415
100
AcDbArc
 50
180.0
 51
186.4075006316
  0
ARC
  5
97
330
23
100
AcDbEntity
  8
0
  6
Continuous
 62
     7
370
    25
100
AcDbCircle
 10
-424.7456170315
 20
260.0
 30
0.0
 40
627.2456170315442
100
AcDbArc
 50
353.5924993684
 51
0.0
  0
ARC
  5
98
330
23
100
AcDbEntity
  8
0
  6
Continuous
 62
     7
370
    25
100
AcDbCircle
 10
20.0439337973
 20
214.5517857468
 30
0.0
 40
220.0000000000005
100
AcDbArc
 50
186.4075006316
 51
250.5169126366
  0
ARC
  5
99
330
23
100
AcDbEntity
  8
0
  6
Continuous
 62
     7
370
    25
100
AcDbCircle
 10
-20.0439337973
 20
214.5517857468
 30
0.0
 40
220.0000000000007
100
AcDbArc
 50
289.4830873634
 51
353.5924993684
  0
ARC
  5
9A
330
23
100
AcDbEntity
  8
0
  6
Continuous
 62
     7
370
    25
100
AcDbCircle
 10
55.0
 20
2.4352894524
 30
0.0
 40
5.000000000000007
100
AcDbArc
 50
109.4830873634
 51
180.0
  0
ARC
  5
9B
330
23
100
AcDbEntity
  8
0
  6
Continuous
 62
     7
370
    25
100
AcDbCircle
 10
-55.0
 20
2.4352894524
 30
0.0
 40
5.000000000000007
100
AcDbArc
 50
0.0
 51
70.5169126366
  0
VIEWPORT
  5
193
330
23
100
AcDbEntity
  8
0
100
AcDbViewport
 10
0.0
 20
0.0
 30
0.0
 40
205.6
 41
156.0
 68
     1
 69
     1
 12
0.0109564813
 22
147.9806003846
 13
0.0
 23
0.0
 14
10.0
 24
10.0
 15
10.0
 25
10.0
 16
0.0
 26
0.0
 36
1.0
 17
0.0
 27
0.0
 37
0.0
 42
50.0
 43
0.0
 44
0.0
 45
369.6871498652
 50
0.0
 51
0.0
 72
   100
 90
   557152
  1

281
     0
 71
     1
 74
     0
110
0.0
120
0.0
130
0.0
111
1.0
121
0.0
131
0.0
112
0.0
122
1.0
132
0.0
 79
     0
146
0.0
170
     0
 61
     5
348
2F
292
     1
282
     1
141
0.0
142
0.0
 63
   256
361
194
  0
ENDBLK
  5
25
330
23
100
AcDbEntity
  8
0
100
AcDbBlockEnd
  0
BLOCK
  5
9E
330
9C
100
AcDbEntity
  8
0
100
AcDbBlockBegin
  2
*Paper_Space1
 70
     0
 10
0.0
 20
0.0
 30
0.0
  3
*Paper_Space1
  1

  0
LINE
  5
AD
330
9C
100
AcDbEntity
  8
0
  6
Continuous
 62
     7
370
    25
100
AcDbLine
 10
50.0
 20
0.0
 30
0.0
 11
50.0
 21
2.4352894524
 31
0.0
  0
LINE
  5
AE
330
9C
100
AcDbEntity
  8
0
  6
Continuous
 62
     7
370
    25
100
AcDbLine
 10
-50.0
 20
2.4352894524
 30
0.0
 11
-50.0
 21
0.0
 31
0.0
  0
LINE
  5
AF
330
9C
100
AcDbEntity
  8
0
  6
Continuous
 62
     7
370
    25
100
AcDbLine
 10
202.5
 20
260.0
 30
0.0
 11
-202.5
 21
260.0
 31
0.0
  0
LINE
  5
B0
330
9C
100
AcDbEntity
  8
0
  6
Continuous
 62
     7
370
    25
100
AcDbLine
 10
50.0
 20
0.0
 30
0.0
 11
-50.0
 21
0.0
 31
0.0
  0
LINE
  5
B1
330
9C
100
AcDbEntity
  8
0
  6
Continuous
 62
     1
370
    25
100
AcDbLine
 10
198.5817961995
 20
190.0
 30
0.0
 11
-198.5817961995
 21
190.0
 31
0.0
  0
LINE
  5
B2
330
9C
100
AcDbEntity
  8
0
  6
Continuous
 62
     1
370
    25
100
AcDbLine
 10
53.3323570267
 20
7.1489893701
 30
0.0
 11
-53.3323570267
 21
7.1489893701
 31
0.0
  0
LINE
  5
B3
330
9C
100
AcDbEntity
  8
0
  6
Continuous
 62
     1
370
    25
100
AcDbLine
 10
50.0
 20
2.4352894524
 30
0.0
 11
-50.0
 21
2.4352894524
 31
0.0
  0
ARC
  5
B4
330
9C
100
AcDbEntity
  8
0
  6
Continuous
 62
     7
370
    25
100
AcDbCircle
 10
424.7456170316
 20
260.0
 30
0.0
 40
627.2456170316415
100
AcDbArc
 50
180.0
 51
186.4075006316
  0
ARC
  5
B5
330
9C
100
AcDbEntity
  8
0
  6
Continuous
 62
     7
370
    25
100
AcDbCircle
 10
-424.7456170315
 20
260.0
 30
0.0
 40
627.2456170315442
100
AcDbArc
 50
353.5924993684
 51
0.0
  0
ARC
  5
B6
330
9C
100
AcDbEntity
  8
0
  6
Continuous
 62
     7
370
    25
100
AcDbCircle
 10
20.0439337973
 20
214.5517857468
 30
0.0
 40
220.0000000000005
100
AcDbArc
 50
186.4075006316
 51
250.5169126366
  0
ARC
  5
B7
330
9C
100
AcDbEntity
  8
0
  6
Continuous
 62
     7
370
    25
100
AcDbCircle
 10
-20.0439337973
 20
214.5517857468
 30
0.0
 40
220.0000000000007
100
AcDbArc
 50
289.4830873634
 51
353.5924993684
  0
ARC
  5
B8
330
9C
100
AcDbEntity
  8
0
  6
Continuous
 62
     7
370
    25
100
AcDbCircle
 10
55.0
 20
2.4352894524
 30
0.0
 40
5.000000000000007
100
AcDbArc
 50
109.4830873634
 51
180.0
  0
ARC
  5
B9
330
9C
100
AcDbEntity
  8
0
  6
Continuous
 62
     7
370
    25
100
AcDbCircle
 10
-55.0
 20
2.4352894524
 30
0.0
 40
5.000000000000007
100
AcDbArc
 50
0.0
 51
70.5169126366
  0
VIEWPORT
  5
195
330
9C
100
AcDbEntity
  8
0
100
AcDbViewport
 10
0.0
 20
0.0
 30
0.0
 40
205.6
 41
156.0
 68
     1
 69
     1
 12
0.0109564813
 22
147.9806003846
 13
0.0
 23
0.0
 14
10.0
 24
10.0
 15
10.0
 25
10.0
 16
0.0
 26
0.0
 36
1.0
 17
0.0
 27
0.0
 37
0.0
 42
50.0
 43
0.0
 44
0.0
 45
369.6871498652
 50
0.0
 51
0.0
 72
   100
 90
   557152
  1

281
     0
 71
     1
 74
     0
110
0.0
120
0.0
130
0.0
111
1.0
121
0.0
131
0.0
112
0.0
122
1.0
132
0.0
 79
     0
146
0.0
170
     0
 61
     5
348
2F
292
     1
282
     1
141
0.0
142
0.0
 63
   256
361
196
  0
ENDBLK
  5
9F
330
9C
100
AcDbEntity
  8
0
100
AcDbBlockEnd
  0
BLOCK
  5
BC
330
BA
100
AcDbEntity
  8
0
100
AcDbBlockBegin
  2
*Paper_Space2
 70
     0
 10
0.0
 20
0.0
 30
0.0
  3
*Paper_Space2
  1

  0
LINE
  5
CB
330
BA
100
AcDbEntity
  8
0
  6
Continuous
 62
     7
370
    25
100
AcDbLine
 10
50.0
 20
0.0
 30
0.0
 11
50.0
 21
2.4352894524
 31
0.0
  0
LINE
  5
CC
330
BA
100
AcDbEntity
  8
0
  6
Continuous
 62
     7
370
    25
100
AcDbLine
 10
-50.0
 20
2.4352894524
 30
0.0
 11
-50.0
 21
0.0
 31
0.0
  0
LINE
  5
CD
330
BA
100
AcDbEntity
  8
0
  6
Continuous
 62
     7
370
    25
100
AcDbLine
 10
202.5
 20
260.0
 30
0.0
 11
-202.5
 21
260.0
 31
0.0
  0
LINE
  5
CE
330
BA
100
AcDbEntity
  8
0
  6
Continuous
 62
     7
370
    25
100
AcDbLine
 10
50.0
 20
0.0
 30
0.0
 11
-50.0
 21
0.0
 31
0.0
  0
LINE
  5
CF
330
BA
100
AcDbEntity
  8
0
  6
Continuous
 62
     1
370
    25
100
AcDbLine
 10
198.5817961995
 20
190.0
 30
0.0
 11
-198.5817961995
 21
190.0
 31
0.0
  0
LINE
  5
D0
330
BA
100
AcDbEntity
  8
0
  6
Continuous
 62
     1
370
    25
100
AcDbLine
 10
53.3323570267
 20
7.1489893701
 30
0.0
 11
-53.3323570267
 21
7.1489893701
 31
0.0
  0
LINE
  5
D1
330
BA
100
AcDbEntity
  8
0
  6
Continuous
 62
     1
370
    25
100
AcDbLine
 10
50.0
 20
2.4352894524
 30
0.0
 11
-50.0
 21
2.4352894524
 31
0.0
  0
ARC
  5
D2
330
BA
100
AcDbEntity
  8
0
  6
Continuous
 62
     7
370
    25
100
AcDbCircle
 10
424.7456170316
 20
260.0
 30
0.0
 40
627.2456170316475
100
AcDbArc
 50
180.0
 51
186.4075006316
  0
ARC
  5
D3
330
BA
100
AcDbEntity
  8
0
  6
Continuous
 62
     7
370
    25
100
AcDbCircle
 10
-424.7456170315
 20
260.0
 30
0.0
 40
627.2456170315487
100
AcDbArc
 50
353.5924993684
 51
0.0
  0
ARC
  5
D4
330
BA
100
AcDbEntity
  8
0
  6
Continuous
 62
     7
370
    25
100
AcDbCircle
 10
20.0439337973
 20
214.5517857468
 30
0.0
 40
220.0000000000005
100
AcDbArc
 50
186.4075006316
 51
250.5169126366
  0
ARC
  5
D5
330
BA
100
AcDbEntity
  8
0
  6
Continuous
 62
     7
370
    25
100
AcDbCircle
 10
-20.0439337973
 20
214.5517857468
 30
0.0
 40
220.0000000000004
100
AcDbArc
 50
289.4830873634
 51
353.5924993684
  0
ARC
  5
D6
330
BA
100
AcDbEntity
  8
0
  6
Continuous
 62
     7
370
    25
100
AcDbCircle
 10
55.0
 20
2.4352894524
 30
0.0
 40
4.999999999999979
100
AcDbArc
 50
109.4830873634
 51
180.0
  0
ARC
  5
D7
330
BA
100
AcDbEntity
  8
0
  6
Continuous
 62
     7
370
    25
100
AcDbCircle
 10
-55.0
 20
2.4352894524
 30
0.0
 40
5.000000000000001
100
AcDbArc
 50
0.0
 51
70.5169126366
  0
VIEWPORT
  5
197
330
BA
100
AcDbEntity
  8
0
100
AcDbViewport
 10
0.0
 20
0.0
 30
0.0
 40
205.6
 41
156.0
 68
     1
 69
     1
 12
0.0109564813
 22
147.9806003846
 13
0.0
 23
0.0
 14
10.0
 24
10.0
 15
10.0
 25
10.0
 16
0.0
 26
0.0
 36
1.0
 17
0.0
 27
0.0
 37
0.0
 42
50.0
 43
0.0
 44
0.0
 45
369.6871498652
 50
0.0
 51
0.0
 72
   100
 90
   557152
  1

281
     0
 71
     1
 74
     0
110
0.0
120
0.0
130
0.0
111
1.0
121
0.0
131
0.0
112
0.0
122
1.0
132
0.0
 79
     0
146
0.0
170
     0
 61
     5
348
2F
292
     1
282
     1
141
0.0
142
0.0
 63
   256
361
198
  0
ENDBLK
  5
BD
330
BA
100
AcDbEntity
  8
0
100
AcDbBlockEnd
  0
BLOCK
  5
DA
330
D8
100
AcDbEntity
  8
0
100
AcDbBlockBegin
  2
*Paper_Space3
 70
     0
 10
0.0
 20
0.0
 30
0.0
  3
*Paper_Space3
  1

  0
LINE
  5
E9
330
D8
100
AcDbEntity
  8
0
  6
Continuous
 62
     7
370
    25
100
AcDbLine
 10
50.0
 20
0.0
 30
0.0
 11
50.0
 21
2.4352894524
 31
0.0
  0
LINE
  5
EA
330
D8
100
AcDbEntity
  8
0
  6
Continuous
 62
     7
370
    25
100
AcDbLine
 10
-50.0
 20
2.4352894524
 30
0.0
 11
-50.0
 21
0.0
 31
0.0
  0
LINE
  5
EB
330
D8
100
AcDbEntity
  8
0
  6
Continuous
 62
     7
370
    25
100
AcDbLine
 10
202.5
 20
260.0
 30
0.0
 11
-202.5
 21
260.0
 31
0.0
  0
LINE
  5
EC
330
D8
100
AcDbEntity
  8
0
  6
Continuous
 62
     7
370
    25
100
AcDbLine
 10
50.0
 20
0.0
 30
0.0
 11
-50.0
 21
0.0
 31
0.0
  0
LINE
  5
ED
330
D8
100
AcDbEntity
  8
0
  6
Continuous
 62
     1
370
    25
100
AcDbLine
 10
198.5817961995
 20
190.0
 30
0.0
 11
-198.5817961995
 21
190.0
 31
0.0
  0
LINE
  5
EE
330
D8
100
AcDbEntity
  8
0
  6
Continuous
 62
     1
370
    25
100
AcDbLine
 10
53.3323570267
 20
7.1489893701
 30
0.0
 11
-53.3323570267
 21
7.1489893701
 31
0.0
  0
LINE
  5
EF
330
D8
100
AcDbEntity
  8
0
  6
Continuous
 62
     1
370
    25
100
AcDbLine
 10
50.0
 20
2.4352894524
 30
0.0
 11
-50.0
 21
2.4352894524
 31
0.0
  0
ARC
  5
F0
330
D8
100
AcDbEntity
  8
0
  6
Continuous
 62
     7
370
    25
100
AcDbCircle
 10
424.7456170317
 20
260.0
 30
0.0
 40
627.2456170316738
100
AcDbArc
 50
180.0
 51
186.4075006316
  0
ARC
  5
F1
330
D8
100
AcDbEntity
  8
0
  6
Continuous
 62
     7
370
    25
100
AcDbCircle
 10
-424.7456170315
 20
260.0
 30
0.0
 40
627.2456170315237
100
AcDbArc
 50
353.5924993684
 51
0.0
  0
ARC
  5
F2
330
D8
100
AcDbEntity
  8
0
  6
Continuous
 62
     7
370
    25
100
AcDbCircle
 10
20.0439337973
 20
214.5517857468
 30
0.0
 40
220.0000000000004
100
AcDbArc
 50
186.4075006316
 51
250.5169126366
  0
ARC
  5
F3
330
D8
100
AcDbEntity
  8
0
  6
Continuous
 62
     7
370
    25
100
AcDbCircle
 10
-20.0439337973
 20
214.5517857468
 30
0.0
 40
220.0000000000006
100
AcDbArc
 50
289.4830873634
 51
353.5924993684
  0
ARC
  5
F4
330
D8
100
AcDbEntity
  8
0
  6
Continuous
 62
     7
370
    25
100
AcDbCircle
 10
55.0
 20
2.4352894524
 30
0.0
 40
5.00000000000003
100
AcDbArc
 50
109.4830873634
 51
180.0
  0
ARC
  5
F5
330
D8
100
AcDbEntity
  8
0
  6
Continuous
 62
     7
370
    25
100
AcDbCircle
 10
-55.0
 20
2.4352894524
 30
0.0
 40
4.999999999999986
100
AcDbArc
 50
0.0
 51
70.5169126366
  0
VIEWPORT
  5
199
330
D8
100
AcDbEntity
  8
0
100
AcDbViewport
 10
0.0
 20
0.0
 30
0.0
 40
205.6
 41
156.0
 68
     1
 69
     1
 12
0.0109564813
 22
147.9806003846
 13
0.0
 23
0.0
 14
10.0
 24
10.0
 15
10.0
 25
10.0
 16
0.0
 26
0.0
 36
1.0
 17
0.0
 27
0.0
 37
0.0
 42
50.0
 43
0.0
 44
0.0
 45
369.6871498652
 50
0.0
 51
0.0
 72
   100
 90
   557152
  1

281
     0
 71
     1
 74
     0
110
0.0
120
0.0
130
0.0
111
1.0
121
0.0
131
0.0
112
0.0
122
1.0
132
0.0
 79
     0
146
0.0
170
     0
 61
     5
348
2F
292
     1
282
     1
141
0.0
142
0.0
 63
   256
361
19A
  0
ENDBLK
  5
DB
330
D8
100
AcDbEntity
  8
0
100
AcDbBlockEnd
  0
BLOCK
  5
F8
330
F6
100
AcDbEntity
  8
0
100
AcDbBlockBegin
  2
*Paper_Space4
 70
     0
 10
0.0
 20
0.0
 30
0.0
  3
*Paper_Space4
  1

  0
LINE
  5
107
330
F6
100
AcDbEntity
  8
0
  6
Continuous
 62
     7
370
    25
100
AcDbLine
 10
50.0
 20
0.0
 30
0.0
 11
50.0
 21
2.4352894524
 31
0.0
  0
LINE
  5
108
330
F6
100
AcDbEntity
  8
0
  6
Continuous
 62
     7
370
    25
100
AcDbLine
 10
-50.0
 20
2.4352894524
 30
0.0
 11
-50.0
 21
0.0
 31
0.0
  0
LINE
  5
109
330
F6
100
AcDbEntity
  8
0
  6
Continuous
 62
     7
370
    25
100
AcDbLine
 10
202.5
 20
260.0
 30
0.0
 11
-202.5
 21
260.0
 31
0.0
  0
LINE
  5
10A
330
F6
100
AcDbEntity
  8
0
  6
Continuous
 62
     7
370
    25
100
AcDbLine
 10
50.0
 20
0.0
 30
0.0
 11
-50.0
 21
0.0
 31
0.0
  0
LINE
  5
10B
330
F6
100
AcDbEntity
  8
0
  6
Continuous
 62
     1
370
    25
100
AcDbLine
 10
198.5817961995
 20
190.0
 30
0.0
 11
-198.5817961995
 21
190.0
 31
0.0
  0
LINE
  5
10C
330
F6
100
AcDbEntity
  8
0
  6
Continuous
 62
     1
370
    25
100
AcDbLine
 10
53.3323570267
 20
7.1489893701
 30
0.0
 11
-53.3323570267
 21
7.1489893701
 31
0.0
  0
LINE
  5
10D
330
F6
100
AcDbEntity
  8
0
  6
Continuous
 62
     1
370
    25
100
AcDbLine
 10
50.0
 20
2.4352894524
 30
0.0
 11
-50.0
 21
2.4352894524
 31
0.0
  0
ARC
  5
10E
330
F6
100
AcDbEntity
  8
0
  6
Continuous
 62
     7
370
    25
100
AcDbCircle
 10
424.7456170316
 20
260.0
 30
0.0
 40
627.2456170316415
100
AcDbArc
 50
180.0
 51
186.4075006316
  0
ARC
  5
10F
330
F6
100
AcDbEntity
  8
0
  6
Continuous
 62
     7
370
    25
100
AcDbCircle
 10
-424.7456170315
 20
260.0
 30
0.0
 40
627.2456170315442
100
AcDbArc
 50
353.5924993684
 51
0.0
  0
ARC
  5
110
330
F6
100
AcDbEntity
  8
0
  6
Continuous
 62
     7
370
    25
100
AcDbCircle
 10
20.0439337973
 20
214.5517857468
 30
0.0
 40
220.0000000000005
100
AcDbArc
 50
186.4075006316
 51
250.5169126366
  0
ARC
  5
111
330
F6
100
AcDbEntity
  8
0
  6
Continuous
 62
     7
370
    25
100
AcDbCircle
 10
-20.0439337973
 20
214.5517857468
 30
0.0
 40
220.0000000000007
100
AcDbArc
 50
289.4830873634
 51
353.5924993684
  0
ARC
  5
112
330
F6
100
AcDbEntity
  8
0
  6
Continuous
 62
     7
370
    25
100
AcDbCircle
 10
55.0
 20
2.4352894524
 30
0.0
 40
5.000000000000007
100
AcDbArc
 50
109.4830873634
 51
180.0
  0
ARC
  5
113
330
F6
100
AcDbEntity
  8
0
  6
Continuous
 62
     7
370
    25
100
AcDbCircle
 10
-55.0
 20
2.4352894524
 30
0.0
 40
5.000000000000007
100
AcDbArc
 50
0.0
 51
70.5169126366
  0
VIEWPORT
  5
19B
330
F6
100
AcDbEntity
  8
0
100
AcDbViewport
 10
0.0
 20
0.0
 30
0.0
 40
205.6
 41
156.0
 68
     1
 69
     1
 12
0.0109564813
 22
147.9806003846
 13
0.0
 23
0.0
 14
10.0
 24
10.0
 15
10.0
 25
10.0
 16
0.0
 26
0.0
 36
1.0
 17
0.0
 27
0.0
 37
0.0
 42
50.0
 43
0.0
 44
0.0
 45
369.6871498652
 50
0.0
 51
0.0
 72
   100
 90
   557152
  1

281
     0
 71
     1
 74
     0
110
0.0
120
0.0
130
0.0
111
1.0
121
0.0
131
0.0
112
0.0
122
1.0
132
0.0
 79
     0
146
0.0
170
     0
 61
     5
348
2F
292
     1
282
     1
141
0.0
142
0.0
 63
   256
361
19C
  0
ENDBLK
  5
F9
330
F6
100
AcDbEntity
  8
0
100
AcDbBlockEnd
  0
BLOCK
  5
116
330
114
100
AcDbEntity
  8
0
100
AcDbBlockBegin
  2
*Paper_Space5
 70
     0
 10
0.0
 20
0.0
 30
0.0
  3
*Paper_Space5
  1

  0
LINE
  5
12A
330
114
100
AcDbEntity
  8
0
  6
Continuous
 62
     7
370
    25
100
AcDbLine
 10
50.0
 20
0.0
 30
0.0
 11
50.0
 21
2.4352894524
 31
0.0
  0
LINE
  5
12B
330
114
100
AcDbEntity
  8
0
  6
Continuous
 62
     7
370
    25
100
AcDbLine
 10
-50.0
 20
2.4352894524
 30
0.0
 11
-50.0
 21
0.0
 31
0.0
  0
LINE
  5
12C
330
114
100
AcDbEntity
  8
0
  6
Continuous
 62
     7
370
    25
100
AcDbLine
 10
202.5
 20
260.0
 30
0.0
 11
-202.5
 21
260.0
 31
0.0
  0
LINE
  5
12D
330
114
100
AcDbEntity
  8
0
  6
Continuous
 62
     7
370
    25
100
AcDbLine
 10
50.0
 20
0.0
 30
0.0
 11
-50.0
 21
0.0
 31
0.0
  0
LINE
  5
12E
330
114
100
AcDbEntity
  8
0
  6
Continuous
 62
     1
370
    25
100
AcDbLine
 10
198.5817961995
 20
190.0
 30
0.0
 11
-198.5817961995
 21
190.0
 31
0.0
  0
LINE
  5
12F
330
114
100
AcDbEntity
  8
0
  6
Continuous
 62
     1
370
    25
100
AcDbLine
 10
53.3323570267
 20
7.1489893701
 30
0.0
 11
-53.3323570267
 21
7.1489893701
 31
0.0
  0
LINE
  5
130
330
114
100
AcDbEntity
  8
0
  6
Continuous
 62
     1
370
    25
100
AcDbLine
 10
50.0
 20
2.4352894524
 30
0.0
 11
-50.0
 21
2.4352894524
 31
0.0
  0
ARC
  5
131
330
114
100
AcDbEntity
  8
0
  6
Continuous
 62
     7
370
    25
100
AcDbCircle
 10
424.7456170316
 20
260.0
 30
0.0
 40
627.2456170316415
100
AcDbArc
 50
180.0
 51
186.4075006316
  0
ARC
  5
132
330
114
100
AcDbEntity
  8
0
  6
Continuous
 62
     7
370
    25
100
AcDbCircle
 10
-424.7456170315
 20
260.0
 30
0.0
 40
627.2456170315442
100
AcDbArc
 50
353.5924993684
 51
0.0
  0
ARC
  5
133
330
114
100
AcDbEntity
  8
0
  6
Continuous
 62
     7
370
    25
100
AcDbCircle
 10
20.0439337973
 20
214.5517857468
 30
0.0
 40
220.0000000000005
100
AcDbArc
 50
186.4075006316
 51
250.5169126366
  0
ARC
  5
134
330
114
100
AcDbEntity
  8
0
  6
Continuous
 62
     7
370
    25
100
AcDbCircle
 10
-20.0439337973
 20
214.5517857468
 30
0.0
 40
220.0000000000007
100
AcDbArc
 50
289.4830873634
 51
353.5924993684
  0
ARC
  5
135
330
114
100
AcDbEntity
  8
0
  6
Continuous
 62
     7
370
    25
100
AcDbCircle
 10
55.0
 20
2.4352894524
 30
0.0
 40
5.000000000000007
100
AcDbArc
 50
109.4830873634
 51
180.0
  0
ARC
  5
136
330
114
100
AcDbEntity
  8
0
  6
Continuous
 62
     7
370
    25
100
AcDbCircle
 10
-55.0
 20
2.4352894524
 30
0.0
 40
5.000000000000007
100
AcDbArc
 50
0.0
 51
70.5169126366
  0
VIEWPORT
  5
19D
330
114
100
AcDbEntity
  8
0
100
AcDbViewport
 10
0.0
 20
0.0
 30
0.0
 40
205.6
 41
156.0
 68
     1
 69
     1
 12
0.0109564813
 22
147.9806003846
 13
0.0
 23
0.0
 14
10.0
 24
10.0
 15
10.0
 25
10.0
 16
0.0
 26
0.0
 36
1.0
 17
0.0
 27
0.0
 37
0.0
 42
50.0
 43
0.0
 44
0.0
 45
369.6871498652
 50
0.0
 51
0.0
 72
   100
 90
   557152
  1

281
     0
 71
     1
 74
     0
110
0.0
120
0.0
130
0.0
111
1.0
121
0.0
131
0.0
112
0.0
122
1.0
132
0.0
 79
     0
146
0.0
170
     0
 61
     5
348
2F
292
     1
282
     1
141
0.0
142
0.0
 63
   256
361
19E
  0
ENDBLK
  5
117
330
114
100
AcDbEntity
  8
0
100
AcDbBlockEnd
  0
BLOCK
  5
139
330
137
100
AcDbEntity
  8
0
100
AcDbBlockBegin
  2
*Paper_Space6
 70
     0
 10
0.0
 20
0.0
 30
0.0
  3
*Paper_Space6
  1

  0
LINE
  5
148
330
137
100
AcDbEntity
  8
0
  6
Continuous
 62
     7
370
    25
100
AcDbLine
 10
50.0
 20
0.0
 30
0.0
 11
50.0
 21
2.4352894524
 31
0.0
  0
LINE
  5
149
330
137
100
AcDbEntity
  8
0
  6
Continuous
 62
     7
370
    25
100
AcDbLine
 10
-50.0
 20
2.4352894524
 30
0.0
 11
-50.0
 21
0.0
 31
0.0
  0
LINE
  5
14A
330
137
100
AcDbEntity
  8
0
  6
Continuous
 62
     7
370
    25
100
AcDbLine
 10
202.5
 20
260.0
 30
0.0
 11
-202.5
 21
260.0
 31
0.0
  0
LINE
  5
14B
330
137
100
AcDbEntity
  8
0
  6
Continuous
 62
     7
370
    25
100
AcDbLine
 10
50.0
 20
0.0
 30
0.0
 11
-50.0
 21
0.0
 31
0.0
  0
LINE
  5
14C
330
137
100
AcDbEntity
  8
0
  6
Continuous
 62
     1
370
    25
100
AcDbLine
 10
198.5817961995
 20
190.0
 30
0.0
 11
-198.5817961995
 21
190.0
 31
0.0
  0
LINE
  5
14D
330
137
100
AcDbEntity
  8
0
  6
Continuous
 62
     1
370
    25
100
AcDbLine
 10
53.3323570267
 20
7.1489893701
 30
0.0
 11
-53.3323570267
 21
7.1489893701
 31
0.0
  0
LINE
  5
14E
330
137
100
AcDbEntity
  8
0
  6
Continuous
 62
     1
370
    25
100
AcDbLine
 10
50.0
 20
2.4352894524
 30
0.0
 11
-50.0
 21
2.4352894524
 31
0.0
  0
ARC
  5
14F
330
137
100
AcDbEntity
  8
0
  6
Continuous
 62
     7
370
    25
100
AcDbCircle
 10
424.7456170316
 20
260.0
 30
0.0
 40
627.2456170316415
100
AcDbArc
 50
180.0
 51
186.4075006316
  0
ARC
  5
150
330
137
100
AcDbEntity
  8
0
  6
Continuous
 62
     7
370
    25
100
AcDbCircle
 10
-424.7456170315
 20
260.0
 30
0.0
 40
627.2456170315442
100
AcDbArc
 50
353.5924993684
 51
0.0
  0
ARC
  5
151
330
137
100
AcDbEntity
  8
0
  6
Continuous
 62
     7
370
    25
100
AcDbCircle
 10
20.0439337973
 20
214.5517857468
 30
0.0
 40
220.0000000000005
100
AcDbArc
 50
186.4075006316
 51
250.5169126366
  0
ARC
  5
152
330
137
100
AcDbEntity
  8
0
  6
Continuous
 62
     7
370
    25
100
AcDbCircle
 10
-20.0439337973
 20
214.5517857468
 30
0.0
 40
220.0000000000007
100
AcDbArc
 50
289.4830873634
 51
353.5924993684
  0
ARC
  5
153
330
137
100
AcDbEntity
  8
0
  6
Continuous
 62
     7
370
    25
100
AcDbCircle
 10
55.0
 20
2.4352894524
 30
0.0
 40
5.000000000000007
100
AcDbArc
 50
109.4830873634
 51
180.0
  0
ARC
  5
154
330
137
100
AcDbEntity
  8
0
  6
Continuous
 62
     7
370
    25
100
AcDbCircle
 10
-55.0
 20
2.4352894524
 30
0.0
 40
5.000000000000007
100
AcDbArc
 50
0.0
 51
70.5169126366
  0
VIEWPORT
  5
19F
330
137
100
AcDbEntity
  8
0
100
AcDbViewport
 10
0.0
 20
0.0
 30
0.0
 40
205.6
 41
156.0
 68
     1
 69
     1
 12
0.0109564813
 22
147.9806003846
 13
0.0
 23
0.0
 14
10.0
 24
10.0
 15
10.0
 25
10.0
 16
0.0
 26
0.0
 36
1.0
 17
0.0
 27
0.0
 37
0.0
 42
50.0
 43
0.0
 44
0.0
 45
369.6871498652
 50
0.0
 51
0.0
 72
   100
 90
   557152
  1

281
     0
 71
     1
 74
     0
110
0.0
120
0.0
130
0.0
111
1.0
121
0.0
131
0.0
112
0.0
122
1.0
132
0.0
 79
     0
146
0.0
170
     0
 61
     5
348
2F
292
     1
282
     1
141
0.0
142
0.0
 63
   256
361
1A0
  0
ENDBLK
  5
13A
330
137
100
AcDbEntity
  8
0
100
AcDbBlockEnd
  0
BLOCK
  5
157
330
155
100
AcDbEntity
  8
0
100
AcDbBlockBegin
  2
*Paper_Space7
 70
     0
 10
0.0
 20
0.0
 30
0.0
  3
*Paper_Space7
  1

  0
CIRCLE
  5
159
330
155
100
AcDbEntity
  8
0
  6
Continuous
 62
     7
370
    25
100
AcDbCircle
 10
0.0
 20
0.0
 30
0.0
 40
49.99999999999991
  0
CIRCLE
  5
15A
330
155
100
AcDbEntity
  8
0
  6
Continuous
 62
     7
370
    25
100
AcDbCircle
 10
0.0
 20
0.0
 30
0.0
 40
22.99999999999999
  0
CIRCLE
  5
15B
330
155
100
AcDbEntity
  8
0
  6
Continuous
 62
     7
370
    25
100
AcDbCircle
 10
0.0
 20
0.0
 30
0.0
 40
53.33235702672586
  0
CIRCLE
  5
15C
330
155
100
AcDbEntity
  8
0
  6
Continuous
 62
     7
370
    25
100
AcDbCircle
 10
0.0
 20
0.0
 30
0.0
 40
198.5817961994826
  0
CIRCLE
  5
15D
330
155
100
AcDbEntity
  8
0
  6
Continuous
 62
     7
370
    25
100
AcDbCircle
 10
0.0
 20
0.0
 30
0.0
 40
202.5000000000004
  0
VIEWPORT
  5
1A1
330
155
100
AcDbEntity
  8
0
100
AcDbViewport
 10
0.0
 20
0.0
 30
0.0
 40
205.6
 41
156.0
 68
     1
 69
     1
 12
0.0109564813
 22
147.9806003846
 13
0.0
 23
0.0
 14
10.0
 24
10.0
 15
10.0
 25
10.0
 16
0.0
 26
0.0
 36
1.0
 17
0.0
 27
0.0
 37
0.0
 42
50.0
 43
0.0
 44
0.0
 45
369.6871498652
 50
0.0
 51
0.0
 72
   100
 90
   557152
  1

281
     0
 71
     1
 74
     0
110
0.0
120
0.0
130
0.0
111
1.0
121
0.0
131
0.0
112
0.0
122
1.0
132
0.0
 79
     0
146
0.0
170
     0
 61
     5
348
2F
292
     1
282
     1
141
0.0
142
0.0
 63
   256
361
1A2
  0
ENDBLK
  5
158
330
155
100
AcDbEntity
  8
0
100
AcDbBlockEnd
  0
BLOCK
  5
160
330
15E
100
AcDbEntity
  8
0
100
AcDbBlockBegin
  2
*Paper_Space8
 70
     0
 10
0.0
 20
0.0
 30
0.0
  3
*Paper_Space8
  1

  0
SPLINE
  5
162
330
15E
100
AcDbEntity
  8
0
  6
Continuous
 62
     7
370
    25
100
AcDbSpline
210
0.0
220
0.0
230
1.0
 70
     8
 71
     3
 72
    85
 73
    81
 74
     0
 42
0.000000001
 43
0.00000001
 40
0.0
 40
0.0
 40
0.0
 40
0.0
 40
0.0132930427310018
 40
0.0283571528836909
 40
0.0431510932922801
 40
0.0575912412882496
 40
0.0716661949376983
 40
0.0854082050883497
 40
0.0988673174771727
 40
0.1120961349885218
 40
0.1251428876090847
 40
0.1380490864614749
 40
0.1508492950631588
 40
0.1635717414042122
 40
0.176239184372159
 40
0.1888697877237651
 40
0.2014779095983203
 40
0.214074782422587
 40
0.2266689282091216
 40
0.2392650741733144
 40
0.2518686645991738
 40
0.2644836820725758
 40
0.2771129309016804
 40
0.2897582710718974
 40
0.3024208092766225
 40
0.3151010545318724
 40
0.3277990445696425
 40
0.3405144481291946
 40
0.3532466473855338
 40
0.3659948040316846
 40
0.3787579119348074
 40
0.3915348387915275
 40
0.4043243587963419
 40
0.4171251779942576
 40
0.4299359537036174
 40
0.4427553091583466
 40
0.4555818443234113
 40
0.4684141436770211
 40
0.4812507816233675
 40
0.4940903260961176
 40
0.5069313408325311
 40
0.5197723687539758
 40
0.5326115068658903
 40
0.5454473130590521
 40
0.558278345283652
 40
0.5711031630753347
 40
0.583920330183305
 40
0.5967284186700391
 40
0.6095260149853385
 40
0.6223117286042792
 40
0.6350842039289619
 40
0.647842136290677
 40
0.6605842930559365
 40
0.673309541040683
 40
0.6860168816766415
 40
0.698705495656892
 40
0.7113747991200473
 40
0.7240245138194052
 40
0.7366547541712014
 40
0.7492661345909036
 40
0.7618599011138734
 40
0.7744380919608372
 40
0.7870037324486117
 40
0.7995610704487507
 40
0.8121158293622329
 40
0.8246729314704151
 40
0.837241432968942
 40
0.8498329341879203
 40
0.8624620962752612
 40
0.8751472284923818
 40
0.887910934317671
 40
0.9007807757517708
 40
0.9137898573365953
 40
0.9269771139839297
 40
0.9403868566953016
 40
0.9540667052225004
 40
0.9680623411904861
 40
0.982406692854456
 40
0.9971012646072497
 40
1.0
 40
1.0
 40
1.0
 40
1.0
 10
187.0271803135125
 20
191.5954662749903
 30
0.0
 10
186.9619313045976
 20
190.4828065601131
 30
0.0
 10
186.8227399878499
 20
188.1092445186165
 30
0.0
 10
186.2256228904094
 20
184.4713195922984
 30
0.0
 10
185.3246752046184
 20
180.6998150726097
 30
0.0
 10
184.1198906077772
 20
176.9678338158724
 30
0.0
 10
182.6325116816771
 20
173.2816745368122
 30
0.0
 10
180.8684393688776
 20
169.6403950755173
 30
0.0
 10
178.8333618357592
 20
166.0405265626382
 30
0.0
 10
176.5295702357435
 20
162.4788229234992
 30
0.0
 10
173.9580556657203
 20
158.9536554596415
 30
0.0
 10
171.119113670432
 20
155.465371967629
 30
0.0
 10
168.013033344515
 20
152.0161892702998
 30
0.0
 10
164.6404863883632
 20
148.6099025195014
 30
0.0
 10
161.0027868688788
 20
145.2515574362269
 30
0.0
 10
157.1020399598761
 20
141.947143013867
 30
0.0
 10
152.9412211897186
 20
138.7033245157037
 30
0.0
 10
148.5242255662174
 20
135.5272328525797
 30
0.0
 10
143.8560839335859
 20
132.4264197708601
 30
0.0
 10
138.9426941619576
 20
129.4084934990705
 30
0.0
 10
133.7907500259344
 20
126.4809952726134
 30
0.0
 10
128.4074248297141
 20
123.6511940894689
 30
0.0
 10
122.8006359328497
 20
120.9262128072192
 30
0.0
 10
116.9789939267871
 20
118.3129637425107
 30
0.0
 10
110.9517502390851
 20
115.8180978318274
 30
0.0
 10
104.7287449973681
 20
113.4479650129151
 30
0.0
 10
98.32035614265367
 20
111.2085836792429
 30
0.0
 10
91.73745044374535
 20
109.1056174326392
 30
0.0
 10
84.9913367967188
 20
107.1443576605906
 30
0.0
 10
78.0937219968157
 20
105.3297107208568
 30
0.0
 10
71.0566690247371
 20
103.6661887309434
 30
0.0
 10
63.89255778573693
 20
102.1579031411441
 30
0.0
 10
56.6140481686931
 20
100.8085604220152
 30
0.0
 10
49.23404524612544
 20
99.62145932450115
 30
0.0
 10
41.76566640877665
 20
98.59948927691265
 30
0.0
 10
34.22221021473179
 20
97.74512957061833
 30
0.0
 10
26.61712672911705
 20
97.06044905829673
 30
0.0
 10
18.96398913238462
 20
96.54710614737773
 30
0.0
 10
11.27646638200785
 20
96.20634891894129
 30
0.0
 10
3.568296716164834
 20
96.03901524120789
 30
0.0
 10
-4.146734589382015
 20
96.04553277425282
 30
0.0
 10
-11.85473184060869
 20
96.2259162754296
 30
0.0
 10
-19.54180761580597
 20
96.57975999733986
 30
0.0
 10
-27.19411382776831
 20
97.1062375359589
 30
0.0
 10
-34.79795539740478
 20
97.8041125958704
 30
0.0
 10
-42.3397235004898
 20
98.67173579490296
 30
0.0
 10
-49.80592175895024
 20
99.70704340851991
 30
0.0
 10
-57.18319325238243
 20
100.9075559534124
 30
0.0
 10
-64.4583485545471
 20
102.2703766992864
 30
0.0
 10
-71.61839504464714
 20
103.7921902354539
 30
0.0
 10
-78.65056775575177
 20
105.4692612656381
 30
0.0
 10
-85.54236203972974
 20
107.2974338632866
 30
0.0
 10
-92.28156834050044
 20
109.2721314936014
 30
0.0
 10
-98.856309374095
 20
111.3883582007686
 30
0.0
 10
-105.2550800103794
 20
113.6407014732627
 30
0.0
 10
-111.4667901321605
 20
116.0233374409293
 30
0.0
 10
-117.4808107058718
 20
118.5300392296542
 30
0.0
 10
-123.2870232252839
 20
121.1541895082286
 30
0.0
 10
-128.8758725746589
 20
123.8887985137228
 30
0.0
 10
-134.2384231858663
 20
126.7265291427584
 30
0.0
 10
-139.3664181184985
 20
129.6597310553029
 30
0.0
 10
-144.2523403449048
 20
132.6804861587109
 30
0.0
 10
-148.8894750605994
 20
135.7806683479971
 30
0.0
 10
-153.2719676619818
 20
138.9520183887474
 30
0.0
 10
-157.3945934593043
 20
142.1860158635343
 30
0.0
 10
-161.2531050368829
 20
145.4741489034472
 30
0.0
 10
-164.8442928185717
 20
148.8080654616301
 30
0.0
 10
-168.166228119575
 20
152.1799982158916
 30
0.0
 10
-171.2180386300123
 20
155.5828297343235
 30
0.0
 10
-173.9998616301672
 20
159.0103847979631
 30
0.0
 10
-176.5127399438925
 20
162.4577803987597
 30
0.0
 10
-178.7584080544197
 20
165.921832441604
 30
0.0
 10
-180.7390326007366
 20
169.4015074929389
 30
0.0
 10
-182.4564882263406
 20
172.898369407901
 30
0.0
 10
-183.912553876316
 20
176.4169487677529
 30
0.0
 10
-185.1045319569074
 20
179.964712364349
 30
0.0
 10
-186.0373744138611
 20
183.5516757711192
 30
0.0
 10
-186.6714992322257
 20
187.1874363352151
 30
0.0
 10
-186.9970798270485
 20
189.8670567470116
 30
0.0
 10
-187.0164499927451
 20
191.3383122055336
 30
0.0
 10
-187.0196414896253
 20
191.5807214486687
 30
0.0
  0
SPLINE
  5
163
330
15E
100
AcDbEntity
  8
0
  6
Continuous
 62
     7
370
    25
100
AcDbSpline
210
0.0
220
0.0
230
1.0
 70
     8
 71
     3
 72
    13
 73
     9
 74
     0
 42
0.000000001
 43
0.00000001
 40
0.0
 40
0.0
 40
0.0
 40
0.0
 40
0.1285287490495046
 40
0.3152442043987833
 40
0.5019003306906726
 40
0.6884656700714199
 40
0.8749098809445254
 40
1.0
 40
1.0
 40
1.0
 40
1.0
 10
197.9193244772419
 20
146.032743366604
 30
0.0
 10
198.3071624891525
 20
148.85032239737
 30
0.0
 10
199.2584180362927
 20
155.7610366652138
 30
0.0
 10
200.4101869075486
 20
166.8199024633818
 30
0.0
 10
201.4266712820038
 20
179.1868170528008
 30
0.0
 10
202.1023462115377
 20
191.5763987372313
 30
0.0
 10
202.4653662121677
 20
202.6173155465431
 30
0.0
 10
202.4651880831486
 20
209.5261607636872
 30
0.0
 10
202.4651165591524
 20
212.3002636079758
 30
0.0
  0
SPLINE
  5
164
330
15E
100
AcDbEntity
  8
0
  6
Continuous
 62
     7
370
    25
100
AcDbSpline
210
0.0
220
0.0
230
1.0
 70
     8
 71
     3
 72
    14
 73
    10
 74
     0
 42
0.000000001
 43
0.00000001
 40
0.0
 40
0.0
 40
0.0
 40
0.0
 40
0.0611980730514518
 40
0.2473182227668099
 40
0.4332215881419822
 40
0.6188774760099587
 40
0.8042563973760434
 40
0.9893280872126667
 40
1.0
 40
1.0
 40
1.0
 40
1.0
 10
-202.4651187234906
 20
212.3004640377698
 30
0.0
 10
-202.4748088834827
 20
210.9434063138217
 30
0.0
 10
-202.5139694816532
 20
205.459163301846
 30
0.0
 10
-202.2606349585987
 20
195.8536372349019
 30
0.0
 10
-201.6999940562142
 20
183.5024441731023
 30
0.0
 10
-200.8136465342165
 20
171.1888721400992
 30
0.0
 10
-199.5881828103821
 20
158.9326616599395
 30
0.0
 10
-198.6226759418023
 20
150.5461545022193
 30
0.0
 10
-197.9800689657604
 20
146.2647577959574
 30
0.0
 10
-197.9450341267521
 20
146.0313366693166
 30
0.0
  0
SPLINE
  5
165
330
15E
100
AcDbEntity
  8
0
  6
Continuous
 62
     7
370
    25
100
AcDbSpline
210
0.0
220
0.0
230
1.0
 70
     8
 71
     3
 72
    81
 73
    77
 74
     0
 42
0.000000001
 43
0.00000001
 40
0.0
 40
0.0
 40
0.0
 40
0.0
 40
0.0010381930349387
 40
0.0150266808209237
 40
0.0289844073377453
 40
0.0429108733569841
 40
0.056805547048776
 40
0.0706678608767285
 40
0.0844972088593266
 40
0.098292944246565
 40
0.1120543776949997
 40
0.1257807760655424
 40
0.139471362017547
 40
0.1531253146319373
 40
0.1667417713660941
 40
0.1803198317247725
 40
0.1938585631229151
 40
0.2073570095144388
 40
0.2208142034571685
 40
0.2342291823636359
 40
0.2476010097247742
 40
0.2609288020517244
 40
0.2742117621054659
 40
0.2874492186078182
 40
0.3006406719773777
 40
0.3137858446623905
 40
0.3268847333895384
 40
0.3399376593646398
 40
0.3529453118137283
 40
0.3659087815968294
 40
0.378829587246799
 40
0.3917097087484528
 40
0.4045516672336938
 40
0.4173587200562365
 40
0.4301352688209417
 40
0.4428875754919033
 40
0.4556248098001727
 40
0.4683602856751893
 40
0.4811125198745139
 40
0.4939055766111048
 40
0.5067681893211333
 40
0.5197311908615307
 40
0.5328150287254558
 40
0.5460451416597096
 40
0.5594393797987489
 40
0.5730056208059379
 40
0.5867413032209436
 40
0.6006349172652526
 40
0.6146688216614008
 40
0.6288224104087736
 40
0.6430747826327743
 40
0.6574065000539168
 40
0.6703204626369607
 40
0.6847187940924011
 40
0.6991915320185665
 40
0.7136914700356288
 40
0.7282089978953837
 40
0.7427368848273583
 40
0.757269101466384
 40
0.7718005879638905
 40
0.7863270873613745
 40
0.80084501224092
 40
0.8153513362421012
 40
0.8298435045177981
 40
0.8443193588821222
 40
0.8587770746386547
 40
0.8732151069225536
 40
0.8876321449472275
 40
0.9020270729111934
 40
0.9163989365643046
 40
0.930746914603045
 40
0.9450702941909734
 40
0.9593684499999976
 40
0.9736408262507249
 40
0.9878869213006775
 40
1.0
 40
1.0
 40
1.0
 40
1.0
 10
-197.9429727393263
 20
146.0328164229971
 30
0.0
 10
-197.9189195380359
 20
145.8327425003475
 30
0.0
 10
-197.5707764024632
 20
142.9368966652568
 30
0.0
 10
-196.6108313736338
 20
137.3895512902074
 30
0.0
 10
-195.0440593682175
 20
129.4146450424148
 30
0.0
 10
-193.1453989722529
 20
121.5283793481101
 30
0.0
 10
-190.9620787139571
 20
113.736645491501
 30
0.0
 10
-188.4878610793725
 20
106.0519749852473
 30
0.0
 10
-185.7313064964981
 20
98.48482110325534
 30
0.0
 10
-182.6975318301794
 20
91.04587124468661
 30
0.0
 10
-179.3930680012352
 20
83.74541388772884
 30
0.0
 10
-175.8245490831555
 20
76.59349218464423
 30
0.0
 10
-171.9990474548532
 20
69.59984770188251
 30
0.0
 10
-167.9239683968138
 20
62.77392035409569
 30
0.0
 10
-163.6070609311435
 20
56.12483350302122
 30
0.0
 10
-159.0563959437014
 20
49.66138318948119
 30
0.0
 10
-154.2803509430486
 20
43.39202646376286
 30
0.0
 10
-149.2875904574236
 20
37.32487022368759
 30
0.0
 10
-144.0870444185242
 20
31.46766031017052
 30
0.0
 10
-138.6878832379796
 20
25.82777114471028
 30
0.0
 10
-133.0994892054725
 20
20.41219618287522
 30
0.0
 10
-127.3314236083935
 20
15.2275396418801
 30
0.0
 10
-121.3933891669391
 20
10.2800101456028
 30
0.0
 10
-115.2951876413453
 20
5.575417162117069
 30
0.0
 10
-109.0466729699123
 20
1.119171347576484
 30
0.0
 10
-102.6577010573729
 20
-3.083709897208561
 30
0.0
 10
-96.13807835302241
 20
-7.028590310667049
 30
0.0
 10
-89.49751248664121
 20
-10.71119502518604
 30
0.0
 10
-82.7455690429609
 20
-14.12758293994104
 30
0.0
 10
-75.89163817284603
 20
-17.27411253676854
 30
0.0
 10
-68.94491169828714
 20
-20.1474048575835
 30
0.0
 10
-61.91436378799392
 20
-22.74431012894058
 30
0.0
 10
-54.80871480056366
 20
-25.06188623796991
 30
0.0
 10
-47.6363399223443
 20
-27.09739518037376
 30
0.0
 10
-40.40506933574402
 20
-28.84831416895837
 30
0.0
 10
-33.12183073253576
 20
-30.31233947573385
 30
0.0
 10
-25.79212795670004
 20
-31.48733773838251
 30
0.0
 10
-18.41944024451123
 20
-32.37118570883609
 30
0.0
 10
-11.00474246944327
 20
-32.96145567217267
 30
0.0
 10
-3.546428540653936
 20
-33.25496206998115
 30
0.0
 10
3.959053593400083
 20
-33.24727228640349
 30
0.0
 10
11.51406162681021
 20
-32.93244533495805
 30
0.0
 10
19.1197897457491
 20
-32.3032732873103
 30
0.0
 10
26.77440338173096
 20
-31.35166874024974
 30
0.0
 10
34.47312884527774
 20
-30.06904002370071
 30
0.0
 10
42.20535512647131
 20
-28.44743247112678
 30
0.0
 10
49.95454967701416
 20
-26.48062963101237
 30
0.0
 10
57.69923704702794
 20
-24.16499742404828
 30
0.0
 10
65.41468019588554
 20
-21.49988918932603
 30
0.0
 10
73.07475503859371
 20
-18.48759050805566
 30
0.0
 10
80.65350927764287
 20
-15.1329645070549
 30
0.0
 10
87.86903374611845
 20
-11.56993842880262
 30
0.0
 10
94.96179778293654
 20
-7.710167756506737
 30
0.0
 10
101.920597728407
 20
-3.558668929187658
 30
0.0
 10
108.9587279805497
 20
1.046698066147045
 30
0.0
 10
115.819398150656
 20
5.953316863229974
 30
0.0
 10
122.4807858674282
 20
11.14570861585247
 30
0.0
 10
128.9285195556342
 20
16.61189815752991
 30
0.0
 10
135.1496507508619
 20
22.33970222219235
 30
0.0
 10
141.1323872609517
 20
28.3166871496026
 30
0.0
 10
146.86598438974
 20
34.53021223761368
 30
0.0
 10
152.3406612193109
 20
40.96746925296281
 30
0.0
 10
157.5475304040635
 20
47.61551532296357
 30
0.0
 10
162.4785391840516
 20
54.46130091410699
 30
0.0
 10
167.1264192902708
 20
61.49169368993368
 30
0.0
 10
171.4846434303734
 20
68.69349920583589
 30
0.0
 10
175.5473900239068
 20
76.05347873163082
 30
0.0
 10
179.3095045674127
 20
83.55836633291771
 30
0.0
 10
182.7664967528286
 20
91.19488008452352
 30
0.0
 10
185.914424230127
 20
98.94974885628497
 30
0.0
 10
188.7502152495215
 20
106.8096767635643
 30
0.0
 10
191.2703717412484
 20
114.7615368329589
 30
0.0
 10
193.4757131858899
 20
122.7917097321473
 30
0.0
 10
195.3536454441742
 20
130.8886039051468
 30
0.0
 10
196.8657063990123
 20
138.6319326316478
 30
0.0
 10
197.5963012624034
 20
143.6963349310017
 30
0.0
 10
197.9320383823054
 20
146.023627288517
 30
0.0
  0
LWPOLYLINE
  5
166
330
15E
100
AcDbEntity
  8
0
  6
Continuous
 62
     7
370
    25
100
AcDbPolyline
 90
      152
 70
   128
 43
0.0
 10
143.1891231903
 20
294.9619324123
 10
149.021631459
 20
291.4517951181
 10
154.5961558939
 20
287.8046325766
 10
159.9030459688
 20
284.0267586966
 10
164.9331144815
 20
280.124713672
 10
169.6776534589
 20
276.10525266
 10
174.128449232
 20
271.9753340864
 10
178.2777966552
 20
267.7421075993
 10
182.1185124456
 20
263.4129016917
 10
185.6439476182
 20
258.9952110149
 10
188.8479989968
 20
254.4966834033
 10
191.7251197794
 20
249.925106635
 10
194.2703291414
 20
245.2883949497
 10
196.4792208574
 20
240.5945753475
 10
198.3479709298
 20
235.8517736928
 10
199.873344209
 20
231.068200647
 10
201.0526999932
 20
226.2521374543
 10
201.883996601
 20
221.4119216052
 10
202.3657949051
 20
216.555932403
 10
202.4972608241
 20
211.6925764575
 10
202.2781667663
 20
206.8302731317
 10
201.7088920238
 20
201.9774399663
 10
200.7904221158
 20
197.1424781075
 10
199.5243470826
 20
192.3337577629
 10
197.9128587326
 20
187.5596037112
 10
195.9587468485
 20
182.8282808907
 10
193.6653943571
 20
178.1479800906
 10
191.036771473
 20
173.5268037719
 10
188.0774288256
 20
168.9727520402
 10
184.7924895809
 20
164.493708796
 10
181.1876405725
 20
160.0974280864
 10
177.2691224566
 20
155.7915206814
 10
173.0437189083
 20
151.583440898
 10
168.5187448778
 20
147.4804736959
 10
163.7020339267
 20
143.4897220653
 10
158.601924667
 20
139.6180947308
 10
153.2272463252
 20
135.8722941909
 10
147.5873034574
 20
132.2588051148
 10
141.6918598413
 20
128.7838831163
 10
135.5511215733
 20
125.453543924
 10
129.1757194
 20
122.2735529671
 10
122.5766903144
 20
119.2494153945
 10
115.7654584487
 20
116.3863665442
 10
108.7538152972
 20
113.6893628798
 10
101.5538993028
 20
111.1630734105
 10
94.1781748434
 20
108.8118716077
 10
86.6394106538
 20
106.6398278338
 10
78.9506577203
 20
104.6507022958
 10
71.1252266874
 20
102.8479385356
 10
63.1766648145
 20
101.2346574686
 10
55.1187325233
 20
99.8136519809
 10
46.9653795753
 20
98.5873820941
 10
38.7307209233
 20
97.5579707068
 10
30.4290122748
 20
96.7271999193
 10
22.0746254133
 20
96.0965079485
 10
13.6820233179
 20
95.6669866382
 10
5.2657351255
 20
95.4393795686
 10
-3.1596690223
 20
95.4140807696
 10
-11.5796032022
 20
95.5911340378
 10
-19.9794909607
 20
95.9702328616
 10
-28.3447905482
 20
96.5507209513
 10
-36.6610200936
 20
97.3315933752
 10
-44.913782675
 20
98.3114982996
 10
-53.0887912436
 20
99.4887393292
 10
-61.171893357
 20
100.8612784431
 10
-69.1490956799
 20
102.4267395241
 10
-77.0065882088
 20
104.1824124712
 10
-84.7307681799
 20
106.1252578918
 10
-92.3082636181
 20
108.2519123635
 10
-99.725956486
 20
110.5586942564
 10
-106.971005394
 20
113.0416101073
 10
-114.0308678307
 20
115.6963615322
 10
-120.8933218768
 20
118.5183526687
 10
-127.5464873629
 20
121.5026981314
 10
-133.9788464367
 20
124.6442314697
 10
-140.1792635026
 20
127.9375141121
 10
-146.1370044988
 20
131.3768447811
 10
-151.8417554808
 20
134.956269363
 10
-157.283640476
 20
138.669591216
 10
-162.4532385815
 20
142.5103818976
 10
-167.3416002725
 20
146.4719922932
 10
-171.9402628967
 20
150.5475641269
 10
-176.2412653238
 20
154.7300418349
 10
-180.2371617281
 20
159.0121847796
 10
-183.9210344785
 20
163.3865797845
 10
-187.2865061142
 20
167.8456539677
 10
-190.3277503851
 20
172.3816878525
 10
-193.0395023385
 20
176.9868287303
 10
-195.4170674335
 20
181.6531042559
 10
-197.4563296677
 20
186.3724362487
 10
-199.1537587034
 20
191.1366546778
 10
-200.5064159791
 20
195.9375118052
 10
-201.5119597963
 20
200.766696465
 10
-202.1686493739
 20
205.6158484508
 10
-202.4753478616
 20
210.4765729895
 10
-202.4315243078
 20
215.3404552733
 10
-202.0372545793
 20
220.1990750282
 10
-201.2932212293
 20
225.0440210903
 10
-200.2007123164
 20
229.8669059674
 10
-198.7616191742
 20
234.6593803595
 10
-196.9784331376
 20
239.4131476126
 10
-194.8542412293
 20
244.1199780817
 10
-192.3927208158
 20
248.7717233783
 10
-189.5981332415
 20
253.3603304762
 10
-186.4753164511
 20
257.8778556533
 10
-183.0296766144
 20
262.316478243
 10
-179.2671787672
 20
266.668514174
 10
-175.194336485
 20
270.9264292722
 10
-170.8182006061
 20
275.0828523038
 10
-166.1463470262
 20
279.1305877367
 10
-161.1868635825
 20
283.0626281969
 10
-155.9483360523
 20
286.8721665997
 10
-150.4398332897
 20
290.552607934
 10
-144.6708915253
 20
294.0975806792
 10
-138.6514978577
 20
297.5009478361
 10
-132.3920729636
 20
300.7568175505
 10
-125.903453058
 20
303.8595533137
 10
-119.1968711346
 20
306.8037837196
 10
-112.2839375192
 20
309.5844117643
 10
-105.1766197706
 20
312.1966236697
 10
-97.8872219621
 20
314.6358972167
 10
-90.428363381
 20
316.8980095746
 10
-82.8129566825
 20
318.979044611
 10
-75.0541855353
 20
320.8753996719
 10
-67.1654817981
 20
322.5837918181
 10
-59.1605022673
 20
324.1012635088
 10
-51.0531050334
 20
325.4251877216
 10
-42.8573254914
 20
326.5532725004
 10
-34.587352042
 20
327.483564923
 10
-26.2575015291
 20
328.2144544822
 10
-17.882194455
 20
328.744675874
 10
-9.4759300157
 20
329.0733111877
 10
-1.0532609998
 20
329.199791495
 10
7.3712314044
 20
329.1238978354
 10
15.7829628523
 20
328.8457615948
 10
24.1673710906
 20
328.365864278
 10
32.5099411677
 20
327.6850366756
 10
40.7962305614
 20
326.8044574252
 10
49.0118941817
 20
325.7256509714
 10
57.1427092051
 20
324.4504849264
 10
65.1745996962
 20
322.9811668371
 10
73.0936609763
 20
321.3202403631
 10
80.8861836949
 20
319.4705808733
 10
88.538677563
 20
317.4353904684
 10
96.0378947071
 20
315.218192437
 10
103.370852604
 20
312.8228251564
 10
110.5248565558
 20
310.2534354476
 10
117.4875216669
 20
307.5144713965
 10
124.2467942842
 20
304.6106746531
 10
130.7909728644
 20
301.5470722235
 10
137.1087282317
 20
298.3289677665
 10
143.1891231903
 20
294.9619324123
  0
LWPOLYLINE
  5
167
330
15E
100
AcDbEntity
  8
0
  6
Continuous
 62
     1
370
    25
100
AcDbPolyline
 90
       20
 70
   128
 43
0.0
 10
132.3029357809
 20
270.7135723279
 10
137.9099415037
 20
267.33332725
 10
143.2580357214
 20
263.8160386565
 10
148.3371779457
 20
260.1683098893
 10
153.1378326179
 20
256.396989178
 10
157.6509870104
 20
252.5091567831
 10
161.8681681474
 20
248.5121117038
 10
165.781458712
 20
244.4133579745
 10
169.38351191
 20
240.2205905771
 10
172.667565263
 20
235.9416809943
 10
175.6274533038
 20
231.5846624317
 10
178.257619152
 20
227.1577147365
 10
180.5531249461
 20
222.6691490403
 10
182.5096611137
 20
218.1273921563
 10
184.1235544626
 20
213.5409707585
 10
185.3917750766
 20
208.9184953737
 10
186.3119420042
 20
204.2686442166
 10
186.8823277281
 20
199.6001468968
 10
187.1018614085
 20
194.9217680303
 10
187.0444648267
 20
191.5982870273
  0
LWPOLYLINE
  5
168
330
15E
100
AcDbEntity
  8
0
  6
Continuous
 62
     1
370
    25
100
AcDbPolyline
 90
       56
 70
   128
 43
0.0
 10
-187.0435485506
 20
191.5775087655
 10
-187.0799041755
 20
196.0918089746
 10
-186.7725930923
 20
200.7685404334
 10
-186.114635981
 20
205.4331968086
 10
-185.1072680873
 20
210.0770206953
 10
-183.7523806394
 20
214.6912937995
 10
-182.0525172966
 20
219.2673533054
 10
-180.010869375
 20
223.7966081396
 10
-177.631269855
 20
228.2705550993
 10
-174.9181861863
 20
232.6807948165
 10
-171.8767118998
 20
237.019047527
 10
-168.5125570458
 20
241.2771686147
 10
-164.8320374734
 20
245.4471639021
 10
-160.8420629737
 20
249.5212046588
 10
-156.5501243068
 20
253.491642299
 10
-151.9642791391
 20
257.3510227408
 10
-147.0931369157
 20
261.0921004007
 10
-141.9458426973
 20
264.7078517963
 10
-136.5320599908
 20
268.1914887323
 10
-130.8619526076
 20
271.5364710441
 10
-124.946165582
 20
274.7365188771
 10
-118.7958051858
 20
277.7856244758
 10
-112.4224180781
 20
280.678063463
 10
-105.8379696272
 20
283.4084055868
 10
-99.0548214472
 20
285.9715249152
 10
-92.0857081899
 20
288.3626094593
 10
-84.9437136374
 20
290.5771702078
 10
-77.6422461381
 20
292.6110495543
 10
-70.1950134343
 20
294.4604291029
 10
-62.6159969274
 20
296.1218368366
 10
-54.9194254288
 20
297.592153636
 10
-47.1197484475
 20
298.8686191351
 10
-39.2316090618
 20
299.9488369031
 10
-31.2698164294
 20
300.8307789441
 10
-23.2493179839
 20
301.5127895041
 10
-15.1851713733
 20
301.9935881795
 10
-7.09251619
 20
302.272272321
 10
1.0134544514
 20
302.3483187283
 10
9.1175224379
 20
302.2215846322
 10
17.2044732287
 20
301.8923079626
 10
25.2591244186
 20
301.3611069023
 10
33.2663542418
 20
300.6289787256
 10
41.2111299608
 20
299.6972979266
 10
49.0785360893
 20
298.5678136388
 10
56.8538023945
 20
297.2426463509
 10
64.5223316262
 20
295.724283926
 10
72.0697269221
 20
294.0155769308
 10
79.4818188361
 20
292.1197332844
 10
86.7446919401
 20
290.0403122349
 10
93.8447109488
 20
287.7812176781
 10
100.7685463184
 20
285.3466908281
 10
107.5031992713
 20
282.7413022545
 10
114.0360262003
 20
279.9699433023
 10
120.3547624056
 20
277.0378169083
 10
126.4475451201
 20
273.9504278334
 10
132.3029357809
 20
270.7135723279
  0
LWPOLYLINE
  5
169
330
15E
100
AcDbEntity
  8
0
  6
Continuous
 62
     1
370
    25
100
AcDbPolyline
 90
       73
 70
   128
 43
0.0
 10
197.9548747303
 20
146.0406760491
 10
197.5867097155
 20
143.6806936423
 10
196.5740398303
 20
138.8823244986
 10
195.2118684758
 20
134.1128658057
 10
193.502617543
 20
129.3807974871
 10
191.4493260177
 20
124.6945329874
 10
189.0556445774
 20
120.062404314
 10
186.3258291001
 20
115.4926472226
 10
183.2647330984
 20
110.9933865746
 10
179.877799089
 20
106.5726218912
 10
176.1710489172
 20
102.2382131306
 10
172.1510730494
 20
97.9978667136
 10
167.825018856
 20
93.8591218212
 10
163.2005779036
 20
89.8293369908
 10
158.2859722793
 20
85.9156770329
 10
153.0899399726
 20
82.125100292
 10
147.6217193394
 20
78.4643462752
 10
141.8910326763
 20
74.9399236695
 10
135.9080689352
 20
71.5580987698
 10
129.6834656072
 20
68.3248843373
 10
123.2282898099
 20
65.2460289093
 10
116.5540186102
 20
62.3270065784
 10
109.6725186189
 20
59.5730072597
 10
102.5960248918
 20
56.9889274635
 10
95.3371191765
 20
54.5793615895
 10
87.9087075423
 20
52.3485937577
 10
80.3239974343
 20
50.3005901921
 10
72.59647419
 20
48.4389921681
 10
64.739877064
 20
46.7671095392
 10
56.768174799
 20
45.2879148517
 10
48.6955407909
 20
44.0040380597
 10
40.5363278883
 20
42.9177618493
 10
32.3050428741
 20
42.03101758
 10
24.0163206725
 20
41.3453818507
 10
15.6848983291
 20
40.8620736968
 10
7.325588809
 20
40.5819524224
 10
-1.0467453408
 20
40.5055160731
 10
-9.4172184155
 20
40.6329005498
 10
-17.7709480195
 20
40.9638793675
 10
-26.0930815265
 20
41.4978640581
 10
-34.3688224867
 20
42.2339052162
 10
-42.5834569348
 20
43.1706941876
 10
-50.7223795504
 20
44.3065653955
 10
-58.7711196263
 20
45.6394993025
 10
-66.7153667961
 20
47.1671260007
 10
-74.5409964785
 20
48.8867294256
 10
-82.2340949893
 20
50.795252185
 10
-89.7809842802
 20
52.8893009952
 10
-97.1682462574
 20
55.1651527138
 10
-104.3827466387
 20
57.6187609594
 10
-111.4116583058
 20
60.2457633061
 10
-118.2424841101
 20
63.0414890397
 10
-124.8630790928
 20
66.0009674618
 10
-131.2616720774
 20
69.1189367277
 10
-137.4268865992
 20
72.389853202
 10
-143.3477611317
 20
75.8079013144
 10
-149.0137685761
 20
79.3670039002
 10
-154.414834978
 20
83.0608330049
 10
-159.5413574384
 20
86.882821135
 10
-164.3842211873
 20
90.8261729353
 10
-168.9348157899
 20
94.88387727
 10
-173.1850504549
 20
99.048719689
 10
-177.1273684203
 20
103.3132952544
 10
-180.7547603885
 20
107.6700217065
 10
-184.060776989
 20
112.1111529447
 10
-187.039540245
 20
116.6287927996
 10
-189.6857540241
 20
121.2149090725
 10
-191.9947134547
 20
125.8613478161
 10
-193.9623132913
 20
130.5598478317
 10
-195.585055213
 20
135.3020553579
 10
-196.8600540441
 20
140.0795389226
 10
-197.7850428832
 20
144.8838043345
 10
-197.9548111076
 20
146.0402149321
  0
LWPOLYLINE
  5
16A
330
15E
100
AcDbEntity
  8
0
  6
Continuous
 62
     1
370
    25
100
AcDbPolyline
 90
       16
 70
   128
 43
0.0
 10
129.8781890613
 20
231.4867142622
 10
135.4576376156
 20
228.1210412485
 10
140.7756165185
 20
224.6171389651
 10
145.8218606412
 20
220.9817708855
 10
150.5866293762
 20
217.221954247
 10
155.060725439
 20
213.3449465066
 10
159.2355126216
 20
209.3582313313
 10
163.1029324625
 20
205.269504153
 10
166.655519802
 20
201.0866573141
 10
169.8864171916
 20
196.8177648335
 10
172.7893881307
 20
192.471066821
 10
175.3588291051
 20
188.0549535723
 10
177.5897804033
 20
183.577949373
 10
179.4779356893
 20
179.0486960445
 10
181.0196503161
 20
174.4759362632
 10
181.8464308059
 20
171.4363271774
  0
LWPOLYLINE
  5
16B
330
15E
100
AcDbEntity
  8
0
  6
Continuous
 62
     1
370
    25
100
AcDbPolyline
 90
       52
 70
   128
 43
0.0
 10
-181.8490627984
 20
171.4256373903
 10
-181.3505840976
 20
173.3269812059
 10
-179.895970882
 20
177.9092413425
 10
-178.0941100867
 20
182.4501944803
 10
-175.9484797876
 20
186.9410753591
 10
-173.4632216277
 20
191.3732153715
 10
-170.6431328235
 20
195.7380592961
 10
-167.4936569043
 20
200.0271818108
 10
-164.0208732052
 20
204.2323037562
 10
-160.2314851322
 20
208.3453081167
 10
-156.132807223
 20
212.3582556882
 10
-151.7327510275
 20
216.2634004033
 10
-147.039809837
 20
220.053204283
 10
-142.0630422895
 20
223.7203519871
 10
-136.812054884
 20
227.2577649348
 10
-131.2969834376
 20
230.6586149682
 10
-125.5284735209
 20
233.9163375327
 10
-119.5176599083
 20
237.024644348
 10
-113.2761450859
 20
239.9775355466
 10
-106.8159768551
 20
242.7693112545
 10
-100.1496250769
 20
245.3945825943
 10
-93.2899576023
 20
247.8482820867
 10
-86.2502154333
 20
250.125673432
 10
-79.0439871646
 20
252.2223606528
 10
-71.6851827537
 20
254.1342965792
 10
-64.1880066713
 20
255.8577906609
 10
-56.5669304823
 20
257.3895160911
 10
-48.8366649124
 20
258.7265162279
 10
-41.012131452
 20
259.8662103018
 10
-33.1084335539
 20
260.8063983967
 10
-25.1408274796
 20
261.545265697
 10
-17.1246928503
 20
262.0813859902
 10
-9.0755029608
 20
262.41372442
 10
-1.0087949111
 20
262.5416394838
 10
7.0598603839
 20
262.4648842713
 10
15.1148882508
 20
262.1836069406
 10
23.1407403204
 20
261.6983504326
 10
31.121924541
 20
261.0100514227
 10
39.0430350818
 20
260.1200385131
 10
46.8887820701
 20
259.030029668
 10
54.6440211054
 20
257.7421288973
 10
62.2937824917
 20
256.2588221958
 10
69.8233001334
 20
254.5829727441
 10
77.2180400373
 20
252.7178153822
 10
84.4637283679
 20
250.666950365
 10
91.5463789991
 20
248.4343364133
 10
98.4523205112
 20
246.0242830722
 10
105.1682225809
 20
243.4414423925
 10
111.6811217119
 20
240.6907999508
 10
117.9784462584
 20
237.7776652266
 10
124.0480406911
 20
234.7076613528
 10
129.8781890613
 20
231.4867142622
  0
VIEWPORT
  5
1A3
330
15E
100
AcDbEntity
  8
0
100
AcDbViewport
 10
0.0
 20
0.0
 30
0.0
 40
205.6
 41
156.0
 68
     1
 69
     1
 12
0.0109564813
 22
147.9806003846
 13
0.0
 23
0.0
 14
10.0
 24
10.0
 15
10.0
 25
10.0
 16
0.0
 26
0.0
 36
1.0
 17
0.0
 27
0.0
 37
0.0
 42
50.0
 43
0.0
 44
0.0
 45
369.6871498652
 50
0.0
 51
0.0
 72
   100
 90
   557152
  1

281
     0
 71
     1
 74
     0
110
0.0
120
0.0
130
0.0
111
1.0
121
0.0
131
0.0
112
0.0
122
1.0
132
0.0
 79
     0
146
0.0
170
     0
 61
     5
348
2F
292
     1
282
     1
141
0.0
142
0.0
 63
   256
361
1A4
  0
ENDBLK
  5
161
330
15E
100
AcDbEntity
  8
0
100
AcDbBlockEnd
  0
BLOCK
  5
16E
330
16C
100
AcDbEntity
  8
0
100
AcDbBlockBegin
  2
*Paper_Space9
 70
     0
 10
0.0
 20
0.0
 30
0.0
  3
*Paper_Space9
  1

  0
SPLINE
  5
170
330
16C
100
AcDbEntity
  8
0
  6
Continuous
 62
     7
370
    25
100
AcDbSpline
210
0.0
220
0.0
230
1.0
 70
     8
 71
     3
 72
    86
 73
    82
 74
     0
 42
0.000000001
 43
0.00000001
 40
0.0
 40
0.0
 40
0.0
 40
0.0
 40
0.0003076620475375
 40
0.016580138065843
 40
0.0325184504545247
 40
0.0477576399114333
 40
0.0622627629086134
 40
0.0761544643065133
 40
0.0895768962238308
 40
0.1026530439115248
 40
0.1154786703854891
 40
0.128126402357215
 40
0.1406509844869831
 40
0.1530936573918674
 40
0.1654854717697264
 40
0.177849742007449
 40
0.1902038662489132
 40
0.2025584636647135
 40
0.2149222577617919
 40
0.2273026926261112
 40
0.2397049140669053
 40
0.2521322926877763
 40
0.2645868331675255
 40
0.2770694949188617
 40
0.2895804437125765
 40
0.3021192490247924
 40
0.3146850384354731
 40
0.3272766179084897
 40
0.3398925649178224
 40
0.3525312999586239
 40
0.3651911408711097
 40
0.3778703435268786
 40
0.3905671317253483
 40
0.4032797185833931
 40
0.4160063212455674
 40
0.4287451703743977
 40
0.4414945155836675
 40
0.4542526277395437
 40
0.4670177988643789
 40
0.4797883402278785
 40
0.4925625790931015
 40
0.5053388544954277
 40
0.5181155123667697
 40
0.5308903942366394
 40
0.5436617979965555
 40
0.5564280552724257
 40
0.5691874822150571
 40
0.5819383753134308
 40
0.5946790082064193
 40
0.6074076298723408
 40
0.620122464674961
 40
0.6328217148652409
 40
0.645503566292649
 40
0.6581661982747243
 40
0.6708077988169534
 40
0.6834265866766256
 40
0.6960208421357861
 40
0.7085889488036371
 40
0.7211294493244214
 40
0.733641118543774
 40
0.7461230585109427
 40
0.7585748207008424
 40
0.7709965620767502
 40
0.7833892431499895
 40
0.7957548781290427
 40
0.8080968497389842
 40
0.8204203045611356
 40
0.8327326491305902
 40
0.8450431128666814
 40
0.8573617005443915
 40
0.8697053603516733
 40
0.8820964706208326
 40
0.8945642871162772
 40
0.9071467697847075
 40
0.9198928668372666
 40
0.9328652675668365
 40
0.9461433739921883
 40
0.9598253958747294
 40
0.974025992624096
 40
0.9888593557685297
 40
1.0
 40
1.0
 40
1.0
 40
1.0
 10
187.0580007269503
 20
201.9220092361456
 30
0.0
 10
187.0581161270973
 20
201.9021530161014
 30
0.0
 10
187.0643351274142
 20
200.832086453025
 30
0.0
 10
186.7942179486514
 20
198.7236843610756
 30
0.0
 10
186.2179937800294
 20
195.5887482830578
 30
0.0
 10
185.3109003549008
 20
192.4847722879236
 30
0.0
 10
184.1385468034428
 20
189.4274821701373
 30
0.0
 10
182.7027710784074
 20
186.4090157005278
 30
0.0
 10
181.0103249301779
 20
183.4152652698112
 30
0.0
 10
179.0593114171572
 20
180.4349156429253
 30
0.0
 10
176.8466470067787
 20
177.4617028319309
 30
0.0
 10
174.3686554283133
 20
174.4938468985831
 30
0.0
 10
171.6222182573615
 20
171.5329844037184
 30
0.0
 10
168.6051353600623
 20
168.583207482726
 30
0.0
 10
165.3163528360287
 20
165.6503197752122
 30
0.0
 10
161.7560429627002
 20
162.7412802531188
 30
0.0
 10
157.9258493353223
 20
159.8639630992442
 30
0.0
 10
153.8287672200595
 20
157.0267128915454
 30
0.0
 10
149.4689370194461
 20
154.2379925210604
 30
0.0
 10
144.8512608409531
 20
151.5060660344978
 30
0.0
 10
139.9814667628784
 20
148.8390200192435
 30
0.0
 10
134.8662204802254
 20
146.2447876550073
 30
0.0
 10
129.513048522059
 20
143.7310699162729
 30
0.0
 10
123.9302625013525
 20
141.3052773683076
 30
0.0
 10
118.1268861943335
 20
138.9744879794629
 30
0.0
 10
112.1125864928605
 20
136.7454173141792
 30
0.0
 10
105.8976088371332
 20
134.6243982545324
 30
0.0
 10
99.49271739868858
 20
132.6173679904538
 30
0.0
 10
92.9091400333724
 20
130.7298604822512
 30
0.0
 10
86.15851784407417
 20
128.9670029680068
 30
0.0
 10
79.25285907125927
 20
127.3335153860581
 30
0.0
 10
72.20449695399084
 20
125.8337118241283
 30
0.0
 10
65.02605116484504
 20
124.4715033024269
 30
0.0
 10
57.73039240973847
 20
123.2504013560952
 30
0.0
 10
50.33060979036792
 20
122.1735220090012
 30
0.0
 10
42.83998054632463
 20
121.2435898312708
 30
0.0
 10
35.27194182077304
 20
120.4629418514854
 30
0.0
 10
27.64006412409859
 20
119.8335311549659
 30
0.0
 10
19.95802620060151
 20
119.3569300452944
 30
0.0
 10
12.23959103397387
 20
119.0343326799176
 30
0.0
 10
4.498582749129149
 20
118.8665571150918
 30
0.0
 10
-3.251135792937052
 20
118.8540467113243
 30
0.0
 10
-10.99558270758251
 20
118.9968689788488
 30
0.0
 10
-18.72077268793064
 20
119.2947079120144
 30
0.0
 10
-26.41274979679596
 20
119.7468628820871
 30
0.0
 10
-34.05771081796506
 20
120.3522583382553
 30
0.0
 10
-41.64193382158896
 20
121.1094408886964
 30
0.0
 10
-49.15179168540852
 20
122.0165759979091
 30
0.0
 10
-56.57377529448502
 20
123.0714442527071
 30
0.0
 10
-63.89451771329688
 20
124.2714368605502
 30
0.0
 10
-71.1008196061021
 20
125.6135504047953
 30
0.0
 10
-78.17967621768821
 20
127.0943809067307
 30
0.0
 10
-85.11830627105299
 20
128.7101172804636
 30
0.0
 10
-91.90418318658045
 20
130.4565343173844
 30
0.0
 10
-98.52506907854288
 20
132.3289854060784
 30
0.0
 10
-104.9690520363264
 20
134.3223952861402
 30
0.0
 10
-111.2245872459249
 20
136.4312532563691
 30
0.0
 10
-117.2805425464374
 20
138.6496074164746
 30
0.0
 10
-123.1262490390319
 20
140.9710607253318
 30
0.0
 10
-128.751557361953
 20
143.3887699184213
 30
0.0
 10
-134.146900201334
 20
145.8954486549207
 30
0.0
 10
-139.3033615066635
 20
148.4833766765462
 30
0.0
 10
-144.21275269963
 20
151.1444172752269
 30
0.0
 10
-148.8676958777801
 20
153.8700460107191
 30
0.0
 10
-153.2617135824453
 20
156.6513944267419
 30
0.0
 10
-157.389324077847
 20
159.4793135346239
 30
0.0
 10
-161.2461401951068
 20
162.3444631335408
 30
0.0
 10
-164.8288657690872
 20
165.2373517207232
 30
0.0
 10
-168.13517494396
 20
168.148272159401
 30
0.0
 10
-171.1641481629316
 20
171.0677061173951
 30
0.0
 10
-173.9164356199833
 20
173.9866900953606
 30
0.0
 10
-176.3944375793305
 20
176.8974097427095
 30
0.0
 10
-178.6020342592656
 20
179.7934946907519
 30
0.0
 10
-180.5444788991344
 20
182.6706807079384
 30
0.0
 10
-182.2280302297962
 20
185.5276622561364
 30
0.0
 10
-183.6597115486683
 20
188.3672069942575
 30
0.0
 10
-184.8452020394976
 20
191.1973984701543
 30
0.0
 10
-185.791764553257
 20
194.0333306887954
 30
0.0
 10
-186.4881342031477
 20
196.896602913948
 30
0.0
 10
-186.9234471905964
 20
199.5307542095551
 30
0.0
 10
-186.9993367344439
 20
201.2080852499925
 30
0.0
 10
-187.0318869064932
 20
201.9275178777529
 30
0.0
  0
SPLINE
  5
171
330
16C
100
AcDbEntity
  8
0
  6
Continuous
 62
     7
370
    25
100
AcDbSpline
210
0.0
220
0.0
230
1.0
 70
     8
 71
     3
 72
    13
 73
     9
 74
     0
 42
0.000000001
 43
0.00000001
 40
0.0
 40
0.0
 40
0.0
 40
0.0
 40
0.1312848909485317
 40
0.3217628529704571
 40
0.5121535903149523
 40
0.7024310598384448
 40
0.8925701893506853
 40
1.0
 40
1.0
 40
1.0
 40
1.0
 10
198.0936416961858
 20
155.9516302491392
 30
0.0
 10
198.4746386417536
 20
158.8602358562595
 30
0.0
 10
199.4084145187276
 20
165.9888645320437
 30
0.0
 10
200.5310503300423
 20
177.3877246008571
 30
0.0
 10
201.5148959766867
 20
190.1264112156795
 30
0.0
 10
202.1550467225249
 20
202.8836003160756
 30
0.0
 10
202.4814977945992
 20
213.7987999696389
 30
0.0
 10
202.4665488412251
 20
220.4589951157614
 30
0.0
 10
202.4611518961357
 20
222.8634917108932
 30
0.0
  0
SPLINE
  5
172
330
16C
100
AcDbEntity
  8
0
  6
Continuous
 62
     7
370
    25
100
AcDbSpline
210
0.0
220
0.0
230
1.0
 70
     8
 71
     3
 72
    13
 73
     9
 74
     0
 42
0.000000001
 43
0.00000001
 40
0.0
 40
0.0
 40
0.0
 40
0.0
 40
0.0825479388359746
 40
0.2723282267697803
 40
0.4618902507426554
 40
0.6512094172481362
 40
0.8402611773849904
 40
1.0
 40
1.0
 40
1.0
 40
1.0
 10
-202.4611513045562
 20
222.8638690223491
 30
0.0
 10
-202.4701961042839
 20
221.016223923206
 30
0.0
 10
-202.5000351808992
 20
214.9207850710097
 30
0.0
 10
-202.2158782017902
 20
204.5847267406514
 30
0.0
 10
-201.6228170688912
 20
191.8724882639294
 30
0.0
 10
-200.6899568609167
 20
179.2005442137331
 30
0.0
 10
-199.5448731603317
 20
167.2196435980109
 30
0.0
 10
-198.5585866051763
 20
159.4877311267789
 30
0.0
 10
-198.1068879043728
 20
155.9466762480249
 30
0.0
  0
SPLINE
  5
173
330
16C
100
AcDbEntity
  8
0
  6
Continuous
 62
     7
370
    25
100
AcDbSpline
210
0.0
220
0.0
230
1.0
 70
     8
 71
     3
 72
    82
 73
    78
 74
     0
 42
0.000000001
 43
0.00000001
 40
0.0
 40
0.0
 40
0.0
 40
0.0
 40
0.0120548942686248
 40
0.0259577885996673
 40
0.0398276261764705
 40
0.0536639178180914
 40
0.0674661202082258
 40
0.0812336319007793
 40
0.0949657893102021
 40
0.1086618627076693
 40
0.1223210522774875
 40
0.1359424843310897
 40
0.1495252078324859
 40
0.1630681914634781
 40
0.1765703215542469
 40
0.1900304013308765
 40
0.2034471520917416
 40
0.2168192171234516
 40
0.230145169404653
 40
0.2434235244144438
 40
0.256652759636566
 40
0.2698313425785309
 40
0.2829577692062361
 40
0.2960306144568358
 40
0.3090485956616735
 40
0.3220106478857182
 40
0.3349160068613821
 40
0.3477642898743329
 40
0.3605555575946007
 40
0.3732903318042637
 40
0.3859695400162387
 40
0.3985943694008666
 40
0.4111660599649775
 40
0.4236857772031909
 40
0.4361548856589877
 40
0.4485761269746208
 40
0.460956175856275
 40
0.4733095173641382
 40
0.4856625450389532
 40
0.4980558372043782
 40
0.5105426212901216
 40
0.5231760172276877
 40
0.5360004887480986
 40
0.5490618125703702
 40
0.5623858867184496
 40
0.5759741743858297
 40
0.5898057545289256
 40
0.6023378939700461
 40
0.614948637052138
 40
0.6276270064118895
 40
0.640365168947988
 40
0.6531569926259324
 40
0.6659975378990123
 40
0.6788826421767532
 40
0.6918086382518137
 40
0.7047721869435196
 40
0.7177701888889004
 40
0.7307997440331018
 40
0.7438581362524019
 40
0.7584090563010506
 40
0.7729896785830935
 40
0.7875558374370369
 40
0.8021035588694483
 40
0.8166304695834868
 40
0.8311346732744221
 40
0.8456146432773701
 40
0.8600691538652049
 40
0.8744972232355634
 40
0.88889806582374
 40
0.9032710524650609
 40
0.9176156771635832
 40
0.9319315293996638
 40
0.9462182710591966
 40
0.9604756171996408
 40
0.9747033199848583
 40
0.988901155223623
 40
1.0
 40
1.0
 40
1.0
 40
1.0
 10
-198.107964073025
 20
155.9383522160857
 30
0.0
 10
-197.7858720008711
 20
153.6034004986876
 30
0.0
 10
-197.0923115488013
 20
148.5755519153615
 30
0.0
 10
-195.6549561727103
 20
140.9198790381909
 30
0.0
 10
-193.8807290715378
 20
132.9797557011147
 30
0.0
 10
-191.8039001907527
 20
125.1331117872079
 30
0.0
 10
-189.4397815162518
 20
117.3896250565107
 30
0.0
 10
-186.7911489066086
 20
109.7604800537276
 30
0.0
 10
-183.8646375369878
 20
102.2561457069095
 30
0.0
 10
-180.6663544351481
 20
94.8869533415752
 30
0.0
 10
-177.2030388142585
 20
87.66292728191236
 30
0.0
 10
-173.481741012132
 20
80.59381513297377
 30
0.0
 10
-169.5098962518816
 20
73.68906489992926
 30
0.0
 10
-165.2952922649604
 20
66.9578163831578
 30
0.0
 10
-160.8460642250075
 20
60.40888878602848
 30
0.0
 10
-156.1706810249241
 20
54.05076927743432
 30
0.0
 10
-151.2779320024142
 20
47.89160115809349
 30
0.0
 10
-146.1769110181728
 20
41.93917191079343
 30
0.0
 10
-140.8769978313169
 20
36.20090100774506
 30
0.0
 10
-135.3878356546867
 20
30.68382752289801
 30
0.0
 10
-129.7193037856963
 20
25.39459767626932
 30
0.0
 10
-123.8814839557643
 20
20.33945263126749
 30
0.0
 10
-117.8846189601626
 20
15.52421715566295
 30
0.0
 10
-111.7390622448109
 20
10.95429018787285
 30
0.0
 10
-105.4552176600737
 20
6.6346389424638
 30
0.0
 10
-99.04346982443151
 20
2.569798932978526
 30
0.0
 10
-92.51410784088782
 20
-1.23611690484185
 30
0.0
 10
-85.87724882141217
 20
-4.779396194510094
 30
0.0
 10
-79.14277282852608
 20
-8.056688529338746
 30
0.0
 10
-72.3202864586587
 20
-11.06494844120884
 30
0.0
 10
-65.41913507774133
 20
-13.80136292423906
 30
0.0
 10
-58.44847623655956
 20
-16.26327575308392
 30
0.0
 10
-51.41739647796038
 20
-18.44813399800008
 30
0.0
 10
-44.33498725007994
 20
-20.35349338481451
 30
0.0
 10
-37.21019613528168
 20
-21.97711303954999
 30
0.0
 10
-30.05118843406753
 20
-23.31712392611201
 30
0.0
 10
-22.86400723226737
 20
-24.37215990885846
 30
0.0
 10
-15.65062311899609
 20
-25.14123840164714
 30
0.0
 10
-8.406973892948567
 20
-25.62317206518616
 30
0.0
 10
-1.122016368645055
 20
-25.81547150506694
 30
0.0
 10
6.219916361474148
 20
-25.71303634599545
 30
0.0
 10
13.63459862910908
 20
-25.30750661985454
 30
0.0
 10
21.13566295962852
 20
-24.58745042346503
 30
0.0
 10
28.73072633993232
 20
-23.53910988395777
 30
0.0
 10
36.4183321937262
 20
-22.14786924858817
 30
0.0
 10
44.18351819924761
 20
-20.40100633066475
 30
0.0
 10
51.7152071608237
 20
-18.36667253482707
 30
0.0
 10
58.97405910817663
 20
-16.0877765938999
 30
0.0
 10
65.92770792698012
 20
-13.60989157155759
 30
0.0
 10
72.8191721401699
 20
-10.85530213473691
 30
0.0
 10
79.6339672017728
 20
-7.82813774095345
 30
0.0
 10
86.35887533006483
 20
-4.532861865766153
 30
0.0
 10
92.98151626092779
 20
-0.9742757632582033
 30
0.0
 10
99.4901189364494
 20
2.842484874999315
 30
0.0
 10
105.8733786057223
 20
6.911938392284004
 30
0.0
 10
112.1203800846175
 20
11.22824782415999
 30
0.0
 10
118.2205618965913
 20
15.78521390690328
 30
0.0
 10
124.1637286333775
 20
20.57629772393052
 30
0.0
 10
130.1561995011094
 20
25.78240344868826
 30
0.0
 10
136.1641103850912
 20
31.42557941822502
 30
0.0
 10
142.1438596236982
 20
37.52004573022638
 30
0.0
 10
147.8710289851846
 20
43.85289093630365
 30
0.0
 10
153.3308250516893
 20
50.40508408415635
 30
0.0
 10
158.5149413796399
 20
57.16319953947462
 30
0.0
 10
163.4160266691982
 20
64.11393511832192
 30
0.0
 10
168.0274954093287
 20
71.24397803690822
 30
0.0
 10
172.3434749370119
 20
78.5400103263984
 30
0.0
 10
176.3587679582604
 20
85.98871792949168
 30
0.0
 10
180.0688112660646
 20
93.57679994781627
 30
0.0
 10
183.469676399043
 20
101.2909727659752
 30
0.0
 10
186.5579393670614
 20
109.1179924676925
 30
0.0
 10
189.3310579806627
 20
117.0446094758003
 30
0.0
 10
191.7858774198264
 20
125.0577768567482
 30
0.0
 10
193.9241138012426
 20
133.1439169002625
 30
0.0
 10
195.7318868811321
 20
141.2916938405314
 30
0.0
 10
197.1460087608211
 20
148.8916392427433
 30
0.0
 10
197.80870940098
 20
153.7932245437657
 30
0.0
 10
198.0994673792572
 20
155.9437808373842
 30
0.0
  0
LWPOLYLINE
  5
174
330
16C
100
AcDbEntity
  8
0
  6
Continuous
 62
     7
370
    25
100
AcDbPolyline
 90
      152
 70
   128
 43
0.0
 10
94.5058162583
 20
315.1040720604
 10
101.8740809944
 20
312.9994604645
 10
109.0659829721
 20
310.7388069513
 10
116.0690716873
 20
308.3260251273
 10
122.8712235064
 20
305.7652919615
 10
129.4606626542
 20
303.0610405537
 10
135.8259816006
 20
300.2179524599
 10
141.9561608085
 20
297.2409495883
 10
147.840587811
 20
294.135185678
 10
153.4690755834
 20
290.9060373772
 10
158.8318801789
 20
287.559094935
 10
163.919717597
 20
284.1001525241
 10
168.7237798561
 20
280.5351982093
 10
173.2357502414
 20
276.870403582
 10
177.4478177029
 20
273.1121130752
 10
181.3526903777
 20
269.2668329804
 10
184.9436082135
 20
265.3412201843
 10
188.2143546714
 20
261.3420706442
 10
191.1592674882
 20
257.276307623
 10
193.7732484787
 20
253.1509697036
 10
196.0517723611
 20
248.9731986043
 10
197.9908945919
 20
244.7502268147
 10
199.5872581942
 20
240.4893650751
 10
200.8380995691
 20
236.1979897204
 10
201.7412532803
 20
231.88352991
 10
202.2951558027
 20
227.5534547668
 10
202.4988482293
 20
223.2152604468
 10
202.351977931
 20
218.8764571616
 10
201.8547991673
 20
214.5445561773
 10
201.008172646
 20
210.2270568105
 10
199.8135640333
 20
205.9314334463
 10
198.2730414162
 20
201.6651225982
 10
196.3892717225
 20
197.4355100345
 10
194.1655161038
 20
193.2499179917
 10
191.6056242897
 20
189.1155924992
 10
188.7140279236
 20
185.0396908342
 10
185.4957328902
 20
181.0292691316
 10
181.9563106496
 20
177.0912701684
 10
178.1018885924
 20
173.2325113447
 10
173.9391394315
 20
169.4596728813
 10
169.4752696508
 20
165.7792862548
 10
164.7180070294
 20
162.1977228911
 10
159.6755872632
 20
158.7211831346
 10
154.3567397077
 20
155.3556855146
 10
148.7706722655
 20
152.107056326
 10
142.927055446
 20
148.980919543
 10
136.8360056241
 20
145.9826870831
 10
130.5080675265
 20
143.1175494375
 10
123.954195977
 20
140.3904666863
 10
117.185736932
 20
137.8061599109
 10
110.214407838
 20
135.3691030212
 10
103.052277347
 20
133.0835150108
 10
95.7117444233
 20
130.9533526524
 10
88.2055168785
 20
128.9823036488
 10
80.5465893721
 20
127.1737802479
 10
72.7482209153
 20
125.5309133362
 10
64.8239119172
 20
124.0565470182
 10
56.7873808132
 20
122.7532336931
 10
48.6525403157
 20
121.6232296358
 10
40.4334733287
 20
120.6684910909
 10
32.1444085679
 20
119.8906708864
 10
23.7996959278
 20
119.291115572
 10
15.4137816397
 20
118.8708630881
 10
7.0011832627
 20
118.6306409691
 10
-1.4235354494
 20
118.5708650835
 10
-9.84578976
 20
118.6916389144
 10
-18.2509991989
 20
118.9927533802
 10
-26.6246128037
 20
119.4736871963
 10
-34.9521343102
 20
120.1336077779
 10
-43.2191472482
 20
120.9713726813
 10
-51.4113398987
 20
121.9855315812
 10
-59.5145300707
 20
123.1743287824
 10
-67.5146896525
 20
124.5357062583
 10
-75.3979688976
 20
126.0673072144
 10
-83.1507204006
 20
127.7664801678
 10
-90.7595227238
 20
129.6302835379
 10
-98.2112036319
 20
131.6554907385
 10
-105.4928628956
 20
133.8385957638
 10
-112.5918946245
 20
136.1758192575
 10
-119.4960090897
 20
138.6631150564
 10
-126.1932540002
 20
141.2961771942
 10
-132.6720351942
 20
144.0704473564
 10
-138.9211367106
 20
146.9811227716
 10
-144.9297402061
 20
150.0231645254
 10
-150.6874436838
 20
153.1913062846
 10
-156.1842795006
 20
156.4800634135
 10
-161.4107316234
 20
159.8837424691
 10
-166.3577521031
 20
163.3964510572
 10
-171.0167767379
 20
167.0121080337
 10
-175.3797398999
 20
170.7244540319
 10
-179.4390884979
 20
174.5270622985
 10
-183.1877950535
 20
178.4133498197
 10
-186.6193698665
 20
182.3765887175
 10
-189.7278722503
 20
186.4099178969
 10
-192.507920816
 20
190.5063549238
 10
-194.9547027884
 20
194.6588081128
 10
-197.0639823382
 20
198.8600888043
 10
-198.832107915
 20
203.1029238091
 10
-200.2560185683
 20
207.3799680002
 10
-201.3332492471
 20
211.6838170277
 10
-202.0619350671
 20
216.0070201382
 10
-202.4408145392
 20
220.3420930723
 10
-202.4692317534
 20
224.6815310221
 10
-202.1471375144
 20
229.0178216229
 10
-201.4750894263
 20
233.3434579587
 10
-200.454250928
 20
237.650951558
 10
-199.0863892786
 20
241.9328453575
 10
-197.3738724979
 20
246.1817266123
 10
-195.3196652673
 20
250.3902397278
 10
-192.9273237971
 20
254.5510989943
 10
-190.2009896699
 20
258.6571011998
 10
-187.1453826714
 20
262.7011380998
 10
-183.7657926188
 20
266.676208723
 10
-180.0680702037
 20
270.5754314916
 10
-176.0586168631
 20
274.3920561344
 10
-171.7443736978
 20
278.1194753726
 10
-167.1328094556
 20
281.7512363585
 10
-162.2319076018
 20
285.2810518462
 10
-157.0501524983
 20
288.7028110764
 10
-151.5965147156
 20
292.0105903549
 10
-145.8804355029
 20
295.1986633078
 10
-139.9118104441
 20
298.261510795
 10
-133.7009723261
 20
301.1938304645
 10
-127.2586732512
 20
303.9905459319
 10
-120.5960660232
 20
306.6468155688
 10
-113.7246848398
 20
309.1580408843
 10
-106.6564253247
 20
311.5198744856
 10
-99.4035239343
 20
313.7282276049
 10
-91.978536774
 20
315.7792771769
 10
-84.3943178612
 20
317.6694724579
 10
-76.6639968727
 20
319.3955411724
 10
-68.8009564151
 20
320.9544951782
 10
-60.8188088566
 20
322.3436356394
 10
-52.7313727616
 20
323.5605576986
 10
-44.5526489686
 20
324.60315464
 10
-36.2967963515
 20
325.4696215367
 10
-27.9781073088
 20
326.1584583752
 10
-19.61098302
 20
326.6684726523
 10
-11.2099085152
 20
326.9987814397
 10
-2.7894275984
 20
327.148812912
 10
5.6358823302
 20
327.1183073372
 10
14.0514355107
 20
326.9073175262
 10
22.4426630737
 20
326.5162087409
 10
30.7950382621
 20
325.9456580627
 10
39.0941015792
 20
325.1966532195
 10
47.3254858211
 20
324.2704908766
 10
55.4749409487
 20
323.168774391
 10
63.5283587575
 20
321.8934110365
 10
71.471797301
 20
320.4466087015
 10
79.2915050271
 20
318.8308720668
 10
86.9739445845
 20
317.0489982694
 10
94.5058162583
 20
315.1040720604
  0
LWPOLYLINE
  5
175
330
16C
100
AcDbEntity
  8
0
  6
Continuous
 62
     1
370
    25
100
AcDbPolyline
 90
       27
 70
   128
 43
0.0
 10
87.3208569252
 20
289.2336508707
 10
94.4072201457
 20
287.2054488971
 10
101.3163436749
 20
285.021048309
 10
108.0352563551
 20
282.6845500903
 10
114.5513441299
 20
280.2003407723
 10
120.8523737253
 20
277.5730841984
 10
126.9265156166
 20
274.8077127682
 10
132.7623662372
 20
271.9094181778
 10
138.3489693873
 20
268.8836416723
 10
143.6758368031
 20
265.7360638311
 10
148.7329678477
 20
262.4725939025
 10
153.510868286
 20
259.0993587104
 10
158.0005681091
 20
255.6226911515
 10
162.1936383748
 20
252.0491183057
 10
166.0822070316
 20
248.3853491827
 10
169.6589736984
 20
244.6382621263
 10
172.9172233694
 20
240.8148919008
 10
175.8508390212
 20
236.9224164844
 10
178.4543130971
 20
232.9681435928
 10
180.7227578465
 20
228.9594969604
 10
182.6519145014
 20
224.9040024023
 10
184.2381612717
 20
220.8092736857
 10
185.4785201449
 20
216.6829982361
 10
186.3706624768
 20
212.5329227043
 10
186.9129133634
 20
208.3668384236
 10
187.1042547853
 20
204.192566782
 10
187.0607944531
 20
201.920529526
  0
LWPOLYLINE
  5
176
330
16C
100
AcDbEntity
  8
0
  6
Continuous
 62
     1
370
    25
100
AcDbPolyline
 90
       49
 70
   128
 43
0.0
 10
-187.0613192433
 20
201.9330548221
 10
-187.0681964285
 20
205.9068256445
 10
-186.7327062012
 20
210.0786836241
 10
-186.0466448294
 20
214.2391404323
 10
-185.0113003215
 20
218.3803852461
 10
-183.6286164287
 20
222.494643311
 10
-181.9011889955
 20
226.5741905374
 10
-179.8322610865
 20
230.6113680017
 10
-177.4257168976
 20
234.598596325
 10
-174.6860744641
 20
238.5283899028
 10
-171.6184771783
 20
242.3933709582
 10
-168.2286841337
 20
246.1862833932
 10
-164.5230593126
 20
249.9000064109
 10
-160.5085596382
 20
253.5275678845
 10
-156.1927219143
 20
257.0621574462
 10
-151.5836486753
 20
260.4971392736
 10
-146.6899929746
 20
263.8260645472
 10
-141.5209421394
 20
267.0426835575
 10
-136.0862005226
 20
270.1409574386
 10
-130.3959712836
 20
273.1150695048
 10
-124.4609372334
 20
275.9594361716
 10
-118.2922407782
 20
278.6687174378
 10
-111.9014630011
 20
281.2378269108
 10
-105.3006019195
 20
283.6619413562
 10
-98.5020499604
 20
285.9365097522
 10
-91.5185706949
 20
288.0572618344
 10
-84.3632748754
 20
290.0202161123
 10
-77.0495958223
 20
291.8216873445
 10
-69.5912642038
 20
293.4582934568
 10
-62.0022822583
 20
294.9269618924
 10
-54.2968975062
 20
296.2249353797
 10
-46.4895760025
 20
297.349777109
 10
-38.5949751774
 20
298.2993753076
 10
-30.6279163192
 20
299.0719472042
 10
-22.6033567483
 20
299.6660423756
 10
-14.5363617368
 20
300.0805454702
 10
-6.4420762251
 20
300.3146783019
 10
1.6643036116
 20
300.3680013106
 10
9.7675588921
 20
300.2404143881
 10
17.8524766015
 20
299.9321570654
 10
25.9038781514
 20
299.4438080634
 10
33.9066478767
 20
298.7762842064
 10
41.8457614134
 20
297.9308387006
 10
49.7063139055
 20
296.9090587817
 10
57.4735479869
 20
295.7128627347
 10
65.1328814873
 20
294.3444962927
 10
72.6699348083
 20
292.8065284207
 10
80.0705579198
 20
291.1018464926
 10
87.3208569252
 20
289.2336508707
  0
LWPOLYLINE
  5
177
330
16C
100
AcDbEntity
  8
0
  6
Continuous
 62
     1
370
    25
100
AcDbPolyline
 90
       73
 70
   128
 43
0.0
 10
198.1291539588
 20
155.9601206253
 10
197.6771710433
 20
153.1104714108
 10
196.7032818456
 20
148.8271300725
 10
195.3796613911
 20
144.5687418423
 10
193.7086630286
 20
140.3428779791
 10
191.6932577323
 20
136.1570519145
 10
189.3370288192
 20
132.0187058946
 10
186.6441655783
 20
127.9351977477
 10
183.6194558222
 20
123.913787802
 10
180.2682773745
 20
119.9616259779
 10
176.5965885081
 20
116.0857390747
 10
172.6109173519
 20
112.293018278
 10
168.3183502838
 20
108.5902069069
 10
163.7265193313
 20
104.9838884249
 10
158.8435886023
 20
101.4804747347
 10
153.6782397695
 20
98.0861947779
 10
148.2396566345
 20
94.8070834605
 10
142.5375087997
 20
91.6489709227
 10
136.5819344759
 20
88.6174721733
 10
130.3835224569
 20
85.7179771066
 10
123.9532932931
 20
82.9556409188
 10
117.3026796972
 20
80.3353749431
 10
110.4435062175
 20
77.8618379165
 10
103.3879682142
 20
75.5394276978
 10
96.1486101764
 20
73.3722734474
 10
88.7383034184
 20
71.3642282867
 10
81.1702231952
 20
69.5188624466
 10
73.4578252774
 20
67.8394569202
 10
65.6148220269
 20
66.3289976293
 10
57.6551580173
 20
64.9901701153
 10
49.5929852408
 20
63.8253547648
 10
41.4426379463
 20
62.8366225769
 10
33.218607154
 20
62.0257314813
 10
24.9355148903
 20
61.3941232129
 10
16.6080881912
 20
60.9429207481
 10
8.2511329173
 20
60.6729263084
 10
-0.1204925698
 20
60.5846199341
 10
-8.4919038255
 20
60.6781586306
 10
-16.8482167861
 20
60.9533760896
 10
-25.1745742321
 20
61.4097829845
 10
-33.4561722038
 20
62.0465678405
 10
-41.6782863222
 20
62.8625984774
 10
-49.8262979686
 20
63.8564240224
 10
-57.8857202754
 20
65.02627749
 10
-65.842223884
 20
66.3700789235
 10
-73.6816624214
 20
67.8854390929
 10
-81.3900976518
 20
69.5696637431
 10
-88.9538242588
 20
71.4197583842
 10
-96.3593942124
 20
73.4324336154
 10
-103.5936406796
 20
75.6041109737
 10
-110.643701434
 20
77.9309292958
 10
-117.4970417251
 20
80.4087515838
 10
-124.1414765637
 20
83.0331723601
 10
-130.5651923874
 20
85.7995255002
 10
-136.7567680637
 20
88.7028925293
 10
-142.705195197
 20
91.7381113667
 10
-148.3998977011
 20
94.8997855041
 10
-153.8307506025
 20
98.1822936003
 10
-158.9880980432
 20
101.5797994756
 10
-163.8627704475
 20
105.0862624886
 10
-168.4461008257
 20
108.695448276
 10
-172.7299401838
 20
112.4009398372
 10
-176.7066720117
 20
116.1961489435
 10
-180.3692258253
 20
120.0743278515
 10
-183.7110897376
 20
124.0285813006
 10
-186.7263220366
 20
128.0518787726
 10
-189.4095617491
 20
132.1370669913
 10
-191.756038173
 20
136.2768826412
 10
-193.7615793588
 20
140.4639652811
 10
-195.4226195274
 20
144.6908704309
 10
-196.73620541
 20
148.9500828075
 10
-197.700001499
 20
153.2340296867
 10
-198.1290652376
 20
155.959445042
  0
LWPOLYLINE
  5
178
330
16C
100
AcDbEntity
  8
0
  6
Continuous
 62
     1
370
    25
100
AcDbPolyline
 90
       22
 70
   128
 43
0.0
 10
85.7205072419
 20
247.9625156249
 10
92.7730869218
 20
245.94254207
 10
99.6465896066
 20
243.7649700409
 10
106.3277475886
 20
241.4340028369
 10
112.8036644371
 20
238.9541398514
 10
119.0618398917
 20
236.3301678863
 10
125.0901939917
 20
233.567151913
 10
130.8770903932
 20
230.6704252949
 10
136.4113588307
 20
227.6455794931
 10
141.6823166784
 20
224.4984532731
 10
146.679789571
 20
221.2351214343
 10
151.3941310424
 20
217.8618830845
 10
155.8162411463
 20
214.3852494803
 10
159.9375840217
 20
210.8119314591
 10
163.7502043689
 20
207.1488264853
 10
167.2467428059
 20
203.403005336
 10
170.4204500735
 20
199.5816984529
 10
173.2652000638
 20
195.6922819856
 10
175.7755016444
 20
191.7422635531
 10
177.9465092588
 20
187.7392677529
 10
179.7740322785
 20
183.6910214429
 10
180.3318657335
 20
182.2648312356
  0
LWPOLYLINE
  5
179
330
16C
100
AcDbEntity
  8
0
  6
Continuous
 62
     1
370
    25
100
AcDbPolyline
 90
       44
 70
   128
 43
0.0
 10
-180.3509367908
 20
182.2139848331
 10
-179.6044021745
 20
184.1035311482
 10
-177.7418626211
 20
188.147541849
 10
-175.536233496
 20
192.1455139611
 10
-172.9917722564
 20
196.0897303239
 10
-170.1133903964
 20
199.9725775395
 10
-166.9066439667
 20
203.786560669
 10
-163.3777228499
 20
207.5243176999
 10
-159.5334388123
 20
211.1786337564
 10
-155.3812123554
 20
214.7424550261
 10
-150.9290583924
 20
218.2089023762
 10
-146.1855707773
 20
221.5712846314
 10
-141.159905716
 20
224.8231114902
 10
-135.8617640932
 20
227.9581060527
 10
-130.3013727462
 20
230.9702169366
 10
-124.489464725
 20
233.8536299584
 10
-118.4372585742
 20
236.6027793558
 10
-112.1564366787
 20
239.2123585315
 10
-105.6591227129
 20
241.6773302963
 10
-98.9578582392
 20
243.9929365921
 10
-92.0655784994
 20
246.1547076762
 10
-84.995587446
 20
248.1584707495
 10
-77.7615320622
 20
250.0003580106
 10
-70.3773760192
 20
251.6768141219
 10
-62.8573727233
 20
253.1846030726
 10
-55.216037802
 20
254.5208144247
 10
-47.4681210857
 20
255.682868931
 10
-39.6285781364
 20
256.6685235141
 10
-31.7125413792
 20
257.4758755957
 10
-23.7352908928
 20
258.1033667692
 10
-15.712224915
 20
258.549785808
 10
-7.6588301197
 20
258.8142710033
 10
0.4093482764
 20
258.8963118277
 10
8.4767365203
 20
258.7957499203
 10
16.5277623842
 20
258.5127793925
 10
24.5468852241
 20
258.0479464537
 10
32.5186259773
 20
257.4021483562
 10
40.4275970414
 20
256.576631664
 10
48.2585319764
 20
255.5729898463
 10
55.9963149728
 20
254.3931602015
 10
63.6260100295
 20
253.039420118
 10
71.1328897844
 20
251.5143826779
 10
78.5024639415
 20
249.8209916136
 10
85.7205072419
 20
247.9625156249
  0
VIEWPORT
  5
1A5
330
16C
100
AcDbEntity
  8
0
100
AcDbViewport
 10
0.0
 20
0.0
 30
0.0
 40
205.6
 41
156.0
 68
     1
 69
     1
 12
0.0109564813
 22
147.9806003846
 13
0.0
 23
0.0
 14
10.0
 24
10.0
 15
10.0
 25
10.0
 16
0.0
 26
0.0
 36
1.0
 17
0.0
 27
0.0
 37
0.0
 42
50.0
 43
0.0
 44
0.0
 45
369.6871498652
 50
0.0
 51
0.0
 72
   100
 90
   557152
  1

281
     0
 71
     1
 74
     0
110
0.0
120
0.0
130
0.0
111
1.0
121
0.0
131
0.0
112
0.0
122
1.0
132
0.0
 79
     0
146
0.0
170
     0
 61
     5
348
2F
292
     1
282
     1
141
0.0
142
0.0
 63
   256
361
1A6
  0
ENDBLK
  5
16F
330
16C
100
AcDbEntity
  8
0
100
AcDbBlockEnd
  0
BLOCK
  5
17C
330
17A
100
AcDbEntity
  8
0
100
AcDbBlockBegin
  2
*Paper_Space10
 70
     0
 10
0.0
 20
0.0
 30
0.0
  3
*Paper_Space10
  1

  0
SPLINE
  5
17E
330
17A
100
AcDbEntity
  8
0
  6
Continuous
 62
     7
370
    25
100
AcDbSpline
210
0.0
220
0.0
230
1.0
 70
     8
 71
     3
 72
     9
 73
     5
 74
     0
 42
0.000000001
 43
0.00000001
 40
0.0
 40
0.0
 40
0.0
 40
0.0
 40
0.4545766094572209
 40
1.0
 40
1.0
 40
1.0
 40
1.0
 10
-113.8506227400654
 20
189.3257207886532
 30
0.0
 10
-114.4939170308853
 20
189.4669703533115
 30
0.0
 10
-115.9090674751372
 20
189.7776980980295
 30
0.0
 10
-117.2609401929277
 20
190.1130860615925
 30
0.0
 10
-117.9982831942474
 20
190.2960145018262
 30
0.0
  0
SPLINE
  5
17F
330
17A
100
AcDbEntity
  8
0
  6
Continuous
 62
     7
370
    25
100
AcDbSpline
210
0.0
220
0.0
230
1.0
 70
     8
 71
     3
 72
    28
 73
    24
 74
     0
 42
0.000000001
 43
0.00000001
 40
0.0
 40
0.0
 40
0.0
 40
0.0
 40
0.0403334330534577
 40
0.0920433349497632
 40
0.1434517524862556
 40
0.1945296733559525
 40
0.245247405959138
 40
0.2955755256990659
 40
0.3454862853595848
 40
0.3949556422554645
 40
0.4439660956626688
 40
0.4925105824999607
 40
0.5405977587733483
 40
0.588259123292616
 40
0.6355586704312386
 40
0.6826062019838514
 40
0.7295763342745974
 40
0.7766483664737182
 40
0.8241647008141427
 40
0.8726655054484179
 40
0.9230047081943459
 40
0.9766366282126615
 40
1.0
 40
1.0
 40
1.0
 40
1.0
 10
-139.9450785149939
 20
196.4193690986835
 30
0.0
 10
-141.2883164737547
 20
196.8573005122733
 30
0.0
 10
-144.3536667798294
 20
197.8566864988973
 30
0.0
 10
-148.8533380352481
 20
199.4728259590714
 30
0.0
 10
-153.4714214890835
 20
201.2453875766382
 30
0.0
 10
-157.7989529662129
 20
203.0421015861222
 30
0.0
 10
-161.8365214945127
 20
204.8511800873444
 30
0.0
 10
-165.5741712681106
 20
206.6624538739442
 30
0.0
 10
-169.006167292872
 20
208.4639807553548
 30
0.0
 10
-172.1273895366433
 20
210.2428527868594
 30
0.0
 10
-174.934656019779
 20
211.9849119936905
 30
0.0
 10
-177.4268006880932
 20
213.6747911296149
 30
0.0
 10
-179.6051394415707
 20
215.2959207797698
 30
0.0
 10
-181.4738857387183
 20
216.830620321472
 30
0.0
 10
-183.0406165739766
 20
218.2602529833611
 30
0.0
 10
-184.3167496327177
 20
219.5655075598712
 30
0.0
 10
-185.3173624530696
 20
220.7259402962133
 30
0.0
 10
-186.0627135583343
 20
221.7215372298652
 30
0.0
 10
-186.5787234979437
 20
222.5325808005022
 30
0.0
 10
-186.8983290639917
 20
223.1460267401335
 30
0.0
 10
-187.0578218312756
 20
223.5374856585295
 30
0.0
 10
-187.0994727277988
 20
223.7022725687115
 30
0.0
 10
-187.096231778251
 20
223.6832707129672
 30
0.0
 10
-187.095248347869
 20
223.6775048094945
 30
0.0
  0
SPLINE
  5
180
330
17A
100
AcDbEntity
  8
0
  6
Continuous
 62
     7
370
    25
100
AcDbSpline
210
0.0
220
0.0
230
1.0
 70
     8
 71
     3
 72
    29
 73
    25
 74
     0
 42
0.000000001
 43
0.00000001
 40
0.0
 40
0.0
 40
0.0
 40
0.0
 40
0.0082415130212874
 40
0.0637259058368295
 40
0.1142451256765429
 40
0.1616502739037138
 40
0.2117881864036394
 40
0.2598565626199417
 40
0.3068523678153662
 40
0.353399221921031
 40
0.399872140320197
 40
0.4464376886206643
 40
0.4932657435315707
 40
0.5404601117744828
 40
0.5880794728545172
 40
0.6361514946520014
 40
0.6846824519208469
 40
0.7336640423299371
 40
0.7830783214086142
 40
0.8329013026089223
 40
0.8831055741314042
 40
0.9336621763332672
 40
0.9845419189300025
 40
1.0
 40
1.0
 40
1.0
 40
1.0
 10
187.0978982571174
 20
223.6885886601994
 30
0.0
 10
187.0983224631224
 20
223.6923647280323
 30
0.0
 10
187.1016025540306
 20
223.7215624424
 30
0.0
 10
187.0787552748701
 20
223.6000211200902
 30
0.0
 10
186.9503422294266
 20
223.263785420378
 30
0.0
 10
186.6691042180866
 20
222.6920682412214
 30
0.0
 10
186.1889522259031
 20
221.9050586536032
 30
0.0
 10
185.4606390930305
 20
220.9051181490609
 30
0.0
 10
184.4861544108746
 20
219.7513536488534
 30
0.0
 10
183.248099000913
 20
218.4624373579896
 30
0.0
 10
181.7325747195694
 20
217.0567194522565
 30
0.0
 10
179.9291481371669
 20
215.5518229743913
 30
0.0
 10
177.830527728234
 20
213.9646133456011
 30
0.0
 10
175.430899195133
 20
212.3102547857135
 30
0.0
 10
172.7269134021132
 20
210.6032283660075
 30
0.0
 10
169.7174911591426
 20
208.8572797042965
 30
0.0
 10
166.403651464617
 20
207.0853603243993
 30
0.0
 10
162.7881273338455
 20
205.2996353930932
 30
0.0
 10
158.8757527349852
 20
203.511323745384
 30
0.0
 10
154.6709449554435
 20
201.7312611177846
 30
0.0
 10
150.1862085129347
 20
199.9678111734512
 30
0.0
 10
145.4091109069935
 20
198.2348550627483
 30
0.0
 10
141.5921965509661
 20
196.9227331118671
 30
0.0
 10
139.2972149010816
 20
196.2084200920631
 30
0.0
 10
138.7624368448057
 20
196.04197042641
 30
0.0
  0
SPLINE
  5
182
330
17A
100
AcDbEntity
  8
0
  6
Continuous
 62
     7
370
    25
100
AcDbSpline
210
0.0
220
0.0
230
1.0
 70
     8
 71
     3
 72
    13
 73
     9
 74
     0
 42
0.000000001
 43
0.00000001
 40
0.0
 40
0.0
 40
0.0
 40
0.0
 40
0.1104473532314927
 40
0.3079462032044366
 40
0.5052911647217248
 40
0.7024711902960259
 40
0.8994756332705117
 40
1.0
 40
1.0
 40
1.0
 40
1.0
 10
198.3852593610098
 20
176.5025161291526
 30
0.0
 10
198.6906256074686
 20
179.0155519571486
 30
0.0
 10
199.5420391853629
 20
186.0223277567106
 30
0.0
 10
200.5890433863264
 20
197.5618766755331
 30
0.0
 10
201.5593193552873
 20
211.1034812680615
 30
0.0
 10
202.1805690221085
 20
224.6561277267713
 30
0.0
 10
202.4894534094291
 20
236.0002976825496
 30
0.0
 10
202.4678072618683
 20
242.8245821693692
 30
0.0
 10
202.4604938011051
 20
245.1302643555815
 30
0.0
  0
SPLINE
  5
183
330
17A
100
AcDbEntity
  8
0
  6
Continuous
 62
     7
370
    25
100
AcDbSpline
210
0.0
220
0.0
230
1.0
 70
     8
 71
     3
 72
    13
 73
     9
 74
     0
 42
0.000000001
 43
0.00000001
 40
0.0
 40
0.0
 40
0.0
 40
0.0
 40
0.0962783327701514
 40
0.2928756242921763
 40
0.4892626553928856
 40
0.6854288300551106
 40
0.8813632255641258
 40
1.0
 40
1.0
 40
1.0
 40
1.0
 10
-202.4604938629204
 20
245.1301910766725
 30
0.0
 10
-202.4684074207905
 20
242.9216247627407
 30
0.0
 10
-202.4924802119876
 20
236.2032363219306
 30
0.0
 10
-202.1914141754855
 20
224.9823678736949
 30
0.0
 10
-201.5807833534165
 20
211.482159457602
 30
0.0
 10
-200.6266196502847
 20
198.018879889564
 30
0.0
 10
-199.5749241961742
 20
186.3529175833717
 30
0.0
 10
-198.7117327192086
 20
179.1936014158801
 30
0.0
 10
-198.3861903226639
 20
176.4935504944094
 30
0.0
  0
SPLINE
  5
184
330
17A
100
AcDbEntity
  8
0
  6
Continuous
 62
     7
370
    25
100
AcDbSpline
210
0.0
220
0.0
230
1.0
 70
     8
 71
     3
 72
    46
 73
    42
 74
     0
 42
0.000000001
 43
0.00000001
 40
0.0
 40
0.0
 40
0.0
 40
0.0
 40
0.0021497386869512
 40
0.0221753271809359
 40
0.043079451680014
 40
0.0656820150080139
 40
0.0906819882706304
 40
0.1144081494647792
 40
0.1385771702631973
 40
0.1629911034039387
 40
0.1876018270860914
 40
0.2124028485251485
 40
0.2373909892077998
 40
0.2625576178665965
 40
0.2878889724334193
 40
0.3133684488100231
 40
0.3389786817497369
 40
0.3647029400938608
 40
0.3905258950636604
 40
0.4164339438048313
 40
0.4424152580089941
 40
0.4684596818837709
 40
0.4945585600759383
 40
0.520704543458765
 40
0.5468913989011175
 40
0.573113835665159
 40
0.599367353260402
 40
0.6286162231424895
 40
0.6578568175740465
 40
0.6870040320629601
 40
0.7160579564592842
 40
0.745020949726419
 40
0.7738953368648593
 40
0.802683317367578
 40
0.8313869417469252
 40
0.8600080984004488
 40
0.8885485066695635
 40
0.9170097139865288
 40
0.9453930956270419
 40
0.973699856012542
 40
1.0
 40
1.0
 40
1.0
 40
1.0
 10
1.047379940937378
 20
-11.0234343338233
 30
0.0
 10
1.260220126142804
 20
-11.02544297475427
 30
0.0
 10
3.455743132185471
 20
-11.04616282787108
 30
0.0
 10
7.719556757539152
 20
-10.87477379872318
 30
0.0
 10
13.98442412058938
 20
-10.47436343952343
 30
0.0
 10
20.70101188153163
 20
-9.754515725230755
 30
0.0
 10
27.6432836620015
 20
-8.725581522834508
 30
0.0
 10
34.68121933355147
 20
-7.384222621336728
 30
0.0
 10
41.60420155343029
 20
-5.783811408202583
 30
0.0
 10
48.54689566779221
 20
-3.895287741095543
 30
0.0
 10
55.47684606776887
 20
-1.725764726261722
 30
0.0
 10
62.37920672725595
 20
0.7217379037203903
 30
0.0
 10
69.24214784011792
 20
3.445221870038109
 30
0.0
 10
76.05276781700412
 20
6.442354855843685
 30
0.0
 10
82.79682001193744
 20
9.70993761361523
 30
0.0
 10
89.45936491637025
 20
13.24384092129717
 30
0.0
 10
96.02543816496464
 20
17.03910896258112
 30
0.0
 10
102.4805141225428
 20
21.09011032307322
 30
0.0
 10
108.8107661216102
 20
25.39067847036377
 30
0.0
 10
115.0031789150523
 20
29.93422388958255
 30
0.0
 10
121.0455691599413
 20
34.71381596809827
 30
0.0
 10
126.9265558042627
 20
39.72223967620702
 30
0.0
 10
132.6355072218311
 20
44.95203277696375
 30
0.0
 10
138.1624828960236
 20
50.39551159603462
 30
0.0
 10
143.498172350144
 20
56.04478149365696
 30
0.0
 10
148.6338580461202
 20
61.89176684439956
 30
0.0
 10
153.7470209217348
 20
68.15563863720271
 30
0.0
 10
158.7981190583276
 20
74.84934258736678
 30
0.0
 10
163.7399142765787
 20
81.97623019925821
 30
0.0
 10
168.3823969412295
 20
89.2794105743886
 30
0.0
 10
172.7164757233084
 20
96.73848595851199
 30
0.0
 10
176.7385292392168
 20
104.3402315078801
 30
0.0
 10
180.4455200682557
 20
112.0716676755074
 30
0.0
 10
183.8348859717294
 20
119.9198651108188
 30
0.0
 10
186.9044501176904
 20
127.8719455225146
 30
0.0
 10
189.6527093912637
 20
135.9150474892191
 30
0.0
 10
192.0777463979805
 20
144.0364618668551
 30
0.0
 10
194.1812627323076
 20
152.2231476474426
 30
0.0
 10
195.9535839519316
 20
160.4635606597705
 30
0.0
 10
197.3958316507374
 20
168.5526750557405
 30
0.0
 10
198.0828426941687
 20
173.9139389334013
 30
0.0
 10
198.4137255664115
 20
176.4960668448137
 30
0.0
  0
SPLINE
  5
185
330
17A
100
AcDbEntity
  8
0
  6
Continuous
 62
     7
370
    25
100
AcDbSpline
210
0.0
220
0.0
230
1.0
 70
     8
 71
     3
 72
    47
 73
    43
 74
     0
 42
0.000000001
 43
0.00000001
 40
0.0
 40
0.0
 40
0.0
 40
0.0
 40
0.0238719375379097
 40
0.0513209206491474
 40
0.0786965960665645
 40
0.1059983392924223
 40
0.1332253406616525
 40
0.1603765958504779
 40
0.187450894179119
 40
0.2144468043982443
 40
0.2413626575832898
 40
0.2681965266823401
 40
0.2949462021709424
 40
0.3216091631601634
 40
0.3481825431842161
 40
0.3746630897648217
 40
0.4010471167229556
 40
0.4273304481057268
 40
0.4535083525588389
 40
0.4795754670767811
 40
0.5055257094311274
 40
0.5313521794273369
 40
0.5570470508244063
 40
0.5826014588323759
 40
0.6080053934448931
 40
0.6332476177363824
 40
0.6583156443712007
 40
0.6831958249375725
 40
0.7078736368641403
 40
0.7323342904683434
 40
0.7565638147620851
 40
0.7805507840380619
 40
0.8042887332522296
 40
0.8277788616132701
 40
0.8510313049849427
 40
0.8740598862517976
 40
0.896858329919721
 40
0.9193408647473248
 40
0.9412697955636122
 40
0.9623338691900268
 40
0.9824841387705936
 40
1.0
 40
1.0
 40
1.0
 40
1.0
 10
-198.404935838842
 20
176.4866015640517
 30
0.0
 10
-198.1078751053366
 20
174.1257575389314
 30
0.0
 10
-197.469241131534
 20
169.0503132568827
 30
0.0
 10
-196.1163706264171
 20
161.3215945691902
 30
0.0
 10
-194.4317771282224
 20
153.3104424743599
 30
0.0
 10
-192.4449351129282
 20
145.3910047202334
 30
0.0
 10
-190.1712242166749
 20
137.5728480515413
 30
0.0
 10
-187.6135547064898
 20
129.8668828688268
 30
0.0
 10
-184.7786727932421
 20
122.2833538385113
 30
0.0
 10
-181.6728041384503
 20
114.8323608242649
 30
0.0
 10
-178.3028112593127
 20
107.5237050736853
 30
0.0
 10
-174.6758802105339
 20
100.3669159653375
 30
0.0
 10
-170.7996004862729
 20
93.37123014315164
 30
0.0
 10
-166.6819411463852
 20
86.54558395173746
 30
0.0
 10
-162.3312561224915
 20
79.89860294478542
 30
0.0
 10
-157.7562836662693
 20
73.43859279689029
 30
0.0
 10
-152.966149776127
 20
67.17353043229778
 30
0.0
 10
-147.9703735267165
 20
61.11105560389055
 30
0.0
 10
-142.7788754364959
 20
55.25846269776197
 30
0.0
 10
-137.4019891351879
 20
49.62269254048374
 30
0.0
 10
-131.8504767053779
 20
44.21032380617265
 30
0.0
 10
-126.1355477312199
 20
39.02756340584304
 30
0.0
 10
-120.2688815306073
 20
34.08023492406924
 30
0.0
 10
-114.2626509786019
 20
29.37376373591383
 30
0.0
 10
-108.1295444678952
 20
24.91315687420648
 30
0.0
 10
-101.8827794420502
 20
20.70297504763846
 30
0.0
 10
-95.53609598196702
 20
16.74729354069779
 30
0.0
 10
-89.10371144642798
 20
13.04964835635114
 30
0.0
 10
-82.6002067019583
 20
9.612964509570402
 30
0.0
 10
-76.04030162636215
 20
6.439466215649836
 30
0.0
 10
-69.43846611989379
 20
3.530575807954073
 30
0.0
 10
-62.80831496320115
 20
0.8868248514394272
 30
0.0
 10
-56.16178354756474
 20
-1.492171456694724
 30
0.0
 10
-49.50826115589719
 20
-3.607560422255296
 30
0.0
 10
-42.85436576835011
 20
-5.460761590771746
 30
0.0
 10
-36.20622244839956
 20
-7.052275302069838
 30
0.0
 10
-29.57775394687149
 20
-8.380254805046228
 30
0.0
 10
-23.00615736453569
 20
-9.438864180214418
 30
0.0
 10
-16.55871811703799
 20
-10.22626877944141
 30
0.0
 10
-10.30218297794094
 20
-10.74132241488868
 30
0.0
 10
-4.455938946483202
 20
-11.02055722037013
 30
0.0
 10
-0.6994828737366467
 20
-11.02252108081947
 30
0.0
 10
1.047379940937378
 20
-11.0234343338233
 30
0.0
  0
LWPOLYLINE
  5
186
330
17A
100
AcDbEntity
  8
0
  6
Continuous
 62
     7
370
    25
100
AcDbPolyline
 90
      152
 70
   128
 43
0.0
 10
71.5945615787
 20
308.2708192075
 10
79.4122347395
 20
307.2234233945
 10
87.0924307264
 20
306.0685330603
 10
94.6218537083
 20
304.8081475325
 10
101.9874688703
 20
303.4444487699
 10
109.1765249787
 20
301.9797975859
 10
116.1765764562
 20
300.4167295608
 10
122.9755049269
 20
298.7579506527
 10
129.5615401961
 20
297.0063325127
 10
135.9232806263
 20
295.1649075137
 10
142.0497128755
 20
293.2368635009
 10
147.9302309635
 20
291.2255382729
 10
153.5546546326
 20
289.1344138032
 10
158.9132469717
 20
286.9671102128
 10
163.9967312726
 20
284.7273795023
 10
168.7963070896
 20
282.4190990574
 10
173.3036654749
 20
280.0462649358
 10
177.5110033627
 20
277.6129849494
 10
181.4110370777
 20
275.1234715531
 10
184.9970149448
 20
272.5820345522
 10
188.2627289772
 20
269.9930736413
 10
191.2025256238
 20
267.3610707874
 10
193.8113155561
 20
264.6905824714
 10
196.0845824793
 20
261.9862317992
 10
198.0183909506
 20
259.252700499
 10
199.6093931921
 20
256.4947208159
 10
200.8548348865
 20
253.7170673196
 10
201.7525599452
 20
250.9245486389
 10
202.3010142412
 20
248.1219991367
 10
202.4992482994
 20
245.3142705415
 10
202.3469189401
 20
242.5062235474
 10
201.8442898734
 20
239.7027193999
 10
200.9922312427
 20
236.90861148
 10
199.7922181181
 20
234.128736902
 10
198.2463279427
 20
231.3679081397
 10
196.3572369367
 20
228.6309046953
 10
194.1282154638
 20
225.9224648246
 10
191.5631223698
 20
223.2472773349
 10
188.6663983024
 20
220.6099734674
 10
185.4430580233
 20
218.0151188799
 10
181.8986817269
 20
215.4672057425
 10
178.0394053801
 20
212.9706449613
 10
173.8719100996
 20
210.5297585418
 10
169.4034105857
 20
208.1487721069
 10
164.6416426322
 20
205.8318075819
 10
159.5948497348
 20
203.5828760582
 10
154.2717688195
 20
201.4058708495
 10
148.6816151178
 20
199.3045607521
 10
142.8340662132
 20
197.28258352
 10
136.7392452875
 20
195.3434395672
 10
130.407703596
 20
193.4904859085
 10
123.8504022012
 20
191.7269303472
 10
117.0786929968
 20
190.0558259221
 10
110.1042990562
 20
188.4800656221
 10
102.9392943372
 20
187.0023773779
 10
95.5960827797
 20
185.6253193395
 10
88.0873768328
 20
184.3512754473
 10
80.4261754464
 20
183.1824513056
 10
72.6257415682
 20
182.1208703638
 10
64.699579183
 20
181.1683704136
 10
56.6614099347
 20
180.3266004074
 10
48.5251493717
 20
179.5970176039
 10
40.3048828563
 20
178.980885045
 10
32.0148411808
 20
178.4792693694
 10
23.669375931
 20
178.093038966
 10
15.2829346411
 20
177.8228624707
 10
6.8700357824
 20
177.6692076086
 10
-1.5547563709
 20
177.6323403845
 10
-9.9768569552
 20
177.7123246223
 10
-18.3816857664
 20
177.9090218547
 10
-26.7546925011
 20
178.2220915626
 10
-35.0813819456
 20
178.6509917648
 10
-43.3473390701
 20
179.1949799562
 10
-51.5382539836
 20
179.8531143932
 10
-59.6399467069
 20
180.6242557242
 10
-67.6383917208
 20
181.5070689618
 10
-75.519742247
 20
182.5000257941
 10
-83.2703542191
 20
183.6014072302
 10
-90.8768099032
 20
184.8093065764
 10
-98.3259411265
 20
186.1216327371
 10
-105.6048520738
 20
187.5361138343
 10
-112.7009416123
 20
189.0503011414
 10
-119.6019251068
 20
190.6615733218
 10
-126.2958556866
 20
192.3671409672
 10
-132.7711449274
 20
194.1640514265
 10
-139.0165829135
 20
196.0491939176
 10
-145.0213576438
 20
198.0193049121
 10
-150.7750737496
 20
200.070973786
 10
-156.2677704908
 20
202.2006487233
 10
-161.4899389998
 20
204.4046428653
 10
-166.4325387431
 20
206.6791406929
 10
-171.0870131721
 20
209.0202046325
 10
-175.4453045361
 20
211.423781872
 10
-179.4998678318
 20
213.8857113776
 10
-183.2436838647
 20
216.4017310967
 10
-186.6702714013
 20
218.9674853367
 10
-189.7736983888
 20
221.5785323055
 10
-192.5485922246
 20
224.230351801
 10
-194.9901490575
 20
226.918353036
 10
-197.0941421039
 20
229.6378825866
 10
-198.8569289651
 20
232.3842324471
 10
-200.275457933
 20
235.1526481812
 10
-201.3472732733
 20
237.9383371524
 10
-202.0705194767
 20
240.7364768211
 10
-202.4439444709
 20
243.5422230934
 10
-202.4669017888
 20
246.3507187066
 10
-202.139351687
 20
249.1571016387
 10
-201.4618612149
 20
251.956513525
 10
-200.435603233
 20
254.744108069
 10
-199.0623543826
 20
257.5150594323
 10
-197.3444920097
 20
260.2645705887
 10
-195.28499005
 20
262.9878816291
 10
-192.8874138798
 20
265.6802780014
 10
-190.1559141441
 20
268.3370986728
 10
-187.095219571
 20
270.9537441984
 10
-183.7106287854
 20
273.5256846838
 10
-180.008001136
 20
276.0484676273
 10
-175.9937465518
 20
278.5177256279
 10
-171.6748144452
 20
280.9291839463
 10
-167.0586816817
 20
283.2786679048
 10
-162.1533396353
 20
285.5621101149
 10
-156.9672803548
 20
287.7755575185
 10
-151.5094818619
 20
289.9151782312
 10
-145.789392609
 20
291.9772681763
 10
-139.816915122
 20
293.9582574973
 10
-133.602388857
 20
295.8547167373
 10
-127.1565723012
 20
297.663362777
 10
-120.4906243478
 20
299.3810645176
 10
-113.616084978
 20
301.0048483017
 10
-106.5448552828
 20
302.5319030612
 10
-99.2891768605
 20
303.9595851834
 10
-91.861610624
 20
305.2854230884
 10
-84.2750150558
 20
306.507121507
 10
-76.542523947
 20
307.6225654547
 10
-68.677523661
 20
308.629823893
 10
-60.6936299589
 20
309.5271530724
 10
-52.604664428
 20
310.3129995513
 10
-44.4246305544
 20
310.9860028848
 10
-36.1676894803
 20
311.5449979805
 10
-27.8481354882
 20
311.9890171153
 10
-19.4803712551
 20
312.3172916102
 10
-11.078882919
 20
312.529253162
 10
-2.6582150003
 20
312.6245348261
 10
5.7670547771
 20
312.6029716525
 10
14.1823407228
 20
312.464600971
 10
22.57307443
 20
312.2096623266
 10
30.9247299965
 20
311.8385970652
 10
39.2228491715
 20
311.3520475687
 10
47.4530663856
 20
310.7508561438
 10
55.6011336201
 20
310.0360635634
 10
63.652945073
 20
309.2089072647
 10
71.5945615787
 20
308.2708192075
  0
LWPOLYLINE
  5
188
330
17A
100
AcDbEntity
  8
0
  6
Continuous
 62
     7
370
    25
100
AcDbPolyline
 90
       34
 70
   128
 43
0.0
 10
48.6244066511
 20
-3.8825403735
 10
47.7884160629
 20
-4.9020096797
 10
46.3902465672
 20
-6.2177615056
 10
44.6666828233
 20
-7.489900202
 10
42.6298143923
 20
-8.70950263
 10
40.2939284428
 20
-9.8680141548
 10
37.6754095364
 20
-10.9573086504
 10
34.7926247019
 20
-11.9697454987
 10
31.6657946036
 20
-12.8982231826
 10
28.3168517079
 20
-13.7362290982
 10
24.7692864432
 20
-14.4778852361
 10
21.0479824308
 20
-15.1179894115
 10
17.1790419445
 20
-15.6520517534
 10
13.1896028222
 20
-16.0763261982
 10
9.1076481128
 20
-16.3878367656
 10
4.9618097957
 20
-16.5843984327
 10
0.7811679479
 20
-16.6646324607
 10
-3.4049532317
 20
-16.6279760655
 10
-7.5671911109
 20
-16.4746863653
 10
-11.6763505815
 20
-16.2058385774
 10
-15.7036088421
 20
-15.8233184757
 10
-19.6207175698
 20
-15.329809164
 10
-23.4002010612
 20
-14.7287722554
 10
-27.0155489552
 20
-14.0244235921
 10
-30.4414021839
 20
-13.2217036738
 10
-33.6537308483
 20
-12.326243004
 10
-36.6300027711
 20
-11.3443225959
 10
-39.349341543
 20
-10.2828299157
 10
-41.7926729565
 20
-9.1492105718
 10
-43.9428587972
 20
-7.9514160895
 10
-45.7848170563
 20
-6.6978481364
 10
-47.3056277201
 20
-5.397299591
 10
-48.4946233945
 20
-4.058892867
 10
-48.6359122317
 20
-3.8664948428
  0
LWPOLYLINE
  5
189
330
17A
100
AcDbEntity
  8
0
  6
Continuous
 62
     1
370
    25
100
AcDbPolyline
 90
       30
 70
   128
 43
0.0
 10
66.1514678753
 20
282.7286628579
 10
73.671034206
 20
281.7186994285
 10
81.0522908679
 20
280.6011046374
 10
88.2813803226
 20
279.377976652
 10
95.34473071
 20
278.0516117675
 10
102.229081328
 20
276.6245000952
 10
108.9215075274
 20
275.0993208882
 10
115.4094449775
 20
273.478937511
 10
121.6807132535
 20
271.7663920643
 10
127.7235387046
 20
269.9648996731
 10
133.5265765573
 20
268.0778424511
 10
139.0789322144
 20
266.1087631511
 10
144.3701817084
 20
264.0613585137
 10
149.3903912712
 20
261.9394723273
 10
154.1301359838
 20
259.7470882114
 10
158.5805174709
 20
257.4883221381
 10
162.7331806062
 20
255.1674147048
 10
166.5803291985
 20
252.7887231725
 10
170.1147406284
 20
250.3567132861
 10
173.3297794078
 20
247.8759508902
 10
176.2194096371
 20
245.3510933567
 10
178.7782063377
 20
242.7868808421
 10
181.0013656361
 20
240.1881273872
 10
182.8847137829
 20
237.5597118803
 10
184.4247149888
 20
234.9065688967
 10
185.6184780626
 20
232.2336794352
 10
186.4637618386
 20
229.5460615665
 10
186.958979385
 20
226.8487610123
 10
187.1032009826
 20
224.1468416725
 10
187.0898263591
 20
223.6046510183
  0
LWPOLYLINE
  5
18A
330
17A
100
AcDbEntity
  8
0
  6
Continuous
 62
     1
370
    25
100
AcDbPolyline
 90
       46
 70
   128
 43
0.0
 10
-187.0890674059
 20
223.5847768071
 10
-187.0435779249
 20
225.9813687482
 10
-186.6610040197
 20
228.6807050893
 10
-185.9279935832
 20
231.3719833613
 10
-184.8459227661
 20
234.0501509704
 10
-183.4168230431
 20
236.7101799368
 10
-181.6433773997
 20
239.347076334
 10
-179.5289152948
 20
241.9558896646
 10
-177.0774064101
 20
244.5317221541
 10
-174.2934531972
 20
247.0697379462
 10
-171.1822822376
 20
249.5651721814
 10
-167.7497344295
 20
252.0133399427
 10
-164.0022540229
 20
254.4096450509
 10
-159.9468765206
 20
256.7495886935
 10
-155.5912154701
 20
259.0287778709
 10
-150.94344817
 20
261.2429336436
 10
-146.0123003178
 20
263.3878991653
 10
-140.8070296282
 20
265.4596474876
 10
-135.3374084532
 20
267.4542891193
 10
-129.6137054349
 20
269.3680793293
 10
-123.6466662277
 20
271.1974251763
 10
-117.4474933242
 20
272.9388922547
 10
-111.0278250239
 20
274.589211142
 10
-104.3997135832
 20
276.145283537
 10
-97.5756025887
 20
277.6041880763
 10
-90.5683035959
 20
278.9631858191
 10
-83.3909720763
 20
280.2197253891
 10
-76.0570827201
 20
281.3714477645
 10
-68.580404138
 20
282.416190707
 10
-60.9749730131
 20
283.3519928208
 10
-53.2550677474
 20
284.1770972353
 10
-45.4351816566
 20
284.8899549031
 10
-37.5299957596
 20
285.4892275085
 10
-29.554351217
 20
285.9737899796
 10
-21.5232214681
 20
286.3427326012
 10
-13.4516841198
 20
286.595362722
 10
-5.3548926401
 20
286.7312060554
 10
2.751952091
 20
286.7500075696
 10
10.8536303196
 20
286.6517319669
 10
18.9349319913
 20
286.4365637493
 10
26.9806853068
 20
286.1049068727
 10
34.9757852047
 20
285.6573839884
 10
42.9052217204
 20
285.0948352736
 10
50.7541081654
 20
284.4183168549
 10
58.5077090756
 20
283.6290988248
 10
66.1514678753
 20
282.7286628579
  0
LWPOLYLINE
  5
18B
330
17A
100
AcDbEntity
  8
0
  6
Continuous
 62
     1
370
    25
100
AcDbPolyline
 90
       75
 70
   128
 43
0.0
 10
198.4252686347
 20
176.506033056
 10
198.2744713973
 20
175.452477567
 10
197.6326440278
 20
172.6695620683
 10
196.6394330294
 20
169.8981396029
 10
195.2966042951
 20
167.1431376585
 10
193.6065453252
 20
164.4094545284
 10
191.5722609831
 20
161.7019506011
 10
189.197368152
 20
159.02543972
 10
186.4860893048
 20
156.3846806237
 10
183.4432449961
 20
153.7843684855
 10
180.0742452923
 20
151.2291265655
 10
176.3850801518
 20
148.7234979906
 10
172.3823087756
 20
146.2719376769
 10
168.0730479451
 20
143.8788044092
 10
163.4649593689
 20
141.5483530912
 10
158.5662360602
 20
139.2847271802
 10
153.3855877704
 20
137.0919513206
 10
147.9322255031
 20
134.9739241876
 10
142.2158451373
 20
132.9344115564
 10
136.2466101887
 20
130.977039606
 10
130.0351337392
 20
129.1052884721
 10
123.5924595674
 20
127.3224860601
 10
116.9300425127
 20
125.6318021276
 10
110.0597281095
 20
124.0362426489
 10
102.9937315262
 20
122.5386444705
 10
95.7446158467
 20
121.1416702674
 10
88.3252697343
 20
119.8478038087
 10
80.7488845156
 20
118.6593455417
 10
73.0289307269
 20
117.5784085019
 10
65.1791341645
 20
116.6069145558
 10
57.2134514801
 20
115.7465909844
 10
49.1460453669
 20
114.9989674114
 10
40.9912593785
 20
114.3653730843
 10
32.7635924268
 20
113.8469345107
 10
24.4776730034
 20
113.4445734555
 10
16.1482331707
 20
113.1590053019
 10
7.7900823687
 20
112.9907377797
 10
-0.5819189155
 20
112.9400700625
 10
-8.952885569
 20
113.0070922354
 10
-17.3079343188
 20
113.1916851357
 10
-25.6322101929
 20
113.4935205638
 10
-33.9109129328
 20
113.9120618674
 10
-42.1293233069
 20
114.4465648953
 10
-50.2728292816
 20
115.0960793206
 10
-58.3269520005
 20
115.8594503304
 10
-66.2773715272
 20
116.7353206788
 10
-74.109952306
 20
117.7221331005
 10
-81.8107682941
 20
118.8181330788
 10
-89.3661277217
 20
120.0213719658
 10
-96.7625974355
 20
121.3297104468
 10
-103.9870267822
 20
122.7408223435
 10
-111.02657099
 20
124.2521987507
 10
-117.8687140064
 20
125.861152496
 10
-124.5012907506
 20
127.5648229187
 10
-130.9125087432
 20
129.3601809547
 10
-137.0909690728
 20
131.244034523
 10
-143.0256866622
 20
133.2130342007
 10
-148.7061098001
 20
135.2636791783
 10
-154.1221389015
 20
137.3923234837
 10
-159.2641444644
 20
139.5951824652
 10
-164.1229841904
 20
141.8683395199
 10
-168.6900192399
 20
144.2077530573
 10
-172.9571295911
 20
146.6092636857
 10
-176.9167284777
 20
149.0686016069
 10
-180.5617758773
 20
151.5813942076
 10
-183.8857910286
 20
154.1431738344
 10
-186.882863954
 20
156.7493857365
 10
-189.5476659672
 20
159.3953961644
 10
-191.8754591475
 20
162.0765006081
 10
-193.8621047635
 20
164.7879321616
 10
-195.5040706319
 20
167.5248699986
 10
-196.7984373972
 20
170.2824479436
 10
-197.7429037226
 20
173.0557631236
 10
-198.3357903814
 20
175.8398846854
 10
-198.4251982332
 20
176.5054424275
  0
LWPOLYLINE
  5
18C
330
17A
100
AcDbEntity
  8
0
  6
Continuous
 62
     1
370
    25
100
AcDbPolyline
 90
       19
 70
   128
 43
0.0
 10
64.9390945158
 20
237.9828646217
 10
72.4231585675
 20
236.9767907646
 10
79.7674264559
 20
235.8621106726
 10
86.9577217699
 20
234.6409759781
 10
93.9801653068
 20
233.3157437992
 10
100.821201863
 20
231.8889721902
 10
107.4676263989
 20
230.3634152038
 10
113.9066095287
 20
228.7420175752
 10
120.1257222842
 20
227.0279090375
 10
126.1129601061
 20
225.224398281
 10
131.856766016
 20
223.3349665662
 10
137.3460529246
 20
221.3632610043
 10
142.5702250326
 20
219.3130875169
 10
147.5191982837
 20
217.1884034899
 10
152.1834198291
 20
214.9933101346
 10
156.5538864675
 20
212.7320445714
 10
160.6221620237
 20
210.4089716504
 10
164.3803936321
 20
208.0285755269
 10
166.0358335833
 20
206.8925146998
  0
LWPOLYLINE
  5
18D
330
17A
100
AcDbEntity
  8
0
  6
Continuous
 62
     1
370
    25
100
AcDbPolyline
 90
       35
 70
   128
 43
0.0
 10
-166.0241114257
 20
206.9007732595
 10
-162.7324436406
 20
209.1037488696
 10
-158.8341240663
 20
211.458978999
 10
-154.6292119382
 20
213.7548591294
 10
-150.1258238669
 20
215.9869575952
 10
-145.3326526019
 20
218.1509658462
 10
-140.2589502523
 20
220.2427067648
 10
-134.9145104272
 20
222.2581427289
 10
-129.3096493322
 20
224.1933834053
 10
-123.4551858557
 20
226.0446932592
 10
-117.362420686
 20
227.808498765
 10
-111.0431144975
 20
229.4813953041
 10
-104.5094652497
 20
231.0601537363
 10
-97.7740846421
 20
232.5417266336
 10
-90.8499737695
 20
233.923254162
 10
-83.7504980273
 20
235.202069602
 10
-76.4893613118
 20
236.3757044961
 10
-69.0805795688
 20
237.4418934136
 10
-61.5384537384
 20
238.398578323
 10
-53.8775421509
 20
239.2439125656
 10
-46.1126324249
 20
239.9762644188
 10
-38.2587129232
 20
240.5942202469
 10
-30.3309438217
 20
241.0965872289
 10
-22.3446278457
 20
241.4823956615
 10
-14.3151807318
 20
241.7509008308
 10
-6.2581014712
 20
241.9015844496
 10
1.8110576075
 20
241.934155658
 10
9.8767208581
 20
241.8485515848
 10
17.9233193827
 20
241.644937469
 10
25.935321083
 20
241.3237063404
 10
33.8972606423
 20
240.8854782615
 10
41.7937693771
 20
240.3310991303
 10
49.6096049028
 20
239.6616390475
 10
57.3296805561
 20
238.8783902511
 10
64.9390945158
 20
237.9828646217
  0
LWPOLYLINE
  5
18E
330
17A
100
AcDbEntity
  8
0
  6
Continuous
 62
     1
370
    25
100
AcDbPolyline
 90
       29
 70
   128
 43
0.0
 10
45.2819995195
 20
-4.7714439539
 10
44.6666828233
 20
-5.1938872873
 10
42.6298143923
 20
-6.4134897153
 10
40.2939284428
 20
-7.5720012401
 10
37.6754095364
 20
-8.6612957358
 10
34.7926247019
 20
-9.6737325841
 10
31.6657946036
 20
-10.6022102679
 10
28.3168517079
 20
-11.4402161835
 10
24.7692864432
 20
-12.1818723215
 10
21.0479824308
 20
-12.8219764968
 10
17.1790419445
 20
-13.3560388387
 10
13.1896028222
 20
-13.7803132836
 10
9.1076481128
 20
-14.0918238509
 10
4.9618097957
 20
-14.288385518
 10
0.7811679479
 20
-14.368619546
 10
-3.4049532317
 20
-14.3319631508
 10
-7.5671911109
 20
-14.1786734507
 10
-11.6763505815
 20
-13.9098256627
 10
-15.7036088421
 20
-13.5273055611
 10
-19.6207175698
 20
-13.0337962493
 10
-23.4002010612
 20
-12.4327593407
 10
-27.0155489552
 20
-11.7284106774
 10
-30.4414021839
 20
-10.9256907591
 10
-33.6537308483
 20
-10.0302300893
 10
-36.6300027711
 20
-9.0483096812
 10
-39.349341543
 20
-7.986817001
 10
-41.7926729565
 20
-6.8531976572
 10
-43.9428587972
 20
-5.6554031748
 10
-45.2066313339
 20
-4.8248522265
  0
LINE
  5
18F
330
17A
100
AcDbEntity
  8
0
  6
Continuous
 62
     7
370
    25
100
AcDbLine
 10
116.5303342162
 20
189.9426579869
 30
0.0
 11
113.3365424368
 21
189.2086535158
 31
0.0
  0
ARC
  5
190
330
17A
100
AcDbEntity
  8
0
  6
Continuous
 62
     7
370
    25
100
AcDbCircle
 10
1.3467051604
 20
122.7804736323
 30
0.0
 40
133.8147068229552
100
AcDbArc
 50
269.8715238042
 51
283.4041503789
  0
VIEWPORT
  5
1A7
330
17A
100
AcDbEntity
  8
0
100
AcDbViewport
 10
0.0
 20
0.0
 30
0.0
 40
205.6
 41
156.0
 68
     1
 69
     1
 12
0.0109564813
 22
147.9806003846
 13
0.0
 23
0.0
 14
10.0
 24
10.0
 15
10.0
 25
10.0
 16
0.0
 26
0.0
 36
1.0
 17
0.0
 27
0.0
 37
0.0
 42
50.0
 43
0.0
 44
0.0
 45
369.6871498652
 50
0.0
 51
0.0
 72
   100
 90
   557152
  1

281
     0
 71
     1
 74
     0
110
0.0
120
0.0
130
0.0
111
1.0
121
0.0
131
0.0
112
0.0
122
1.0
132
0.0
 79
     0
146
0.0
170
     0
 61
     5
348
2F
292
     1
282
     1
141
0.0
142
0.0
 63
   256
361
1A8
  0
ENDBLK
  5
17D
330
17A
100
AcDbEntity
  8
0
100
AcDbBlockEnd
  0
ENDSEC
  0
SECTION
  2
ENTITIES
  0
SPLINE
  5
73
330
1F
100
AcDbEntity
  8
0
  6
Continuous
 62
     7
370
    25
100
AcDbSpline
210
0.0
220
0.0
230
1.0
 70
     8
 71
     3
 72
    85
 73
    81
 74
     0
 42
0.000000001
 43
0.00000001
 40
0.0
 40
0.0
 40
0.0
 40
0.0
 40
0.0132930427310018
 40
0.0283571528836909
 40
0.0431510932922801
 40
0.0575912412882496
 40
0.0716661949376983
 40
0.0854082050883497
 40
0.0988673174771727
 40
0.1120961349885218
 40
0.1251428876090847
 40
0.1380490864614749
 40
0.1508492950631588
 40
0.1635717414042122
 40
0.176239184372159
 40
0.1888697877237651
 40
0.2014779095983203
 40
0.214074782422587
 40
0.2266689282091216
 40
0.2392650741733144
 40
0.2518686645991738
 40
0.2644836820725758
 40
0.2771129309016804
 40
0.2897582710718974
 40
0.3024208092766225
 40
0.3151010545318724
 40
0.3277990445696425
 40
0.3405144481291946
 40
0.3532466473855338
 40
0.3659948040316846
 40
0.3787579119348074
 40
0.3915348387915275
 40
0.4043243587963419
 40
0.4171251779942576
 40
0.4299359537036174
 40
0.4427553091583466
 40
0.4555818443234113
 40
0.4684141436770211
 40
0.4812507816233675
 40
0.4940903260961176
 40
0.5069313408325311
 40
0.5197723687539758
 40
0.5326115068658903
 40
0.5454473130590521
 40
0.558278345283652
 40
0.5711031630753347
 40
0.583920330183305
 40
0.5967284186700391
 40
0.6095260149853385
 40
0.6223117286042792
 40
0.6350842039289619
 40
0.647842136290677
 40
0.6605842930559365
 40
0.673309541040683
 40
0.6860168816766415
 40
0.698705495656892
 40
0.7113747991200473
 40
0.7240245138194052
 40
0.7366547541712014
 40
0.7492661345909036
 40
0.7618599011138734
 40
0.7744380919608372
 40
0.7870037324486117
 40
0.7995610704487507
 40
0.8121158293622329
 40
0.8246729314704151
 40
0.837241432968942
 40
0.8498329341879203
 40
0.8624620962752612
 40
0.8751472284923818
 40
0.887910934317671
 40
0.9007807757517708
 40
0.9137898573365953
 40
0.9269771139839297
 40
0.9403868566953016
 40
0.9540667052225004
 40
0.9680623411904861
 40
0.982406692854456
 40
0.9971012646072497
 40
1.0
 40
1.0
 40
1.0
 40
1.0
 10
187.0271803135125
 20
191.5954662749903
 30
0.0
 10
186.9619313045976
 20
190.4828065601131
 30
0.0
 10
186.8227399878499
 20
188.1092445186165
 30
0.0
 10
186.2256228904094
 20
184.4713195922984
 30
0.0
 10
185.3246752046184
 20
180.6998150726097
 30
0.0
 10
184.1198906077772
 20
176.9678338158724
 30
0.0
 10
182.6325116816771
 20
173.2816745368122
 30
0.0
 10
180.8684393688776
 20
169.6403950755173
 30
0.0
 10
178.8333618357592
 20
166.0405265626382
 30
0.0
 10
176.5295702357435
 20
162.4788229234992
 30
0.0
 10
173.9580556657203
 20
158.9536554596415
 30
0.0
 10
171.119113670432
 20
155.465371967629
 30
0.0
 10
168.013033344515
 20
152.0161892702998
 30
0.0
 10
164.6404863883632
 20
148.6099025195014
 30
0.0
 10
161.0027868688788
 20
145.2515574362269
 30
0.0
 10
157.1020399598761
 20
141.947143013867
 30
0.0
 10
152.9412211897186
 20
138.7033245157037
 30
0.0
 10
148.5242255662174
 20
135.5272328525797
 30
0.0
 10
143.8560839335859
 20
132.4264197708601
 30
0.0
 10
138.9426941619576
 20
129.4084934990705
 30
0.0
 10
133.7907500259344
 20
126.4809952726134
 30
0.0
 10
128.4074248297141
 20
123.6511940894689
 30
0.0
 10
122.8006359328497
 20
120.9262128072192
 30
0.0
 10
116.9789939267871
 20
118.3129637425107
 30
0.0
 10
110.9517502390851
 20
115.8180978318274
 30
0.0
 10
104.7287449973681
 20
113.4479650129151
 30
0.0
 10
98.32035614265367
 20
111.2085836792429
 30
0.0
 10
91.73745044374535
 20
109.1056174326392
 30
0.0
 10
84.9913367967188
 20
107.1443576605906
 30
0.0
 10
78.0937219968157
 20
105.3297107208568
 30
0.0
 10
71.0566690247371
 20
103.6661887309434
 30
0.0
 10
63.89255778573693
 20
102.1579031411441
 30
0.0
 10
56.6140481686931
 20
100.8085604220152
 30
0.0
 10
49.23404524612544
 20
99.62145932450115
 30
0.0
 10
41.76566640877665
 20
98.59948927691265
 30
0.0
 10
34.22221021473179
 20
97.74512957061833
 30
0.0
 10
26.61712672911705
 20
97.06044905829673
 30
0.0
 10
18.96398913238462
 20
96.54710614737773
 30
0.0
 10
11.27646638200785
 20
96.20634891894129
 30
0.0
 10
3.568296716164834
 20
96.03901524120789
 30
0.0
 10
-4.146734589382015
 20
96.04553277425282
 30
0.0
 10
-11.85473184060869
 20
96.2259162754296
 30
0.0
 10
-19.54180761580597
 20
96.57975999733986
 30
0.0
 10
-27.19411382776831
 20
97.1062375359589
 30
0.0
 10
-34.79795539740478
 20
97.8041125958704
 30
0.0
 10
-42.3397235004898
 20
98.67173579490296
 30
0.0
 10
-49.80592175895024
 20
99.70704340851991
 30
0.0
 10
-57.18319325238243
 20
100.9075559534124
 30
0.0
 10
-64.4583485545471
 20
102.2703766992864
 30
0.0
 10
-71.61839504464714
 20
103.7921902354539
 30
0.0
 10
-78.65056775575177
 20
105.4692612656381
 30
0.0
 10
-85.54236203972974
 20
107.2974338632866
 30
0.0
 10
-92.28156834050044
 20
109.2721314936014
 30
0.0
 10
-98.856309374095
 20
111.3883582007686
 30
0.0
 10
-105.2550800103794
 20
113.6407014732627
 30
0.0
 10
-111.4667901321605
 20
116.0233374409293
 30
0.0
 10
-117.4808107058718
 20
118.5300392296542
 30
0.0
 10
-123.2870232252839
 20
121.1541895082286
 30
0.0
 10
-128.8758725746589
 20
123.8887985137228
 30
0.0
 10
-134.2384231858663
 20
126.7265291427584
 30
0.0
 10
-139.3664181184985
 20
129.6597310553029
 30
0.0
 10
-144.2523403449048
 20
132.6804861587109
 30
0.0
 10
-148.8894750605994
 20
135.7806683479971
 30
0.0
 10
-153.2719676619818
 20
138.9520183887474
 30
0.0
 10
-157.3945934593043
 20
142.1860158635343
 30
0.0
 10
-161.2531050368829
 20
145.4741489034472
 30
0.0
 10
-164.8442928185717
 20
148.8080654616301
 30
0.0
 10
-168.166228119575
 20
152.1799982158916
 30
0.0
 10
-171.2180386300123
 20
155.5828297343235
 30
0.0
 10
-173.9998616301672
 20
159.0103847979631
 30
0.0
 10
-176.5127399438925
 20
162.4577803987597
 30
0.0
 10
-178.7584080544197
 20
165.921832441604
 30
0.0
 10
-180.7390326007366
 20
169.4015074929389
 30
0.0
 10
-182.4564882263406
 20
172.898369407901
 30
0.0
 10
-183.912553876316
 20
176.4169487677529
 30
0.0
 10
-185.1045319569074
 20
179.964712364349
 30
0.0
 10
-186.0373744138611
 20
183.5516757711192
 30
0.0
 10
-186.6714992322257
 20
187.1874363352151
 30
0.0
 10
-186.9970798270485
 20
189.8670567470116
 30
0.0
 10
-187.0164499927451
 20
191.3383122055336
 30
0.0
 10
-187.0196414896253
 20
191.5807214486687
 30
0.0
  0
SPLINE
  5
74
330
1F
100
AcDbEntity
  8
0
  6
Continuous
 62
     7
370
    25
100
AcDbSpline
210
0.0
220
0.0
230
1.0
 70
     8
 71
     3
 72
    13
 73
     9
 74
     0
 42
0.000000001
 43
0.00000001
 40
0.0
 40
0.0
 40
0.0
 40
0.0
 40
0.1285287490495046
 40
0.3152442043987833
 40
0.5019003306906726
 40
0.6884656700714199
 40
0.8749098809445254
 40
1.0
 40
1.0
 40
1.0
 40
1.0
 10
197.9193244772419
 20
146.032743366604
 30
0.0
 10
198.3071624891525
 20
148.85032239737
 30
0.0
 10
199.2584180362927
 20
155.7610366652138
 30
0.0
 10
200.4101869075486
 20
166.8199024633818
 30
0.0
 10
201.4266712820038
 20
179.1868170528008
 30
0.0
 10
202.1023462115377
 20
191.5763987372313
 30
0.0
 10
202.4653662121677
 20
202.6173155465431
 30
0.0
 10
202.4651880831486
 20
209.5261607636872
 30
0.0
 10
202.4651165591524
 20
212.3002636079758
 30
0.0
  0
SPLINE
  5
75
330
1F
100
AcDbEntity
  8
0
  6
Continuous
 62
     7
370
    25
100
AcDbSpline
210
0.0
220
0.0
230
1.0
 70
     8
 71
     3
 72
    14
 73
    10
 74
     0
 42
0.000000001
 43
0.00000001
 40
0.0
 40
0.0
 40
0.0
 40
0.0
 40
0.0611980730514518
 40
0.2473182227668099
 40
0.4332215881419822
 40
0.6188774760099587
 40
0.8042563973760434
 40
0.9893280872126667
 40
1.0
 40
1.0
 40
1.0
 40
1.0
 10
-202.4651187234906
 20
212.3004640377698
 30
0.0
 10
-202.4748088834827
 20
210.9434063138217
 30
0.0
 10
-202.5139694816532
 20
205.459163301846
 30
0.0
 10
-202.2606349585987
 20
195.8536372349019
 30
0.0
 10
-201.6999940562142
 20
183.5024441731023
 30
0.0
 10
-200.8136465342165
 20
171.1888721400992
 30
0.0
 10
-199.5881828103821
 20
158.9326616599395
 30
0.0
 10
-198.6226759418023
 20
150.5461545022193
 30
0.0
 10
-197.9800689657604
 20
146.2647577959574
 30
0.0
 10
-197.9450341267521
 20
146.0313366693166
 30
0.0
  0
SPLINE
  5
76
330
1F
100
AcDbEntity
  8
0
  6
Continuous
 62
     7
370
    25
100
AcDbSpline
210
0.0
220
0.0
230
1.0
 70
     8
 71
     3
 72
    81
 73
    77
 74
     0
 42
0.000000001
 43
0.00000001
 40
0.0
 40
0.0
 40
0.0
 40
0.0
 40
0.0010381930349387
 40
0.0150266808209237
 40
0.0289844073377453
 40
0.0429108733569841
 40
0.056805547048776
 40
0.0706678608767285
 40
0.0844972088593266
 40
0.098292944246565
 40
0.1120543776949997
 40
0.1257807760655424
 40
0.139471362017547
 40
0.1531253146319373
 40
0.1667417713660941
 40
0.1803198317247725
 40
0.1938585631229151
 40
0.2073570095144388
 40
0.2208142034571685
 40
0.2342291823636359
 40
0.2476010097247742
 40
0.2609288020517244
 40
0.2742117621054659
 40
0.2874492186078182
 40
0.3006406719773777
 40
0.3137858446623905
 40
0.3268847333895384
 40
0.3399376593646398
 40
0.3529453118137283
 40
0.3659087815968294
 40
0.378829587246799
 40
0.3917097087484528
 40
0.4045516672336938
 40
0.4173587200562365
 40
0.4301352688209417
 40
0.4428875754919033
 40
0.4556248098001727
 40
0.4683602856751893
 40
0.4811125198745139
 40
0.4939055766111048
 40
0.5067681893211333
 40
0.5197311908615307
 40
0.5328150287254558
 40
0.5460451416597096
 40
0.5594393797987489
 40
0.5730056208059379
 40
0.5867413032209436
 40
0.6006349172652526
 40
0.6146688216614008
 40
0.6288224104087736
 40
0.6430747826327743
 40
0.6574065000539168
 40
0.6703204626369607
 40
0.6847187940924011
 40
0.6991915320185665
 40
0.7136914700356288
 40
0.7282089978953837
 40
0.7427368848273583
 40
0.757269101466384
 40
0.7718005879638905
 40
0.7863270873613745
 40
0.80084501224092
 40
0.8153513362421012
 40
0.8298435045177981
 40
0.8443193588821222
 40
0.8587770746386547
 40
0.8732151069225536
 40
0.8876321449472275
 40
0.9020270729111934
 40
0.9163989365643046
 40
0.930746914603045
 40
0.9450702941909734
 40
0.9593684499999976
 40
0.9736408262507249
 40
0.9878869213006775
 40
1.0
 40
1.0
 40
1.0
 40
1.0
 10
-197.9429727393263
 20
146.0328164229971
 30
0.0
 10
-197.9189195380359
 20
145.8327425003475
 30
0.0
 10
-197.5707764024632
 20
142.9368966652568
 30
0.0
 10
-196.6108313736338
 20
137.3895512902074
 30
0.0
 10
-195.0440593682175
 20
129.4146450424148
 30
0.0
 10
-193.1453989722529
 20
121.5283793481101
 30
0.0
 10
-190.9620787139571
 20
113.736645491501
 30
0.0
 10
-188.4878610793725
 20
106.0519749852473
 30
0.0
 10
-185.7313064964981
 20
98.48482110325534
 30
0.0
 10
-182.6975318301794
 20
91.04587124468661
 30
0.0
 10
-179.3930680012352
 20
83.74541388772884
 30
0.0
 10
-175.8245490831555
 20
76.59349218464423
 30
0.0
 10
-171.9990474548532
 20
69.59984770188251
 30
0.0
 10
-167.9239683968138
 20
62.77392035409569
 30
0.0
 10
-163.6070609311435
 20
56.12483350302122
 30
0.0
 10
-159.0563959437014
 20
49.66138318948119
 30
0.0
 10
-154.2803509430486
 20
43.39202646376286
 30
0.0
 10
-149.2875904574236
 20
37.32487022368759
 30
0.0
 10
-144.0870444185242
 20
31.46766031017052
 30
0.0
 10
-138.6878832379796
 20
25.82777114471028
 30
0.0
 10
-133.0994892054725
 20
20.41219618287522
 30
0.0
 10
-127.3314236083935
 20
15.2275396418801
 30
0.0
 10
-121.3933891669391
 20
10.2800101456028
 30
0.0
 10
-115.2951876413453
 20
5.575417162117069
 30
0.0
 10
-109.0466729699123
 20
1.119171347576484
 30
0.0
 10
-102.6577010573729
 20
-3.083709897208561
 30
0.0
 10
-96.13807835302241
 20
-7.028590310667049
 30
0.0
 10
-89.49751248664121
 20
-10.71119502518604
 30
0.0
 10
-82.7455690429609
 20
-14.12758293994104
 30
0.0
 10
-75.89163817284603
 20
-17.27411253676854
 30
0.0
 10
-68.94491169828714
 20
-20.1474048575835
 30
0.0
 10
-61.91436378799392
 20
-22.74431012894058
 30
0.0
 10
-54.80871480056366
 20
-25.06188623796991
 30
0.0
 10
-47.6363399223443
 20
-27.09739518037376
 30
0.0
 10
-40.40506933574402
 20
-28.84831416895837
 30
0.0
 10
-33.12183073253576
 20
-30.31233947573385
 30
0.0
 10
-25.79212795670004
 20
-31.48733773838251
 30
0.0
 10
-18.41944024451123
 20
-32.37118570883609
 30
0.0
 10
-11.00474246944327
 20
-32.96145567217267
 30
0.0
 10
-3.546428540653936
 20
-33.25496206998115
 30
0.0
 10
3.959053593400083
 20
-33.24727228640349
 30
0.0
 10
11.51406162681021
 20
-32.93244533495805
 30
0.0
 10
19.1197897457491
 20
-32.3032732873103
 30
0.0
 10
26.77440338173096
 20
-31.35166874024974
 30
0.0
 10
34.47312884527774
 20
-30.06904002370071
 30
0.0
 10
42.20535512647131
 20
-28.44743247112678
 30
0.0
 10
49.95454967701416
 20
-26.48062963101237
 30
0.0
 10
57.69923704702794
 20
-24.16499742404828
 30
0.0
 10
65.41468019588554
 20
-21.49988918932603
 30
0.0
 10
73.07475503859371
 20
-18.48759050805566
 30
0.0
 10
80.65350927764287
 20
-15.1329645070549
 30
0.0
 10
87.86903374611845
 20
-11.56993842880262
 30
0.0
 10
94.96179778293654
 20
-7.710167756506737
 30
0.0
 10
101.920597728407
 20
-3.558668929187658
 30
0.0
 10
108.9587279805497
 20
1.046698066147045
 30
0.0
 10
115.819398150656
 20
5.953316863229974
 30
0.0
 10
122.4807858674282
 20
11.14570861585247
 30
0.0
 10
128.9285195556342
 20
16.61189815752991
 30
0.0
 10
135.1496507508619
 20
22.33970222219235
 30
0.0
 10
141.1323872609517
 20
28.3166871496026
 30
0.0
 10
146.86598438974
 20
34.53021223761368
 30
0.0
 10
152.3406612193109
 20
40.96746925296281
 30
0.0
 10
157.5475304040635
 20
47.61551532296357
 30
0.0
 10
162.4785391840516
 20
54.46130091410699
 30
0.0
 10
167.1264192902708
 20
61.49169368993368
 30
0.0
 10
171.4846434303734
 20
68.69349920583589
 30
0.0
 10
175.5473900239068
 20
76.05347873163082
 30
0.0
 10
179.3095045674127
 20
83.55836633291771
 30
0.0
 10
182.7664967528286
 20
91.19488008452352
 30
0.0
 10
185.914424230127
 20
98.94974885628497
 30
0.0
 10
188.7502152495215
 20
106.8096767635643
 30
0.0
 10
191.2703717412484
 20
114.7615368329589
 30
0.0
 10
193.4757131858899
 20
122.7917097321473
 30
0.0
 10
195.3536454441742
 20
130.8886039051468
 30
0.0
 10
196.8657063990123
 20
138.6319326316478
 30
0.0
 10
197.5963012624034
 20
143.6963349310017
 30
0.0
 10
197.9320383823054
 20
146.023627288517
 30
0.0
  0
LWPOLYLINE
  5
77
330
1F
100
AcDbEntity
  8
0
  6
Continuous
 62
     7
370
    25
100
AcDbPolyline
 90
      152
 70
   128
 43
0.0
 10
143.1891231903
 20
294.9619324123
 10
149.021631459
 20
291.4517951181
 10
154.5961558939
 20
287.8046325766
 10
159.9030459688
 20
284.0267586966
 10
164.9331144815
 20
280.124713672
 10
169.6776534589
 20
276.10525266
 10
174.128449232
 20
271.9753340864
 10
178.2777966552
 20
267.7421075993
 10
182.1185124456
 20
263.4129016917
 10
185.6439476182
 20
258.9952110149
 10
188.8479989968
 20
254.4966834033
 10
191.7251197794
 20
249.925106635
 10
194.2703291414
 20
245.2883949497
 10
196.4792208574
 20
240.5945753475
 10
198.3479709298
 20
235.8517736928
 10
199.873344209
 20
231.068200647
 10
201.0526999932
 20
226.2521374543
 10
201.883996601
 20
221.4119216052
 10
202.3657949051
 20
216.555932403
 10
202.4972608241
 20
211.6925764575
 10
202.2781667663
 20
206.8302731317
 10
201.7088920238
 20
201.9774399663
 10
200.7904221158
 20
197.1424781075
 10
199.5243470826
 20
192.3337577629
 10
197.9128587326
 20
187.5596037112
 10
195.9587468485
 20
182.8282808907
 10
193.6653943571
 20
178.1479800906
 10
191.036771473
 20
173.5268037719
 10
188.0774288256
 20
168.9727520402
 10
184.7924895809
 20
164.493708796
 10
181.1876405725
 20
160.0974280864
 10
177.2691224566
 20
155.7915206814
 10
173.0437189083
 20
151.583440898
 10
168.5187448778
 20
147.4804736959
 10
163.7020339267
 20
143.4897220653
 10
158.601924667
 20
139.6180947308
 10
153.2272463252
 20
135.8722941909
 10
147.5873034574
 20
132.2588051148
 10
141.6918598413
 20
128.7838831163
 10
135.5511215733
 20
125.453543924
 10
129.1757194
 20
122.2735529671
 10
122.5766903144
 20
119.2494153945
 10
115.7654584487
 20
116.3863665442
 10
108.7538152972
 20
113.6893628798
 10
101.5538993028
 20
111.1630734105
 10
94.1781748434
 20
108.8118716077
 10
86.6394106538
 20
106.6398278338
 10
78.9506577203
 20
104.6507022958
 10
71.1252266874
 20
102.8479385356
 10
63.1766648145
 20
101.2346574686
 10
55.1187325233
 20
99.8136519809
 10
46.9653795753
 20
98.5873820941
 10
38.7307209233
 20
97.5579707068
 10
30.4290122748
 20
96.7271999193
 10
22.0746254133
 20
96.0965079485
 10
13.6820233179
 20
95.6669866382
 10
5.2657351255
 20
95.4393795686
 10
-3.1596690223
 20
95.4140807696
 10
-11.5796032022
 20
95.5911340378
 10
-19.9794909607
 20
95.9702328616
 10
-28.3447905482
 20
96.5507209513
 10
-36.6610200936
 20
97.3315933752
 10
-44.913782675
 20
98.3114982996
 10
-53.0887912436
 20
99.4887393292
 10
-61.171893357
 20
100.8612784431
 10
-69.1490956799
 20
102.4267395241
 10
-77.0065882088
 20
104.1824124712
 10
-84.7307681799
 20
106.1252578918
 10
-92.3082636181
 20
108.2519123635
 10
-99.725956486
 20
110.5586942564
 10
-106.971005394
 20
113.0416101073
 10
-114.0308678307
 20
115.6963615322
 10
-120.8933218768
 20
118.5183526687
 10
-127.5464873629
 20
121.5026981314
 10
-133.9788464367
 20
124.6442314697
 10
-140.1792635026
 20
127.9375141121
 10
-146.1370044988
 20
131.3768447811
 10
-151.8417554808
 20
134.956269363
 10
-157.283640476
 20
138.669591216
 10
-162.4532385815
 20
142.5103818976
 10
-167.3416002725
 20
146.4719922932
 10
-171.9402628967
 20
150.5475641269
 10
-176.2412653238
 20
154.7300418349
 10
-180.2371617281
 20
159.0121847796
 10
-183.9210344785
 20
163.3865797845
 10
-187.2865061142
 20
167.8456539677
 10
-190.3277503851
 20
172.3816878525
 10
-193.0395023385
 20
176.9868287303
 10
-195.4170674335
 20
181.6531042559
 10
-197.4563296677
 20
186.3724362487
 10
-199.1537587034
 20
191.1366546778
 10
-200.5064159791
 20
195.9375118052
 10
-201.5119597963
 20
200.766696465
 10
-202.1686493739
 20
205.6158484508
 10
-202.4753478616
 20
210.4765729895
 10
-202.4315243078
 20
215.3404552733
 10
-202.0372545793
 20
220.1990750282
 10
-201.2932212293
 20
225.0440210903
 10
-200.2007123164
 20
229.8669059674
 10
-198.7616191742
 20
234.6593803595
 10
-196.9784331376
 20
239.4131476126
 10
-194.8542412293
 20
244.1199780817
 10
-192.3927208158
 20
248.7717233783
 10
-189.5981332415
 20
253.3603304762
 10
-186.4753164511
 20
257.8778556533
 10
-183.0296766144
 20
262.316478243
 10
-179.2671787672
 20
266.668514174
 10
-175.194336485
 20
270.9264292722
 10
-170.8182006061
 20
275.0828523038
 10
-166.1463470262
 20
279.1305877367
 10
-161.1868635825
 20
283.0626281969
 10
-155.9483360523
 20
286.8721665997
 10
-150.4398332897
 20
290.552607934
 10
-144.6708915253
 20
294.0975806792
 10
-138.6514978577
 20
297.5009478361
 10
-132.3920729636
 20
300.7568175505
 10
-125.903453058
 20
303.8595533137
 10
-119.1968711346
 20
306.8037837196
 10
-112.2839375192
 20
309.5844117643
 10
-105.1766197706
 20
312.1966236697
 10
-97.8872219621
 20
314.6358972167
 10
-90.428363381
 20
316.8980095746
 10
-82.8129566825
 20
318.979044611
 10
-75.0541855353
 20
320.8753996719
 10
-67.1654817981
 20
322.5837918181
 10
-59.1605022673
 20
324.1012635088
 10
-51.0531050334
 20
325.4251877216
 10
-42.8573254914
 20
326.5532725004
 10
-34.587352042
 20
327.483564923
 10
-26.2575015291
 20
328.2144544822
 10
-17.882194455
 20
328.744675874
 10
-9.4759300157
 20
329.0733111877
 10
-1.0532609998
 20
329.199791495
 10
7.3712314044
 20
329.1238978354
 10
15.7829628523
 20
328.8457615948
 10
24.1673710906
 20
328.365864278
 10
32.5099411677
 20
327.6850366756
 10
40.7962305614
 20
326.8044574252
 10
49.0118941817
 20
325.7256509714
 10
57.1427092051
 20
324.4504849264
 10
65.1745996962
 20
322.9811668371
 10
73.0936609763
 20
321.3202403631
 10
80.8861836949
 20
319.4705808733
 10
88.538677563
 20
317.4353904684
 10
96.0378947071
 20
315.218192437
 10
103.370852604
 20
312.8228251564
 10
110.5248565558
 20
310.2534354476
 10
117.4875216669
 20
307.5144713965
 10
124.2467942842
 20
304.6106746531
 10
130.7909728644
 20
301.5470722235
 10
137.1087282317
 20
298.3289677665
 10
143.1891231903
 20
294.9619324123
  0
LWPOLYLINE
  5
78
330
1F
100
AcDbEntity
  8
0
  6
Continuous
 62
     1
370
    25
100
AcDbPolyline
 90
       20
 70
   128
 43
0.0
 10
132.3029357809
 20
270.7135723279
 10
137.9099415037
 20
267.33332725
 10
143.2580357214
 20
263.8160386565
 10
148.3371779457
 20
260.1683098893
 10
153.1378326179
 20
256.396989178
 10
157.6509870104
 20
252.5091567831
 10
161.8681681474
 20
248.5121117038
 10
165.781458712
 20
244.4133579745
 10
169.38351191
 20
240.2205905771
 10
172.667565263
 20
235.9416809943
 10
175.6274533038
 20
231.5846624317
 10
178.257619152
 20
227.1577147365
 10
180.5531249461
 20
222.6691490403
 10
182.5096611137
 20
218.1273921563
 10
184.1235544626
 20
213.5409707585
 10
185.3917750766
 20
208.9184953737
 10
186.3119420042
 20
204.2686442166
 10
186.8823277281
 20
199.6001468968
 10
187.1018614085
 20
194.9217680303
 10
187.0444648267
 20
191.5982870273
  0
LWPOLYLINE
  5
79
330
1F
100
AcDbEntity
  8
0
  6
Continuous
 62
     1
370
    25
100
AcDbPolyline
 90
       56
 70
   128
 43
0.0
 10
-187.0435485506
 20
191.5775087655
 10
-187.0799041755
 20
196.0918089746
 10
-186.7725930923
 20
200.7685404334
 10
-186.114635981
 20
205.4331968086
 10
-185.1072680873
 20
210.0770206953
 10
-183.7523806394
 20
214.6912937995
 10
-182.0525172966
 20
219.2673533054
 10
-180.010869375
 20
223.7966081396
 10
-177.631269855
 20
228.2705550993
 10
-174.9181861863
 20
232.6807948165
 10
-171.8767118998
 20
237.019047527
 10
-168.5125570458
 20
241.2771686147
 10
-164.8320374734
 20
245.4471639021
 10
-160.8420629737
 20
249.5212046588
 10
-156.5501243068
 20
253.491642299
 10
-151.9642791391
 20
257.3510227408
 10
-147.0931369157
 20
261.0921004007
 10
-141.9458426973
 20
264.7078517963
 10
-136.5320599908
 20
268.1914887323
 10
-130.8619526076
 20
271.5364710441
 10
-124.946165582
 20
274.7365188771
 10
-118.7958051858
 20
277.7856244758
 10
-112.4224180781
 20
280.678063463
 10
-105.8379696272
 20
283.4084055868
 10
-99.0548214472
 20
285.9715249152
 10
-92.0857081899
 20
288.3626094593
 10
-84.9437136374
 20
290.5771702078
 10
-77.6422461381
 20
292.6110495543
 10
-70.1950134343
 20
294.4604291029
 10
-62.6159969274
 20
296.1218368366
 10
-54.9194254288
 20
297.592153636
 10
-47.1197484475
 20
298.8686191351
 10
-39.2316090618
 20
299.9488369031
 10
-31.2698164294
 20
300.8307789441
 10
-23.2493179839
 20
301.5127895041
 10
-15.1851713733
 20
301.9935881795
 10
-7.09251619
 20
302.272272321
 10
1.0134544514
 20
302.3483187283
 10
9.1175224379
 20
302.2215846322
 10
17.2044732287
 20
301.8923079626
 10
25.2591244186
 20
301.3611069023
 10
33.2663542418
 20
300.6289787256
 10
41.2111299608
 20
299.6972979266
 10
49.0785360893
 20
298.5678136388
 10
56.8538023945
 20
297.2426463509
 10
64.5223316262
 20
295.724283926
 10
72.0697269221
 20
294.0155769308
 10
79.4818188361
 20
292.1197332844
 10
86.7446919401
 20
290.0403122349
 10
93.8447109488
 20
287.7812176781
 10
100.7685463184
 20
285.3466908281
 10
107.5031992713
 20
282.7413022545
 10
114.0360262003
 20
279.9699433023
 10
120.3547624056
 20
277.0378169083
 10
126.4475451201
 20
273.9504278334
 10
132.3029357809
 20
270.7135723279
  0
LWPOLYLINE
  5
7A
330
1F
100
AcDbEntity
  8
0
  6
Continuous
 62
     1
370
    25
100
AcDbPolyline
 90
       73
 70
   128
 43
0.0
 10
197.9548747303
 20
146.0406760491
 10
197.5867097155
 20
143.6806936423
 10
196.5740398303
 20
138.8823244986
 10
195.2118684758
 20
134.1128658057
 10
193.502617543
 20
129.3807974871
 10
191.4493260177
 20
124.6945329874
 10
189.0556445774
 20
120.062404314
 10
186.3258291001
 20
115.4926472226
 10
183.2647330984
 20
110.9933865746
 10
179.877799089
 20
106.5726218912
 10
176.1710489172
 20
102.2382131306
 10
172.1510730494
 20
97.9978667136
 10
167.825018856
 20
93.8591218212
 10
163.2005779036
 20
89.8293369908
 10
158.2859722793
 20
85.9156770329
 10
153.0899399726
 20
82.125100292
 10
147.6217193394
 20
78.4643462752
 10
141.8910326763
 20
74.9399236695
 10
135.9080689352
 20
71.5580987698
 10
129.6834656072
 20
68.3248843373
 10
123.2282898099
 20
65.2460289093
 10
116.5540186102
 20
62.3270065784
 10
109.6725186189
 20
59.5730072597
 10
102.5960248918
 20
56.9889274635
 10
95.3371191765
 20
54.5793615895
 10
87.9087075423
 20
52.3485937577
 10
80.3239974343
 20
50.3005901921
 10
72.59647419
 20
48.4389921681
 10
64.739877064
 20
46.7671095392
 10
56.768174799
 20
45.2879148517
 10
48.6955407909
 20
44.0040380597
 10
40.5363278883
 20
42.9177618493
 10
32.3050428741
 20
42.03101758
 10
24.0163206725
 20
41.3453818507
 10
15.6848983291
 20
40.8620736968
 10
7.325588809
 20
40.5819524224
 10
-1.0467453408
 20
40.5055160731
 10
-9.4172184155
 20
40.6329005498
 10
-17.7709480195
 20
40.9638793675
 10
-26.0930815265
 20
41.4978640581
 10
-34.3688224867
 20
42.2339052162
 10
-42.5834569348
 20
43.1706941876
 10
-50.7223795504
 20
44.3065653955
 10
-58.7711196263
 20
45.6394993025
 10
-66.7153667961
 20
47.1671260007
 10
-74.5409964785
 20
48.8867294256
 10
-82.2340949893
 20
50.795252185
 10
-89.7809842802
 20
52.8893009952
 10
-97.1682462574
 20
55.1651527138
 10
-104.3827466387
 20
57.6187609594
 10
-111.4116583058
 20
60.2457633061
 10
-118.2424841101
 20
63.0414890397
 10
-124.8630790928
 20
66.0009674618
 10
-131.2616720774
 20
69.1189367277
 10
-137.4268865992
 20
72.389853202
 10
-143.3477611317
 20
75.8079013144
 10
-149.0137685761
 20
79.3670039002
 10
-154.414834978
 20
83.0608330049
 10
-159.5413574384
 20
86.882821135
 10
-164.3842211873
 20
90.8261729353
 10
-168.9348157899
 20
94.88387727
 10
-173.1850504549
 20
99.048719689
 10
-177.1273684203
 20
103.3132952544
 10
-180.7547603885
 20
107.6700217065
 10
-184.060776989
 20
112.1111529447
 10
-187.039540245
 20
116.6287927996
 10
-189.6857540241
 20
121.2149090725
 10
-191.9947134547
 20
125.8613478161
 10
-193.9623132913
 20
130.5598478317
 10
-195.585055213
 20
135.3020553579
 10
-196.8600540441
 20
140.0795389226
 10
-197.7850428832
 20
144.8838043345
 10
-197.9548111076
 20
146.0402149321
  0
LWPOLYLINE
  5
7B
330
1F
100
AcDbEntity
  8
0
  6
Continuous
 62
     1
370
    25
100
AcDbPolyline
 90
       16
 70
   128
 43
0.0
 10
129.8781890613
 20
231.4867142622
 10
135.4576376156
 20
228.1210412485
 10
140.7756165185
 20
224.6171389651
 10
145.8218606412
 20
220.9817708855
 10
150.5866293762
 20
217.221954247
 10
155.060725439
 20
213.3449465066
 10
159.2355126216
 20
209.3582313313
 10
163.1029324625
 20
205.269504153
 10
166.655519802
 20
201.0866573141
 10
169.8864171916
 20
196.8177648335
 10
172.7893881307
 20
192.471066821
 10
175.3588291051
 20
188.0549535723
 10
177.5897804033
 20
183.577949373
 10
179.4779356893
 20
179.0486960445
 10
181.0196503161
 20
174.4759362632
 10
181.8464308059
 20
171.4363271774
  0
LWPOLYLINE
  5
7C
330
1F
100
AcDbEntity
  8
0
  6
Continuous
 62
     1
370
    25
100
AcDbPolyline
 90
       52
 70
   128
 43
0.0
 10
-181.8490627984
 20
171.4256373903
 10
-181.3505840976
 20
173.3269812059
 10
-179.895970882
 20
177.9092413425
 10
-178.0941100867
 20
182.4501944803
 10
-175.9484797876
 20
186.9410753591
 10
-173.4632216277
 20
191.3732153715
 10
-170.6431328235
 20
195.7380592961
 10
-167.4936569043
 20
200.0271818108
 10
-164.0208732052
 20
204.2323037562
 10
-160.2314851322
 20
208.3453081167
 10
-156.132807223
 20
212.3582556882
 10
-151.7327510275
 20
216.2634004033
 10
-147.039809837
 20
220.053204283
 10
-142.0630422895
 20
223.7203519871
 10
-136.812054884
 20
227.2577649348
 10
-131.2969834376
 20
230.6586149682
 10
-125.5284735209
 20
233.9163375327
 10
-119.5176599083
 20
237.024644348
 10
-113.2761450859
 20
239.9775355466
 10
-106.8159768551
 20
242.7693112545
 10
-100.1496250769
 20
245.3945825943
 10
-93.2899576023
 20
247.8482820867
 10
-86.2502154333
 20
250.125673432
 10
-79.0439871646
 20
252.2223606528
 10
-71.6851827537
 20
254.1342965792
 10
-64.1880066713
 20
255.8577906609
 10
-56.5669304823
 20
257.3895160911
 10
-48.8366649124
 20
258.7265162279
 10
-41.012131452
 20
259.8662103018
 10
-33.1084335539
 20
260.8063983967
 10
-25.1408274796
 20
261.545265697
 10
-17.1246928503
 20
262.0813859902
 10
-9.0755029608
 20
262.41372442
 10
-1.0087949111
 20
262.5416394838
 10
7.0598603839
 20
262.4648842713
 10
15.1148882508
 20
262.1836069406
 10
23.1407403204
 20
261.6983504326
 10
31.121924541
 20
261.0100514227
 10
39.0430350818
 20
260.1200385131
 10
46.8887820701
 20
259.030029668
 10
54.6440211054
 20
257.7421288973
 10
62.2937824917
 20
256.2588221958
 10
69.8233001334
 20
254.5829727441
 10
77.2180400373
 20
252.7178153822
 10
84.4637283679
 20
250.666950365
 10
91.5463789991
 20
248.4343364133
 10
98.4523205112
 20
246.0242830722
 10
105.1682225809
 20
243.4414423925
 10
111.6811217119
 20
240.6907999508
 10
117.9784462584
 20
237.7776652266
 10
124.0480406911
 20
234.7076613528
 10
129.8781890613
 20
231.4867142622
  0
CIRCLE
  5
7D
330
1B
100
AcDbEntity
 67
     1
  8
0
  6
Continuous
 62
     7
370
    25
100
AcDbCircle
 10
0.0
 20
0.0
 30
0.0
 40
187.1046061230579
  0
CIRCLE
  5
7E
330
1B
100
AcDbEntity
 67
     1
  8
0
  6
Continuous
 62
     7
370
    25
100
AcDbCircle
 10
0.0
 20
0.0
 30
0.0
 40
202.5000000000004
  0
CIRCLE
  5
7F
330
1B
100
AcDbEntity
 67
     1
  8
0
  6
Continuous
 62
     7
370
    25
100
AcDbCircle
 10
0.0
 20
0.0
 30
0.0
 40
183.6754964269716
  0
CIRCLE
  5
80
330
1B
100
AcDbEntity
 67
     1
  8
0
  6
Continuous
 62
     7
370
    25
100
AcDbCircle
 10
0.0
 20
0.0
 30
0.0
 40
34.9175359259423
  0
CIRCLE
  5
81
330
1B
100
AcDbEntity
 67
     1
  8
0
  6
Continuous
 62
     7
370
    25
100
AcDbCircle
 10
0.0
 20
0.0
 30
0.0
 40
23.00000000000015
  0
VIEWPORT
  5
191
330
1B
100
AcDbEntity
 67
     1
  8
0
100
AcDbViewport
 10
0.0
 20
0.0
 30
0.0
 40
205.6
 41
156.0
 68
     1
 69
     1
 12
0.0109564813
 22
147.9806003846
 13
0.0
 23
0.0
 14
10.0
 24
10.0
 15
10.0
 25
10.0
 16
0.0
 26
0.0
 36
1.0
 17
0.0
 27
0.0
 37
0.0
 42
50.0
 43
0.0
 44
0.0
 45
369.6871498652
 50
0.0
 51
0.0
 72
   100
 90
   557152
  1

281
     0
 71
     1
 74
     0
110
0.0
120
0.0
130
0.0
111
1.0
121
0.0
131
0.0
112
0.0
122
1.0
132
0.0
 79
     0
146
0.0
170
     0
 61
     5
348
2F
292
     1
282
     1
141
0.0
142
0.0
 63
   256
361
192
  0
ENDSEC
  0
SECTION
  2
OBJECTS
  0
DICTIONARY
  5
C
330
0
100
AcDbDictionary
281
     1
  3
ACAD_DETAILVIEWSTYLE
350
1B1
  3
ACAD_GROUP
350
D
  3
ACAD_LAYOUT
350
1A
  3
ACAD_MATERIAL
350
43
  3
ACAD_MLEADERSTYLE
350
6B
  3
ACAD_MLINESTYLE
350
17
  3
ACAD_PLOTSETTINGS
350
19
  3
ACAD_PLOTSTYLENAME
350
E
  3
ACAD_SCALELIST
350
47
  3
ACAD_SECTIONVIEWSTYLE
350
1B2
  3
ACAD_TABLESTYLE
350
69
  3
ACAD_VISUALSTYLE
350
2A
  3
ACDB_RECOMPOSE_DATA
350
1AE
  3
AcDbVariableDictionary
350
1A9
  0
SUN
  5
6D
330
29
100
AcDbSun
 90
        1
290
     0
 63
     7
421
 16777215
 40
1.0
291
     1
 91
  2455826
 92
 54000000
292
     0
 70
     2
 71
   256
280
     1
  0
SUN
  5
194
330
193
100
AcDbSun
 90
        1
290
     0
 63
     7
421
 16777215
 40
1.0
291
     1
 91
  2455826
 92
 54000000
292
     0
 70
     2
 71
   256
280
     1
  0
SUN
  5
196
330
195
100
AcDbSun
 90
        1
290
     0
 63
     7
421
 16777215
 40
1.0
291
     1
 91
  2455826
 92
 54000000
292
     0
 70
     2
 71
   256
280
     1
  0
SUN
  5
198
330
197
100
AcDbSun
 90
        1
290
     0
 63
     7
421
 16777215
 40
1.0
291
     1
 91
  2455826
 92
 54000000
292
     0
 70
     2
 71
   256
280
     1
  0
SUN
  5
19A
330
199
100
AcDbSun
 90
        1
290
     0
 63
     7
421
 16777215
 40
1.0
291
     1
 91
  2455826
 92
 54000000
292
     0
 70
     2
 71
   256
280
     1
  0
SUN
  5
19C
330
19B
100
AcDbSun
 90
        1
290
     0
 63
     7
421
 16777215
 40
1.0
291
     1
 91
  2455826
 92
 54000000
292
     0
 70
     2
 71
   256
280
     1
  0
SUN
  5
19E
330
19D
100
AcDbSun
 90
        1
290
     0
 63
     7
421
 16777215
 40
1.0
291
     1
 91
  2455826
 92
 54000000
292
     0
 70
     2
 71
   256
280
     1
  0
SUN
  5
1A0
330
19F
100
AcDbSun
 90
        1
290
     0
 63
     7
421
 16777215
 40
1.0
291
     1
 91
  2455826
 92
 54000000
292
     0
 70
     2
 71
   256
280
     1
  0
SUN
  5
1A2
330
1A1
100
AcDbSun
 90
        1
290
     0
 63
     7
421
 16777215
 40
1.0
291
     1
 91
  2455826
 92
 54000000
292
     0
 70
     2
 71
   256
280
     1
  0
SUN
  5
1A4
330
1A3
100
AcDbSun
 90
        1
290
     0
 63
     7
421
 16777215
 40
1.0
291
     1
 91
  2455826
 92
 54000000
292
     0
 70
     2
 71
   256
280
     1
  0
SUN
  5
1A6
330
1A5
100
AcDbSun
 90
        1
290
     0
 63
     7
421
 16777215
 40
1.0
291
     1
 91
  2455826
 92
 54000000
292
     0
 70
     2
 71
   256
280
     1
  0
SUN
  5
1A8
330
1A7
100
AcDbSun
 90
        1
290
     0
 63
     7
421
 16777215
 40
1.0
291
     1
 91
  2455826
 92
 54000000
292
     0
 70
     2
 71
   256
280
     1
  0
SUN
  5
192
330
191
100
AcDbSun
 90
        1
290
     0
 63
     7
421
 16777215
 40
1.0
291
     1
 91
  2455826
 92
 54000000
292
     0
 70
     2
 71
   256
280
     1
  0
DICTIONARY
  5
1B1
102
{ACAD_REACTORS
330
C
102
}
330
C
100
AcDbDictionary
281
     1
  0
DICTIONARY
  5
D
102
{ACAD_REACTORS
330
C
102
}
330
C
100
AcDbDictionary
281
     1
  0
DICTIONARY
  5
1A
102
{ACAD_REACTORS
330
C
102
}
330
C
100
AcDbDictionary
281
     1
  3
_Dimetrisch
350
17B
  3
_Isometrisch
350
15F
  3
_Links
350
9D
  3
_Normal auf
350
F7
  3
_Oben
350
1E
  3
_Rechts
350
138
  3
_Rückseite
350
115
  3
_Trimetrisch
350
16D
  3
_Unten
350
156
  3
_Vorderseite
350
26
  3
Beschriftungsansicht  1
350
BB
  3
Beschriftungsansicht  2
350
D9
  3
Model
350
22
  0
DICTIONARY
  5
43
102
{ACAD_REACTORS
330
C
102
}
330
C
100
AcDbDictionary
281
     1
  3
ByBlock
350
45
  3
ByLayer
350
44
  3
Global
350
46
  0
DICTIONARY
  5
6B
102
{ACAD_REACTORS
330
C
102
}
330
C
100
AcDbDictionary
281
     1
  3
Standard
350
6C
  0
DICTIONARY
  5
17
102
{ACAD_REACTORS
330
C
102
}
330
C
100
AcDbDictionary
281
     1
  3
Standard
350
18
  0
DICTIONARY
  5
19
102
{ACAD_REACTORS
330
C
102
}
330
C
100
AcDbDictionary
281
     1
  0
ACDBDICTIONARYWDFLT
  5
E
102
{ACAD_REACTORS
330
C
102
}
330
C
100
AcDbDictionary
281
     1
  3
Normal
350
F
100
AcDbDictionaryWithDefault
340
F
  0
DICTIONARY
  5
47
102
{ACAD_REACTORS
330
C
102
}
330
C
100
AcDbDictionary
281
     1
  3
A0
350
48
  3
A1
350
49
  3
A2
350
4A
  3
A3
350
4B
  3
A4
350
4C
  3
A5
350
4D
  3
A6
350
4E
  3
A7
350
4F
  3
A8
350
50
  3
A9
350
51
  3
B0
350
52
  3
B1
350
53
  3
B2
350
54
  3
B3
350
55
  3
B4
350
56
  3
B5
350
57
  3
B6
350
58
  3
B7
350
59
  3
B8
350
5A
  3
B9
350
5B
  3
C0
350
5C
  3
C1
350
5D
  3
C2
350
5E
  3
C3
350
5F
  3
C4
350
60
  3
C5
350
61
  3
C6
350
62
  3
C7
350
63
  3
C8
350
64
  3
C9
350
65
  3
D0
350
66
  3
D1
350
67
  3
D2
350
68
  0
DICTIONARY
  5
1B2
102
{ACAD_REACTORS
330
C
102
}
330
C
100
AcDbDictionary
281
     1
  0
DICTIONARY
  5
69
102
{ACAD_REACTORS
330
C
102
}
330
C
100
AcDbDictionary
281
     1
  3
Standard
350
6A
  0
DICTIONARY
  5
2A
102
{ACAD_REACTORS
330
C
102
}
330
C
100
AcDbDictionary
281
     1
  3
2dWireframe
350
2F
  3
Basic
350
32
  3
Brighten
350
36
  3
ColorChange
350
3A
  3
Conceptual
350
34
  3
Dim
350
35
  3
EdgeColorOff
350
3D
  3
Facepattern
350
39
  3
Flat
350
2B
  3
FlatWithEdges
350
2C
  3
Gouraud
350
2D
  3
GouraudWithEdges
350
2E
  3
Hidden
350
31
  3
JitterOff
350
3B
  3
Linepattern
350
38
  3
OverhangOff
350
3C
  3
Realistic
350
33
  3
Shaded
350
42
  3
Shaded with edges
350
41
  3
Shades of Gray
350
3E
  3
Sketchy
350
3F
  3
Thicken
350
37
  3
Wireframe
350
30
  3
X-Ray
350
40
  0
XRECORD
  5
1AE
102
{ACAD_REACTORS
330
C
102
}
330
C
100
AcDbXrecord
280
     1
 90
        1
330
6A
  0
DICTIONARY
  5
1A9
102
{ACAD_REACTORS
330
C
102
}
330
C
100
AcDbDictionary
281
     1
  3
CANNOSCALE
350
1AA
  3
CMLEADERSTYLE
350
1B0
  3
CTABLESTYLE
350
1AF
  0
LAYOUT
  5
17B
102
{ACAD_REACTORS
330
1A
102
}
330
1A
100
AcDbPlotSettings
  1

  2
none_device
  4
ISO_A4_(210.00_x_297.00_MM)
  6

 40
7.5
 41
20.0
 42
7.5
 43
20.0
 44
210.0
 45
297.0
 46
0.0
 47
0.0
 48
0.0
 49
0.0
140
0.0
141
0.0
142
1.0
143
2.0769230769
 70
   688
 72
     1
 73
     1
 74
     1
  7

 75
     0
 76
     0
 77
     2
 78
   300
147
0.4814814815
148
202.5
149
202.5
100
AcDbLayout
  1
_Dimetrisch
 70
     1
 71
    12
 10
0.0
 20
0.0
 11
0.0
 21
0.0
 12
0.0
 22
0.0
 32
0.0
 14
0.0
 24
0.0
 34
0.0
 15
0.0
 25
0.0
 35
0.0
146
0.0
 13
0.0
 23
0.0
 33
0.0
 16
1.0
 26
0.0
 36
0.0
 17
0.0
 27
1.0
 37
0.0
 76
     0
330
17A
331
1A7
  0
LAYOUT
  5
15F
102
{ACAD_REACTORS
330
1A
102
}
330
1A
100
AcDbPlotSettings
  1

  2
none_device
  4
ISO_A4_(210.00_x_297.00_MM)
  6

 40
7.5
 41
20.0
 42
7.5
 43
20.0
 44
210.0
 45
297.0
 46
0.0
 47
0.0
 48
0.0
 49
0.0
140
0.0
141
0.0
142
1.0
143
2.0769230769
 70
   688
 72
     1
 73
     1
 74
     1
  7

 75
     0
 76
     0
 77
     2
 78
   300
147
0.4814814815
148
202.5
149
202.5
100
AcDbLayout
  1
_Isometrisch
 70
     1
 71
    10
 10
0.0
 20
0.0
 11
0.0
 21
0.0
 12
0.0
 22
0.0
 32
0.0
 14
0.0
 24
0.0
 34
0.0
 15
0.0
 25
0.0
 35
0.0
146
0.0
 13
0.0
 23
0.0
 33
0.0
 16
1.0
 26
0.0
 36
0.0
 17
0.0
 27
1.0
 37
0.0
 76
     0
330
15E
331
1A3
  0
LAYOUT
  5
9D
102
{ACAD_REACTORS
330
1A
102
}
330
1A
100
AcDbPlotSettings
  1

  2
none_device
  4
ISO_A4_(210.00_x_297.00_MM)
  6

 40
7.5
 41
20.0
 42
7.5
 43
20.0
 44
210.0
 45
297.0
 46
0.0
 47
0.0
 48
0.0
 49
0.0
140
0.0
141
0.0
142
1.0
143
2.0769230769
 70
   688
 72
     1
 73
     1
 74
     1
  7

 75
     0
 76
     0
 77
     2
 78
   300
147
0.4814814815
148
202.5
149
202.5
100
AcDbLayout
  1
_Links
 70
     1
 71
     3
 10
0.0
 20
0.0
 11
0.0
 21
0.0
 12
0.0
 22
0.0
 32
0.0
 14
0.0
 24
0.0
 34
0.0
 15
0.0
 25
0.0
 35
0.0
146
0.0
 13
0.0
 23
0.0
 33
0.0
 16
1.0
 26
0.0
 36
0.0
 17
0.0
 27
1.0
 37
0.0
 76
     0
330
9C
331
195
  0
LAYOUT
  5
F7
102
{ACAD_REACTORS
330
1A
102
}
330
1A
100
AcDbPlotSettings
  1

  2
none_device
  4
ISO_A4_(210.00_x_297.00_MM)
  6

 40
7.5
 41
20.0
 42
7.5
 43
20.0
 44
210.0
 45
297.0
 46
0.0
 47
0.0
 48
0.0
 49
0.0
140
0.0
141
0.0
142
1.0
143
2.0769230769
 70
   688
 72
     1
 73
     1
 74
     1
  7

 75
     0
 76
     0
 77
     2
 78
   300
147
0.4814814815
148
202.5
149
202.5
100
AcDbLayout
  1
_Normal auf
 70
     1
 71
     6
 10
0.0
 20
0.0
 11
0.0
 21
0.0
 12
0.0
 22
0.0
 32
0.0
 14
0.0
 24
0.0
 34
0.0
 15
0.0
 25
0.0
 35
0.0
146
0.0
 13
0.0
 23
0.0
 33
0.0
 16
1.0
 26
0.0
 36
0.0
 17
0.0
 27
1.0
 37
0.0
 76
     0
330
F6
331
19B
  0
LAYOUT
  5
1E
102
{ACAD_REACTORS
330
1A
102
}
330
1A
100
AcDbPlotSettings
  1

  2
none_device
  4
ISO_A4_(210.00_x_297.00_MM)
  6

 40
7.5
 41
20.0
 42
7.5
 43
20.0
 44
210.0
 45
297.0
 46
0.0
 47
0.0
 48
0.0
 49
0.0
140
0.0
141
0.0
142
1.0
143
2.0769230769
 70
   688
 72
     1
 73
     1
 74
     1
  7

 75
     0
 76
     0
 77
     2
 78
   300
147
0.4814814815
148
202.5
149
202.5
100
AcDbLayout
  1
_Oben
 70
     1
 71
     1
 10
-244.0384615385
 20
-218.0769230769
 11
372.8076923077
 21
218.0769230769
 12
0.0
 22
0.0
 32
0.0
 14
-202.5
 24
-202.5
 34
0.0
 15
202.5
 25
202.5
 35
0.0
146
0.0
 13
0.0
 23
0.0
 33
0.0
 16
1.0
 26
0.0
 36
0.0
 17
0.0
 27
1.0
 37
0.0
 76
     0
330
1B
331
191
  0
LAYOUT
  5
138
102
{ACAD_REACTORS
330
1A
102
}
330
1A
100
AcDbPlotSettings
  1

  2
none_device
  4
ISO_A4_(210.00_x_297.00_MM)
  6

 40
7.5
 41
20.0
 42
7.5
 43
20.0
 44
210.0
 45
297.0
 46
0.0
 47
0.0
 48
0.0
 49
0.0
140
0.0
141
0.0
142
1.0
143
2.0769230769
 70
   688
 72
     1
 73
     1
 74
     1
  7

 75
     0
 76
     0
 77
     2
 78
   300
147
0.4814814815
148
202.5
149
202.5
100
AcDbLayout
  1
_Rechts
 70
     1
 71
     8
 10
0.0
 20
0.0
 11
0.0
 21
0.0
 12
0.0
 22
0.0
 32
0.0
 14
0.0
 24
0.0
 34
0.0
 15
0.0
 25
0.0
 35
0.0
146
0.0
 13
0.0
 23
0.0
 33
0.0
 16
1.0
 26
0.0
 36
0.0
 17
0.0
 27
1.0
 37
0.0
 76
     0
330
137
331
19F
  0
LAYOUT
  5
115
102
{ACAD_REACTORS
330
1A
102
}
330
1A
100
AcDbPlotSettings
  1

  2
none_device
  4
ISO_A4_(210.00_x_297.00_MM)
  6

 40
7.5
 41
20.0
 42
7.5
 43
20.0
 44
210.0
 45
297.0
 46
0.0
 47
0.0
 48
0.0
 49
0.0
140
0.0
141
0.0
142
1.0
143
2.0769230769
 70
   688
 72
     1
 73
     1
 74
     1
  7

 75
     0
 76
     0
 77
     2
 78
   300
147
0.4814814815
148
202.5
149
202.5
100
AcDbLayout
  1
_Rückseite
 70
     1
 71
     7
 10
0.0
 20
0.0
 11
0.0
 21
0.0
 12
0.0
 22
0.0
 32
0.0
 14
0.0
 24
0.0
 34
0.0
 15
0.0
 25
0.0
 35
0.0
146
0.0
 13
0.0
 23
0.0
 33
0.0
 16
1.0
 26
0.0
 36
0.0
 17
0.0
 27
1.0
 37
0.0
 76
     0
330
114
331
19D
  0
LAYOUT
  5
16D
102
{ACAD_REACTORS
330
1A
102
}
330
1A
100
AcDbPlotSettings
  1

  2
none_device
  4
ISO_A4_(210.00_x_297.00_MM)
  6

 40
7.5
 41
20.0
 42
7.5
 43
20.0
 44
210.0
 45
297.0
 46
0.0
 47
0.0
 48
0.0
 49
0.0
140
0.0
141
0.0
142
1.0
143
2.0769230769
 70
   688
 72
     1
 73
     1
 74
     1
  7

 75
     0
 76
     0
 77
     2
 78
   300
147
0.4814814815
148
202.5
149
202.5
100
AcDbLayout
  1
_Trimetrisch
 70
     1
 71
    11
 10
0.0
 20
0.0
 11
0.0
 21
0.0
 12
0.0
 22
0.0
 32
0.0
 14
0.0
 24
0.0
 34
0.0
 15
0.0
 25
0.0
 35
0.0
146
0.0
 13
0.0
 23
0.0
 33
0.0
 16
1.0
 26
0.0
 36
0.0
 17
0.0
 27
1.0
 37
0.0
 76
     0
330
16C
331
1A5
  0
LAYOUT
  5
156
102
{ACAD_REACTORS
330
1A
102
}
330
1A
100
AcDbPlotSettings
  1

  2
none_device
  4
ISO_A4_(210.00_x_297.00_MM)
  6

 40
7.5
 41
20.0
 42
7.5
 43
20.0
 44
210.0
 45
297.0
 46
0.0
 47
0.0
 48
0.0
 49
0.0
140
0.0
141
0.0
142
1.0
143
2.0769230769
 70
   688
 72
     1
 73
     1
 74
     1
  7

 75
     0
 76
     0
 77
     2
 78
   300
147
0.4814814815
148
202.5
149
202.5
100
AcDbLayout
  1
_Unten
 70
     1
 71
     9
 10
0.0
 20
0.0
 11
0.0
 21
0.0
 12
0.0
 22
0.0
 32
0.0
 14
0.0
 24
0.0
 34
0.0
 15
0.0
 25
0.0
 35
0.0
146
0.0
 13
0.0
 23
0.0
 33
0.0
 16
1.0
 26
0.0
 36
0.0
 17
0.0
 27
1.0
 37
0.0
 76
     0
330
155
331
1A1
  0
LAYOUT
  5
26
102
{ACAD_REACTORS
330
1A
102
}
330
1A
100
AcDbPlotSettings
  1

  2
none_device
  4
ISO_A4_(210.00_x_297.00_MM)
  6

 40
7.5
 41
20.0
 42
7.5
 43
20.0
 44
210.0
 45
297.0
 46
0.0
 47
0.0
 48
0.0
 49
0.0
140
0.0
141
0.0
142
1.0
143
2.0769230769
 70
   688
 72
     1
 73
     1
 74
     1
  7

 75
     0
 76
     0
 77
     2
 78
   300
147
0.4814814815
148
202.5
149
202.5
100
AcDbLayout
  1
_Vorderseite
 70
     1
 71
     2
 10
0.0
 20
0.0
 11
0.0
 21
0.0
 12
0.0
 22
0.0
 32
0.0
 14
0.0
 24
0.0
 34
0.0
 15
0.0
 25
0.0
 35
0.0
146
0.0
 13
0.0
 23
0.0
 33
0.0
 16
1.0
 26
0.0
 36
0.0
 17
0.0
 27
1.0
 37
0.0
 76
     0
330
23
331
193
  0
LAYOUT
  5
BB
102
{ACAD_REACTORS
330
1A
102
}
330
1A
100
AcDbPlotSettings
  1

  2
none_device
  4
ISO_A4_(210.00_x_297.00_MM)
  6

 40
7.5
 41
20.0
 42
7.5
 43
20.0
 44
210.0
 45
297.0
 46
0.0
 47
0.0
 48
0.0
 49
0.0
140
0.0
141
0.0
142
1.0
143
2.0769230769
 70
   688
 72
     1
 73
     1
 74
     1
  7

 75
     0
 76
     0
 77
     2
 78
   300
147
0.4814814815
148
202.5
149
202.5
100
AcDbLayout
  1
Beschriftungsansicht  1
 70
     1
 71
     4
 10
0.0
 20
0.0
 11
0.0
 21
0.0
 12
0.0
 22
0.0
 32
0.0
 14
0.0
 24
0.0
 34
0.0
 15
0.0
 25
0.0
 35
0.0
146
0.0
 13
0.0
 23
0.0
 33
0.0
 16
1.0
 26
0.0
 36
0.0
 17
0.0
 27
1.0
 37
0.0
 76
     0
330
BA
331
197
  0
LAYOUT
  5
D9
102
{ACAD_REACTORS
330
1A
102
}
330
1A
100
AcDbPlotSettings
  1

  2
none_device
  4
ISO_A4_(210.00_x_297.00_MM)
  6

 40
7.5
 41
20.0
 42
7.5
 43
20.0
 44
210.0
 45
297.0
 46
0.0
 47
0.0
 48
0.0
 49
0.0
140
0.0
141
0.0
142
1.0
143
2.0769230769
 70
   688
 72
     1
 73
     1
 74
     1
  7

 75
     0
 76
     0
 77
     2
 78
   300
147
0.4814814815
148
202.5
149
202.5
100
AcDbLayout
  1
Beschriftungsansicht  2
 70
     1
 71
     5
 10
0.0
 20
0.0
 11
0.0
 21
0.0
 12
0.0
 22
0.0
 32
0.0
 14
0.0
 24
0.0
 34
0.0
 15
0.0
 25
0.0
 35
0.0
146
0.0
 13
0.0
 23
0.0
 33
0.0
 16
1.0
 26
0.0
 36
0.0
 17
0.0
 27
1.0
 37
0.0
 76
     0
330
D8
331
199
  0
LAYOUT
  5
22
102
{ACAD_REACTORS
330
1A
102
}
330
1A
100
AcDbPlotSettings
  1

  2
none_device
  4
ANSI_A_(11.00_x_8.50_Inches)
  6

 40
6.35
 41
19.05
 42
6.35000508
 43
19.05000254
 44
279.4
 45
215.9
 46
133.3435360879
 47
1.6313123591
 48
0.0
 49
0.0
140
0.0
141
0.0
142
0.0232177397
143
1.0
 70
  1696
 72
     0
 73
     0
 74
     0
  7

 75
     0
 76
     0
 77
     2
 78
   300
147
0.0179189148
148
-1300.4909072572
149
0.0
100
AcDbLayout
  1
Model
 70
     1
 71
     0
 10
0.0
 20
0.0
 11
420.0
 21
297.0
 12
0.0
 22
0.0
 32
0.0
 14
-202.4753478616
 24
-33.2385907258
 34
0.0
 15
202.4972608241
 25
329.199791495
 35
0.0
146
0.0
 13
0.0
 23
0.0
 33
0.0
 16
1.0
 26
0.0
 36
0.0
 17
0.0
 27
1.0
 37
0.0
 76
     0
330
1F
331
29
  0
MATERIAL
  5
45
102
{ACAD_REACTORS
330
43
102
}
330
43
100
AcDbMaterial
  1
ByBlock
 72
     1
 94
      127
  0
MATERIAL
  5
44
102
{ACAD_REACTORS
330
43
102
}
330
43
100
AcDbMaterial
  1
ByLayer
 72
     1
 94
      127
  0
MATERIAL
  5
46
102
{ACAD_REACTORS
330
43
102
}
330
43
100
AcDbMaterial
  1
Global
 72
     1
 94
      127
  0
MLEADERSTYLE
  5
6C
102
{ACAD_REACTORS
330
6B
102
}
330
6B
100
AcDbMLeaderStyle
170
     2
171
     1
172
     0
 90
        2
 40
0.0
 41
0.0
173
     1
 91
-1056964608
340
14
 92
       -2
290
     1
 42
2.0
291
     1
 43
8.0
  3
Standard
341
0
 44
4.0
300

342
11
174
     1
178
     6
175
     1
176
     0
 93
-1056964608
 45
4.0
292
     0
297
     0
 46
4.0
343
0
 94
-1056964608
 47
1.0
 49
1.0
140
1.0
293
     1
141
0.0
294
     1
177
     0
142
1.0
295
     0
296
     0
143
3.75
1001
ACAD_MLEADERVER
1070
     2
  0
MLINESTYLE
  5
18
102
{ACAD_REACTORS
330
17
102
}
330
17
100
AcDbMlineStyle
  2
Standard
 70
     0
  3

 62
   256
 51
90.0
 52
90.0
 71
     2
 49
0.5
 62
   256
  6
BYLAYER
 49
-0.5
 62
   256
  6
BYLAYER
  0
ACDBPLACEHOLDER
  5
F
102
{ACAD_REACTORS
330
E
102
}
330
E
  0
SCALE
  5
48
102
{ACAD_REACTORS
330
47
102
}
330
47
100
AcDbScale
 70
     0
300
1:1
140
1.0
141
1.0
290
     1
  0
SCALE
  5
49
102
{ACAD_REACTORS
330
47
102
}
330
47
100
AcDbScale
 70
     0
300
1:2
140
1.0
141
2.0
290
     0
  0
SCALE
  5
4A
102
{ACAD_REACTORS
330
47
102
}
330
47
100
AcDbScale
 70
     0
300
1:4
140
1.0
141
4.0
290
     0
  0
SCALE
  5
4B
102
{ACAD_REACTORS
330
47
102
}
330
47
100
AcDbScale
 70
     0
300
1:5
140
1.0
141
5.0
290
     0
  0
SCALE
  5
4C
102
{ACAD_REACTORS
330
47
102
}
330
47
100
AcDbScale
 70
     0
300
1:8
140
1.0
141
8.0
290
     0
  0
SCALE
  5
4D
102
{ACAD_REACTORS
330
47
102
}
330
47
100
AcDbScale
 70
     0
300
1:10
140
1.0
141
10.0
290
     0
  0
SCALE
  5
4E
102
{ACAD_REACTORS
330
47
102
}
330
47
100
AcDbScale
 70
     0
300
1:16
140
1.0
141
16.0
290
     0
  0
SCALE
  5
4F
102
{ACAD_REACTORS
330
47
102
}
330
47
100
AcDbScale
 70
     0
300
1:20
140
1.0
141
20.0
290
     0
  0
SCALE
  5
50
102
{ACAD_REACTORS
330
47
102
}
330
47
100
AcDbScale
 70
     0
300
1:30
140
1.0
141
30.0
290
     0
  0
SCALE
  5
51
102
{ACAD_REACTORS
330
47
102
}
330
47
100
AcDbScale
 70
     0
300
1:40
140
1.0
141
40.0
290
     0
  0
SCALE
  5
52
102
{ACAD_REACTORS
330
47
102
}
330
47
100
AcDbScale
 70
     0
300
1:50
140
1.0
141
50.0
290
     0
  0
SCALE
  5
53
102
{ACAD_REACTORS
330
47
102
}
330
47
100
AcDbScale
 70
     0
300
1:100
140
1.0
141
100.0
290
     0
  0
SCALE
  5
54
102
{ACAD_REACTORS
330
47
102
}
330
47
100
AcDbScale
 70
     0
300
2:1
140
2.0
141
1.0
290
     0
  0
SCALE
  5
55
102
{ACAD_REACTORS
330
47
102
}
330
47
100
AcDbScale
 70
     0
300
4:1
140
4.0
141
1.0
290
     0
  0
SCALE
  5
56
102
{ACAD_REACTORS
330
47
102
}
330
47
100
AcDbScale
 70
     0
300
8:1
140
8.0
141
1.0
290
     0
  0
SCALE
  5
57
102
{ACAD_REACTORS
330
47
102
}
330
47
100
AcDbScale
 70
     0
300
10:1
140
10.0
141
1.0
290
     0
  0
SCALE
  5
58
102
{ACAD_REACTORS
330
47
102
}
330
47
100
AcDbScale
 70
     0
300
100:1
140
100.0
141
1.0
290
     0
  0
SCALE
  5
59
102
{ACAD_REACTORS
330
47
102
}
330
47
100
AcDbScale
 70
     0
300
1/128" = 1'-0"
140
0.0078125
141
12.0
290
     0
  0
SCALE
  5
5A
102
{ACAD_REACTORS
330
47
102
}
330
47
100
AcDbScale
 70
     0
300
1/64" = 1'-0"
140
0.015625
141
12.0
290
     0
  0
SCALE
  5
5B
102
{ACAD_REACTORS
330
47
102
}
330
47
100
AcDbScale
 70
     0
300
1/32" = 1'-0"
140
0.03125
141
12.0
290
     0
  0
SCALE
  5
5C
102
{ACAD_REACTORS
330
47
102
}
330
47
100
AcDbScale
 70
     0
300
1/16" = 1'-0"
140
0.0625
141
12.0
290
     0
  0
SCALE
  5
5D
102
{ACAD_REACTORS
330
47
102
}
330
47
100
AcDbScale
 70
     0
300
3/32" = 1'-0"
140
0.09375
141
12.0
290
     0
  0
SCALE
  5
5E
102
{ACAD_REACTORS
330
47
102
}
330
47
100
AcDbScale
 70
     0
300
1/8" = 1'-0"
140
0.125
141
12.0
290
     0
  0
SCALE
  5
5F
102
{ACAD_REACTORS
330
47
102
}
330
47
100
AcDbScale
 70
     0
300
3/16" = 1'-0"
140
0.1875
141
12.0
290
     0
  0
SCALE
  5
60
102
{ACAD_REACTORS
330
47
102
}
330
47
100
AcDbScale
 70
     0
300
1/4" = 1'-0"
140
0.25
141
12.0
290
     0
  0
SCALE
  5
61
102
{ACAD_REACTORS
330
47
102
}
330
47
100
AcDbScale
 70
     0
300
3/8" = 1'-0"
140
0.375
141
12.0
290
     0
  0
SCALE
  5
62
102
{ACAD_REACTORS
330
47
102
}
330
47
100
AcDbScale
 70
     0
300
1/2" = 1'-0"
140
0.5
141
12.0
290
     0
  0
SCALE
  5
63
102
{ACAD_REACTORS
330
47
102
}
330
47
100
AcDbScale
 70
     0
300
3/4" = 1'-0"
140
0.75
141
12.0
290
     0
  0
SCALE
  5
64
102
{ACAD_REACTORS
330
47
102
}
330
47
100
AcDbScale
 70
     0
300
1" = 1'-0"
140
1.0
141
12.0
290
     0
  0
SCALE
  5
65
102
{ACAD_REACTORS
330
47
102
}
330
47
100
AcDbScale
 70
     0
300
1-1/2" = 1'-0"
140
1.5
141
12.0
290
     0
  0
SCALE
  5
66
102
{ACAD_REACTORS
330
47
102
}
330
47
100
AcDbScale
 70
     0
300
3" = 1'-0"
140
3.0
141
12.0
290
     0
  0
SCALE
  5
67
102
{ACAD_REACTORS
330
47
102
}
330
47
100
AcDbScale
 70
     0
300
6" = 1'-0"
140
6.0
141
12.0
290
     0
  0
SCALE
  5
68
102
{ACAD_REACTORS
330
47
102
}
330
47
100
AcDbScale
 70
     0
300
1'-0" = 1'-0"
140
12.0
141
12.0
290
     0
  0
TABLESTYLE
  5
6A
102
{ACAD_REACTORS
330
69
102
}
102
{ACAD_XDICTIONARY
360
1AB
102
}
330
69
100
AcDbTableStyle
  3
Standard
 70
     0
 71
     0
 40
0.06
 41
0.06
280
     0
281
     0
  7
Standard
140
4.5
170
     2
 62
     0
 63
   257
283
     0
 90
        4
 91
        0
  1

274
    -2
284
     1
 64
     0
275
    -2
285
     1
 65
     0
276
    -2
286
     1
 66
     0
277
    -2
287
     1
 67
     0
278
    -2
288
     1
 68
     0
279
    -2
289
     1
 69
     0
  7
Standard
140
6.0
170
     5
 62
     0
 63
   257
283
     0
 90
        4
 91
        0
  1

274
    -2
284
     1
 64
     0
275
    -2
285
     1
 65
     0
276
    -2
286
     1
 66
     0
277
    -2
287
     1
 67
     0
278
    -2
288
     1
 68
     0
279
    -2
289
     1
 69
     0
  7
Standard
140
4.5
170
     5
 62
     0
 63
   257
283
     0
 90
        4
 91
        0
  1

274
    -2
284
     1
 64
     0
275
    -2
285
     1
 65
     0
276
    -2
286
     1
 66
     0
277
    -2
287
     1
 67
     0
278
    -2
288
     1
 68
     0
279
    -2
289
     1
 69
     0
  0
VISUALSTYLE
  5
2F
102
{ACAD_REACTORS
330
2A
102
}
330
2A
100
AcDbVisualStyle
  2
2dWireframe
 70
     4
 71
     0
 72
     2
 73
     0
 90
        0
 40
0.6
 41
30.0
 62
     5
 63
     7
421
 16777215
 74
     1
 91
        4
 64
     7
 65
   257
 75
     1
175
     1
 42
1.0
 92
        0
 66
   257
 43
1.0
 76
     1
 77
     6
 78
     2
 67
     7
 79
     5
170
     0
171
     0
290
     0
174
     0
 93
        1
 44
0.0
173
     0
291
     0
 45
0.0
  0
VISUALSTYLE
  5
32
102
{ACAD_REACTORS
330
2A
102
}
330
2A
100
AcDbVisualStyle
  2
Basic
 70
     7
 71
     1
 72
     0
 73
     1
 90
        0
 40
0.6
 41
30.0
 62
     5
 63
     7
421
 16777215
 74
     0
 91
        4
 64
     7
 65
   257
 75
     1
175
     1
 42
1.0
 92
        8
 66
     7
 43
1.0
 76
     1
 77
     6
 78
     2
 67
     7
 79
     5
170
     0
171
     0
290
     0
174
     0
 93
        1
 44
0.0
173
     0
291
     1
 45
0.0
  0
VISUALSTYLE
  5
36
102
{ACAD_REACTORS
330
2A
102
}
330
2A
100
AcDbVisualStyle
  2
Brighten
 70
    12
 71
     2
 72
     2
 73
     0
 90
        0
 40
0.6
 41
30.0
 62
     5
 63
     7
421
 16777215
 74
     1
 91
        4
 64
     7
 65
   257
 75
     1
175
     1
 42
1.0
 92
        8
 66
     7
 43
1.0
 76
     1
 77
     6
 78
     2
 67
     7
 79
     5
170
     0
171
     0
290
     0
174
     0
 93
        1
 44
50.0
173
     0
291
     1
 45
0.0
  0
VISUALSTYLE
  5
3A
102
{ACAD_REACTORS
330
2A
102
}
330
2A
100
AcDbVisualStyle
  2
ColorChange
 70
    16
 71
     2
 72
     2
 73
     3
 90
        0
 40
0.6
 41
30.0
 62
     5
 63
     8
421
  8421504
 74
     1
 91
        4
 64
     7
 65
   257
 75
     1
175
     1
 42
1.0
 92
        8
 66
     8
424
  8421504
 43
1.0
 76
     1
 77
     6
 78
     2
 67
     7
 79
     5
170
     0
171
     0
290
     0
174
     0
 93
        1
 44
0.0
173
     0
291
     1
 45
0.0
  0
VISUALSTYLE
  5
34
102
{ACAD_REACTORS
330
2A
102
}
330
2A
100
AcDbVisualStyle
  2
Conceptual
 70
     9
 71
     3
 72
     2
 73
     0
 90
        0
 40
0.6
 41
30.0
 62
     5
 63
     7
421
 16777215
 74
     2
 91
        2
 64
     7
 65
   257
 75
     1
175
     1
 42
179.0
 92
        8
 66
     7
 43
1.0
 76
     1
 77
     6
 78
     2
 67
     7
 79
     3
170
     0
171
     0
290
     0
174
     0
 93
        1
 44
0.0
173
     0
291
     0
 45
0.0
  0
VISUALSTYLE
  5
35
102
{ACAD_REACTORS
330
2A
102
}
330
2A
100
AcDbVisualStyle
  2
Dim
 70
    11
 71
     2
 72
     2
 73
     0
 90
        0
 40
0.6
 41
30.0
 62
     5
 63
     7
421
 16777215
 74
     1
 91
        4
 64
     7
 65
   257
 75
     1
175
     1
 42
1.0
 92
        8
 66
     7
 43
1.0
 76
     1
 77
     6
 78
     2
 67
     7
 79
     5
170
     0
171
     0
290
     0
174
     0
 93
        1
 44
-50.0
173
     0
291
     1
 45
0.0
  0
VISUALSTYLE
  5
3D
102
{ACAD_REACTORS
330
2A
102
}
330
2A
100
AcDbVisualStyle
  2
EdgeColorOff
 70
    22
 71
     2
 72
     2
 73
     0
 90
        0
 40
0.6
 41
30.0
 62
     5
 63
     7
421
 16777215
 74
     1
 91
        4
 64
     7
 65
   257
 75
     1
175
     1
 42
1.0
 92
        8
 66
     7
 43
1.0
 76
     1
 77
     6
 78
     2
 67
     7
 79
     5
170
     0
171
     0
290
     0
174
     0
 93
        1
 44
0.0
173
     0
291
     1
 45
0.0
  0
VISUALSTYLE
  5
39
102
{ACAD_REACTORS
330
2A
102
}
330
2A
100
AcDbVisualStyle
  2
Facepattern
 70
    15
 71
     2
 72
     2
 73
     0
 90
        0
 40
0.6
 41
30.0
 62
     5
 63
     7
421
 16777215
 74
     1
 91
        4
 64
     7
 65
   257
 75
     1
175
     1
 42
1.0
 92
        8
 66
     7
 43
1.0
 76
     1
 77
     6
 78
     2
 67
     7
 79
     5
170
     0
171
     0
290
     0
174
     0
 93
        1
 44
0.0
173
     0
291
     1
 45
0.0
  0
VISUALSTYLE
  5
2B
102
{ACAD_REACTORS
330
2A
102
}
330
2A
100
AcDbVisualStyle
  2
Flat
 70
     0
 71
     2
 72
     1
 73
     1
 90
        2
 40
0.6
 41
30.0
 62
     5
 63
     7
421
 16777215
 74
     0
 91
        0
 64
     7
 65
   257
 75
     1
175
     1
 42
1.0
 92
        8
 66
     7
 43
1.0
 76
     1
 77
     6
 78
     2
 67
     7
 79
     5
170
     0
171
     0
290
     0
174
     0
 93
       13
 44
0.0
173
     0
291
     1
 45
0.0
  0
VISUALSTYLE
  5
2C
102
{ACAD_REACTORS
330
2A
102
}
330
2A
100
AcDbVisualStyle
  2
FlatWithEdges
 70
     1
 71
     2
 72
     1
 73
     1
 90
        2
 40
0.6
 41
30.0
 62
     5
 63
     7
421
 16777215
 74
     1
 91
        0
 64
     7
 65
   257
 75
     1
175
     1
 42
1.0
 92
        0
 66
   257
 43
1.0
 76
     1
 77
     6
 78
     2
 67
     7
 79
     5
170
     0
171
     0
290
     0
174
     0
 93
       13
 44
0.0
173
     0
291
     1
 45
0.0
  0
VISUALSTYLE
  5
2D
102
{ACAD_REACTORS
330
2A
102
}
330
2A
100
AcDbVisualStyle
  2
Gouraud
 70
     2
 71
     2
 72
     2
 73
     1
 90
        2
 40
0.6
 41
30.0
 62
     5
 63
     7
421
 16777215
 74
     0
 91
        0
 64
     7
 65
   257
 75
     1
175
     1
 42
1.0
 92
        0
 66
     7
 43
1.0
 76
     1
 77
     6
 78
     2
 67
     7
 79
     5
170
     0
171
     0
290
     0
174
     0
 93
       13
 44
0.0
173
     0
291
     1
 45
0.0
  0
VISUALSTYLE
  5
2E
102
{ACAD_REACTORS
330
2A
102
}
330
2A
100
AcDbVisualStyle
  2
GouraudWithEdges
 70
     3
 71
     2
 72
     2
 73
     1
 90
        2
 40
0.6
 41
30.0
 62
     5
 63
     7
421
 16777215
 74
     1
 91
        0
 64
     7
 65
   257
 75
     1
175
     1
 42
1.0
 92
        0
 66
   257
 43
1.0
 76
     1
 77
     6
 78
     2
 67
     7
 79
     5
170
     0
171
     0
290
     0
174
     0
 93
       13
 44
0.0
173
     0
291
     1
 45
0.0
  0
VISUALSTYLE
  5
31
102
{ACAD_REACTORS
330
2A
102
}
330
2A
100
AcDbVisualStyle
  2
Hidden
 70
     6
 71
     1
 72
     2
 73
     2
 90
        0
 40
0.6
 41
30.0
 62
     5
 63
     7
421
 16777215
 74
     2
 91
        2
 64
     7
 65
   257
 75
     2
175
     1
 42
40.0
 92
        0
 66
   257
 43
1.0
 76
     1
 77
     6
 78
     2
 67
     7
 79
     3
170
     0
171
     0
290
     0
174
     0
 93
        1
 44
0.0
173
     0
291
     0
 45
0.0
  0
VISUALSTYLE
  5
3B
102
{ACAD_REACTORS
330
2A
102
}
330
2A
100
AcDbVisualStyle
  2
JitterOff
 70
    20
 71
     2
 72
     2
 73
     0
 90
        0
 40
0.6
 41
30.0
 62
     5
 63
     7
421
 16777215
 74
     1
 91
        4
 64
     7
 65
   257
 75
     1
175
     1
 42
1.0
 92
       10
 66
     7
 43
1.0
 76
     1
 77
     6
 78
     2
 67
     7
 79
     5
170
     0
171
     0
290
     0
174
     0
 93
        1
 44
0.0
173
     0
291
     1
 45
0.0
  0
VISUALSTYLE
  5
38
102
{ACAD_REACTORS
330
2A
102
}
330
2A
100
AcDbVisualStyle
  2
Linepattern
 70
    14
 71
     2
 72
     2
 73
     0
 90
        0
 40
0.6
 41
30.0
 62
     5
 63
     7
421
 16777215
 74
     1
 91
        4
 64
     7
 65
   257
 75
     7
175
     7
 42
1.0
 92
        8
 66
     7
 43
1.0
 76
     1
 77
     6
 78
     2
 67
     7
 79
     5
170
     0
171
     0
290
     0
174
     0
 93
        1
 44
0.0
173
     0
291
     1
 45
0.0
  0
VISUALSTYLE
  5
3C
102
{ACAD_REACTORS
330
2A
102
}
330
2A
100
AcDbVisualStyle
  2
OverhangOff
 70
    21
 71
     2
 72
     2
 73
     0
 90
        0
 40
0.6
 41
30.0
 62
     5
 63
     7
421
 16777215
 74
     1
 91
        4
 64
     7
 65
   257
 75
     1
175
     1
 42
1.0
 92
        9
 66
     7
 43
1.0
 76
     1
 77
     6
 78
     2
 67
     7
 79
     5
170
     0
171
     0
290
     0
174
     0
 93
        1
 44
0.0
173
     0
291
     1
 45
0.0
  0
VISUALSTYLE
  5
33
102
{ACAD_REACTORS
330
2A
102
}
330
2A
100
AcDbVisualStyle
  2
Realistic
 70
     8
 71
     2
 72
     3
 73
     0
 90
        2
 40
0.6
 41
30.0
 62
     5
 63
     7
421
 16777215
 74
     0
 91
        0
 64
     7
 65
   257
 75
     1
175
     1
 42
1.0
 92
        8
 66
   257
 43
1.0
 76
     1
 77
     6
 78
     2
 67
     7
 79
     3
170
     0
171
     0
290
     0
174
     0
 93
       13
 44
0.0
173
     0
291
     0
 45
0.0
  0
VISUALSTYLE
  5
42
102
{ACAD_REACTORS
330
2A
102
}
330
2A
100
AcDbVisualStyle
  2
Shaded
 70
    27
 71
     2
 72
     2
 73
     1
 90
        2
 40
0.6
 41
30.0
 62
     5
 63
     7
421
 16777215
 74
     0
 91
        4
 64
     7
 65
   257
 75
     1
175
     1
 42
1.0
 92
        8
 66
   257
 43
1.0
 76
     1
 77
     6
 78
     2
 67
     8
425
  7895160
 79
     3
170
     0
171
     0
290
     0
174
     0
 93
        5
 44
0.0
173
     0
291
     0
 45
0.0
  0
VISUALSTYLE
  5
41
102
{ACAD_REACTORS
330
2A
102
}
330
2A
100
AcDbVisualStyle
  2
Shaded with edges
 70
    26
 71
     2
 72
     2
 73
     1
 90
        2
 40
0.6
 41
30.0
 62
     5
 63
     7
421
 16777215
 74
     1
 91
       10
 64
     7
 65
   257
 75
     2
175
     1
 42
1.0
 92
        8
 66
   257
 43
1.0
 76
     1
 77
     6
 78
     2
 67
     7
 79
     3
170
     0
171
     0
290
     0
174
     0
 93
        5
 44
0.0
173
     0
291
     0
 45
0.0
  0
VISUALSTYLE
  5
3E
102
{ACAD_REACTORS
330
2A
102
}
330
2A
100
AcDbVisualStyle
  2
Shades of Gray
 70
    23
 71
     2
 72
     2
 73
     3
 90
        0
 40
0.6
 41
30.0
 62
     5
 63
     7
421
 16777215
 74
     2
 91
        2
 64
     7
 65
     7
 75
     1
175
     1
 42
40.0
 92
        8
 66
     7
 43
1.0
 76
     1
 77
     6
 78
     2
 67
     7
 79
     3
170
     0
171
     0
290
     0
174
     0
 93
        1
 44
0.0
173
     0
291
     0
 45
0.0
  0
VISUALSTYLE
  5
3F
102
{ACAD_REACTORS
330
2A
102
}
330
2A
100
AcDbVisualStyle
  2
Sketchy
 70
    24
 71
     1
 72
     2
 73
     2
 90
        0
 40
0.6
 41
30.0
 62
     5
 63
     7
421
 16777215
 74
     2
 91
        2
 64
     7
 65
     7
 75
     1
175
     1
 42
40.0
 92
       11
 66
     7
 43
1.0
 76
     1
 77
     6
 78
     2
 67
     7
 79
     6
170
     0
171
     0
290
     0
174
     0
 93
        1
 44
0.0
173
     0
291
     0
 45
0.0
  0
VISUALSTYLE
  5
37
102
{ACAD_REACTORS
330
2A
102
}
330
2A
100
AcDbVisualStyle
  2
Thicken
 70
    13
 71
     2
 72
     2
 73
     0
 90
        0
 40
0.6
 41
30.0
 62
     5
 63
     7
421
 16777215
 74
     1
 91
        4
 64
     7
 65
   257
 75
     1
175
     1
 42
1.0
 92
       12
 66
     7
 43
1.0
 76
     1
 77
     6
 78
     2
 67
     7
 79
     5
170
     0
171
     0
290
     0
174
     0
 93
        1
 44
0.0
173
     0
291
     1
 45
0.0
  0
VISUALSTYLE
  5
30
102
{ACAD_REACTORS
330
2A
102
}
330
2A
100
AcDbVisualStyle
  2
Wireframe
 70
     5
 71
     0
 72
     2
 73
     0
 90
        0
 40
0.6
 41
30.0
 62
     5
 63
     7
421
 16777215
 74
     1
 91
        4
 64
     7
 65
   257
 75
     1
175
     1
 42
1.0
 92
        0
 66
   257
 43
1.0
 76
     1
 77
     6
 78
     2
 67
     7
 79
     3
170
     0
171
     0
290
     0
174
     0
 93
        1
 44
0.0
173
     0
291
     0
 45
0.0
  0
VISUALSTYLE
  5
40
102
{ACAD_REACTORS
330
2A
102
}
330
2A
100
AcDbVisualStyle
  2
X-Ray
 70
    25
 71
     2
 72
     2
 73
     1
 90
        1
 40
0.5
 41
30.0
 62
     5
 63
     7
421
 16777215
 74
     1
 91
        0
 64
     7
 65
   257
 75
     1
175
     1
 42
1.0
 92
        8
 66
     7
 43
1.0
 76
     1
 77
     6
 78
     2
 67
     7
 79
     3
170
     0
171
     0
290
     0
174
     0
 93
       13
 44
0.0
173
     0
291
     0
 45
0.0
  0
DICTIONARYVAR
  5
1AA
102
{ACAD_REACTORS
330
1A9
102
}
330
1A9
100
DictionaryVariables
280
     0
  1
1:1
  0
DICTIONARYVAR
  5
1B0
102
{ACAD_REACTORS
330
1A9
102
}
330
1A9
100
DictionaryVariables
280
     0
  1
Standard
  0
DICTIONARYVAR
  5
1AF
102
{ACAD_REACTORS
330
1A9
102
}
330
1A9
100
DictionaryVariables
280
     0
  1
Standard
  0
DICTIONARY
  5
1AB
330
6A
100
AcDbDictionary
280
     1
281
     1
  3
ACAD_ROUNDTRIP_2008_TABLESTYLE_CELLSTYLEMAP
360
1AC
  0
CELLSTYLEMAP
  5
1AC
102
{ACAD_REACTORS
330
1AB
102
}
330
1AB
100
AcDbCellStyleMap
 90
        3
300
CELLSTYLE
  1
TABLEFORMAT_BEGIN
 90
        5
170
     1
 91
        0
 92
    32768
 62
   257
 93
        1
300
CONTENTFORMAT
  1
CONTENTFORMAT_BEGIN
 90
        0
 91
        0
 92
        4
 93
        0
300

 40
0.0
140
1.0
 94
        5
 62
     0
340
11
144
6.0
309
CONTENTFORMAT_END
171
     1
301
MARGIN
  1
CELLMARGIN_BEGIN
 40
1.5
 40
1.5
 40
1.5
 40
1.5
 40
1.5
 40
1.5
309
CELLMARGIN_END
 94
        6
 95
        1
302
GRIDFORMAT
  1
GRIDFORMAT_BEGIN
 90
        0
 91
        1
 62
     0
 92
       -2
340
14
 93
        0
 40
0.045
309
GRIDFORMAT_END
 95
        2
302
GRIDFORMAT
  1
GRIDFORMAT_BEGIN
 90
        0
 91
        1
 62
     0
 92
       -2
340
14
 93
        0
 40
0.045
309
GRIDFORMAT_END
 95
        4
302
GRIDFORMAT
  1
GRIDFORMAT_BEGIN
 90
        0
 91
        1
 62
     0
 92
       -2
340
14
 93
        0
 40
0.045
309
GRIDFORMAT_END
 95
        8
302
GRIDFORMAT
  1
GRIDFORMAT_BEGIN
 90
        0
 91
        1
 62
     0
 92
       -2
340
14
 93
        0
 40
0.045
309
GRIDFORMAT_END
 95
       16
302
GRIDFORMAT
  1
GRIDFORMAT_BEGIN
 90
        0
 91
        1
 62
     0
 92
       -2
340
14
 93
        0
 40
0.045
309
GRIDFORMAT_END
 95
       32
302
GRIDFORMAT
  1
GRIDFORMAT_BEGIN
 90
        0
 91
        1
 62
     0
 92
       -2
340
14
 93
        0
 40
0.045
309
GRIDFORMAT_END
309
TABLEFORMAT_END
  1
CELLSTYLE_BEGIN
 90
        1
 91
        1
300
_TITLE
309
CELLSTYLE_END
300
CELLSTYLE
  1
TABLEFORMAT_BEGIN
 90
        5
170
     1
 91
        0
 92
        0
 62
   257
 93
        1
300
CONTENTFORMAT
  1
CONTENTFORMAT_BEGIN
 90
        0
 91
        0
 92
        4
 93
        0
300

 40
0.0
140
1.0
 94
        5
 62
     0
340
11
144
4.5
309
CONTENTFORMAT_END
171
     1
301
MARGIN
  1
CELLMARGIN_BEGIN
 40
1.5
 40
1.5
 40
1.5
 40
1.5
 40
1.5
 40
1.5
309
CELLMARGIN_END
 94
        6
 95
        1
302
GRIDFORMAT
  1
GRIDFORMAT_BEGIN
 90
        0
 91
        1
 62
     0
 92
       -2
340
14
 93
        0
 40
0.045
309
GRIDFORMAT_END
 95
        2
302
GRIDFORMAT
  1
GRIDFORMAT_BEGIN
 90
        0
 91
        1
 62
     0
 92
       -2
340
14
 93
        0
 40
0.045
309
GRIDFORMAT_END
 95
        4
302
GRIDFORMAT
  1
GRIDFORMAT_BEGIN
 90
        0
 91
        1
 62
     0
 92
       -2
340
14
 93
        0
 40
0.045
309
GRIDFORMAT_END
 95
        8
302
GRIDFORMAT
  1
GRIDFORMAT_BEGIN
 90
        0
 91
        1
 62
     0
 92
       -2
340
14
 93
        0
 40
0.045
309
GRIDFORMAT_END
 95
       16
302
GRIDFORMAT
  1
GRIDFORMAT_BEGIN
 90
        0
 91
        1
 62
     0
 92
       -2
340
14
 93
        0
 40
0.045
309
GRIDFORMAT_END
 95
       32
302
GRIDFORMAT
  1
GRIDFORMAT_BEGIN
 90
        0
 91
        1
 62
     0
 92
       -2
340
14
 93
        0
 40
0.045
309
GRIDFORMAT_END
309
TABLEFORMAT_END
  1
CELLSTYLE_BEGIN
 90
        2
 91
        1
300
_HEADER
309
CELLSTYLE_END
300
CELLSTYLE
  1
TABLEFORMAT_BEGIN
 90
        5
170
     1
 91
        0
 92
        0
 62
   257
 93
        1
300
CONTENTFORMAT
  1
CONTENTFORMAT_BEGIN
 90
        0
 91
        0
 92
        4
 93
        0
300

 40
0.0
140
1.0
 94
        2
 62
     0
340
11
144
4.5
309
CONTENTFORMAT_END
171
     1
301
MARGIN
  1
CELLMARGIN_BEGIN
 40
1.5
 40
1.5
 40
1.5
 40
1.5
 40
1.5
 40
1.5
309
CELLMARGIN_END
 94
        6
 95
        1
302
GRIDFORMAT
  1
GRIDFORMAT_BEGIN
 90
        0
 91
        1
 62
     0
 92
       -2
340
14
 93
        0
 40
0.045
309
GRIDFORMAT_END
 95
        2
302
GRIDFORMAT
  1
GRIDFORMAT_BEGIN
 90
        0
 91
        1
 62
     0
 92
       -2
340
14
 93
        0
 40
0.045
309
GRIDFORMAT_END
 95
        4
302
GRIDFORMAT
  1
GRIDFORMAT_BEGIN
 90
        0
 91
        1
 62
     0
 92
       -2
340
14
 93
        0
 40
0.045
309
GRIDFORMAT_END
 95
        8
302
GRIDFORMAT
  1
GRIDFORMAT_BEGIN
 90
        0
 91
        1
 62
     0
 92
       -2
340
14
 93
        0
 40
0.045
309
GRIDFORMAT_END
 95
       16
302
GRIDFORMAT
  1
GRIDFORMAT_BEGIN
 90
        0
 91
        1
 62
     0
 92
       -2
340
14
 93
        0
 40
0.045
309
GRIDFORMAT_END
 95
       32
302
GRIDFORMAT
  1
GRIDFORMAT_BEGIN
 90
        0
 91
        1
 62
     0
 92
       -2
340
14
 93
        0
 40
0.045
309
GRIDFORMAT_END
309
TABLEFORMAT_END
  1
CELLSTYLE_BEGIN
 90
        3
 91
        2
300
_DATA
309
CELLSTYLE_END
  0
ENDSEC
  0
EOF
