  0
SECTION
  2
HEADER
  9
$ACADVER
  1
AC1027
  9
$ACADMAINTVER
 70
   105
  9
$DWGCODEPAGE
  3
ANSI_1252
  9
$REQUIREDVERSIONS
160
                 0
  9
$INSBASE
 10
0.0
 20
0.0
 30
0.0
  9
$EXTMIN
 10
-301.0
 20
-176.0
 30
0.0
  9
$EXTMAX
 10
301.0
 20
176.0
 30
0.0
  9
$LIMMIN
 10
0.0
 20
0.0
  9
$LIMMAX
 10
420.0
 20
297.0
  9
$ORTHOMODE
 70
     0
  9
$REGENMODE
 70
     1
  9
$FILLMODE
 70
     1
  9
$QTEXTMODE
 70
     0
  9
$MIRRTEXT
 70
     1
  9
$LTSCALE
 40
1.0
  9
$ATTMODE
 70
     1
  9
$TEXTSIZE
 40
3.5
  9
$TRACEWID
 40
1.0
  9
$TEXTSTYLE
  7
STANDARD
  9
$CLAYER
  8
0
  9
$CELTYPE
  6
ByLayer
  9
$CECOLOR
 62
   256
  9
$CELTSCALE
 40
1.0
  9
$DISPSILH
 70
     0
  9
$DIMSCALE
 40
1.0
  9
$DIMASZ
 40
8.0
  9
$DIMEXO
 40
1.0
  9
$DIMDLI
 40
3.75
  9
$DIMRND
 40
0.0
  9
$DIMDLE
 40
0.0
  9
$DIMEXE
 40
1.0
  9
$DIMTP
 40
0.0
  9
$DIMTM
 40
0.0
  9
$DIMTXT
 40
16.9333333333
  9
$DIMCEN
 40
2.5
  9
$DIMTSZ
 40
0.0
  9
$DIMTOL
 70
     0
  9
$DIMLIM
 70
     0
  9
$DIMTIH
 70
     1
  9
$DIMTOH
 70
     1
  9
$DIMSE1
 70
     0
  9
$DIMSE2
 70
     0
  9
$DIMTAD
 70
     1
  9
$DIMZIN
 70
     0
  9
$DIMBLK
  1

  9
$DIMASO
 70
     1
  9
$DIMSHO
 70
     1
  9
$DIMPOST
  1

  9
$DIMAPOST
  1

  9
$DIMALT
 70
     0
  9
$DIMALTD
 70
     3
  9
$DIMALTF
 40
0.0393700787
  9
$DIMLFAC
 40
1.0
  9
$DIMTOFL
 70
     1
  9
$DIMTVP
 40
0.0
  9
$DIMTIX
 70
     0
  9
$DIMSOXD
 70
     0
  9
$DIMSAH
 70
     0
  9
$DIMBLK1
  1

  9
$DIMBLK2
  1

  9
$DIMSTYLE
  2
ISO-25
  9
$DIMCLRD
 70
     0
  9
$DIMCLRE
 70
     0
  9
$DIMCLRT
 70
     0
  9
$DIMTFAC
 40
1.0
  9
$DIMGAP
 40
1.524
  9
$DIMJUST
 70
     0
  9
$DIMSD1
 70
     0
  9
$DIMSD2
 70
     0
  9
$DIMTOLJ
 70
     0
  9
$DIMTZIN
 70
     0
  9
$DIMALTZ
 70
     0
  9
$DIMALTTZ
 70
     0
  9
$DIMUPT
 70
     0
  9
$DIMDEC
 70
     2
  9
$DIMTDEC
 70
     2
  9
$DIMALTU
 70
     2
  9
$DIMALTTD
 70
     3
  9
$DIMTXSTY
  7
STANDARD
  9
$DIMAUNIT
 70
     0
  9
$DIMADEC
 70
     2
  9
$DIMALTRND
 40
0.0
  9
$DIMAZIN
 70
     0
  9
$DIMDSEP
 70
    44
  9
$DIMATFIT
 70
     3
  9
$DIMFRAC
 70
     0
  9
$DIMLDRBLK
  1

  9
$DIMLUNIT
 70
     2
  9
$DIMLWD
 70
    -2
  9
$DIMLWE
 70
    -2
  9
$DIMTMOVE
 70
     0
  9
$DIMFXL
 40
1.0
  9
$DIMFXLON
 70
     0
  9
$DIMJOGANG
 40
0.7853981634
  9
$DIMTFILL
 70
     0
  9
$DIMTFILLCLR
 70
     0
  9
$DIMARCSYM
 70
     0
  9
$DIMLTYPE
  6

  9
$DIMLTEX1
  6

  9
$DIMLTEX2
  6

  9
$DIMTXTDIRECTION
 70
     0
  9
$LUNITS
 70
     2
  9
$LUPREC
 70
     2
  9
$SKETCHINC
 40
1.0
  9
$FILLETRAD
 40
10.0
  9
$AUNITS
 70
     0
  9
$AUPREC
 70
     2
  9
$MENU
  1
.
  9
$ELEVATION
 40
0.0
  9
$PELEVATION
 40
0.0
  9
$THICKNESS
 40
0.0
  9
$LIMCHECK
 70
     0
  9
$CHAMFERA
 40
0.0
  9
$CHAMFERB
 40
0.0
  9
$CHAMFERC
 40
0.0
  9
$CHAMFERD
 40
0.0
  9
$SKPOLY
 70
     0
  9
$TDCREATE
 40
2458236.537147141
  9
$TDUCREATE
 40
2458236.453813808
  9
$TDUPDATE
 40
2458236.537174954
  9
$TDUUPDATE
 40
2458236.453841621
  9
$TDINDWG
 40
0.0000000116
  9
$TDUSRTIMER
 40
0.0000000116
  9
$USRTIMER
 70
     1
  9
$ANGBASE
 50
0.0
  9
$ANGDIR
 70
     0
  9
$PDMODE
 70
     0
  9
$PDSIZE
 40
-1.0
  9
$PLINEWID
 40
0.0
  9
$SPLFRAME
 70
     0
  9
$SPLINETYPE
 70
     6
  9
$SPLINESEGS
 70
     8
  9
$HANDSEED
  5
333
  9
$SURFTAB1
 70
     6
  9
$SURFTAB2
 70
     6
  9
$SURFTYPE
 70
     6
  9
$SURFU
 70
     6
  9
$SURFV
 70
     6
  9
$UCSBASE
  2

  9
$UCSNAME
  2

  9
$UCSORG
 10
0.0
 20
0.0
 30
0.0
  9
$UCSXDIR
 10
1.0
 20
0.0
 30
0.0
  9
$UCSYDIR
 10
0.0
 20
1.0
 30
0.0
  9
$UCSORTHOREF
  2

  9
$UCSORTHOVIEW
 70
     0
  9
$UCSORGTOP
 10
0.0
 20
0.0
 30
0.0
  9
$UCSORGBOTTOM
 10
0.0
 20
0.0
 30
0.0
  9
$UCSORGLEFT
 10
0.0
 20
0.0
 30
0.0
  9
$UCSORGRIGHT
 10
0.0
 20
0.0
 30
0.0
  9
$UCSORGFRONT
 10
0.0
 20
0.0
 30
0.0
  9
$UCSORGBACK
 10
0.0
 20
0.0
 30
0.0
  9
$PUCSBASE
  2

  9
$PUCSNAME
  2

  9
$PUCSORG
 10
0.0
 20
0.0
 30
0.0
  9
$PUCSXDIR
 10
1.0
 20
0.0
 30
0.0
  9
$PUCSYDIR
 10
0.0
 20
1.0
 30
0.0
  9
$PUCSORTHOREF
  2

  9
$PUCSORTHOVIEW
 70
     0
  9
$PUCSORGTOP
 10
0.0
 20
0.0
 30
0.0
  9
$PUCSORGBOTTOM
 10
0.0
 20
0.0
 30
0.0
  9
$PUCSORGLEFT
 10
0.0
 20
0.0
 30
0.0
  9
$PUCSORGRIGHT
 10
0.0
 20
0.0
 30
0.0
  9
$PUCSORGFRONT
 10
0.0
 20
0.0
 30
0.0
  9
$PUCSORGBACK
 10
0.0
 20
0.0
 30
0.0
  9
$USERI1
 70
     0
  9
$USERI2
 70
     0
  9
$USERI3
 70
     0
  9
$USERI4
 70
     0
  9
$USERI5
 70
     0
  9
$USERR1
 40
0.0
  9
$USERR2
 40
0.0
  9
$USERR3
 40
0.0
  9
$USERR4
 40
0.0
  9
$USERR5
 40
0.0
  9
$WORLDVIEW
 70
     1
  9
$SHADEDGE
 70
     3
  9
$SHADEDIF
 70
    70
  9
$TILEMODE
 70
     1
  9
$MAXACTVP
 70
    64
  9
$PINSBASE
 10
0.0
 20
0.0
 30
0.0
  9
$PLIMCHECK
 70
     0
  9
$PEXTMIN
 10
-301.0
 20
-22.0
 30
0.0
  9
$PEXTMAX
 10
301.0
 20
135.0
 30
0.0
  9
$PLIMMIN
 10
-347.8482490272
 20
-39.5680933852
  9
$PLIMMAX
 10
347.8482490272
 20
452.3385214008
  9
$UNITMODE
 70
     0
  9
$VISRETAIN
 70
     1
  9
$PLINEGEN
 70
     0
  9
$PSLTSCALE
 70
     1
  9
$TREEDEPTH
 70
  3020
  9
$CMLSTYLE
  2
Standard
  9
$CMLJUST
 70
     0
  9
$CMLSCALE
 40
20.0
  9
$PROXYGRAPHICS
 70
     1
  9
$MEASUREMENT
 70
     1
  9
$CELWEIGHT
370
    -1
  9
$ENDCAPS
280
     0
  9
$JOINSTYLE
280
     0
  9
$LWDISPLAY
290
     1
  9
$INSUNITS
 70
     4
  9
$HYPERLINKBASE
  1

  9
$STYLESHEET
  1

  9
$XEDIT
290
     1
  9
$CEPSNTYPE
380
     0
  9
$PSTYLEMODE
290
     1
  9
$FINGERPRINTGUID
  2
{3933749E-16CA-47EA-B3AF-F00A226B3026}
  9
$VERSIONGUID
  2
{FAEB1C32-E019-11D5-929B-00C0DF256EC4}
  9
$EXTNAMES
290
     1
  9
$PSVPSCALE
 40
0.0
  9
$OLESTARTUP
290
     0
  9
$SORTENTS
280
   127
  9
$INDEXCTL
280
     0
  9
$HIDETEXT
280
     1
  9
$XCLIPFRAME
280
     2
  9
$HALOGAP
280
     0
  9
$OBSCOLOR
 70
   257
  9
$OBSLTYPE
280
     0
  9
$INTERSECTIONDISPLAY
280
     0
  9
$INTERSECTIONCOLOR
 70
   257
  9
$DIMASSOC
280
     2
  9
$PROJECTNAME
  1

  9
$CAMERADISPLAY
290
     0
  9
$LENSLENGTH
 40
50.0
  9
$CAMERAHEIGHT
 40
0.0
  9
$STEPSPERSEC
 40
2.0
  9
$STEPSIZE
 40
6.0
  9
$3DDWFPREC
 40
2.0
  9
$PSOLWIDTH
 40
5.0
  9
$PSOLHEIGHT
 40
80.0
  9
$LOFTANG1
 40
1.5707963268
  9
$LOFTANG2
 40
1.5707963268
  9
$LOFTMAG1
 40
0.0
  9
$LOFTMAG2
 40
0.0
  9
$LOFTPARAM
 70
     7
  9
$LOFTNORMALS
280
     1
  9
$LATITUDE
 40
37.795
  9
$LONGITUDE
 40
-122.394
  9
$NORTHDIRECTION
 40
0.0
  9
$TIMEZONE
 70
 -8000
  9
$LIGHTGLYPHDISPLAY
280
     1
  9
$TILEMODELIGHTSYNCH
280
     1
  9
$CMATERIAL
347
44
  9
$SOLIDHIST
280
     0
  9
$SHOWHIST
280
     1
  9
$DWFFRAME
280
     2
  9
$DGNFRAME
280
     2
  9
$REALWORLDSCALE
290
     1
  9
$INTERFERECOLOR
 62
   256
  9
$CSHADOW
280
     0
  9
$SHADOWPLANELOCATION
 40
0.0
  0
ENDSEC
  0
SECTION
  2
CLASSES
  0
CLASS
  1
ACDBDICTIONARYWDFLT
  2
AcDbDictionaryWithDefault
  3
ObjectDBX Classes
 90
        0
 91
        4
280
     0
281
     0
  0
CLASS
  1
VISUALSTYLE
  2
AcDbVisualStyle
  3
ObjectDBX Classes
 90
     4095
 91
        4
280
     0
281
     0
  0
CLASS
  1
MATERIAL
  2
AcDbMaterial
  3
ObjectDBX Classes
 90
     1153
 91
        4
280
     0
281
     0
  0
CLASS
  1
SCALE
  2
AcDbScale
  3
ObjectDBX Classes
 90
     1153
 91
        4
280
     0
281
     0
  0
CLASS
  1
TABLESTYLE
  2
AcDbTableStyle
  3
ObjectDBX Classes
 90
     4095
 91
        4
280
     0
281
     0
  0
CLASS
  1
MLEADERSTYLE
  2
AcDbMLeaderStyle
  3
ACDB_MLEADERSTYLE_CLASS
 90
     4095
 91
        4
280
     0
281
     0
  0
CLASS
  1
SUN
  2
AcDbSun
  3
SCENEOE
 90
     1153
 91
        4
280
     0
281
     0
  0
CLASS
  1
DICTIONARYVAR
  2
AcDbDictionaryVar
  3
ObjectDBX Classes
 90
        0
 91
        4
280
     0
281
     0
  0
CLASS
  1
CELLSTYLEMAP
  2
AcDbCellStyleMap
  3
ObjectDBX Classes
 90
     1152
 91
        4
280
     0
281
     0
  0
ENDSEC
  0
SECTION
  2
TABLES
  0
TABLE
  2
VPORT
  5
8
330
0
100
AcDbSymbolTable
 70
     1
  0
VPORT
  5
29
330
8
100
AcDbSymbolTableRecord
100
AcDbViewportTableRecord
  2
*Active
 70
     0
 10
0.0
 20
0.0
 11
1.0
 21
1.0
 12
0.0
 22
0.0
 13
0.0
 23
0.0
 14
10.0
 24
10.0
 15
10.0
 25
10.0
 16
0.0
 26
0.0
 36
1.0
 17
0.0
 27
0.0
 37
0.0
 40
359.04
 41
1.7102272727
 42
50.0
 43
0.0
 44
0.0
 50
0.0
 51
0.0
 71
     0
 72
   100
 73
     1
 74
     3
 75
     0
 76
     0
 77
     0
 78
     0
281
     0
 65
     1
110
0.0
120
0.0
130
0.0
111
1.0
121
0.0
131
0.0
112
0.0
122
1.0
132
0.0
 79
     0
146
0.0
348
2F
 60
     3
 61
     5
292
     1
282
     1
141
0.0
142
0.0
 63
   250
361
6D
  0
ENDTAB
  0
TABLE
  2
LTYPE
  5
5
330
0
100
AcDbSymbolTable
 70
     6
  0
LTYPE
  5
14
330
5
100
AcDbSymbolTableRecord
100
AcDbLinetypeTableRecord
  2
ByBlock
 70
     0
  3

 72
    65
 73
     0
 40
0.0
  0
LTYPE
  5
15
330
5
100
AcDbSymbolTableRecord
100
AcDbLinetypeTableRecord
  2
ByLayer
 70
     0
  3

 72
    65
 73
     0
 40
0.0
  0
LTYPE
  5
16
330
5
100
AcDbSymbolTableRecord
100
AcDbLinetypeTableRecord
  2
Continuous
 70
     0
  3
Solid line
 72
    65
 73
     0
 40
0.0
  0
LTYPE
  5
6E
330
5
100
AcDbSymbolTableRecord
100
AcDbLinetypeTableRecord
  2
HIDDEN
 70
     0
  3
Hidden __ __ __ __ __ __ __ __ __ __ __ __ __ __
 72
    65
 73
     2
 40
1.905
 49
1.27
 74
     0
 49
-0.635
 74
     0
  0
LTYPE
  5
6F
330
5
100
AcDbSymbolTableRecord
100
AcDbLinetypeTableRecord
  2
PHANTOM
 70
     0
  3
Phantom ______  __  __  ______  __  __  ______
 72
    65
 73
     6
 40
12.7
 49
6.35
 74
     0
 49
-1.27
 74
     0
 49
1.27
 74
     0
 49
-1.27
 74
     0
 49
1.27
 74
     0
 49
-1.27
 74
     0
  0
LTYPE
  5
70
330
5
100
AcDbSymbolTableRecord
100
AcDbLinetypeTableRecord
  2
CENTER
 70
     0
  3
Center ____ _ ____ _ ____ _ ____ _ ____ _ ____
 72
    65
 73
     4
 40
10.16
 49
6.35
 74
     0
 49
-1.27
 74
     0
 49
1.27
 74
     0
 49
-1.27
 74
     0
  0
LTYPE
  5
71
330
5
100
AcDbSymbolTableRecord
100
AcDbLinetypeTableRecord
  2
CENTERX2
 70
     0
  3
Center (2x) ________  __  ________  __  _____
 72
    65
 73
     4
 40
20.32
 49
12.7
 74
     0
 49
-2.54
 74
     0
 49
2.54
 74
     0
 49
-2.54
 74
     0
  0
LTYPE
  5
72
330
5
100
AcDbSymbolTableRecord
100
AcDbLinetypeTableRecord
  2
DOT2
 70
     0
  3
Dot (.5x) ........................................
 72
    65
 73
     2
 40
0.635
 49
0.0
 74
     0
 49
-0.635
 74
     0
  0
ENDTAB
  0
TABLE
  2
LAYER
  5
2
330
0
100
AcDbSymbolTable
 70
     1
  0
LAYER
  5
10
330
2
100
AcDbSymbolTableRecord
100
AcDbLayerTableRecord
  2
0
 70
     0
 62
     7
  6
Continuous
370
    -3
390
F
347
46
348
0
  0
ENDTAB
  0
TABLE
  2
STYLE
  5
3
330
0
100
AcDbSymbolTable
 70
     1
  0
STYLE
  5
11
330
3
100
AcDbSymbolTableRecord
100
AcDbTextStyleTableRecord
  2
STANDARD
 70
     0
 40
0.0
 41
1.0
 50
0.0
 71
     0
 42
3.5
  3
GOTHIC.TTF
  4

1001
ACAD
1000
CENTURY GOTHIC
1071
       34
  0
ENDTAB
  0
TABLE
  2
VIEW
  5
6
330
0
100
AcDbSymbolTable
 70
     0
  0
ENDTAB
  0
TABLE
  2
UCS
  5
7
330
0
100
AcDbSymbolTable
 70
     0
  0
ENDTAB
  0
TABLE
  2
APPID
  5
9
330
0
100
AcDbSymbolTable
 70
     1
  0
APPID
  5
12
330
9
100
AcDbSymbolTableRecord
100
AcDbRegAppTableRecord
  2
ACAD
 70
     0
  0
ENDTAB
  0
TABLE
  2
DIMSTYLE
  5
A
330
0
100
AcDbSymbolTable
 70
     1
100
AcDbDimStyleTable
  0
DIMSTYLE
105
27
330
A
100
AcDbSymbolTableRecord
100
AcDbDimStyleTableRecord
  2
ISO-25
 70
     0
 41
2.5
 42
0.625
 43
3.75
 44
1.25
 73
     0
 74
     0
 77
     1
 78
     8
140
2.5
141
2.5
143
0.0393700787
147
0.625
171
     3
172
     1
178
     0
271
     2
272
     2
274
     3
278
    44
283
     0
284
     8
340
11
  0
ENDTAB
  0
TABLE
  2
BLOCK_RECORD
  5
1
330
0
100
AcDbSymbolTable
 70
     9
  0
BLOCK_RECORD
  5
1F
330
1
100
AcDbSymbolTableRecord
100
AcDbBlockTableRecord
  2
*Model_Space
340
22
 70
     0
280
     1
281
     0
  0
BLOCK_RECORD
  5
1B
330
1
100
AcDbSymbolTableRecord
100
AcDbBlockTableRecord
  2
*Paper_Space
340
1E
 70
     0
280
     1
281
     0
  0
BLOCK_RECORD
  5
23
330
1
100
AcDbSymbolTableRecord
100
AcDbBlockTableRecord
  2
*Paper_Space0
340
26
 70
     0
280
     1
281
     0
  0
BLOCK_RECORD
  5
123
330
1
100
AcDbSymbolTableRecord
100
AcDbBlockTableRecord
  2
*Paper_Space1
340
124
 70
     0
280
     1
281
     0
  0
BLOCK_RECORD
  5
153
330
1
100
AcDbSymbolTableRecord
100
AcDbBlockTableRecord
  2
*Paper_Space2
340
154
 70
     0
280
     1
281
     0
  0
BLOCK_RECORD
  5
16D
330
1
100
AcDbSymbolTableRecord
100
AcDbBlockTableRecord
  2
*Paper_Space3
340
16E
 70
     0
280
     1
281
     0
  0
BLOCK_RECORD
  5
187
330
1
100
AcDbSymbolTableRecord
100
AcDbBlockTableRecord
  2
*Paper_Space4
340
188
 70
     0
280
     1
281
     0
  0
BLOCK_RECORD
  5
1A1
330
1
100
AcDbSymbolTableRecord
100
AcDbBlockTableRecord
  2
*Paper_Space5
340
1A2
 70
     0
280
     1
281
     0
  0
BLOCK_RECORD
  5
1BE
330
1
100
AcDbSymbolTableRecord
100
AcDbBlockTableRecord
  2
*Paper_Space6
340
1BF
 70
     0
280
     1
281
     0
  0
BLOCK_RECORD
  5
258
330
1
100
AcDbSymbolTableRecord
100
AcDbBlockTableRecord
  2
*Paper_Space7
340
259
 70
     0
280
     1
281
     0
  0
BLOCK_RECORD
  5
2D0
330
1
100
AcDbSymbolTableRecord
100
AcDbBlockTableRecord
  2
*Paper_Space8
340
2D1
 70
     0
280
     1
281
     0
  0
ENDTAB
  0
ENDSEC
  0
SECTION
  2
BLOCKS
  0
BLOCK
  5
20
330
1F
100
AcDbEntity
  8
0
100
AcDbBlockBegin
  2
*Model_Space
 70
     0
 10
0.0
 20
0.0
 30
0.0
  3
*Model_Space
  1

  0
ENDBLK
  5
21
330
1F
100
AcDbEntity
  8
0
100
AcDbBlockEnd
  0
BLOCK
  5
1C
330
1B
100
AcDbEntity
 67
     1
  8
0
100
AcDbBlockBegin
  2
*Paper_Space
 70
     0
 10
0.0
 20
0.0
 30
0.0
  3
*Paper_Space
  1

  0
ENDBLK
  5
1D
330
1B
100
AcDbEntity
 67
     1
  8
0
100
AcDbBlockEnd
  0
BLOCK
  5
24
330
23
100
AcDbEntity
  8
0
100
AcDbBlockBegin
  2
*Paper_Space0
 70
     0
 10
0.0
 20
0.0
 30
0.0
  3
*Paper_Space0
  1

  0
LINE
  5
11A
330
23
100
AcDbEntity
  8
0
  6
Continuous
 62
     7
370
    25
100
AcDbLine
 10
121.0
 20
135.0
 30
0.0
 11
121.0
 21
0.0
 31
0.0
  0
LINE
  5
11B
330
23
100
AcDbEntity
  8
0
  6
Continuous
 62
     7
370
    25
100
AcDbLine
 10
-121.0
 20
135.0
 30
0.0
 11
-121.0
 21
0.0
 31
0.0
  0
LINE
  5
11C
330
23
100
AcDbEntity
  8
0
  6
Continuous
 62
     7
370
    25
100
AcDbLine
 10
-176.0
 20
135.0
 30
0.0
 11
176.0
 21
135.0
 31
0.0
  0
LINE
  5
11D
330
23
100
AcDbEntity
  8
0
  6
Continuous
 62
     7
370
    25
100
AcDbLine
 10
-176.0
 20
0.0
 30
0.0
 11
176.0
 21
0.0
 31
0.0
  0
LINE
  5
11E
330
23
100
AcDbEntity
  8
0
  6
Continuous
 62
     7
370
    25
100
AcDbLine
 10
-176.0
 20
135.0
 30
0.0
 11
-176.0
 21
0.0
 31
0.0
  0
LINE
  5
11F
330
23
100
AcDbEntity
  8
0
  6
Continuous
 62
     7
370
    25
100
AcDbLine
 10
176.0
 20
135.0
 30
0.0
 11
176.0
 21
0.0
 31
0.0
  0
LINE
  5
120
330
23
100
AcDbEntity
  8
0
  6
Continuous
 62
     7
370
    25
100
AcDbLine
 10
62.5
 20
-22.0
 30
0.0
 11
-62.5
 21
-22.0
 31
0.0
  0
LINE
  5
121
330
23
100
AcDbEntity
  8
0
  6
Continuous
 62
     7
370
    25
100
AcDbLine
 10
-62.5
 20
-22.0
 30
0.0
 11
-62.5
 21
0.0
 31
0.0
  0
LINE
  5
122
330
23
100
AcDbEntity
  8
0
  6
Continuous
 62
     7
370
    25
100
AcDbLine
 10
62.5
 20
-22.0
 30
0.0
 11
62.5
 21
0.0
 31
0.0
  0
VIEWPORT
  5
318
330
23
100
AcDbEntity
  8
0
100
AcDbViewport
 10
0.0
 20
0.0
 30
0.0
 40
205.6
 41
156.0
 68
     1
 69
     1
 12
0.0
 22
0.0
 13
0.0
 23
0.0
 14
10.0
 24
10.0
 15
10.0
 25
10.0
 16
0.0
 26
0.0
 36
1.0
 17
0.0
 27
0.0
 37
0.0
 42
50.0
 43
0.0
 44
0.0
 45
465.9058365759
 50
0.0
 51
0.0
 72
   100
 90
   557152
  1

281
     0
 71
     1
 74
     0
110
0.0
120
0.0
130
0.0
111
1.0
121
0.0
131
0.0
112
0.0
122
1.0
132
0.0
 79
     0
146
0.0
170
     0
 61
     5
348
2F
292
     1
282
     1
141
0.0
142
0.0
 63
   256
361
319
  0
ENDBLK
  5
25
330
23
100
AcDbEntity
  8
0
100
AcDbBlockEnd
  0
BLOCK
  5
125
330
123
100
AcDbEntity
  8
0
100
AcDbBlockBegin
  2
*Paper_Space1
 70
     0
 10
0.0
 20
0.0
 30
0.0
  3
*Paper_Space1
  1

  0
LWPOLYLINE
  5
12B
330
123
100
AcDbEntity
  8
0
  6
Continuous
 62
     7
370
    25
100
AcDbPolyline
 90
       20
 70
   128
 43
0.0
 10
-301.0
 20
-5.7553830793
 10
-300.8121471154
 20
-5.9714175191
 10
-300.2498716871
 20
-6.1859762247
 10
-299.3170146267
 20
-6.3975935424
 10
-298.0199482935
 20
-6.6048239115
 10
-296.367532966
 20
-6.8062517384
 10
-294.3710563164
 20
-7.0005010668
 10
-292.0441563044
 20
-7.1862449768
 10
-289.4027280168
 20
-7.3622146491
 10
-286.464815087
 20
-7.5272080326
 10
-283.2504864394
 20
-7.680098055
 10
-279.7816991979
 20
-7.8198403224
 10
-276.0821486967
 20
-7.9454802536
 10
-272.177106617
 20
-8.0561596003
 10
-268.0932483559
 20
-8.1511223105
 10
-263.8584708063
 20
-8.2297196924
 10
-259.5017017927
 20
-8.2914148464
 10
-255.0527024654
 20
-8.3357863318
 10
-250.541864001
 20
-8.3625310466
 10
-246.0
 20
-8.3714662971
  0
LWPOLYLINE
  5
12D
330
123
100
AcDbEntity
  8
0
  6
Continuous
 62
     7
370
    25
100
AcDbPolyline
 90
       20
 70
   128
 43
0.0
 10
-301.0
 20
129.0918155135
 10
-300.8121471154
 20
128.8757810737
 10
-300.2498716871
 20
128.6612223681
 10
-299.3170146267
 20
128.4496050504
 10
-298.0199482935
 20
128.2423746813
 10
-296.367532966
 20
128.0409468544
 10
-294.3710563164
 20
127.846697526
 10
-292.0441563044
 20
127.660953616
 10
-289.4027280168
 20
127.4849839437
 10
-286.464815087
 20
127.3199905602
 10
-283.2504864394
 20
127.1671005378
 10
-279.7816991979
 20
127.0273582704
 10
-276.0821486967
 20
126.9017183392
 10
-272.177106617
 20
126.7910389925
 10
-268.0932483559
 20
126.6960762823
 10
-263.8584708063
 20
126.6174789004
 10
-259.5017017927
 20
126.5557837464
 10
-255.0527024654
 20
126.511412261
 10
-250.541864001
 20
126.4846675462
 10
-246.0
 20
126.4757322957
  0
LWPOLYLINE
  5
12F
330
123
100
AcDbEntity
  8
0
  6
Continuous
 62
     7
370
    25
100
AcDbPolyline
 90
       20
 70
   128
 43
0.0
 10
246.0
 20
-8.3714662971
 10
250.541864001
 20
-8.3625310466
 10
255.0527024654
 20
-8.3357863318
 10
259.5017017927
 20
-8.2914148464
 10
263.8584708063
 20
-8.2297196924
 10
268.0932483559
 20
-8.1511223105
 10
272.177106617
 20
-8.0561596003
 10
276.0821486967
 20
-7.9454802536
 10
279.7816991979
 20
-7.8198403224
 10
283.2504864394
 20
-7.680098055
 10
286.464815087
 20
-7.5272080326
 10
289.4027280168
 20
-7.3622146491
 10
292.0441563044
 20
-7.1862449768
 10
294.3710563164
 20
-7.0005010668
 10
296.367532966
 20
-6.8062517384
 10
298.0199482935
 20
-6.6048239115
 10
299.3170146267
 20
-6.3975935424
 10
300.2498716871
 20
-6.1859762247
 10
300.8121471154
 20
-5.9714175191
 10
301.0
 20
-5.7553830793
  0
LWPOLYLINE
  5
130
330
123
100
AcDbEntity
  8
0
  6
Continuous
 62
     7
370
    25
100
AcDbPolyline
 90
       20
 70
   128
 43
0.0
 10
246.0
 20
126.4757322957
 10
250.541864001
 20
126.4846675462
 10
255.0527024654
 20
126.511412261
 10
259.5017017927
 20
126.5557837464
 10
263.8584708063
 20
126.6174789004
 10
268.0932483559
 20
126.6960762823
 10
272.177106617
 20
126.7910389925
 10
276.0821486967
 20
126.9017183392
 10
279.7816991979
 20
127.0273582704
 10
283.2504864394
 20
127.1671005378
 10
286.464815087
 20
127.3199905602
 10
289.4027280168
 20
127.4849839437
 10
292.0441563044
 20
127.660953616
 10
294.3710563164
 20
127.846697526
 10
296.367532966
 20
128.0409468544
 10
298.0199482935
 20
128.2423746813
 10
299.3170146267
 20
128.4496050504
 10
300.2498716871
 20
128.6612223681
 10
300.8121471154
 20
128.8757810737
 10
301.0
 20
129.0918155135
  0
LWPOLYLINE
  5
132
330
123
100
AcDbEntity
  8
0
  6
Continuous
 62
     7
370
    25
100
AcDbPolyline
 90
       20
 70
   128
 43
0.0
 10
301.0
 20
140.6025816721
 10
300.8121471154
 20
140.8186161119
 10
300.2498716871
 20
141.0331748175
 10
299.3170146267
 20
141.2447921352
 10
298.0199482935
 20
141.4520225043
 10
296.367532966
 20
141.6534503312
 10
294.3710563164
 20
141.8476996596
 10
292.0441563044
 20
142.0334435696
 10
289.4027280168
 20
142.2094132419
 10
286.464815087
 20
142.3744066254
 10
283.2504864394
 20
142.5272966478
 10
279.7816991979
 20
142.6670389152
 10
276.0821486967
 20
142.7926788464
 10
272.177106617
 20
142.9033581931
 10
268.0932483559
 20
142.9983209033
 10
263.8584708063
 20
143.0769182852
 10
259.5017017927
 20
143.1386134392
 10
255.0527024654
 20
143.1829849246
 10
250.541864001
 20
143.2097296394
 10
246.0
 20
143.2186648899
  0
LWPOLYLINE
  5
135
330
123
100
AcDbEntity
  8
0
  6
Continuous
 62
     7
370
    25
100
AcDbPolyline
 90
       20
 70
   128
 43
0.0
 10
-246.0
 20
143.2186648899
 10
-250.541864001
 20
143.2097296394
 10
-255.0527024654
 20
143.1829849246
 10
-259.5017017927
 20
143.1386134392
 10
-263.8584708063
 20
143.0769182852
 10
-268.0932483559
 20
142.9983209033
 10
-272.177106617
 20
142.9033581931
 10
-276.0821486967
 20
142.7926788464
 10
-279.7816991979
 20
142.6670389152
 10
-283.2504864394
 20
142.5272966478
 10
-286.464815087
 20
142.3744066254
 10
-289.4027280168
 20
142.2094132419
 10
-292.0441563044
 20
142.0334435696
 10
-294.3710563164
 20
141.8476996596
 10
-296.367532966
 20
141.6534503312
 10
-298.0199482935
 20
141.4520225043
 10
-299.3170146267
 20
141.2447921352
 10
-300.2498716871
 20
141.0331748175
 10
-300.8121471154
 20
140.8186161119
 10
-301.0
 20
140.6025816721
  0
LWPOLYLINE
  5
136
330
123
100
AcDbEntity
  8
0
  6
Continuous
 62
     7
370
    25
100
AcDbPolyline
 90
       17
 70
   128
 43
0.0
 10
-246.0
 20
142.4576224993
 10
-249.8226684729
 20
142.4486899707
 10
-253.6085225586
 20
142.4219784099
 10
-257.3211024129
 20
142.377745064
 10
-260.9246538622
 20
142.3164159243
 10
-264.3844727362
 20
142.2385816238
 10
-267.6672390878
 20
142.1449917495
 10
-270.7413380824
 20
142.0365476229
 10
-273.5771644663
 20
141.9142936204
 10
-276.1474076811
 20
141.7794071147
 10
-278.4273148798
 20
141.6331871367
 10
-280.3949293096
 20
141.4770418647
 10
-282.0313017679
 20
141.312475063
 10
-283.3206730936
 20
141.1410715999
 10
-284.2506259357
 20
140.9644821844
 10
-284.8122043402
 20
140.7844074691
 10
-285.0
 20
140.6025816721
  0
LWPOLYLINE
  5
138
330
123
100
AcDbEntity
  8
0
  6
Continuous
 62
     7
370
    25
100
AcDbPolyline
 90
       17
 70
   128
 43
0.0
 10
-285.0
 20
129.0918155135
 10
-284.8122043402
 20
128.9099897165
 10
-284.2506259357
 20
128.7299150012
 10
-283.3206730936
 20
128.5533255857
 10
-282.0313017679
 20
128.3819221226
 10
-280.3949293096
 20
128.2173553209
 10
-278.4273148798
 20
128.0612100489
 10
-276.1474076811
 20
127.9149900709
 10
-273.5771644663
 20
127.7801035652
 10
-270.7413380824
 20
127.6578495627
 10
-267.6672390878
 20
127.5494054361
 10
-264.3844727362
 20
127.4558155618
 10
-260.9246538622
 20
127.3779812613
 10
-257.3211024129
 20
127.3166521215
 10
-253.6085225586
 20
127.2724187757
 10
-249.8226684729
 20
127.2457072149
 10
-246.0
 20
127.2367746863
  0
LWPOLYLINE
  5
13A
330
123
100
AcDbEntity
  8
0
  6
Continuous
 62
     7
370
    25
100
AcDbPolyline
 90
       17
 70
   128
 43
0.0
 10
246.0
 20
127.2367746863
 10
249.8226684729
 20
127.2457072149
 10
253.6085225586
 20
127.2724187757
 10
257.3211024129
 20
127.3166521215
 10
260.9246538622
 20
127.3779812613
 10
264.3844727362
 20
127.4558155618
 10
267.6672390878
 20
127.5494054361
 10
270.7413380824
 20
127.6578495627
 10
273.5771644663
 20
127.7801035652
 10
276.1474076811
 20
127.9149900709
 10
278.4273148798
 20
128.0612100489
 10
280.3949293096
 20
128.2173553209
 10
282.0313017679
 20
128.3819221226
 10
283.3206730936
 20
128.5533255857
 10
284.2506259357
 20
128.7299150012
 10
284.8122043402
 20
128.9099897165
 10
285.0
 20
129.0918155135
  0
LWPOLYLINE
  5
13C
330
123
100
AcDbEntity
  8
0
  6
Continuous
 62
     7
370
    25
100
AcDbPolyline
 90
       17
 70
   128
 43
0.0
 10
285.0
 20
140.6025816721
 10
284.8122043402
 20
140.7844074691
 10
284.2506259357
 20
140.9644821844
 10
283.3206730936
 20
141.1410715999
 10
282.0313017679
 20
141.312475063
 10
280.3949293096
 20
141.4770418647
 10
278.4273148798
 20
141.6331871367
 10
276.1474076811
 20
141.7794071147
 10
273.5771644663
 20
141.9142936204
 10
270.7413380824
 20
142.0365476229
 10
267.6672390878
 20
142.1449917495
 10
264.3844727362
 20
142.2385816238
 10
260.9246538622
 20
142.3164159243
 10
257.3211024129
 20
142.377745064
 10
253.6085225586
 20
142.4219784099
 10
249.8226684729
 20
142.4486899707
 10
246.0
 20
142.4576224993
  0
LINE
  5
143
330
123
100
AcDbEntity
  8
0
  6
Continuous
 62
     7
370
    25
100
AcDbLine
 10
246.0
 20
126.4757322957
 30
0.0
 11
246.0
 21
-8.3714662971
 31
0.0
  0
LINE
  5
144
330
123
100
AcDbEntity
  8
0
  6
Continuous
 62
     7
370
    25
100
AcDbLine
 10
-246.0
 20
-8.3714662971
 30
0.0
 11
246.0
 21
-8.3714662971
 31
0.0
  0
LINE
  5
145
330
123
100
AcDbEntity
  8
0
  6
Continuous
 62
     7
370
    25
100
AcDbLine
 10
-246.0
 20
126.4757322957
 30
0.0
 11
-246.0
 21
-8.3714662971
 31
0.0
  0
LINE
  5
146
330
123
100
AcDbEntity
  8
0
  6
Continuous
 62
     7
370
    25
100
AcDbLine
 10
-246.0
 20
126.4757322957
 30
0.0
 11
246.0
 21
126.4757322957
 31
0.0
  0
LINE
  5
147
330
123
100
AcDbEntity
  8
0
  6
Continuous
 62
     7
370
    25
100
AcDbLine
 10
-301.0
 20
140.6025816721
 30
0.0
 11
-301.0
 21
-5.7553830793
 31
0.0
  0
LINE
  5
148
330
123
100
AcDbEntity
  8
0
  6
Continuous
 62
     7
370
    25
100
AcDbLine
 10
301.0
 20
140.6025816721
 30
0.0
 11
301.0
 21
-5.7553830793
 31
0.0
  0
LINE
  5
149
330
123
100
AcDbEntity
  8
0
  6
Continuous
 62
     7
370
    25
100
AcDbLine
 10
246.0
 20
143.2186648899
 30
0.0
 11
-246.0
 21
143.2186648899
 31
0.0
  0
LINE
  5
14A
330
123
100
AcDbEntity
  8
0
  6
Continuous
 62
     7
370
    25
100
AcDbLine
 10
-285.0
 20
140.6025816721
 30
0.0
 11
-285.0
 21
129.0918155135
 31
0.0
  0
LINE
  5
14B
330
123
100
AcDbEntity
  8
0
  6
Continuous
 62
     7
370
    25
100
AcDbLine
 10
-246.0
 20
127.2367746863
 30
0.0
 11
246.0
 21
127.2367746863
 31
0.0
  0
LINE
  5
14C
330
123
100
AcDbEntity
  8
0
  6
Continuous
 62
     7
370
    25
100
AcDbLine
 10
285.0
 20
129.0918155135
 30
0.0
 11
285.0
 21
140.6025816721
 31
0.0
  0
LINE
  5
14D
330
123
100
AcDbEntity
  8
0
  6
Continuous
 62
     7
370
    25
100
AcDbLine
 10
246.0
 20
142.4576224993
 30
0.0
 11
-246.0
 21
142.4576224993
 31
0.0
  0
LINE
  5
14E
330
123
100
AcDbEntity
  8
0
  6
Continuous
 62
     7
370
    25
100
AcDbLine
 10
80.0
 20
-24.9479208684
 30
0.0
 11
-80.0
 21
-24.9479208684
 31
0.0
  0
LINE
  5
14F
330
123
100
AcDbEntity
  8
0
  6
Continuous
 62
     7
370
    25
100
AcDbLine
 10
-80.0
 20
-24.9479208684
 30
0.0
 11
-80.0
 21
-8.3714662971
 31
0.0
  0
LINE
  5
150
330
123
100
AcDbEntity
  8
0
  6
Continuous
 62
     7
370
    25
100
AcDbLine
 10
80.0
 20
-24.9479208684
 30
0.0
 11
80.0
 21
-8.3714662971
 31
0.0
  0
LINE
  5
151
330
123
100
AcDbEntity
  8
0
  6
Continuous
 62
    60
370
    25
100
AcDbLine
 10
246.0
 20
127.2367746863
 30
0.0
 11
246.0
 21
142.4576224993
 31
0.0
  0
LINE
  5
152
330
123
100
AcDbEntity
  8
0
  6
Continuous
 62
    60
370
    25
100
AcDbLine
 10
-246.0
 20
127.2367746863
 30
0.0
 11
-246.0
 21
142.4576224993
 31
0.0
  0
VIEWPORT
  5
31A
330
123
100
AcDbEntity
  8
0
100
AcDbViewport
 10
0.0
 20
0.0
 30
0.0
 40
205.6
 41
156.0
 68
     1
 69
     1
 12
0.0
 22
0.0
 13
0.0
 23
0.0
 14
10.0
 24
10.0
 15
10.0
 25
10.0
 16
0.0
 26
0.0
 36
1.0
 17
0.0
 27
0.0
 37
0.0
 42
50.0
 43
0.0
 44
0.0
 45
465.9058365759
 50
0.0
 51
0.0
 72
   100
 90
   557152
  1

281
     0
 71
     1
 74
     0
110
0.0
120
0.0
130
0.0
111
1.0
121
0.0
131
0.0
112
0.0
122
1.0
132
0.0
 79
     0
146
0.0
170
     0
 61
     5
348
2F
292
     1
282
     1
141
0.0
142
0.0
 63
   256
361
31B
  0
ENDBLK
  5
126
330
123
100
AcDbEntity
  8
0
100
AcDbBlockEnd
  0
BLOCK
  5
155
330
153
100
AcDbEntity
  8
0
100
AcDbBlockBegin
  2
*Paper_Space2
 70
     0
 10
0.0
 20
0.0
 30
0.0
  3
*Paper_Space2
  1

  0
LINE
  5
164
330
153
100
AcDbEntity
  8
0
  6
Continuous
 62
     7
370
    25
100
AcDbLine
 10
-246.0
 20
135.0
 30
0.0
 11
-246.0
 21
0.0
 31
0.0
  0
LINE
  5
165
330
153
100
AcDbEntity
  8
0
  6
Continuous
 62
     7
370
    25
100
AcDbLine
 10
-301.0
 20
135.0
 30
0.0
 11
-301.0
 21
0.0
 31
0.0
  0
LINE
  5
166
330
153
100
AcDbEntity
  8
0
  6
Continuous
 62
     7
370
    25
100
AcDbLine
 10
-301.0
 20
135.0
 30
0.0
 11
301.0
 21
135.0
 31
0.0
  0
LINE
  5
167
330
153
100
AcDbEntity
  8
0
  6
Continuous
 62
     7
370
    25
100
AcDbLine
 10
-301.0
 20
0.0
 30
0.0
 11
301.0
 21
0.0
 31
0.0
  0
LINE
  5
168
330
153
100
AcDbEntity
  8
0
  6
Continuous
 62
     7
370
    25
100
AcDbLine
 10
246.0
 20
135.0
 30
0.0
 11
246.0
 21
0.0
 31
0.0
  0
LINE
  5
169
330
153
100
AcDbEntity
  8
0
  6
Continuous
 62
     7
370
    25
100
AcDbLine
 10
301.0
 20
135.0
 30
0.0
 11
301.0
 21
0.0
 31
0.0
  0
LINE
  5
16A
330
153
100
AcDbEntity
  8
0
  6
Continuous
 62
     7
370
    25
100
AcDbLine
 10
80.0
 20
-22.0
 30
0.0
 11
-80.0
 21
-22.0
 31
0.0
  0
LINE
  5
16B
330
153
100
AcDbEntity
  8
0
  6
Continuous
 62
     7
370
    25
100
AcDbLine
 10
-80.0
 20
-22.0
 30
0.0
 11
-80.0
 21
0.0
 31
0.0
  0
LINE
  5
16C
330
153
100
AcDbEntity
  8
0
  6
Continuous
 62
     7
370
    25
100
AcDbLine
 10
80.0
 20
-22.0
 30
0.0
 11
80.0
 21
0.0
 31
0.0
  0
VIEWPORT
  5
31C
330
153
100
AcDbEntity
  8
0
100
AcDbViewport
 10
0.0
 20
0.0
 30
0.0
 40
205.6
 41
156.0
 68
     1
 69
     1
 12
0.0
 22
0.0
 13
0.0
 23
0.0
 14
10.0
 24
10.0
 15
10.0
 25
10.0
 16
0.0
 26
0.0
 36
1.0
 17
0.0
 27
0.0
 37
0.0
 42
50.0
 43
0.0
 44
0.0
 45
465.9058365759
 50
0.0
 51
0.0
 72
   100
 90
   557152
  1

281
     0
 71
     1
 74
     0
110
0.0
120
0.0
130
0.0
111
1.0
121
0.0
131
0.0
112
0.0
122
1.0
132
0.0
 79
     0
146
0.0
170
     0
 61
     5
348
2F
292
     1
282
     1
141
0.0
142
0.0
 63
   256
361
31D
  0
ENDBLK
  5
156
330
153
100
AcDbEntity
  8
0
100
AcDbBlockEnd
  0
BLOCK
  5
16F
330
16D
100
AcDbEntity
  8
0
100
AcDbBlockBegin
  2
*Paper_Space3
 70
     0
 10
0.0
 20
0.0
 30
0.0
  3
*Paper_Space3
  1

  0
LINE
  5
17E
330
16D
100
AcDbEntity
  8
0
  6
Continuous
 62
     7
370
    25
100
AcDbLine
 10
-246.0
 20
135.0
 30
0.0
 11
-246.0
 21
0.0
 31
0.0
  0
LINE
  5
17F
330
16D
100
AcDbEntity
  8
0
  6
Continuous
 62
     7
370
    25
100
AcDbLine
 10
-301.0
 20
135.0
 30
0.0
 11
-301.0
 21
0.0
 31
0.0
  0
LINE
  5
180
330
16D
100
AcDbEntity
  8
0
  6
Continuous
 62
     7
370
    25
100
AcDbLine
 10
-301.0
 20
135.0
 30
0.0
 11
301.0
 21
135.0
 31
0.0
  0
LINE
  5
181
330
16D
100
AcDbEntity
  8
0
  6
Continuous
 62
     7
370
    25
100
AcDbLine
 10
-301.0
 20
0.0
 30
0.0
 11
301.0
 21
0.0
 31
0.0
  0
LINE
  5
182
330
16D
100
AcDbEntity
  8
0
  6
Continuous
 62
     7
370
    25
100
AcDbLine
 10
246.0
 20
135.0
 30
0.0
 11
246.0
 21
0.0
 31
0.0
  0
LINE
  5
183
330
16D
100
AcDbEntity
  8
0
  6
Continuous
 62
     7
370
    25
100
AcDbLine
 10
301.0
 20
135.0
 30
0.0
 11
301.0
 21
0.0
 31
0.0
  0
LINE
  5
184
330
16D
100
AcDbEntity
  8
0
  6
Continuous
 62
     7
370
    25
100
AcDbLine
 10
80.0
 20
-22.0
 30
0.0
 11
80.0
 21
0.0
 31
0.0
  0
LINE
  5
185
330
16D
100
AcDbEntity
  8
0
  6
Continuous
 62
     7
370
    25
100
AcDbLine
 10
80.0
 20
-22.0
 30
0.0
 11
-80.0
 21
-22.0
 31
0.0
  0
LINE
  5
186
330
16D
100
AcDbEntity
  8
0
  6
Continuous
 62
     7
370
    25
100
AcDbLine
 10
-80.0
 20
-22.0
 30
0.0
 11
-80.0
 21
0.0
 31
0.0
  0
VIEWPORT
  5
31E
330
16D
100
AcDbEntity
  8
0
100
AcDbViewport
 10
0.0
 20
0.0
 30
0.0
 40
205.6
 41
156.0
 68
     1
 69
     1
 12
0.0
 22
0.0
 13
0.0
 23
0.0
 14
10.0
 24
10.0
 15
10.0
 25
10.0
 16
0.0
 26
0.0
 36
1.0
 17
0.0
 27
0.0
 37
0.0
 42
50.0
 43
0.0
 44
0.0
 45
465.9058365759
 50
0.0
 51
0.0
 72
   100
 90
   557152
  1

281
     0
 71
     1
 74
     0
110
0.0
120
0.0
130
0.0
111
1.0
121
0.0
131
0.0
112
0.0
122
1.0
132
0.0
 79
     0
146
0.0
170
     0
 61
     5
348
2F
292
     1
282
     1
141
0.0
142
0.0
 63
   256
361
31F
  0
ENDBLK
  5
170
330
16D
100
AcDbEntity
  8
0
100
AcDbBlockEnd
  0
BLOCK
  5
189
330
187
100
AcDbEntity
  8
0
100
AcDbBlockBegin
  2
*Paper_Space4
 70
     0
 10
0.0
 20
0.0
 30
0.0
  3
*Paper_Space4
  1

  0
LINE
  5
198
330
187
100
AcDbEntity
  8
0
  6
Continuous
 62
     7
370
    25
100
AcDbLine
 10
176.0
 20
135.0
 30
0.0
 11
176.0
 21
0.0
 31
0.0
  0
LINE
  5
199
330
187
100
AcDbEntity
  8
0
  6
Continuous
 62
     7
370
    25
100
AcDbLine
 10
121.0
 20
135.0
 30
0.0
 11
121.0
 21
0.0
 31
0.0
  0
LINE
  5
19A
330
187
100
AcDbEntity
  8
0
  6
Continuous
 62
     7
370
    25
100
AcDbLine
 10
-121.0
 20
135.0
 30
0.0
 11
-121.0
 21
0.0
 31
0.0
  0
LINE
  5
19B
330
187
100
AcDbEntity
  8
0
  6
Continuous
 62
     7
370
    25
100
AcDbLine
 10
-176.0
 20
135.0
 30
0.0
 11
-176.0
 21
0.0
 31
0.0
  0
LINE
  5
19C
330
187
100
AcDbEntity
  8
0
  6
Continuous
 62
     7
370
    25
100
AcDbLine
 10
-176.0
 20
135.0
 30
0.0
 11
176.0
 21
135.0
 31
0.0
  0
LINE
  5
19D
330
187
100
AcDbEntity
  8
0
  6
Continuous
 62
     7
370
    25
100
AcDbLine
 10
-176.0
 20
0.0
 30
0.0
 11
176.0
 21
0.0
 31
0.0
  0
LINE
  5
19E
330
187
100
AcDbEntity
  8
0
  6
Continuous
 62
     7
370
    25
100
AcDbLine
 10
62.5
 20
-22.0
 30
0.0
 11
-62.5
 21
-22.0
 31
0.0
  0
LINE
  5
19F
330
187
100
AcDbEntity
  8
0
  6
Continuous
 62
     7
370
    25
100
AcDbLine
 10
-62.5
 20
-22.0
 30
0.0
 11
-62.5
 21
0.0
 31
0.0
  0
LINE
  5
1A0
330
187
100
AcDbEntity
  8
0
  6
Continuous
 62
     7
370
    25
100
AcDbLine
 10
62.5
 20
-22.0
 30
0.0
 11
62.5
 21
0.0
 31
0.0
  0
VIEWPORT
  5
320
330
187
100
AcDbEntity
  8
0
100
AcDbViewport
 10
0.0
 20
0.0
 30
0.0
 40
205.6
 41
156.0
 68
     1
 69
     1
 12
0.0
 22
0.0
 13
0.0
 23
0.0
 14
10.0
 24
10.0
 15
10.0
 25
10.0
 16
0.0
 26
0.0
 36
1.0
 17
0.0
 27
0.0
 37
0.0
 42
50.0
 43
0.0
 44
0.0
 45
465.9058365759
 50
0.0
 51
0.0
 72
   100
 90
   557152
  1

281
     0
 71
     1
 74
     0
110
0.0
120
0.0
130
0.0
111
1.0
121
0.0
131
0.0
112
0.0
122
1.0
132
0.0
 79
     0
146
0.0
170
     0
 61
     5
348
2F
292
     1
282
     1
141
0.0
142
0.0
 63
   256
361
321
  0
ENDBLK
  5
18A
330
187
100
AcDbEntity
  8
0
100
AcDbBlockEnd
  0
BLOCK
  5
1A3
330
1A1
100
AcDbEntity
  8
0
100
AcDbBlockBegin
  2
*Paper_Space5
 70
     0
 10
0.0
 20
0.0
 30
0.0
  3
*Paper_Space5
  1

  0
CIRCLE
  5
1A6
330
1A1
100
AcDbEntity
  8
0
  6
Continuous
 62
     7
370
    25
100
AcDbCircle
 10
0.0
 20
0.0
 30
0.0
 40
22.50000000000001
  0
LINE
  5
1B2
330
1A1
100
AcDbEntity
  8
0
  6
Continuous
 62
     7
370
    25
100
AcDbLine
 10
-80.0
 20
-62.5
 30
0.0
 11
80.0
 21
-62.5
 31
0.0
  0
LINE
  5
1B3
330
1A1
100
AcDbEntity
  8
0
  6
Continuous
 62
     7
370
    25
100
AcDbLine
 10
80.0
 20
-62.5
 30
0.0
 11
80.0
 21
62.5
 31
0.0
  0
LINE
  5
1B4
330
1A1
100
AcDbEntity
  8
0
  6
Continuous
 62
     7
370
    25
100
AcDbLine
 10
80.0
 20
62.5
 30
0.0
 11
-80.0
 21
62.5
 31
0.0
  0
LINE
  5
1B5
330
1A1
100
AcDbEntity
  8
0
  6
Continuous
 62
     7
370
    25
100
AcDbLine
 10
-80.0
 20
62.5
 30
0.0
 11
-80.0
 21
-62.5
 31
0.0
  0
LINE
  5
1B6
330
1A1
100
AcDbEntity
  8
0
  6
Continuous
 62
     7
370
    25
100
AcDbLine
 10
-246.0
 20
176.0
 30
0.0
 11
246.0
 21
176.0
 31
0.0
  0
LINE
  5
1B7
330
1A1
100
AcDbEntity
  8
0
  6
Continuous
 62
     7
370
    25
100
AcDbLine
 10
246.0
 20
-176.0
 30
0.0
 11
-246.0
 21
-176.0
 31
0.0
  0
LINE
  5
1B8
330
1A1
100
AcDbEntity
  8
0
  6
Continuous
 62
     7
370
    25
100
AcDbLine
 10
301.0
 20
121.0
 30
0.0
 11
301.0
 21
-121.0
 31
0.0
  0
LINE
  5
1B9
330
1A1
100
AcDbEntity
  8
0
  6
Continuous
 62
     7
370
    25
100
AcDbLine
 10
-301.0
 20
-121.0
 30
0.0
 11
-301.0
 21
121.0
 31
0.0
  0
ARC
  5
1BA
330
1A1
100
AcDbEntity
  8
0
  6
Continuous
 62
     7
370
    25
100
AcDbCircle
 10
246.0
 20
121.0
 30
0.0
 40
55.00000000000004
100
AcDbArc
 50
0.0
 51
90.0
  0
ARC
  5
1BB
330
1A1
100
AcDbEntity
  8
0
  6
Continuous
 62
     7
370
    25
100
AcDbCircle
 10
-246.0
 20
-121.0
 30
0.0
 40
55.0
100
AcDbArc
 50
180.0
 51
270.0
  0
ARC
  5
1BC
330
1A1
100
AcDbEntity
  8
0
  6
Continuous
 62
     7
370
    25
100
AcDbCircle
 10
246.0
 20
-121.0
 30
0.0
 40
55.00000000000006
100
AcDbArc
 50
270.0
 51
0.0
  0
ARC
  5
1BD
330
1A1
100
AcDbEntity
  8
0
  6
Continuous
 62
     7
370
    25
100
AcDbCircle
 10
-246.0
 20
121.0
 30
0.0
 40
55.00000000000014
100
AcDbArc
 50
90.0
 51
180.0
  0
VIEWPORT
  5
322
330
1A1
100
AcDbEntity
  8
0
100
AcDbViewport
 10
0.0
 20
0.0
 30
0.0
 40
205.6
 41
156.0
 68
     1
 69
     1
 12
0.0
 22
0.0
 13
0.0
 23
0.0
 14
10.0
 24
10.0
 15
10.0
 25
10.0
 16
0.0
 26
0.0
 36
1.0
 17
0.0
 27
0.0
 37
0.0
 42
50.0
 43
0.0
 44
0.0
 45
465.9058365759
 50
0.0
 51
0.0
 72
   100
 90
   557152
  1

281
     0
 71
     1
 74
     0
110
0.0
120
0.0
130
0.0
111
1.0
121
0.0
131
0.0
112
0.0
122
1.0
132
0.0
 79
     0
146
0.0
170
     0
 61
     5
348
2F
292
     1
282
     1
141
0.0
142
0.0
 63
   256
361
323
  0
ENDBLK
  5
1A4
330
1A1
100
AcDbEntity
  8
0
100
AcDbBlockEnd
  0
BLOCK
  5
1C0
330
1BE
100
AcDbEntity
  8
0
100
AcDbBlockBegin
  2
*Paper_Space6
 70
     0
 10
0.0
 20
0.0
 30
0.0
  3
*Paper_Space6
  1

  0
SPLINE
  5
1C4
330
1BE
100
AcDbEntity
  8
0
  6
Continuous
 62
     7
370
    25
100
AcDbSpline
210
0.0
220
0.0
230
1.0
 70
     8
 71
     3
 72
    11
 73
     7
 74
     0
 42
0.000000001
 43
0.00000001
 40
0.0
 40
0.0
 40
0.0
 40
0.0
 40
0.1998775611841725
 40
0.5332690153675336
 40
0.8756561572388872
 40
1.0
 40
1.0
 40
1.0
 40
1.0
 10
61.23419354211907
 20
12.30175909618843
 30
0.0
 10
61.23459226480784
 20
12.44644656376198
 30
0.0
 10
61.23565604832807
 20
12.83246960162503
 30
0.0
 10
60.88781634305116
 20
13.40909810623855
 30
0.0
 10
60.43101602514744
 20
13.84834983288943
 30
0.0
 10
60.09106936881705
 20
14.05635846635805
 30
0.0
 10
60.00050269342223
 20
14.11177495608037
 30
0.0
  0
SPLINE
  5
1C7
330
1BE
100
AcDbEntity
  8
0
  6
Continuous
 62
     7
370
    25
100
AcDbSpline
210
0.0
220
0.0
230
1.0
 70
     8
 71
     3
 72
    11
 73
     7
 74
     0
 42
0.000000001
 43
0.00000001
 40
0.0
 40
0.0
 40
0.0
 40
0.0
 40
0.1900744085023878
 40
0.552281311539221
 40
0.8611443205960564
 40
1.0
 40
1.0
 40
1.0
 40
1.0
 10
-60.00050269342221
 20
38.60401831076175
 30
0.0
 10
-60.14382063614055
 20
38.51341254375096
 30
0.0
 10
-60.56024608760045
 20
38.25014789791037
 30
0.0
 10
-61.01806599109426
 20
37.72165262116107
 30
0.0
 10
-61.28975086978087
 20
37.13268484520672
 30
0.0
 10
-61.24734524274048
 20
36.79521879308984
 30
0.0
 10
-61.23419354211907
 20
36.69055691689353
 30
0.0
  0
SPLINE
  5
1CA
330
1BE
100
AcDbEntity
  8
0
  6
Continuous
 62
     7
370
    25
100
AcDbSpline
210
0.0
220
0.0
230
1.0
 70
     8
 71
     3
 72
    13
 73
     9
 74
     0
 42
0.000000001
 43
0.00000001
 40
0.0
 40
0.0
 40
0.0
 40
0.0
 40
0.1005017783534413
 40
0.2890680691468769
 40
0.4772257373892238
 40
0.6652708703430991
 40
0.8541770335019145
 40
1.0
 40
1.0
 40
1.0
 40
1.0
 10
-18.48835001828436
 20
59.42242516224076
 30
0.0
 10
-18.64194976699468
 20
59.50312652836449
 30
0.0
 10
-19.08374078311966
 20
59.73524369549418
 30
0.0
 10
-19.95490262454962
 20
59.98998958765819
 30
0.0
 10
-21.07470404266366
 20
60.11295810288187
 30
0.0
 10
-22.20566710996916
 20
60.03657780862174
 30
0.0
 10
-23.1908577021468
 20
59.79964866301759
 30
0.0
 10
-23.71132015234928
 20
59.53689318840527
 30
0.0
 10
-23.93805685290828
 20
59.42242516224078
 30
0.0
  0
LWPOLYLINE
  5
1CC
330
1BE
100
AcDbEntity
  8
0
  6
Continuous
 62
     7
370
    25
100
AcDbPolyline
 90
       20
 70
   128
 43
0.0
 10
49.4974746831
 20
-172.2621115946
 10
52.841889566
 20
-174.0394365918
 10
56.4291228012
 20
-175.6512560382
 10
60.2346699484
 20
-177.0865595727
 10
64.2325352617
 20
-178.3355426167
 10
68.3954092673
 20
-179.3896733496
 10
72.6948553146
 20
-180.2417509896
 10
77.1015038276
 20
-180.8859549825
 10
81.5852529285
 20
-181.3178847617
 10
86.1154740646
 20
-181.5345898089
 10
90.661221232
 20
-181.5345898089
 10
95.1914423681
 20
-181.3178847617
 10
99.6751914691
 20
-180.8859549825
 10
104.081839982
 20
-180.2417509896
 10
108.3812860293
 20
-179.3896733496
 10
112.5441600349
 20
-178.3355426167
 10
116.5420253482
 20
-177.0865595727
 10
120.3475724954
 20
-175.6512560382
 10
123.9348057307
 20
-174.0394365918
 10
127.2792206136
 20
-172.2621115946
  0
LWPOLYLINE
  5
1CE
330
1BE
100
AcDbEntity
  8
0
  6
Continuous
 62
     7
370
    25
100
AcDbPolyline
 90
       20
 70
   128
 43
0.0
 10
49.4974746831
 20
-62.02910199
 10
52.841889566
 20
-63.8064269872
 10
56.4291228012
 20
-65.4182464336
 10
60.2346699484
 20
-66.8535499681
 10
64.2325352617
 20
-68.1025330121
 10
68.3954092673
 20
-69.156663745
 10
72.6948553146
 20
-70.008741385
 10
77.1015038276
 20
-70.6529453779
 10
81.5852529285
 20
-71.0848751571
 10
86.1154740646
 20
-71.3015802044
 10
90.661221232
 20
-71.3015802044
 10
95.1914423681
 20
-71.0848751571
 10
99.6751914691
 20
-70.6529453779
 10
104.081839982
 20
-70.008741385
 10
108.3812860293
 20
-69.156663745
 10
112.5441600349
 20
-68.1025330121
 10
116.5420253482
 20
-66.8535499681
 10
120.3475724954
 20
-65.4182464336
 10
123.9348057307
 20
-63.8064269872
 10
127.2792206136
 20
-62.02910199
  0
LWPOLYLINE
  5
1D0
330
1BE
100
AcDbEntity
  8
0
  6
Continuous
 62
     7
370
    25
100
AcDbPolyline
 90
       20
 70
   128
 43
0.0
 10
298.3990616607
 20
36.7562795405
 10
301.4778124465
 20
38.6869691566
 10
304.2698681453
 20
40.7578348236
 10
306.7561561858
 20
42.9547304295
 10
308.9196926995
 20
45.2626489494
 10
310.7456985383
 20
47.6658249598
 10
312.2217002307
 20
50.1478423317
 10
313.3376151885
 20
52.6917463697
 10
314.085820581
 20
55.2801596298
 10
314.4612054068
 20
57.8954006247
 10
314.4612054068
 20
60.5196046066
 10
314.085820581
 20
63.1348456016
 10
313.3376151885
 20
65.7232588616
 10
312.2217002307
 20
68.2671628996
 10
310.7456985383
 20
70.7491802715
 10
308.9196926995
 20
73.1523562819
 10
306.7561561858
 20
75.4602748018
 10
304.2698681453
 20
77.6571704077
 10
301.4778124465
 20
79.7280360748
 10
298.3990616607
 20
81.6587256908
  0
LWPOLYLINE
  5
1D3
330
1BE
100
AcDbEntity
  8
0
  6
Continuous
 62
     7
370
    25
100
AcDbPolyline
 90
       20
 70
   128
 43
0.0
 10
-298.3990616607
 20
183.7097396686
 10
-301.4778124465
 20
181.7790500526
 10
-304.2698681453
 20
179.7081843855
 10
-306.7561561858
 20
177.5112887797
 10
-308.9196926995
 20
175.2033702597
 10
-310.7456985383
 20
172.8001942493
 10
-312.2217002307
 20
170.3181768775
 10
-313.3376151885
 20
167.7742728394
 10
-314.085820581
 20
165.1858595794
 10
-314.4612054068
 20
162.5706185845
 10
-314.4612054068
 20
159.9464146025
 10
-314.085820581
 20
157.3311736076
 10
-313.3376151885
 20
154.7427603475
 10
-312.2217002307
 20
152.1988563095
 10
-310.7456985383
 20
149.7168389377
 10
-308.9196926995
 20
147.3136629273
 10
-306.7561561858
 20
145.0057444073
 10
-304.2698681453
 20
142.8088488015
 10
-301.4778124465
 20
140.7379831344
 10
-298.3990616607
 20
138.8072935184
  0
LWPOLYLINE
  5
1D5
330
1BE
100
AcDbEntity
  8
0
  6
Continuous
 62
     7
370
    25
100
AcDbPolyline
 90
       20
 70
   128
 43
0.0
 10
-49.4974746831
 20
282.4951211992
 10
-52.841889566
 20
284.2724461963
 10
-56.4291228012
 20
285.8842656428
 10
-60.2346699484
 20
287.3195691772
 10
-64.2325352617
 20
288.5685522213
 10
-68.3954092673
 20
289.6226829542
 10
-72.6948553146
 20
290.4747605942
 10
-77.1015038276
 20
291.1189645871
 10
-81.5852529285
 20
291.5508943663
 10
-86.1154740646
 20
291.7675994135
 10
-90.661221232
 20
291.7675994135
 10
-95.1914423681
 20
291.5508943663
 10
-99.6751914691
 20
291.1189645871
 10
-104.081839982
 20
290.4747605942
 10
-108.3812860293
 20
289.6226829542
 10
-112.5441600349
 20
288.5685522213
 10
-116.5420253482
 20
287.3195691772
 10
-120.3475724954
 20
285.8842656428
 10
-123.9348057307
 20
284.2724461963
 10
-127.2792206136
 20
282.4951211992
  0
LWPOLYLINE
  5
1D6
330
1BE
100
AcDbEntity
  8
0
  6
Continuous
 62
     7
370
    25
100
AcDbPolyline
 90
       17
 70
   128
 43
0.0
 10
-60.811183182
 20
275.9638563046
 10
-63.6470095659
 20
277.4476261296
 10
-66.7211085606
 20
278.7637885401
 10
-70.0038749121
 20
279.8996681725
 10
-73.4636937861
 20
280.8443258851
 10
-77.0672452354
 20
281.5886641077
 10
-80.7798250897
 20
282.1255144563
 10
-84.5656791755
 20
282.4497067686
 10
-88.3883476483
 20
282.5581188954
 10
-92.2110161212
 20
282.4497067686
 10
-95.9968702069
 20
282.1255144563
 10
-99.7094500612
 20
281.5886641077
 10
-103.3130015106
 20
280.8443258851
 10
-106.7728203845
 20
279.8996681725
 10
-110.0555867361
 20
278.7637885401
 10
-113.1296857307
 20
277.4476261296
 10
-115.9655121146
 20
275.9638563046
  0
LWPOLYLINE
  5
1D8
330
1BE
100
AcDbEntity
  8
0
  6
Continuous
 62
     7
370
    25
100
AcDbPolyline
 90
       17
 70
   128
 43
0.0
 10
-287.0853531617
 20
177.178474774
 10
-289.6555963766
 20
175.541387049
 10
-291.9355035753
 20
173.7667474737
 10
-293.903118005
 20
171.8716467973
 10
-295.5394904634
 20
169.8743358753
 10
-296.828861789
 20
167.7940499037
 10
-297.7588146312
 20
165.6508231737
 10
-298.3203930357
 20
163.4652961303
 10
-298.5081886955
 20
161.2585165935
 10
-298.3203930357
 20
159.0517370567
 10
-297.7588146312
 20
156.8662100133
 10
-296.828861789
 20
154.7229832833
 10
-295.5394904634
 20
152.6426973117
 10
-293.903118005
 20
150.6453863897
 10
-291.9355035753
 20
148.7502857133
 10
-289.6555963766
 20
146.975646138
 10
-287.0853531617
 20
145.338558413
  0
LWPOLYLINE
  5
1DA
330
1BE
100
AcDbEntity
  8
0
  6
Continuous
 62
     7
370
    25
100
AcDbPolyline
 90
       17
 70
   128
 43
0.0
 10
60.811183182
 20
-55.4978370954
 10
63.6470095659
 20
-56.9816069205
 10
66.7211085606
 20
-58.2977693309
 10
70.0038749121
 20
-59.4336489634
 10
73.4636937861
 20
-60.378306676
 10
77.0672452354
 20
-61.1226448986
 10
80.7798250897
 20
-61.6594952472
 10
84.5656791755
 20
-61.9836875595
 10
88.3883476483
 20
-62.0920996862
 10
92.2110161212
 20
-61.9836875595
 10
95.9968702069
 20
-61.6594952472
 10
99.7094500612
 20
-61.1226448986
 10
103.3130015106
 20
-60.378306676
 10
106.7728203845
 20
-59.4336489634
 10
110.0555867361
 20
-58.2977693309
 10
113.1296857307
 20
-56.9816069205
 10
115.9655121146
 20
-55.4978370954
  0
LWPOLYLINE
  5
1DC
330
1BE
100
AcDbEntity
  8
0
  6
Continuous
 62
     7
370
    25
100
AcDbPolyline
 90
       17
 70
   128
 43
0.0
 10
287.0853531617
 20
43.2875444351
 10
289.6555963766
 20
44.9246321601
 10
291.9355035753
 20
46.6992717355
 10
293.903118005
 20
48.5943724119
 10
295.5394904634
 20
50.5916833339
 10
296.828861789
 20
52.6719693054
 10
297.7588146312
 20
54.8151960354
 10
298.3203930357
 20
57.0007230789
 10
298.5081886955
 20
59.2075026157
 10
298.3203930357
 20
61.4142821524
 10
297.7588146312
 20
63.5998091959
 10
296.828861789
 20
65.7430359259
 10
295.5394904634
 20
67.8233218975
 10
293.903118005
 20
69.8206328194
 10
291.9355035753
 20
71.7157334958
 10
289.6555963766
 20
73.4903730712
 10
287.0853531617
 20
75.1274607962
  0
LWPOLYLINE
  5
1EA
330
1BE
100
AcDbEntity
  8
0
  6
Continuous
 62
     7
370
    25
100
AcDbPolyline
 90
       16
 70
   128
 43
0.0
 10
-64.346717088
 20
188.186050777
 10
-66.9914543526
 20
189.5607645536
 10
-69.8706204578
 20
190.7683561304
 10
-72.9526706572
 20
191.7955948813
 10
-76.2038373638
 20
192.6312261637
 10
-79.5885001148
 20
193.2660946263
 10
-83.069575837
 20
193.6932445175
 10
-86.6089251361
 20
193.9079958936
 10
-90.1677701606
 20
193.9079958936
 10
-93.7071194597
 20
193.6932445175
 10
-97.1881951818
 20
193.2660946263
 10
-100.5728579329
 20
192.6312261637
 10
-103.8240246395
 20
191.7955948813
 10
-106.9060748388
 20
190.7683561304
 10
-109.785240944
 20
189.5607645536
 10
-112.4299782087
 20
188.186050777
  0
LWPOLYLINE
  5
1EB
330
1BE
100
AcDbEntity
  8
0
  6
Continuous
 62
     7
370
    25
100
AcDbPolyline
 90
       11
 70
   128
 43
0.0
 10
298.3990616607
 20
-73.476730064
 10
301.4778124465
 20
-71.546040448
 10
304.2698681453
 20
-69.4751747809
 10
306.7561561858
 20
-67.2782791751
 10
308.9196926995
 20
-64.9703606552
 10
310.7456985383
 20
-62.5671846448
 10
312.2217002307
 20
-60.0851672729
 10
313.3376151885
 20
-57.5412632349
 10
314.085820581
 20
-54.9528499748
 10
314.4612054068
 20
-52.3376089799
 10
314.5081886955
 20
-51.0255069889
  0
LWPOLYLINE
  5
1EE
330
1BE
100
AcDbEntity
  8
0
  6
Continuous
 62
     7
370
    25
100
AcDbPolyline
 90
       11
 70
   128
 43
0.0
 10
-314.5081886955
 20
51.0255069889
 10
-314.4612054068
 20
49.7134049979
 10
-314.085820581
 20
47.098164003
 10
-313.3376151885
 20
44.509750743
 10
-312.2217002307
 20
41.965846705
 10
-310.7456985383
 20
39.4838293331
 10
-308.9196926995
 20
37.0806533227
 10
-306.7561561858
 20
34.7727348027
 10
-304.2698681453
 20
32.5758391969
 10
-301.4778124465
 20
30.5049735298
 10
-298.3990616607
 20
28.5742839138
  0
LWPOLYLINE
  5
1F1
330
1BE
100
AcDbEntity
  8
0
  6
Continuous
 62
     7
370
    25
100
AcDbPolyline
 90
       17
 70
   128
 43
0.0
 10
-115.9655121146
 20
194.309775116
 10
-113.1296857307
 20
195.793544941
 10
-110.0555867361
 20
197.1097073515
 10
-106.7728203845
 20
198.2455869839
 10
-103.3130015106
 20
199.1902446965
 10
-99.7094500612
 20
199.9345829191
 10
-95.9968702069
 20
200.4714332677
 10
-92.2110161212
 20
200.79562558
 10
-88.3883476483
 20
200.9040377068
 10
-84.5656791755
 20
200.79562558
 10
-80.7798250897
 20
200.4714332677
 10
-77.0672452354
 20
199.9345829191
 10
-73.4636937861
 20
199.1902446965
 10
-70.0038749121
 20
198.2455869839
 10
-66.7211085606
 20
197.1097073515
 10
-63.6470095659
 20
195.793544941
 10
-60.811183182
 20
194.309775116
  0
LINE
  5
215
330
1BE
100
AcDbEntity
  8
0
  6
Continuous
 62
     7
370
    25
100
AcDbLine
 10
314.5081886955
 20
-51.0255069889
 30
0.0
 11
314.5081886955
 21
59.2075026157
 31
0.0
  0
LINE
  5
216
330
1BE
100
AcDbEntity
  8
0
  6
Continuous
 62
     7
370
    25
100
AcDbLine
 10
-314.5081886955
 20
161.2585165935
 30
0.0
 11
-314.5081886955
 21
51.0255069889
 31
0.0
  0
LINE
  5
217
330
1BE
100
AcDbEntity
  8
0
  6
Continuous
 62
     7
370
    25
100
AcDbLine
 10
61.2756492761
 20
8.4361926889
 30
0.0
 11
61.2756492761
 21
12.2500363292
 31
0.0
  0
LINE
  5
218
330
1BE
100
AcDbEntity
  8
0
  6
Continuous
 62
     7
370
    25
100
AcDbLine
 10
60.0005026934
 20
14.1117749561
 30
0.0
 11
-18.4883500183
 21
59.4224251622
 31
0.0
  0
LINE
  5
219
330
1BE
100
AcDbEntity
  8
0
  6
Continuous
 62
     7
370
    25
100
AcDbLine
 10
-61.2756492761
 20
36.7422796839
 30
0.0
 11
-61.2756492761
 21
32.9284360436
 31
0.0
  0
LINE
  5
21A
330
1BE
100
AcDbEntity
  8
0
  6
Continuous
 62
     7
370
    25
100
AcDbLine
 10
-23.9380568529
 20
59.4224251622
 30
0.0
 11
-60.0005026934
 21
38.6040183108
 31
0.0
  0
LINE
  5
21B
330
1BE
100
AcDbEntity
  8
0
  6
Continuous
 62
     7
370
    25
100
AcDbLine
 10
127.2792206136
 20
-62.02910199
 30
0.0
 11
127.2792206136
 21
-172.2621115946
 31
0.0
  0
LINE
  5
21C
330
1BE
100
AcDbEntity
  8
0
  6
Continuous
 62
     7
370
    25
100
AcDbLine
 10
49.4974746831
 20
-62.02910199
 30
0.0
 11
49.4974746831
 21
-172.2621115946
 31
0.0
  0
LINE
  5
21D
330
1BE
100
AcDbEntity
  8
0
  6
Continuous
 62
     7
370
    25
100
AcDbLine
 10
298.3990616607
 20
81.6587256908
 30
0.0
 11
-49.4974746831
 21
282.4951211992
 31
0.0
  0
LINE
  5
21E
330
1BE
100
AcDbEntity
  8
0
  6
Continuous
 62
     7
370
    25
100
AcDbLine
 10
127.2792206136
 20
-62.02910199
 30
0.0
 11
298.3990616607
 21
36.7562795405
 31
0.0
  0
LINE
  5
21F
330
1BE
100
AcDbEntity
  8
0
  6
Continuous
 62
     7
370
    25
100
AcDbLine
 10
-298.3990616607
 20
138.8072935184
 30
0.0
 11
49.4974746831
 21
-62.02910199
 31
0.0
  0
LINE
  5
220
330
1BE
100
AcDbEntity
  8
0
  6
Continuous
 62
     7
370
    25
100
AcDbLine
 10
-127.2792206136
 20
282.4951211992
 30
0.0
 11
-298.3990616607
 21
183.7097396686
 31
0.0
  0
LINE
  5
221
330
1BE
100
AcDbEntity
  8
0
  6
Continuous
 62
     7
370
    25
100
AcDbLine
 10
-115.9655121146
 20
275.9638563046
 30
0.0
 11
-287.0853531617
 21
177.178474774
 31
0.0
  0
LINE
  5
222
330
1BE
100
AcDbEntity
  8
0
  6
Continuous
 62
     7
370
    25
100
AcDbLine
 10
-287.0853531617
 20
145.338558413
 30
0.0
 11
60.811183182
 21
-55.4978370954
 31
0.0
  0
LINE
  5
223
330
1BE
100
AcDbEntity
  8
0
  6
Continuous
 62
     7
370
    25
100
AcDbLine
 10
115.9655121146
 20
-55.4978370954
 30
0.0
 11
287.0853531617
 21
43.2875444351
 31
0.0
  0
LINE
  5
224
330
1BE
100
AcDbEntity
  8
0
  6
Continuous
 62
     7
370
    25
100
AcDbLine
 10
287.0853531617
 20
75.1274607962
 30
0.0
 11
-60.811183182
 21
275.9638563046
 31
0.0
  0
LINE
  5
225
330
1BE
100
AcDbEntity
  8
0
  6
Continuous
 62
     7
370
    25
100
AcDbLine
 10
298.3990616607
 20
36.7562795405
 30
0.0
 11
298.3990616607
 21
-73.476730064
 31
0.0
  0
LINE
  5
226
330
1BE
100
AcDbEntity
  8
0
  6
Continuous
 62
     7
370
    25
100
AcDbLine
 10
127.2792206136
 20
-172.2621115946
 30
0.0
 11
298.3990616607
 21
-73.476730064
 31
0.0
  0
LINE
  5
227
330
1BE
100
AcDbEntity
  8
0
  6
Continuous
 62
     7
370
    25
100
AcDbLine
 10
-298.3990616607
 20
28.5742839138
 30
0.0
 11
49.4974746831
 21
-172.2621115946
 31
0.0
  0
LINE
  5
228
330
1BE
100
AcDbEntity
  8
0
  6
Continuous
 62
     7
370
    25
100
AcDbLine
 10
-298.3990616607
 20
138.8072935184
 30
0.0
 11
-298.3990616607
 21
28.5742839138
 31
0.0
  0
LINE
  5
229
330
1BE
100
AcDbEntity
  8
0
  6
Continuous
 62
     7
370
    25
100
AcDbLine
 10
-64.346717088
 20
34.7013257544
 30
0.0
 11
17.6776695297
 21
-12.6503447314
 31
0.0
  0
LINE
  5
22A
330
1BE
100
AcDbEntity
  8
0
  6
Continuous
 62
     7
370
    25
100
AcDbLine
 10
24.7487373415
 20
-12.6503447314
 30
0.0
 11
64.346717088
 21
10.2090823997
 31
0.0
  0
LINE
  5
22B
330
1BE
100
AcDbEntity
  8
0
  6
Continuous
 62
     7
370
    25
100
AcDbLine
 10
64.346717088
 20
14.2911229588
 30
0.0
 11
-17.6776695297
 21
61.6427934445
 31
0.0
  0
LINE
  5
22C
330
1BE
100
AcDbEntity
  8
0
  6
Continuous
 62
     7
370
    25
100
AcDbLine
 10
-24.7487373415
 20
61.6427934445
 30
0.0
 11
-64.346717088
 21
38.7833663135
 31
0.0
  0
LINE
  5
22D
330
1BE
100
AcDbEntity
  8
0
  6
Continuous
 62
     7
370
    25
100
AcDbLine
 10
-60.811183182
 20
194.309775116
 30
0.0
 11
-60.811183182
 21
275.9638563046
 31
0.0
  0
LINE
  5
22E
330
1BE
100
AcDbEntity
  8
0
  6
Continuous
 62
     7
370
    25
100
AcDbLine
 10
-115.9655121146
 20
194.309775116
 30
0.0
 11
-115.9655121146
 21
275.9638563046
 31
0.0
  0
LINE
  5
22F
330
1BE
100
AcDbEntity
  8
0
  6
Continuous
 62
     7
370
    25
100
AcDbLine
 10
59.7505230103
 20
14.0870209308
 30
0.0
 11
-18.7383297014
 21
59.397671137
 31
0.0
  0
LINE
  5
230
330
1BE
100
AcDbEntity
  8
0
  6
Continuous
 62
     7
370
    25
100
AcDbLine
 10
23.6880771697
 20
-9.588814312
 30
0.0
 11
59.7505230103
 21
11.2295925395
 31
0.0
  0
LINE
  5
231
330
1BE
100
AcDbEntity
  8
0
  6
Continuous
 62
     7
370
    25
100
AcDbLine
 10
-59.7505230103
 20
35.7218358941
 30
0.0
 11
18.7383297014
 21
-9.588814312
 31
0.0
  0
LINE
  5
232
330
1BE
100
AcDbEntity
  8
0
  6
Continuous
 62
     7
370
    25
100
AcDbLine
 10
-23.6880771697
 20
59.397671137
 30
0.0
 11
-59.7505230103
 21
38.5792642855
 31
0.0
  0
LINE
  5
233
330
1BE
100
AcDbEntity
  8
0
  6
Continuous
 62
     7
370
    25
100
AcDbLine
 10
18.3847763109
 20
-10.2011867459
 30
0.0
 11
-60.1040764009
 21
35.1094634602
 31
0.0
  0
LINE
  5
234
330
1BE
100
AcDbEntity
  8
0
  6
Continuous
 62
     7
370
    25
100
AcDbLine
 10
60.1040764009
 20
10.6172201056
 30
0.0
 11
24.0416305603
 21
-10.2011867459
 31
0.0
  0
LINE
  5
235
330
1BE
100
AcDbEntity
  8
0
  6
Continuous
 62
    60
370
    25
100
AcDbLine
 10
-112.4299782087
 20
188.186050777
 30
0.0
 11
-236.8687036192
 21
116.3491036899
 31
0.0
  0
LINE
  5
236
330
1BE
100
AcDbEntity
  8
0
  6
Continuous
 62
    60
370
    25
100
AcDbLine
 10
236.8687036192
 20
14.2980897121
 30
0.0
 11
-64.346717088
 21
188.186050777
 31
0.0
  0
LINE
  5
237
330
1BE
100
AcDbEntity
  8
0
  6
Continuous
 62
    60
370
    25
100
AcDbLine
 10
287.0853531617
 20
43.2875444351
 30
0.0
 11
287.0853531617
 21
75.1274607962
 31
0.0
  0
LINE
  5
238
330
1BE
100
AcDbEntity
  8
0
  6
Continuous
 62
    60
370
    25
100
AcDbLine
 10
-60.811183182
 20
194.309775116
 30
0.0
 11
243.9403461015
 21
18.3804620214
 31
0.0
  0
LINE
  5
239
330
1BE
100
AcDbEntity
  8
0
  6
Continuous
 62
    60
370
    25
100
AcDbLine
 10
64.346717088
 20
10.2090823997
 30
0.0
 11
64.346717088
 21
14.2911229588
 31
0.0
  0
LINE
  5
23A
330
1BE
100
AcDbEntity
  8
0
  6
Continuous
 62
    60
370
    25
100
AcDbLine
 10
-17.6776695297
 20
58.9544292777
 30
0.0
 11
-17.6776695297
 21
61.6427934445
 31
0.0
  0
LINE
  5
23B
330
1BE
100
AcDbEntity
  8
0
  6
Continuous
 62
    60
370
    25
100
AcDbLine
 10
-287.0853531617
 20
145.338558413
 30
0.0
 11
-287.0853531617
 21
177.178474774
 31
0.0
  0
LINE
  5
23C
330
1BE
100
AcDbEntity
  8
0
  6
Continuous
 62
    60
370
    25
100
AcDbLine
 10
-64.346717088
 20
34.7013257544
 30
0.0
 11
-64.346717088
 21
38.7833663135
 31
0.0
  0
LINE
  5
23D
330
1BE
100
AcDbEntity
  8
0
  6
Continuous
 62
    60
370
    25
100
AcDbLine
 10
-24.7487373415
 20
58.9544292777
 30
0.0
 11
-24.7487373415
 21
61.6427934445
 31
0.0
  0
LINE
  5
23E
330
1BE
100
AcDbEntity
  8
0
  6
Continuous
 62
    60
370
    25
100
AcDbLine
 10
-243.9403461015
 20
120.4314759992
 30
0.0
 11
-115.9655121146
 21
194.309775116
 31
0.0
  0
LINE
  5
23F
330
1BE
100
AcDbEntity
  8
0
  6
Continuous
 62
    60
370
    25
100
AcDbLine
 10
24.0416305603
 20
-10.2011867459
 30
0.0
 11
24.0416305603
 21
-12.9895426651
 31
0.0
  0
LINE
  5
240
330
1BE
100
AcDbEntity
  8
0
  6
Continuous
 62
    60
370
    25
100
AcDbLine
 10
18.3847763109
 20
-10.2011867459
 30
0.0
 11
18.3847763109
 21
-12.9895426651
 31
0.0
  0
LINE
  5
241
330
1BE
100
AcDbEntity
  8
0
  6
Continuous
 62
    60
370
    25
100
AcDbLine
 10
-60.1040764009
 20
35.1094634602
 30
0.0
 11
-60.1040764009
 21
32.2521014189
 31
0.0
  0
LINE
  5
242
330
1BE
100
AcDbEntity
  8
0
  6
Continuous
 62
    60
370
    25
100
AcDbLine
 10
60.1040764009
 20
10.6172201056
 30
0.0
 11
60.1040764009
 21
7.7598580642
 31
0.0
  0
ARC
  5
243
330
1BE
100
AcDbEntity
  8
0
  6
Continuous
 62
     7
370
    25
100
AcDbCircle
 10
21.2132034356
 20
-5.8267893066
 30
0.0
 40
7.685109539558571
100
AcDbArc
 50
242.6096722366
 51
297.3903277634
  0
ARC
  5
244
330
1BE
100
AcDbEntity
  8
0
  6
Continuous
 62
     7
370
    25
100
AcDbCircle
 10
63.572081954
 20
12.2501026792
 30
0.0
 40
2.183076584171357
100
AcDbArc
 50
290.7834207995
 51
69.2165792005
  0
ARC
  5
245
330
1BE
100
AcDbEntity
  8
0
  6
Continuous
 62
     7
370
    25
100
AcDbCircle
 10
-21.2132034356
 20
54.8192380197
 30
0.0
 40
7.685109539558617
100
AcDbArc
 50
62.6096722366
 51
117.3903277634
  0
ARC
  5
246
330
1BE
100
AcDbEntity
  8
0
  6
Continuous
 62
     7
370
    25
100
AcDbCircle
 10
-63.572081954
 20
36.7423460339
 30
0.0
 40
2.183076584171375
100
AcDbArc
 50
110.7834207995
 51
249.2165792005
  0
ARC
  5
247
330
1BE
100
AcDbEntity
  8
0
  6
Continuous
 62
     7
370
    25
100
AcDbCircle
 10
-68.4872636889
 20
194.6590793773
 30
0.0
 40
7.684024037860422
100
AcDbArc
 50
302.60547834
 51
357.3945215143
  0
ARC
  5
248
330
1BE
100
AcDbEntity
  8
0
  6
Continuous
 62
     7
370
    25
100
AcDbCircle
 10
-108.2894316078
 20
194.6590793773
 30
0.0
 40
7.684024037860417
100
AcDbArc
 50
182.6054784857
 51
237.39452166
  0
ARC
  5
249
330
1BE
100
AcDbEntity
  8
0
  6
Continuous
 62
     7
370
    25
100
AcDbCircle
 10
21.2132034356
 20
-4.7423424061
 30
0.0
 40
6.14808763164688
100
AcDbArc
 50
242.6096722366
 51
297.3903277634
  0
ARC
  5
24A
330
1BE
100
AcDbEntity
  8
0
  6
Continuous
 62
     7
370
    25
100
AcDbCircle
 10
19.1523843615
 20
-10.2361171721
 30
0.0
 40
0.7684024037860196
100
AcDbArc
 50
122.60547834
 51
177.3945215143
  0
ARC
  5
24B
330
1BE
100
AcDbEntity
  8
0
  6
Continuous
 62
     7
370
    25
100
AcDbCircle
 10
21.2132034356
 20
-4.8123255147
 30
0.0
 40
5.379576677691031
100
AcDbArc
 50
242.6096722366
 51
297.3903277634
  0
ARC
  5
24C
330
1BE
100
AcDbEntity
  8
0
  6
Continuous
 62
     7
370
    25
100
AcDbCircle
 10
23.2740225097
 20
-10.2361171721
 30
0.0
 40
0.7684024037860645
100
AcDbArc
 50
2.6054784857
 51
57.39452166
  0
ARC
  5
24D
330
1BE
100
AcDbEntity
  8
0
  6
Continuous
 62
     7
370
    25
100
AcDbCircle
 10
-21.2132034356
 20
54.6211823396
 30
0.0
 40
5.379576677691036
100
AcDbArc
 50
62.6096722366
 51
117.3903277634
  0
ARC
  5
24E
330
1BE
100
AcDbEntity
  8
0
  6
Continuous
 62
     7
370
    25
100
AcDbCircle
 10
59.2082784165
 20
12.6583067351
 30
0.0
 40
1.528153608919952
100
AcDbArc
 50
290.7834207995
 51
69.2165792005
  0
ARC
  5
24F
330
1BE
100
AcDbEntity
  8
0
  6
Continuous
 62
     7
370
    25
100
AcDbCircle
 10
-59.2082784165
 20
37.1505500898
 30
0.0
 40
1.528153608919956
100
AcDbArc
 50
110.7834207995
 51
249.2165792005
  0
ARC
  5
250
330
1BE
100
AcDbEntity
  8
0
  6
Continuous
 62
     7
370
    25
100
AcDbCircle
 10
-59.3364683502
 20
35.0745330341
 30
0.0
 40
0.7684024037860504
100
AcDbArc
 50
122.60547834
 51
177.3945215143
  0
ARC
  5
251
330
1BE
100
AcDbEntity
  8
0
  6
Continuous
 62
     7
370
    25
100
AcDbCircle
 10
59.3364683502
 20
10.5822896794
 30
0.0
 40
0.7684024037860523
100
AcDbArc
 50
2.6054784857
 51
57.39452166
  0
ARC
  5
252
330
1BE
100
AcDbEntity
  8
0
  6
Continuous
 62
    60
370
    25
100
AcDbCircle
 10
59.8956283603
 20
13.896222233
 30
0.0
 40
0.2397075420448056
100
AcDbArc
 50
64.0420378335
 51
127.2535481774
  0
ARC
  5
253
330
1BE
100
AcDbEntity
  8
0
  6
Continuous
 62
    60
370
    25
100
AcDbCircle
 10
59.3230277537
 20
12.4096114898
 30
0.0
 40
1.955173614672514
100
AcDbArc
 50
293.5455434616
 51
356.6558058578
  0
ARC
  5
254
330
1BE
100
AcDbEntity
  8
0
  6
Continuous
 62
    60
370
    25
100
AcDbCircle
 10
-18.591869674
 20
59.1932304724
 30
0.0
 40
0.251488617950893
100
AcDbArc
 50
65.6928809539
 51
125.6175774752
  0
ARC
  5
255
330
1BE
100
AcDbEntity
  8
0
  6
Continuous
 62
    60
370
    25
100
AcDbCircle
 10
-59.2616546816
 20
36.9562768007
 30
0.0
 40
2.029875333030405
100
AcDbArc
 50
187.3453552241
 51
245.4799558147
  0
ARC
  5
256
330
1BE
100
AcDbEntity
  8
0
  6
Continuous
 62
    60
370
    25
100
AcDbCircle
 10
-59.8956284234
 20
38.3884653771
 30
0.0
 40
0.2397077478359663
100
AcDbArc
 50
52.7464702929
 51
115.9577781543
  0
ARC
  5
257
330
1BE
100
AcDbEntity
  8
0
  6
Continuous
 62
    60
370
    25
100
AcDbCircle
 10
-23.8345371972
 20
59.1932304724
 30
0.0
 40
0.2514886179508573
100
AcDbArc
 50
54.3824225248
 51
114.3071190461
  0
VIEWPORT
  5
324
330
1BE
100
AcDbEntity
  8
0
100
AcDbViewport
 10
0.0
 20
0.0
 30
0.0
 40
205.6
 41
156.0
 68
     1
 69
     1
 12
0.0
 22
0.0
 13
0.0
 23
0.0
 14
10.0
 24
10.0
 15
10.0
 25
10.0
 16
0.0
 26
0.0
 36
1.0
 17
0.0
 27
0.0
 37
0.0
 42
50.0
 43
0.0
 44
0.0
 45
465.9058365759
 50
0.0
 51
0.0
 72
   100
 90
   557152
  1

281
     0
 71
     1
 74
     0
110
0.0
120
0.0
130
0.0
111
1.0
121
0.0
131
0.0
112
0.0
122
1.0
132
0.0
 79
     0
146
0.0
170
     0
 61
     5
348
2F
292
     1
282
     1
141
0.0
142
0.0
 63
   256
361
325
  0
ENDBLK
  5
1C1
330
1BE
100
AcDbEntity
  8
0
100
AcDbBlockEnd
  0
BLOCK
  5
25A
330
258
100
AcDbEntity
  8
0
100
AcDbBlockBegin
  2
*Paper_Space7
 70
     0
 10
0.0
 20
0.0
 30
0.0
  3
*Paper_Space7
  1

  0
SPLINE
  5
25E
330
258
100
AcDbEntity
  8
0
  6
Continuous
 62
     7
370
    25
100
AcDbSpline
210
0.0
220
0.0
230
1.0
 70
     8
 71
     3
 72
    12
 73
     8
 74
     0
 42
0.000000001
 43
0.00000001
 40
0.0
 40
0.0
 40
0.0
 40
0.0
 40
0.1593557351183039
 40
0.3890692489971267
 40
0.6284011094452707
 40
0.8877024281552043
 40
1.0
 40
1.0
 40
1.0
 40
1.0
 10
64.7386853402102
 20
23.89630297115023
 30
0.0
 10
64.74046874026752
 20
24.05122201116739
 30
0.0
 10
64.74482293637122
 20
24.42945900721955
 30
0.0
 10
64.39532551596498
 20
24.97358474331413
 30
0.0
 10
63.81042381732497
 20
25.48000753022701
 30
0.0
 10
63.14626031940828
 20
25.80630635362819
 30
0.0
 10
62.68195639206958
 20
25.94454801056761
 30
0.0
 10
62.5416432615317
 20
25.98632478331018
 30
0.0
  0
SPLINE
  5
263
330
258
100
AcDbEntity
  8
0
  6
Continuous
 62
     7
370
    25
100
AcDbSpline
210
0.0
220
0.0
230
1.0
 70
     8
 71
     3
 72
    11
 73
     7
 74
     0
 42
0.000000001
 43
0.00000001
 40
0.0
 40
0.0
 40
0.0
 40
0.0
 40
0.1548579912141821
 40
0.4594767917469196
 40
0.7678876007733694
 40
1.0
 40
1.0
 40
1.0
 40
1.0
 10
-37.82005195578989
 20
52.85859864581119
 30
0.0
 10
-38.0108235850195
 20
52.85129390648333
 30
0.0
 10
-38.57685918620152
 20
52.82962012546243
 30
0.0
 10
-39.45183146332749
 20
52.60511284710947
 30
0.0
 10
-40.28754011684703
 20
52.25192600948283
 30
0.0
 10
-40.67265885897594
 20
51.9282496310091
 30
0.0
 10
-40.83803720695029
 20
51.7892559677706
 30
0.0
  0
SPLINE
  5
264
330
258
100
AcDbEntity
  8
0
  6
Continuous
 62
     7
370
    25
100
AcDbSpline
210
0.0
220
0.0
230
1.0
 70
     8
 71
     3
 72
    10
 73
     6
 74
     0
 42
0.000000001
 43
0.00000001
 40
0.0
 40
0.0
 40
0.0
 40
0.0
 40
0.2612278100065863
 40
0.7572996007983708
 40
1.0
 40
1.0
 40
1.0
 40
1.0
 10
-35.62876824466203
 20
52.66693909322543
 30
0.0
 10
-35.80850439256422
 20
52.70974473108311
 30
0.0
 10
-36.3295596088979
 20
52.83383830466059
 30
0.0
 10
-37.08864843961719
 20
52.91924900295636
 30
0.0
 10
-37.63918911019765
 20
52.8735963809012
 30
0.0
 10
-37.82005195578989
 20
52.85859864581119
 30
0.0
  0
LWPOLYLINE
  5
266
330
258
100
AcDbEntity
  8
0
  6
Continuous
 62
     7
370
    25
100
AcDbPolyline
 90
       20
 70
   128
 43
0.0
 10
135.428469481
 20
-139.2995952898
 10
139.5330463847
 20
-140.305735813
 10
143.7849250163
 20
-141.1338660144
 10
148.1550607333
 20
-141.7783289251
 10
152.6136010776
 20
-142.2347222098
 10
157.1300896978
 20
-142.4999282396
 10
161.6736743968
 20
-142.5721353885
 10
166.213317884
 20
-142.4508504084
 10
170.7180097914
 20
-142.1369017987
 10
175.1569785054
 20
-141.6324341468
 10
179.4999013687
 20
-140.9408934782
 10
183.7171118145
 20
-140.0670037169
 10
187.7798020192
 20
-139.016734416
 10
191.6602196893
 20
-137.79725998
 10
195.3318576373
 20
-136.4169106556
 10
198.769634853
 20
-134.8851156286
 10
201.9500678323
 20
-133.212338612
 10
204.8514309929
 20
-131.4100063691
 10
207.4539050826
 20
-129.4904306566
 10
209.7397125644
 20
-127.4667241232
  0
LWPOLYLINE
  5
268
330
258
100
AcDbEntity
  8
0
  6
Continuous
 62
     7
370
    25
100
AcDbPolyline
 90
       20
 70
   128
 43
0.0
 10
135.428469481
 20
-23.582009695
 10
139.5330463847
 20
-24.5881502182
 10
143.7849250163
 20
-25.4162804197
 10
148.1550607333
 20
-26.0607433303
 10
152.6136010776
 20
-26.517136615
 10
157.1300896978
 20
-26.7823426449
 10
161.6736743968
 20
-26.8545497938
 10
166.213317884
 20
-26.7332648137
 10
170.7180097914
 20
-26.419316204
 10
175.1569785054
 20
-25.914848552
 10
179.4999013687
 20
-25.2233078834
 10
183.7171118145
 20
-24.3494181221
 10
187.7798020192
 20
-23.2991488212
 10
191.6602196893
 20
-22.0796743852
 10
195.3318576373
 20
-20.6993250609
 10
198.769634853
 20
-19.1675300338
 10
201.9500678323
 20
-17.4947530172
 10
204.8514309929
 20
-15.6924207743
 10
207.4539050826
 20
-13.7728450618
 10
209.7397125644
 20
-11.7491385284
  0
LWPOLYLINE
  5
26A
330
258
100
AcDbEntity
  8
0
  6
Continuous
 62
     7
370
    25
100
AcDbPolyline
 90
       20
 70
   128
 43
0.0
 10
322.6799966854
 20
98.4840411182
 10
324.6335231765
 20
100.5980545051
 10
326.24142411
 20
102.7879338902
 10
327.4927158921
 20
105.038720177
 10
328.3788509313
 20
107.3350382129
 10
328.8937760267
 20
109.6612018171
 10
329.0339737178
 20
112.0013209337
 10
328.7984863121
 20
114.3394101762
 10
328.1889224274
 20
116.6594980242
 10
327.2094460031
 20
118.9457359252
 10
325.8667478565
 20
121.1825065562
 10
324.1699999773
 20
123.3545305057
 10
322.130792874
 20
125.4469706477
 10
319.7630563989
 20
127.4455334944
 10
317.0829645929
 20
129.3365668349
 10
314.1088252007
 20
131.107152994
 10
310.86095461
 20
132.7451970731
 10
307.3615390702
 20
134.2395095699
 10
303.6344831379
 20
135.5798828151
 10
299.7052463843
 20
136.7571607001
  0
LWPOLYLINE
  5
26D
330
258
100
AcDbEntity
  8
0
  6
Continuous
 62
     7
370
    25
100
AcDbPolyline
 90
       20
 70
   128
 43
0.0
 10
-322.6799966854
 20
132.9511300713
 10
-324.6335231765
 20
130.8371166845
 10
-326.24142411
 20
128.6472372994
 10
-327.4927158921
 20
126.3964510125
 10
-328.3788509313
 20
124.1001329767
 10
-328.8937760267
 20
121.7739693724
 10
-329.0339737178
 20
119.4338502559
 10
-328.7984863121
 20
117.0957610134
 10
-328.1889224274
 20
114.7756731654
 10
-327.2094460031
 20
112.4894352643
 10
-325.8667478565
 20
110.2526646333
 10
-324.1699999773
 20
108.0806406838
 10
-322.130792874
 20
105.9882005418
 10
-319.7630563989
 20
103.9896376952
 10
-317.0829645929
 20
102.0986043547
 10
-314.1088252007
 20
100.3280181956
 10
-310.86095461
 20
98.6899741165
 10
-307.3615390702
 20
97.1956616197
 10
-303.6344831379
 20
95.8552883745
 10
-299.7052463843
 20
94.6780104895
  0
LWPOLYLINE
  5
26F
330
258
100
AcDbEntity
  8
0
  6
Continuous
 62
     7
370
    25
100
AcDbPolyline
 90
       20
 70
   128
 43
0.0
 10
-135.428469481
 20
255.0171808846
 10
-139.5330463847
 20
256.0233214078
 10
-143.7849250163
 20
256.8514516092
 10
-148.1550607333
 20
257.4959145199
 10
-152.6136010776
 20
257.9523078046
 10
-157.1300896978
 20
258.2175138344
 10
-161.6736743968
 20
258.2897209833
 10
-166.213317884
 20
258.1684360032
 10
-170.7180097914
 20
257.8544873935
 10
-175.1569785054
 20
257.3500197416
 10
-179.4999013687
 20
256.658479073
 10
-183.7171118145
 20
255.7845893116
 10
-187.7798020192
 20
254.7343200108
 10
-191.6602196893
 20
253.5148455748
 10
-195.3318576373
 20
252.1344962504
 10
-198.769634853
 20
250.6027012233
 10
-201.9500678323
 20
248.9299242067
 10
-204.8514309929
 20
247.1275919638
 10
-207.4539050826
 20
245.2080162514
 10
-209.7397125644
 20
243.184309718
  0
LWPOLYLINE
  5
270
330
258
100
AcDbEntity
  8
0
  6
Continuous
 62
     7
370
    25
100
AcDbPolyline
 90
       17
 70
   128
 43
0.0
 10
-142.8955957038
 20
247.7290367757
 10
-146.3640763429
 20
248.5623332888
 10
-149.9744403543
 20
249.216519472
 10
-153.6919179589
 20
249.6852951548
 10
-157.4807078154
 20
249.964145771
 10
-161.3043218061
 20
250.0503858368
 10
-165.1259364383
 20
249.9431848132
 10
-168.9087474737
 20
249.6435751048
 10
-172.6163243744
 20
249.1544421166
 10
-176.2129611479
 20
248.4804964669
 10
-179.664020216
 20
247.6282286207
 10
-182.9362659934
 20
246.6058463831
 10
-185.9981849644
 20
245.4231958541
 10
-188.8202891755
 20
244.0916666047
 10
-191.3754002205
 20
242.6240819895
 10
-193.6389109832
 20
241.0345756507
 10
-195.5890226175
 20
239.338455403
  0
LWPOLYLINE
  5
272
330
258
100
AcDbEntity
  8
0
  6
Continuous
 62
     7
370
    25
100
AcDbPolyline
 90
       17
 70
   128
 43
0.0
 10
-308.5293067386
 20
129.1052757564
 10
-310.1472386036
 20
127.3188761652
 10
-311.4174091309
 20
125.459401235
 10
-312.327585884
 20
123.544758726
 10
-312.8690033633
 20
121.5933876921
 10
-313.0364474223
 20
119.6240809031
 10
-312.8283054833
 20
117.6558038599
 10
-312.246582067
 20
115.7075121465
 10
-311.2968794878
 20
113.797968877
 10
-309.9883439008
 20
111.945563997
 10
-308.3335772189
 20
110.1681371781
 10
-306.3485157499
 20
108.4828060123
 10
-304.052276721
 20
106.90580116
 10
-301.4669741691
 20
105.4523100399
 10
-298.6175059711
 20
104.1363305661
 10
-295.5313140635
 20
102.9705363404
 10
-292.2381201615
 20
101.9661545983
  0
LWPOLYLINE
  5
274
330
258
100
AcDbEntity
  8
0
  6
Continuous
 62
     7
370
    25
100
AcDbPolyline
 90
       17
 70
   128
 43
0.0
 10
142.8955957038
 20
-16.2938655861
 10
146.3640763429
 20
-17.1271620992
 10
149.9744403543
 20
-17.7813482824
 10
153.6919179589
 20
-18.2501239652
 10
157.4807078154
 20
-18.5289745814
 10
161.3043218061
 20
-18.6152146472
 10
165.1259364383
 20
-18.5080136237
 10
168.9087474737
 20
-18.2084039152
 10
172.6163243744
 20
-17.7192709271
 10
176.2129611479
 20
-17.0453252774
 10
179.664020216
 20
-16.1930574311
 10
182.9362659934
 20
-15.1706751936
 10
185.9981849644
 20
-13.9880246645
 10
188.8202891755
 20
-12.6564954152
 10
191.3754002205
 20
-11.1889108
 10
193.6389109832
 20
-9.5994044611
 10
195.5890226175
 20
-7.9032842134
  0
LWPOLYLINE
  5
276
330
258
100
AcDbEntity
  8
0
  6
Continuous
 62
     7
370
    25
100
AcDbPolyline
 90
       17
 70
   128
 43
0.0
 10
308.5293067386
 20
102.3298954332
 10
310.1472386036
 20
104.1162950244
 10
311.4174091309
 20
105.9757699545
 10
312.327585884
 20
107.8904124636
 10
312.8690033633
 20
109.8417834975
 10
313.0364474223
 20
111.8110902865
 10
312.8283054833
 20
113.7793673296
 10
312.246582067
 20
115.7276590431
 10
311.2968794878
 20
117.6372023126
 10
309.9883439008
 20
119.4896071926
 10
308.3335772189
 20
121.2670340114
 10
306.3485157499
 20
122.9523651772
 10
304.052276721
 20
124.5293700296
 10
301.4669741691
 20
125.9828611497
 10
298.6175059711
 20
127.2988406235
 10
295.5313140635
 20
128.4646348492
 10
292.2381201615
 20
129.4690165912
  0
LWPOLYLINE
  5
27D
330
258
100
AcDbEntity
  8
0
  6
Continuous
 62
     7
370
    25
100
AcDbPolyline
 90
        9
 70
   128
 43
0.0
 10
68.7858125557
 20
23.3262198465
 10
69.1560820932
 20
23.7936396569
 10
69.3421839179
 20
24.2892824188
 10
69.3369662409
 20
24.7941008589
 10
69.1406295748
 20
25.2886950874
 10
68.7607190276
 20
25.7540581258
 10
68.2118343483
 20
26.1723063332
 10
67.5150688676
 20
26.5273666658
 10
66.697198892
 20
26.8055943539
  0
LWPOLYLINE
  5
281
330
258
100
AcDbEntity
  8
0
  6
Continuous
 62
     7
370
    25
100
AcDbPolyline
 90
       16
 70
   128
 43
0.0
 10
-145.2290726485
 20
155.448925168
 10
-148.4591907413
 20
156.2183367221
 10
-151.8277682039
 20
156.8096362743
 10
-155.2978981969
 20
157.2163454229
 10
-158.8315612498
 20
157.4340081773
 10
-162.3900418108
 20
157.4602397788
 10
-165.9343524221
 20
157.2947528285
 10
-169.4256608751
 20
156.9393604362
 10
-172.8257156636
 20
156.3979563552
 10
-176.097265076
 20
155.6764723218
 10
-179.2044653323
 20
154.7828130663
 10
-182.1132732961
 20
153.7267697063
 10
-184.7918194589
 20
152.519912474
 10
-187.2107571082
 20
151.1754639496
 10
-189.343583857
 20
149.7081541927
 10
-191.1669320091
 20
148.1340593559
  0
LWPOLYLINE
  5
282
330
258
100
AcDbEntity
  8
0
  6
Continuous
 62
     7
370
    25
100
AcDbPolyline
 90
       15
 70
   128
 43
0.0
 10
-329.0369999932
 20
4.0134202689
 10
-329.0339737178
 20
3.7162646611
 10
-328.7984863121
 20
1.3781754186
 10
-328.1889224274
 20
-0.9419124294
 10
-327.2094460031
 20
-3.2281503305
 10
-325.8667478565
 20
-5.4649209615
 10
-324.1699999773
 20
-7.6369449109
 10
-322.130792874
 20
-9.7293850529
 10
-319.7630563989
 20
-11.7279478996
 10
-317.0829645929
 20
-13.6189812401
 10
-314.1088252007
 20
-15.3895673992
 10
-310.86095461
 20
-17.0276114783
 10
-307.3615390702
 20
-18.5219239751
 10
-303.6344831379
 20
-19.8622972203
 10
-299.7052463843
 20
-21.0395751053
  0
LWPOLYLINE
  5
288
330
258
100
AcDbEntity
  8
0
  6
Continuous
 62
     7
370
    25
100
AcDbPolyline
 90
       17
 70
   128
 43
0.0
 10
-195.5890226175
 20
153.6217253328
 10
-193.6389109832
 20
155.3178455804
 10
-191.3754002205
 20
156.9073519193
 10
-188.8202891755
 20
158.3749365345
 10
-185.9981849644
 20
159.7064657839
 10
-182.9362659934
 20
160.8891163129
 10
-179.664020216
 20
161.9114985505
 10
-176.2129611479
 20
162.7637663967
 10
-172.6163243744
 20
163.4377120464
 10
-168.9087474737
 20
163.9268450345
 10
-165.1259364383
 20
164.226454743
 10
-161.3043218061
 20
164.3336557666
 10
-157.4807078154
 20
164.2474157008
 10
-153.6919179589
 20
163.9685650845
 10
-149.9744403543
 20
163.4997894018
 10
-146.3640763429
 20
162.8456032186
 10
-142.8955957038
 20
162.0123067055
  0
LWPOLYLINE
  5
28B
330
258
100
AcDbEntity
  8
0
  6
Continuous
 62
     7
370
    25
100
AcDbPolyline
 90
        9
 70
   128
 43
0.0
 10
63.8725402303
 20
23.496848359
 10
64.1317289065
 20
23.8240422263
 10
64.2620001838
 20
24.1709921596
 10
64.25834781
 20
24.5243650676
 10
64.1209121437
 20
24.8705810276
 10
63.8549747606
 20
25.1963351544
 10
63.4707554851
 20
25.4891088997
 10
62.9830196486
 20
25.7376511325
 10
62.4105106657
 20
25.9324105142
  0
LWPOLYLINE
  5
29C
330
258
100
AcDbEntity
  8
0
  6
Continuous
 62
    60
370
    25
100
AcDbPolyline
 90
        3
 70
   128
 43
0.0
 10
64.7590000877
 20
19.4280709837
 10
64.7598463809
 20
19.4326953156
 10
64.7770768044
 20
19.6237088365
  0
LINE
  5
29F
330
258
100
AcDbEntity
  8
0
  6
Continuous
 62
     7
370
    25
100
AcDbLine
 10
-329.0369999932
 20
119.7310058637
 30
0.0
 11
-329.0369999932
 21
4.0134202689
 31
0.0
  0
LINE
  5
2A0
330
258
100
AcDbEntity
  8
0
  6
Continuous
 62
     7
370
    25
100
AcDbLine
 10
329.0369999932
 20
-4.0134202689
 30
0.0
 11
329.0369999932
 21
111.7041653259
 31
0.0
  0
LINE
  5
2A1
330
258
100
AcDbEntity
  8
0
  6
Continuous
 62
     7
370
    25
100
AcDbLine
 10
64.7770768044
 20
19.6237088365
 30
0.0
 11
64.7770768044
 21
23.90954534
 31
0.0
  0
LINE
  5
2A2
330
258
100
AcDbEntity
  8
0
  6
Continuous
 62
     7
370
    25
100
AcDbLine
 10
64.753877333
 20
19.3909274645
 30
0.0
 11
64.7386313856
 21
19.6112461636
 31
0.0
  0
LINE
  5
2A3
330
258
100
AcDbEntity
  8
0
  6
Continuous
 62
     7
370
    25
100
AcDbLine
 10
62.5416432615
 20
25.9863247833
 30
0.0
 11
-35.6287682447
 21
52.6669390932
 31
0.0
  0
LINE
  5
2A4
330
258
100
AcDbEntity
  8
0
  6
Continuous
 62
     7
370
    25
100
AcDbLine
 10
-40.838037207
 20
51.7892559678
 30
0.0
 11
-55.3821330851
 21
37.5937725209
 31
0.0
  0
LINE
  5
2A5
330
258
100
AcDbEntity
  8
0
  6
Continuous
 62
     7
370
    25
100
AcDbLine
 10
209.7397125644
 20
-11.7491385284
 30
0.0
 11
209.7397125644
 21
-127.4667241232
 31
0.0
  0
LINE
  5
2A6
330
258
100
AcDbEntity
  8
0
  6
Continuous
 62
     7
370
    25
100
AcDbLine
 10
135.428469481
 20
-23.582009695
 30
0.0
 11
135.428469481
 21
-139.2995952898
 31
0.0
  0
LINE
  5
2A7
330
258
100
AcDbEntity
  8
0
  6
Continuous
 62
     7
370
    25
100
AcDbLine
 10
299.7052463843
 20
136.7571607001
 30
0.0
 11
-135.428469481
 21
255.0171808846
 31
0.0
  0
LINE
  5
2A8
330
258
100
AcDbEntity
  8
0
  6
Continuous
 62
     7
370
    25
100
AcDbLine
 10
209.7397125644
 20
-11.7491385284
 30
0.0
 11
322.6799966854
 21
98.4840411182
 31
0.0
  0
LINE
  5
2A9
330
258
100
AcDbEntity
  8
0
  6
Continuous
 62
     7
370
    25
100
AcDbLine
 10
-299.7052463843
 20
94.6780104895
 30
0.0
 11
135.428469481
 21
-23.582009695
 31
0.0
  0
LINE
  5
2AA
330
258
100
AcDbEntity
  8
0
  6
Continuous
 62
     7
370
    25
100
AcDbLine
 10
-209.7397125644
 20
243.184309718
 30
0.0
 11
-322.6799966854
 21
132.9511300713
 31
0.0
  0
LINE
  5
2AB
330
258
100
AcDbEntity
  8
0
  6
Continuous
 62
     7
370
    25
100
AcDbLine
 10
-195.5890226175
 20
239.338455403
 30
0.0
 11
-308.5293067386
 21
129.1052757564
 31
0.0
  0
LINE
  5
2AC
330
258
100
AcDbEntity
  8
0
  6
Continuous
 62
     7
370
    25
100
AcDbLine
 10
-292.2381201615
 20
101.9661545983
 30
0.0
 11
142.8955957038
 21
-16.2938655861
 31
0.0
  0
LINE
  5
2AD
330
258
100
AcDbEntity
  8
0
  6
Continuous
 62
     7
370
    25
100
AcDbLine
 10
195.5890226175
 20
-7.9032842134
 30
0.0
 11
308.5293067386
 21
102.3298954332
 31
0.0
  0
LINE
  5
2AE
330
258
100
AcDbEntity
  8
0
  6
Continuous
 62
     7
370
    25
100
AcDbLine
 10
292.2381201615
 20
129.4690165912
 30
0.0
 11
-142.8955957038
 21
247.7290367757
 31
0.0
  0
LINE
  5
2AF
330
258
100
AcDbEntity
  8
0
  6
Continuous
 62
     7
370
    25
100
AcDbLine
 10
-299.7052463843
 20
-21.0395751053
 30
0.0
 11
135.428469481
 21
-139.2995952898
 31
0.0
  0
LINE
  5
2B0
330
258
100
AcDbEntity
  8
0
  6
Continuous
 62
     7
370
    25
100
AcDbLine
 10
-299.7052463843
 20
94.6780104895
 30
0.0
 11
-299.7052463843
 21
-21.0395751053
 31
0.0
  0
LINE
  5
2B1
330
258
100
AcDbEntity
  8
0
  6
Continuous
 62
     7
370
    25
100
AcDbLine
 10
322.6799966854
 20
98.4840411182
 30
0.0
 11
322.6799966854
 21
-17.2335444765
 31
0.0
  0
LINE
  5
2B2
330
258
100
AcDbEntity
  8
0
  6
Continuous
 62
     7
370
    25
100
AcDbLine
 10
209.7397125644
 20
-127.4667241232
 30
0.0
 11
322.6799966854
 21
-17.2335444765
 31
0.0
  0
LINE
  5
2B3
330
258
100
AcDbEntity
  8
0
  6
Continuous
 62
     7
370
    25
100
AcDbLine
 10
53.175546258
 20
8.0901213851
 30
0.0
 11
68.7858125557
 21
23.3262198465
 31
0.0
  0
LINE
  5
2B4
330
258
100
AcDbEntity
  8
0
  6
Continuous
 62
     7
370
    25
100
AcDbLine
 10
66.697198892
 20
26.8055943539
 30
0.0
 11
-35.8953032226
 21
54.6880381373
 31
0.0
  0
LINE
  5
2B5
330
258
100
AcDbEntity
  8
0
  6
Continuous
 62
     7
370
    25
100
AcDbLine
 10
-42.6508707756
 20
53.6123225767
 30
0.0
 11
-58.2611370733
 21
38.3762241153
 31
0.0
  0
LINE
  5
2B6
330
258
100
AcDbEntity
  8
0
  6
Continuous
 62
     7
370
    25
100
AcDbLine
 10
-195.5890226175
 20
153.6217253328
 30
0.0
 11
-195.5890226175
 21
239.338455403
 31
0.0
  0
LINE
  5
2B7
330
258
100
AcDbEntity
  8
0
  6
Continuous
 62
     7
370
    25
100
AcDbLine
 10
-142.8955957038
 20
162.0123067055
 30
0.0
 11
-142.8955957038
 21
247.7290367757
 31
0.0
  0
LINE
  5
2B8
330
258
100
AcDbEntity
  8
0
  6
Continuous
 62
     7
370
    25
100
AcDbLine
 10
62.4105106657
 20
25.9324105142
 30
0.0
 11
-35.7599008405
 21
52.6130248241
 31
0.0
  0
LINE
  5
2B9
330
258
100
AcDbEntity
  8
0
  6
Continuous
 62
    60
370
    25
100
AcDbLine
 10
-191.1669320091
 20
148.1340593559
 30
0.0
 11
-250.1798694773
 21
90.5356232617
 31
0.0
  0
LINE
  5
2BA
330
258
100
AcDbEntity
  8
0
  6
Continuous
 62
    60
370
    25
100
AcDbLine
 10
252.2684831411
 20
47.4176068467
 30
0.0
 11
-145.2290726485
 21
155.448925168
 31
0.0
  0
LINE
  5
2BB
330
258
100
AcDbEntity
  8
0
  6
Continuous
 62
    60
370
    25
100
AcDbLine
 10
-308.5293067386
 20
110.356735971
 30
0.0
 11
-308.5293067386
 21
129.1052757564
 31
0.0
  0
LINE
  5
2BC
330
258
100
AcDbEntity
  8
0
  6
Continuous
 62
    60
370
    25
100
AcDbLine
 10
292.2381201615
 20
86.4291979045
 30
0.0
 11
292.2381201615
 21
129.4690165912
 31
0.0
  0
LINE
  5
2BD
330
258
100
AcDbEntity
  8
0
  6
Continuous
 62
    60
370
    25
100
AcDbLine
 10
-258.036648982
 20
92.6709275806
 30
0.0
 11
-195.5890226175
 21
153.6217253328
 31
0.0
  0
LINE
  5
2BE
330
258
100
AcDbEntity
  8
0
  6
Continuous
 62
    60
370
    25
100
AcDbLine
 10
-142.8955957038
 20
162.0123067055
 30
0.0
 11
258.036648982
 21
53.0475135387
 31
0.0
  0
LINE
  5
2BF
330
258
100
AcDbEntity
  8
0
  6
Continuous
 62
    60
370
    25
100
AcDbLine
 10
66.697198892
 20
21.2876688813
 30
0.0
 11
66.697198892
 21
26.8055943539
 31
0.0
  0
LINE
  5
2C0
330
258
100
AcDbEntity
  8
0
  6
Continuous
 62
    60
370
    25
100
AcDbLine
 10
-35.8953032226
 20
52.726218356
 30
0.0
 11
-35.8953032226
 21
54.6880381373
 31
0.0
  0
LINE
  5
2C1
330
258
100
AcDbEntity
  8
0
  6
Continuous
 62
    60
370
    25
100
AcDbLine
 10
-42.6508707756
 20
50.0198748298
 30
0.0
 11
-42.6508707756
 21
53.6123225767
 31
0.0
  0
LINE
  5
2C2
330
258
100
AcDbEntity
  8
0
  6
Continuous
 62
    60
370
    25
100
AcDbLine
 10
49.1956647105
 20
9.1717679112
 30
0.0
 11
63.8725402303
 21
23.496848359
 31
0.0
  0
LINE
  5
2C3
330
258
100
AcDbEntity
  8
0
  6
Continuous
 62
    60
370
    25
100
AcDbLine
 10
-40.4887981276
 20
51.8600239317
 30
0.0
 11
-55.1656736475
 21
37.5349434839
 31
0.0
  0
LINE
  5
2C4
330
258
100
AcDbEntity
  8
0
  6
Continuous
 62
    60
370
    25
100
AcDbLine
 10
64.3147492911
 20
22.9480817613
 30
0.0
 11
49.9813426609
 21
8.9582374793
 31
0.0
  0
LINE
  5
2C5
330
258
100
AcDbEntity
  8
0
  6
Continuous
 62
    60
370
    25
100
AcDbLine
 10
64.3147492911
 20
22.9480817613
 30
0.0
 11
64.3147492911
 21
18.9623250335
 31
0.0
  0
ARC
  5
2C6
330
258
100
AcDbEntity
  8
0
  6
Continuous
 62
     7
370
    25
100
AcDbCircle
 10
-38.1872698211
 20
47.3311739531
 30
0.0
 40
7.705618827393838
100
AcDbArc
 50
72.6960345908
 51
125.398914916
  0
ARC
  5
2C7
330
258
100
AcDbEntity
  8
0
  6
Continuous
 62
     7
370
    25
100
AcDbCircle
 10
310.3100076622
 20
-3.1468652765
 30
0.0
 40
18.74703068004337
100
AcDbArc
 50
311.2874611382
 51
357.3506395675
  0
ARC
  5
2C8
330
258
100
AcDbEntity
  8
0
  6
Continuous
 62
     7
370
    25
100
AcDbCircle
 10
-153.1203729457
 20
161.9510175714
 30
0.0
 40
10.22496092917783
100
AcDbArc
 50
320.5129436103
 51
0.3434369839
  0
ARC
  5
2C9
330
258
100
AcDbEntity
  8
0
  6
Continuous
 62
     7
370
    25
100
AcDbCircle
 10
-189.5271616434
 20
153.9809703889
 30
0.0
 40
6.072496643082481
100
AcDbArc
 50
183.391562315
 51
254.3338098233
  0
ARC
  5
2CA
330
258
100
AcDbEntity
  8
0
  6
Continuous
 62
     7
370
    25
100
AcDbCircle
 10
-37.3642774594
 20
47.4632198952
 30
0.0
 40
5.393933179175827
100
AcDbArc
 50
72.6960345908
 51
125.398914916
  0
ARC
  5
2CB
330
258
100
AcDbEntity
  8
0
  6
Continuous
 62
     7
370
    25
100
AcDbCircle
 10
63.7085631937
 20
22.9121572557
 30
0.0
 40
0.6072496643082261
100
AcDbArc
 50
3.391562315
 51
74.3338098233
  0
ARC
  5
2CC
330
258
100
AcDbEntity
  8
0
  6
Continuous
 62
    60
370
    25
100
AcDbCircle
 10
62.5198669042
 20
25.8528618897
 30
0.0
 40
0.1352285863307285
100
AcDbArc
 50
80.736311533
 51
143.9668649247
  0
ARC
  5
2CD
330
258
100
AcDbEntity
  8
0
  6
Continuous
 62
    60
370
    25
100
AcDbCircle
 10
63.4477350573
 20
23.9572978344
 30
0.0
 40
1.330500193100243
100
AcDbArc
 50
310.6657676702
 51
357.5733325505
  0
ARC
  5
2CE
330
258
100
AcDbEntity
  8
0
  6
Continuous
 62
    60
370
    25
100
AcDbCircle
 10
-35.6505469162
 20
52.5334798173
 30
0.0
 40
0.1352245867207073
100
AcDbArc
 50
80.7318299956
 51
143.9675277132
  0
ARC
  5
2CF
330
258
100
AcDbEntity
  8
0
  6
Continuous
 62
    60
370
    25
100
AcDbCircle
 10
-40.6029433849
 20
51.5262000689
 30
0.0
 40
0.3527995338413564
100
AcDbArc
 50
71.12277008
 51
131.7872519911
  0
VIEWPORT
  5
326
330
258
100
AcDbEntity
  8
0
100
AcDbViewport
 10
0.0
 20
0.0
 30
0.0
 40
205.6
 41
156.0
 68
     1
 69
     1
 12
0.0
 22
0.0
 13
0.0
 23
0.0
 14
10.0
 24
10.0
 15
10.0
 25
10.0
 16
0.0
 26
0.0
 36
1.0
 17
0.0
 27
0.0
 37
0.0
 42
50.0
 43
0.0
 44
0.0
 45
465.9058365759
 50
0.0
 51
0.0
 72
   100
 90
   557152
  1

281
     0
 71
     1
 74
     0
110
0.0
120
0.0
130
0.0
111
1.0
121
0.0
131
0.0
112
0.0
122
1.0
132
0.0
 79
     0
146
0.0
170
     0
 61
     5
348
2F
292
     1
282
     1
141
0.0
142
0.0
 63
   256
361
327
  0
ENDBLK
  5
25B
330
258
100
AcDbEntity
  8
0
100
AcDbBlockEnd
  0
BLOCK
  5
2D2
330
2D0
100
AcDbEntity
  8
0
100
AcDbBlockBegin
  2
*Paper_Space8
 70
     0
 10
0.0
 20
0.0
 30
0.0
  3
*Paper_Space8
  1

  0
LWPOLYLINE
  5
2D7
330
2D0
100
AcDbEntity
  8
0
  6
Continuous
 62
     7
370
    25
100
AcDbPolyline
 90
       20
 70
   128
 43
0.0
 10
167.886532564
 20
-83.8690196765
 10
172.2014733357
 20
-84.3457100542
 10
176.6197707351
 20
-84.7019972977
 10
181.111243311
 20
-84.9354476039
 10
185.6452097514
 20
-85.0444662705
 10
190.1906984682
 20
-85.0283085894
 10
194.7166591642
 20
-84.8870849339
 10
199.1921749387
 20
-84.6217600049
 10
203.5866734808
 20
-84.2341462407
 10
207.8701359096
 20
-83.7268914362
 10
212.0133018332
 20
-83.1034606562
 10
215.9878692274
 20
-82.368112565
 10
219.7666877665
 20
-81.5258703358
 10
223.3239442884
 20
-80.5824873369
 10
226.635339124
 20
-79.5444078309
 10
229.6782520889
 20
-78.4187229533
 10
232.4318970019
 20
-77.2131222733
 10
234.8774636763
 20
-75.935841266
 10
236.9982464118
 20
-74.5956050559
 10
238.779758112
 20
-73.2015688152
  0
LWPOLYLINE
  5
2D9
330
2D0
100
AcDbEntity
  8
0
  6
Continuous
 62
     7
370
    25
100
AcDbPolyline
 90
       20
 70
   128
 43
0.0
 10
167.886532564
 20
43.4102009408
 10
172.2014733357
 20
42.9335105631
 10
176.6197707351
 20
42.5772233196
 10
181.111243311
 20
42.3437730134
 10
185.6452097514
 20
42.2347543469
 10
190.1906984682
 20
42.250912028
 10
194.7166591642
 20
42.3921356834
 10
199.1921749387
 20
42.6574606124
 10
203.5866734808
 20
43.0450743767
 10
207.8701359096
 20
43.5523291811
 10
212.0133018332
 20
44.1757599612
 10
215.9878692274
 20
44.9111080523
 10
219.7666877665
 20
45.7533502816
 10
223.3239442884
 20
46.6967332805
 10
226.635339124
 20
47.7348127865
 10
229.6782520889
 20
48.8604976641
 10
232.4318970019
 20
50.0660983441
 10
234.8774636763
 20
51.3433793513
 10
236.9982464118
 20
52.6836155615
 10
238.779758112
 20
54.0776518022
  0
LWPOLYLINE
  5
2DB
330
2D0
100
AcDbEntity
  8
0
  6
Continuous
 62
     7
370
    25
100
AcDbPolyline
 90
       20
 70
   128
 43
0.0
 10
324.3396786159
 20
129.5344090866
 10
325.7697497494
 20
130.9727226769
 10
326.8386114802
 20
132.4454884763
 10
327.5389623989
 20
133.9426460013
 10
327.8660183986
 20
135.4539681477
 10
327.8175453553
 20
136.9691310529
 10
327.3938743889
 20
138.4777846179
 10
326.5978996017
 20
139.9696232091
 10
325.4350583087
 20
141.4344560561
 10
323.9132938949
 20
142.8622768653
 10
322.0430015545
 20
144.2433321729
 10
319.8369572804
 20
145.5681879706
 10
317.310230592
 20
146.82779415
 10
314.4800815947
 20
148.0135463237
 10
311.3658430758
 20
149.117344602
 10
307.9887884423
 20
150.1316489234
 10
304.3719864015
 20
151.0495305608
 10
300.5401433788
 20
151.8647194521
 10
296.5194347474
 20
152.5716470304
 10
292.3373260243
 20
153.1654842637
  0
LWPOLYLINE
  5
2DE
330
2D0
100
AcDbEntity
  8
0
  6
Continuous
 62
     7
370
    25
100
AcDbPolyline
 90
       20
 70
   128
 43
0.0
 10
-324.3396786159
 20
125.0240321481
 10
-325.7697497494
 20
123.5857185579
 10
-326.8386114802
 20
122.1129527584
 10
-327.5389623989
 20
120.6157952334
 10
-327.8660183986
 20
119.104473087
 10
-327.8175453553
 20
117.5893101818
 10
-327.3938743889
 20
116.0806566168
 10
-326.5978996017
 20
114.5888180257
 10
-325.4350583087
 20
113.1239851786
 10
-323.9132938949
 20
111.6961643694
 10
-322.0430015545
 20
110.3151090618
 10
-319.8369572804
 20
108.9902532641
 10
-317.310230592
 20
107.7306470847
 10
-314.4800815947
 20
106.544894911
 10
-311.3658430758
 20
105.4410966327
 10
-307.9887884423
 20
104.4267923114
 10
-304.3719864015
 20
103.5089106739
 10
-300.5401433788
 20
102.6937217826
 10
-296.5194347474
 20
101.9867942043
 10
-292.3373260243
 20
101.392956971
  0
LWPOLYLINE
  5
2E0
330
2D0
100
AcDbEntity
  8
0
  6
Continuous
 62
     7
370
    25
100
AcDbPolyline
 90
       20
 70
   128
 43
0.0
 10
-167.886532564
 20
211.1482402939
 10
-172.2014733357
 20
211.6249306716
 10
-176.6197707351
 20
211.9812179151
 10
-181.111243311
 20
212.2146682213
 10
-185.6452097514
 20
212.3236868878
 10
-190.1906984682
 20
212.3075292067
 10
-194.7166591642
 20
212.1663055513
 10
-199.1921749387
 20
211.9009806223
 10
-203.5866734808
 20
211.5133668581
 10
-207.8701359096
 20
211.0061120536
 10
-212.0133018332
 20
210.3826812736
 10
-215.9878692274
 20
209.6473331824
 10
-219.7666877665
 20
208.8050909531
 10
-223.3239442884
 20
207.8617079543
 10
-226.635339124
 20
206.8236284482
 10
-229.6782520889
 20
205.6979435706
 10
-232.4318970019
 20
204.4923428907
 10
-234.8774636763
 20
203.2150618834
 10
-236.9982464118
 20
201.8748256732
 10
-238.779758112
 20
200.4807894325
  0
LWPOLYLINE
  5
2E1
330
2D0
100
AcDbEntity
  8
0
  6
Continuous
 62
     7
370
    25
100
AcDbPolyline
 90
       17
 70
   128
 43
0.0
 10
-173.5433868122
 20
206.1593637792
 10
-177.1855615367
 20
206.5513139941
 10
-180.9254517121
 20
206.8223783446
 10
-184.7270401515
 20
206.9699463328
 10
-188.5537154802
 20
206.9925967983
 10
-192.3686247227
 20
206.8901116048
 10
-196.1350282178
 20
206.6634777406
 10
-199.8166534408
 20
206.3148778139
 10
-203.3780443281
 20
205.8476690324
 10
-206.7849027388
 20
205.2663508721
 10
-210.004418764
 20
204.5765217447
 10
-213.0055867042
 20
203.7848250818
 10
-215.7595036718
 20
202.898885355
 10
-218.2396479409
 20
201.9272346482
 10
-220.4221343662
 20
200.8792304889
 10
-222.2859444106
 20
199.76496573
 10
-223.8131285644
 20
198.5951713503
  0
LWPOLYLINE
  5
2E3
330
2D0
100
AcDbEntity
  8
0
  6
Continuous
 62
     7
370
    25
100
AcDbPolyline
 90
       17
 70
   128
 43
0.0
 10
-309.3730490684
 20
123.1384140658
 10
-310.5488997133
 20
121.9243558246
 10
-311.362092765
 20
120.6777257664
 10
-311.8047967296
 20
119.4105296202
 10
-311.8727481262
 20
118.1349711777
 10
-311.5652925455
 20
116.8633347638
 10
-310.8853909529
 20
115.6078669324
 10
-309.8395911724
 20
114.380658525
 10
-308.4379648276
 20
113.1935282295
 10
-306.6940103463
 20
112.0579087596
 10
-304.6245229637
 20
110.9847367514
 10
-302.2494329744
 20
109.9843474382
 10
-299.5916137934
 20
109.0663751159
 10
-296.6766616723
 20
108.2396603598
 10
-293.5326491936
 20
107.5121648848
 10
-290.1898549161
 20
106.8908948702
 10
-286.6804717761
 20
106.3818334857
  0
LWPOLYLINE
  5
2E5
330
2D0
100
AcDbEntity
  8
0
  6
Continuous
 62
     7
370
    25
100
AcDbPolyline
 90
       17
 70
   128
 43
0.0
 10
173.5433868122
 20
48.3990774555
 10
177.1855615367
 20
48.0071272406
 10
180.9254517121
 20
47.7360628901
 10
184.7270401515
 20
47.5884949019
 10
188.5537154802
 20
47.5658444364
 10
192.3686247227
 20
47.66832963
 10
196.1350282178
 20
47.8949634941
 10
199.8166534408
 20
48.2435634209
 10
203.3780443281
 20
48.7107722024
 10
206.7849027388
 20
49.2920903626
 10
210.004418764
 20
49.98191949
 10
213.0055867042
 20
50.7736161529
 10
215.7595036718
 20
51.6595558797
 10
218.2396479409
 20
52.6312065865
 10
220.4221343662
 20
53.6792107458
 10
222.2859444106
 20
54.7934755047
 10
223.8131285644
 20
55.9632698845
  0
LWPOLYLINE
  5
2E7
330
2D0
100
AcDbEntity
  8
0
  6
Continuous
 62
     7
370
    25
100
AcDbPolyline
 90
       17
 70
   128
 43
0.0
 10
309.3730490684
 20
131.4200271689
 10
310.5488997133
 20
132.6340854101
 10
311.362092765
 20
133.8807154683
 10
311.8047967296
 20
135.1479116145
 10
311.8727481262
 20
136.4234700571
 10
311.5652925455
 20
137.695106471
 10
310.8853909529
 20
138.9505743023
 10
309.8395911724
 20
140.1777827097
 10
308.4379648276
 20
141.3649130052
 10
306.6940103463
 20
142.5005324752
 10
304.6245229637
 20
143.5737044833
 10
302.2494329744
 20
144.5740937965
 10
299.5916137934
 20
145.4920661188
 10
296.6766616723
 20
146.3187808749
 10
293.5326491936
 20
147.0462763499
 10
290.1898549161
 20
147.6675463645
 10
286.6804717761
 20
148.176607749
  0
LWPOLYLINE
  5
2ED
330
2D0
100
AcDbEntity
  8
0
  6
Continuous
 62
     7
370
    25
100
AcDbPolyline
 90
       16
 70
   128
 43
0.0
 10
-175.3111537648
 20
105.6053904993
 10
-178.7014374708
 20
105.9661542417
 10
-182.1862790867
 20
106.2068146341
 10
-185.7274979587
 20
106.3247349507
 10
-189.2862957516
 20
106.3186232319
 10
-192.823681532
 20
106.1885464389
 10
-196.3008989613
 20
105.9359297204
 10
-199.6798509174
 20
105.563540798
 10
-202.9235168958
 20
105.0754596426
 10
-205.9963586132
 20
104.4770337735
 10
-208.8647093726
 20
103.7748196698
 10
-211.497142923
 20
102.9765109361
 10
-213.8648177714
 20
102.09085401
 10
-215.9417931768
 20
101.127552334
 10
-217.705313362
 20
100.097160043
 10
-219.1360568308
 20
99.0109663305
  0
LWPOLYLINE
  5
2EE
330
2D0
100
AcDbEntity
  8
0
  6
Continuous
 62
     7
370
    25
100
AcDbPolyline
 90
       16
 70
   128
 43
0.0
 10
-327.8918895461
 20
-8.7370006271
 10
-327.8175453553
 20
-9.6899104356
 10
-327.3938743889
 20
-11.1985640005
 10
-326.5978996017
 20
-12.6904025917
 10
-325.4350583087
 20
-14.1552354387
 10
-323.9132938949
 20
-15.583056248
 10
-322.0430015545
 20
-16.9641115555
 10
-319.8369572804
 20
-18.2889673533
 10
-317.310230592
 20
-19.5485735327
 10
-314.4800815947
 20
-20.7343257064
 10
-311.3658430758
 20
-21.8381239846
 10
-307.9887884423
 20
-22.852428306
 10
-304.3719864015
 20
-23.7703099435
 10
-300.5401433788
 20
-24.5854988347
 10
-296.5194347474
 20
-25.2924264131
 10
-292.3373260243
 20
-25.8862636463
  0
LWPOLYLINE
  5
2F4
330
2D0
100
AcDbEntity
  8
0
  6
Continuous
 62
     7
370
    25
100
AcDbPolyline
 90
       17
 70
   128
 43
0.0
 10
-223.8131285644
 20
104.3142671892
 10
-222.2859444106
 20
105.484061569
 10
-220.4221343662
 20
106.5983263279
 10
-218.2396479409
 20
107.6463304872
 10
-215.7595036718
 20
108.617981194
 10
-213.0055867042
 20
109.5039209208
 10
-210.004418764
 20
110.2956175837
 10
-206.7849027388
 20
110.9854467111
 10
-203.3780443281
 20
111.5667648714
 10
-199.8166534408
 20
112.0339736529
 10
-196.1350282178
 20
112.3825735796
 10
-192.3686247227
 20
112.6092074438
 10
-188.5537154802
 20
112.7116926373
 10
-184.7270401515
 20
112.6890421718
 10
-180.9254517121
 20
112.5414741836
 10
-177.1855615367
 20
112.2704098331
 10
-173.5433868122
 20
111.8784596182
  0
LINE
  5
2FB
330
2D0
100
AcDbEntity
  8
0
  6
Continuous
 62
     7
370
    25
100
AcDbLine
 10
-327.8918895461
 20
118.5422199902
 30
0.0
 11
-327.8918895461
 21
-8.7370006271
 31
0.0
  0
LINE
  5
2FC
330
2D0
100
AcDbEntity
  8
0
  6
Continuous
 62
     7
370
    25
100
AcDbLine
 10
327.8918895461
 20
8.7370006271
 30
0.0
 11
327.8918895461
 21
136.0162212445
 31
0.0
  0
LINE
  5
2FD
330
2D0
100
AcDbEntity
  8
0
  6
Continuous
 62
     7
370
    25
100
AcDbLine
 10
238.779758112
 20
54.0776518022
 30
0.0
 11
238.779758112
 21
-73.2015688152
 31
0.0
  0
LINE
  5
2FE
330
2D0
100
AcDbEntity
  8
0
  6
Continuous
 62
     7
370
    25
100
AcDbLine
 10
167.886532564
 20
43.4102009408
 30
0.0
 11
167.886532564
 21
-83.8690196765
 31
0.0
  0
LINE
  5
2FF
330
2D0
100
AcDbEntity
  8
0
  6
Continuous
 62
     7
370
    25
100
AcDbLine
 10
292.3373260243
 20
153.1654842637
 30
0.0
 11
-167.886532564
 21
211.1482402939
 31
0.0
  0
LINE
  5
300
330
2D0
100
AcDbEntity
  8
0
  6
Continuous
 62
     7
370
    25
100
AcDbLine
 10
238.779758112
 20
54.0776518022
 30
0.0
 11
324.3396786159
 21
129.5344090866
 31
0.0
  0
LINE
  5
301
330
2D0
100
AcDbEntity
  8
0
  6
Continuous
 62
     7
370
    25
100
AcDbLine
 10
-292.3373260243
 20
101.392956971
 30
0.0
 11
167.886532564
 21
43.4102009408
 31
0.0
  0
LINE
  5
302
330
2D0
100
AcDbEntity
  8
0
  6
Continuous
 62
     7
370
    25
100
AcDbLine
 10
-238.779758112
 20
200.4807894325
 30
0.0
 11
-324.3396786159
 21
125.0240321481
 31
0.0
  0
LINE
  5
303
330
2D0
100
AcDbEntity
  8
0
  6
Continuous
 62
     7
370
    25
100
AcDbLine
 10
-223.8131285644
 20
198.5951713503
 30
0.0
 11
-309.3730490684
 21
123.1384140658
 31
0.0
  0
LINE
  5
304
330
2D0
100
AcDbEntity
  8
0
  6
Continuous
 62
     7
370
    25
100
AcDbLine
 10
-286.6804717761
 20
106.3818334857
 30
0.0
 11
173.5433868122
 21
48.3990774555
 31
0.0
  0
LINE
  5
305
330
2D0
100
AcDbEntity
  8
0
  6
Continuous
 62
     7
370
    25
100
AcDbLine
 10
223.8131285644
 20
55.9632698845
 30
0.0
 11
309.3730490684
 21
131.4200271689
 31
0.0
  0
LINE
  5
306
330
2D0
100
AcDbEntity
  8
0
  6
Continuous
 62
     7
370
    25
100
AcDbLine
 10
286.6804717761
 20
148.176607749
 30
0.0
 11
-173.5433868122
 21
206.1593637792
 31
0.0
  0
LINE
  5
307
330
2D0
100
AcDbEntity
  8
0
  6
Continuous
 62
     7
370
    25
100
AcDbLine
 10
-292.3373260243
 20
-25.8862636463
 30
0.0
 11
167.886532564
 21
-83.8690196765
 31
0.0
  0
LINE
  5
308
330
2D0
100
AcDbEntity
  8
0
  6
Continuous
 62
     7
370
    25
100
AcDbLine
 10
-292.3373260243
 20
101.392956971
 30
0.0
 11
-292.3373260243
 21
-25.8862636463
 31
0.0
  0
LINE
  5
309
330
2D0
100
AcDbEntity
  8
0
  6
Continuous
 62
     7
370
    25
100
AcDbLine
 10
324.3396786159
 20
129.5344090866
 30
0.0
 11
324.3396786159
 21
2.2551884693
 31
0.0
  0
LINE
  5
30A
330
2D0
100
AcDbEntity
  8
0
  6
Continuous
 62
     7
370
    25
100
AcDbLine
 10
238.779758112
 20
-73.2015688152
 30
0.0
 11
324.3396786159
 21
2.2551884693
 31
0.0
  0
LINE
  5
30B
330
2D0
100
AcDbEntity
  8
0
  6
Continuous
 62
     7
370
    25
100
AcDbLine
 10
-223.8131285644
 20
104.3142671892
 30
0.0
 11
-223.8131285644
 21
198.5951713503
 31
0.0
  0
LINE
  5
30C
330
2D0
100
AcDbEntity
  8
0
  6
Continuous
 62
     7
370
    25
100
AcDbLine
 10
-173.5433868122
 20
111.8784596182
 30
0.0
 11
-173.5433868122
 21
206.1593637792
 31
0.0
  0
LINE
  5
30D
330
2D0
100
AcDbEntity
  8
0
  6
Continuous
 62
    60
370
    25
100
AcDbLine
 10
-219.1360568308
 20
99.0109663305
 30
0.0
 11
-220.2660531549
 21
98.0144032451
 31
0.0
  0
LINE
  5
30E
330
2D0
100
AcDbEntity
  8
0
  6
Continuous
 62
    60
370
    25
100
AcDbLine
 10
223.1363133423
 20
55.4057282154
 30
0.0
 11
-175.3111537648
 21
105.6053904993
 31
0.0
  0
LINE
  5
30F
330
2D0
100
AcDbEntity
  8
0
  6
Continuous
 62
    60
370
    25
100
AcDbLine
 10
-309.3730490684
 20
113.9460259147
 30
0.0
 11
-309.3730490684
 21
123.1384140658
 31
0.0
  0
LINE
  5
310
330
2D0
100
AcDbEntity
  8
0
  6
Continuous
 62
    60
370
    25
100
AcDbLine
 10
-229.6201966223
 20
99.1929145466
 30
0.0
 11
-223.8131285644
 21
104.3142671892
 31
0.0
  0
LINE
  5
311
330
2D0
100
AcDbEntity
  8
0
  6
Continuous
 62
    60
370
    25
100
AcDbLine
 10
286.6804717761
 20
111.4070551276
 30
0.0
 11
286.6804717761
 21
148.176607749
 31
0.0
  0
LINE
  5
312
330
2D0
100
AcDbEntity
  8
0
  6
Continuous
 62
    60
370
    25
100
AcDbLine
 10
-173.5433868122
 20
111.8784596182
 30
0.0
 11
229.6201966223
 21
61.0846225272
 31
0.0
  0
ARC
  5
313
330
2D0
100
AcDbEntity
  8
0
  6
Continuous
 62
     7
370
    25
100
AcDbCircle
 10
319.2401285681
 20
9.2641424444
 30
0.0
 40
8.667805172957944
100
AcDbArc
 50
306.0387546591
 51
356.5133445093
  0
ARC
  5
314
330
2D0
100
AcDbEntity
  8
0
  6
Continuous
 62
     7
370
    25
100
AcDbCircle
 10
-218.3535003812
 20
104.4151614561
 30
0.0
 40
5.460560369788498
100
AcDbArc
 50
181.0587090425
 51
261.7605351794
  0
ARC
  5
315
330
2D0
100
AcDbEntity
  8
0
  6
Continuous
 62
     7
370
    25
100
AcDbCircle
 10
-183.3682543557
 20
111.2615172803
 30
0.0
 40
9.844218612742797
100
AcDbArc
 50
324.9309440897
 51
3.5931111895
  0
VIEWPORT
  5
328
330
2D0
100
AcDbEntity
  8
0
100
AcDbViewport
 10
0.0
 20
0.0
 30
0.0
 40
205.6
 41
156.0
 68
     1
 69
     1
 12
0.0
 22
0.0
 13
0.0
 23
0.0
 14
10.0
 24
10.0
 15
10.0
 25
10.0
 16
0.0
 26
0.0
 36
1.0
 17
0.0
 27
0.0
 37
0.0
 42
50.0
 43
0.0
 44
0.0
 45
465.9058365759
 50
0.0
 51
0.0
 72
   100
 90
   557152
  1

281
     0
 71
     1
 74
     0
110
0.0
120
0.0
130
0.0
111
1.0
121
0.0
131
0.0
112
0.0
122
1.0
132
0.0
 79
     0
146
0.0
170
     0
 61
     5
348
2F
292
     1
282
     1
141
0.0
142
0.0
 63
   256
361
329
  0
ENDBLK
  5
2D3
330
2D0
100
AcDbEntity
  8
0
100
AcDbBlockEnd
  0
ENDSEC
  0
SECTION
  2
ENTITIES
  0
LINE
  5
B5
330
1F
100
AcDbEntity
  8
0
  6
Continuous
 62
     7
370
    25
100
AcDbLine
 10
246.0
 20
160.0
 30
0.0
 11
-246.0
 21
160.0
 31
0.0
  0
LINE
  5
B6
330
1F
100
AcDbEntity
  8
0
  6
Continuous
 62
     7
370
    25
100
AcDbLine
 10
-285.0
 20
121.0
 30
0.0
 11
-285.0
 21
-121.0
 31
0.0
  0
LINE
  5
B7
330
1F
100
AcDbEntity
  8
0
  6
Continuous
 62
     7
370
    25
100
AcDbLine
 10
-246.0
 20
-160.0
 30
0.0
 11
246.0
 21
-160.0
 31
0.0
  0
LINE
  5
B8
330
1F
100
AcDbEntity
  8
0
  6
Continuous
 62
     7
370
    25
100
AcDbLine
 10
285.0
 20
-121.0
 30
0.0
 11
285.0
 21
121.0
 31
0.0
  0
LINE
  5
B9
330
1F
100
AcDbEntity
  8
0
  6
Continuous
 62
     7
370
    25
100
AcDbLine
 10
301.0
 20
-121.0
 30
0.0
 11
301.0
 21
121.0
 31
0.0
  0
LINE
  5
BA
330
1F
100
AcDbEntity
  8
0
  6
Continuous
 62
     7
370
    25
100
AcDbLine
 10
-246.0
 20
-176.0
 30
0.0
 11
246.0
 21
-176.0
 31
0.0
  0
LINE
  5
BB
330
1F
100
AcDbEntity
  8
0
  6
Continuous
 62
     7
370
    25
100
AcDbLine
 10
-301.0
 20
121.0
 30
0.0
 11
-301.0
 21
-121.0
 31
0.0
  0
LINE
  5
BC
330
1F
100
AcDbEntity
  8
0
  6
Continuous
 62
     7
370
    25
100
AcDbLine
 10
246.0
 20
176.0
 30
0.0
 11
-246.0
 21
176.0
 31
0.0
  0
LINE
  5
BD
330
1F
100
AcDbEntity
  8
0
  6
Continuous
 62
     7
370
    25
100
AcDbLine
 10
280.0
 20
-121.0
 30
0.0
 11
285.0
 21
-121.0
 31
0.0
  0
LINE
  5
BE
330
1F
100
AcDbEntity
  8
0
  6
Continuous
 62
     7
370
    25
100
AcDbLine
 10
246.0
 20
-155.0
 30
0.0
 11
246.0
 21
-160.0
 31
0.0
  0
LINE
  5
BF
330
1F
100
AcDbEntity
  8
0
  6
Continuous
 62
     7
370
    25
100
AcDbLine
 10
246.0
 20
160.0
 30
0.0
 11
246.0
 21
155.0
 31
0.0
  0
LINE
  5
C0
330
1F
100
AcDbEntity
  8
0
  6
Continuous
 62
     7
370
    25
100
AcDbLine
 10
246.0
 20
155.0
 30
0.0
 11
-246.0
 21
155.0
 31
0.0
  0
LINE
  5
C1
330
1F
100
AcDbEntity
  8
0
  6
Continuous
 62
     7
370
    25
100
AcDbLine
 10
-246.0
 20
160.0
 30
0.0
 11
-246.0
 21
155.0
 31
0.0
  0
LINE
  5
C2
330
1F
100
AcDbEntity
  8
0
  6
Continuous
 62
     7
370
    25
100
AcDbLine
 10
-246.0
 20
-155.0
 30
0.0
 11
-246.0
 21
-160.0
 31
0.0
  0
LINE
  5
C3
330
1F
100
AcDbEntity
  8
0
  6
Continuous
 62
     7
370
    25
100
AcDbLine
 10
-285.0
 20
-121.0
 30
0.0
 11
-280.0
 21
-121.0
 31
0.0
  0
LINE
  5
C4
330
1F
100
AcDbEntity
  8
0
  6
Continuous
 62
     7
370
    25
100
AcDbLine
 10
280.0
 20
-121.0
 30
0.0
 11
280.0
 21
121.0
 31
0.0
  0
LINE
  5
C5
330
1F
100
AcDbEntity
  8
0
  6
Continuous
 62
     7
370
    25
100
AcDbLine
 10
280.0
 20
121.0
 30
0.0
 11
285.0
 21
121.0
 31
0.0
  0
LINE
  5
C6
330
1F
100
AcDbEntity
  8
0
  6
Continuous
 62
     7
370
    25
100
AcDbLine
 10
-285.0
 20
121.0
 30
0.0
 11
-280.0
 21
121.0
 31
0.0
  0
LINE
  5
C7
330
1F
100
AcDbEntity
  8
0
  6
Continuous
 62
     7
370
    25
100
AcDbLine
 10
-280.0
 20
121.0
 30
0.0
 11
-280.0
 21
-121.0
 31
0.0
  0
LINE
  5
C8
330
1F
100
AcDbEntity
  8
0
  6
Continuous
 62
     7
370
    25
100
AcDbLine
 10
-246.0
 20
-155.0
 30
0.0
 11
246.0
 21
-155.0
 31
0.0
  0
LINE
  5
C9
330
1F
100
AcDbEntity
  8
0
  6
Continuous
 62
     7
370
    25
100
AcDbLine
 10
-58.0
 20
-33.0
 30
0.0
 11
58.0
 21
-33.0
 31
0.0
  0
LINE
  5
CA
330
1F
100
AcDbEntity
  8
0
  6
Continuous
 62
     7
370
    25
100
AcDbLine
 10
63.0
 20
-28.0
 30
0.0
 11
63.0
 21
28.0
 31
0.0
  0
LINE
  5
CB
330
1F
100
AcDbEntity
  8
0
  6
Continuous
 62
     7
370
    25
100
AcDbLine
 10
58.0
 20
33.0
 30
0.0
 11
-58.0
 21
33.0
 31
0.0
  0
LINE
  5
CC
330
1F
100
AcDbEntity
  8
0
  6
Continuous
 62
     7
370
    25
100
AcDbLine
 10
-63.0
 20
28.0
 30
0.0
 11
-63.0
 21
-28.0
 31
0.0
  0
LINE
  5
CD
330
1F
100
AcDbEntity
  8
0
  6
Continuous
 62
     7
370
    25
100
AcDbLine
 10
-56.0
 20
-29.0
 30
0.0
 11
-56.0
 21
-28.5
 31
0.0
  0
LINE
  5
CE
330
1F
100
AcDbEntity
  8
0
  6
Continuous
 62
     7
370
    25
100
AcDbLine
 10
-59.5
 20
-25.0
 30
0.0
 11
-60.0
 21
-25.0
 31
0.0
  0
LINE
  5
CF
330
1F
100
AcDbEntity
  8
0
  6
Continuous
 62
     7
370
    25
100
AcDbLine
 10
-59.5
 20
26.0
 30
0.0
 11
-59.5
 21
-25.0
 31
0.0
  0
LINE
  5
D0
330
1F
100
AcDbEntity
  8
0
  6
Continuous
 62
     7
370
    25
100
AcDbLine
 10
-60.0
 20
-25.0
 30
0.0
 11
-60.0
 21
26.0
 31
0.0
  0
LINE
  5
D1
330
1F
100
AcDbEntity
  8
0
  6
Continuous
 62
     7
370
    25
100
AcDbLine
 10
-59.5
 20
26.0
 30
0.0
 11
-60.0
 21
26.0
 31
0.0
  0
LINE
  5
D2
330
1F
100
AcDbEntity
  8
0
  6
Continuous
 62
     7
370
    25
100
AcDbLine
 10
55.0
 20
-29.0
 30
0.0
 11
-56.0
 21
-29.0
 31
0.0
  0
LINE
  5
D3
330
1F
100
AcDbEntity
  8
0
  6
Continuous
 62
     7
370
    25
100
AcDbLine
 10
-56.0
 20
-28.5
 30
0.0
 11
55.0
 21
-28.5
 31
0.0
  0
LINE
  5
D4
330
1F
100
AcDbEntity
  8
0
  6
Continuous
 62
     7
370
    25
100
AcDbLine
 10
55.0
 20
-29.0
 30
0.0
 11
55.0
 21
-28.5
 31
0.0
  0
LINE
  5
D5
330
1F
100
AcDbEntity
  8
0
  6
Continuous
 62
     7
370
    25
100
AcDbLine
 10
59.0
 20
-25.0
 30
0.0
 11
58.5
 21
-25.0
 31
0.0
  0
LINE
  5
D6
330
1F
100
AcDbEntity
  8
0
  6
Continuous
 62
     7
370
    25
100
AcDbLine
 10
55.0
 20
29.5
 30
0.0
 11
-56.0
 21
29.5
 31
0.0
  0
LINE
  5
D7
330
1F
100
AcDbEntity
  8
0
  6
Continuous
 62
     7
370
    25
100
AcDbLine
 10
-56.0
 20
29.5
 30
0.0
 11
-56.0
 21
30.0
 31
0.0
  0
LINE
  5
D8
330
1F
100
AcDbEntity
  8
0
  6
Continuous
 62
     7
370
    25
100
AcDbLine
 10
-56.0
 20
30.0
 30
0.0
 11
55.0
 21
30.0
 31
0.0
  0
LINE
  5
D9
330
1F
100
AcDbEntity
  8
0
  6
Continuous
 62
     7
370
    25
100
AcDbLine
 10
55.0
 20
29.5
 30
0.0
 11
55.0
 21
30.0
 31
0.0
  0
LINE
  5
DA
330
1F
100
AcDbEntity
  8
0
  6
Continuous
 62
     7
370
    25
100
AcDbLine
 10
59.0
 20
26.0
 30
0.0
 11
59.0
 21
-25.0
 31
0.0
  0
LINE
  5
DB
330
1F
100
AcDbEntity
  8
0
  6
Continuous
 62
     7
370
    25
100
AcDbLine
 10
58.5
 20
-25.0
 30
0.0
 11
58.5
 21
26.0
 31
0.0
  0
LINE
  5
DC
330
1F
100
AcDbEntity
  8
0
  6
Continuous
 62
     7
370
    25
100
AcDbLine
 10
59.0
 20
26.0
 30
0.0
 11
58.5
 21
26.0
 31
0.0
  0
ARC
  5
DD
330
1F
100
AcDbEntity
  8
0
  6
Continuous
 62
     7
370
    25
100
AcDbCircle
 10
-246.0
 20
-121.0
 30
0.0
 40
39.0
100
AcDbArc
 50
180.0
 51
270.0
  0
ARC
  5
DE
330
1F
100
AcDbEntity
  8
0
  6
Continuous
 62
     7
370
    25
100
AcDbCircle
 10
246.0
 20
-121.0
 30
0.0
 40
39.0
100
AcDbArc
 50
270.0
 51
0.0
  0
ARC
  5
DF
330
1F
100
AcDbEntity
  8
0
  6
Continuous
 62
     7
370
    25
100
AcDbCircle
 10
246.0
 20
121.0
 30
0.0
 40
39.00000000000009
100
AcDbArc
 50
0.0
 51
90.0
  0
ARC
  5
E0
330
1F
100
AcDbEntity
  8
0
  6
Continuous
 62
     7
370
    25
100
AcDbCircle
 10
246.0
 20
-121.0
 30
0.0
 40
55.00000000000004
100
AcDbArc
 50
270.0
 51
0.0
  0
ARC
  5
E1
330
1F
100
AcDbEntity
  8
0
  6
Continuous
 62
     7
370
    25
100
AcDbCircle
 10
-246.0
 20
-121.0
 30
0.0
 40
55.00000000000004
100
AcDbArc
 50
180.0
 51
270.0
  0
ARC
  5
E2
330
1F
100
AcDbEntity
  8
0
  6
Continuous
 62
     7
370
    25
100
AcDbCircle
 10
-246.0
 20
121.0
 30
0.0
 40
55.0
100
AcDbArc
 50
90.0
 51
180.0
  0
ARC
  5
E3
330
1F
100
AcDbEntity
  8
0
  6
Continuous
 62
     7
370
    25
100
AcDbCircle
 10
246.0
 20
121.0
 30
0.0
 40
55.00000000000006
100
AcDbArc
 50
0.0
 51
90.0
  0
ARC
  5
E4
330
1F
100
AcDbEntity
  8
0
  6
Continuous
 62
     7
370
    25
100
AcDbCircle
 10
-246.0
 20
121.0
 30
0.0
 40
38.99999999999991
100
AcDbArc
 50
90.0
 51
180.0
  0
ARC
  5
E5
330
1F
100
AcDbEntity
  8
0
  6
Continuous
 62
     7
370
    25
100
AcDbCircle
 10
246.0
 20
-121.0
 30
0.0
 40
33.99999999999999
100
AcDbArc
 50
270.0
 51
0.0
  0
ARC
  5
E6
330
1F
100
AcDbEntity
  8
0
  6
Continuous
 62
     7
370
    25
100
AcDbCircle
 10
-246.0
 20
-121.0
 30
0.0
 40
34.00000000000009
100
AcDbArc
 50
180.0
 51
270.0
  0
ARC
  5
E7
330
1F
100
AcDbEntity
  8
0
  6
Continuous
 62
     7
370
    25
100
AcDbCircle
 10
-246.0
 20
121.0
 30
0.0
 40
33.99999999999994
100
AcDbArc
 50
90.0
 51
180.0
  0
ARC
  5
E8
330
1F
100
AcDbEntity
  8
0
  6
Continuous
 62
     7
370
    25
100
AcDbCircle
 10
246.0
 20
121.0
 30
0.0
 40
34.00000000000004
100
AcDbArc
 50
0.0
 51
90.0
  0
ARC
  5
E9
330
1F
100
AcDbEntity
  8
0
  6
Continuous
 62
     7
370
    25
100
AcDbCircle
 10
58.0
 20
-28.0
 30
0.0
 40
5.000000000000004
100
AcDbArc
 50
270.0
 51
0.0
  0
ARC
  5
EA
330
1F
100
AcDbEntity
  8
0
  6
Continuous
 62
     7
370
    25
100
AcDbCircle
 10
58.0
 20
28.0
 30
0.0
 40
4.999999999999996
100
AcDbArc
 50
0.0
 51
90.0
  0
ARC
  5
EB
330
1F
100
AcDbEntity
  8
0
  6
Continuous
 62
     7
370
    25
100
AcDbCircle
 10
-58.0
 20
28.0
 30
0.0
 40
4.999999999999979
100
AcDbArc
 50
90.0
 51
180.0
  0
ARC
  5
EC
330
1F
100
AcDbEntity
  8
0
  6
Continuous
 62
     7
370
    25
100
AcDbCircle
 10
-58.0
 20
-28.0
 30
0.0
 40
5.000000000000021
100
AcDbArc
 50
180.0
 51
270.0
  0
ARC
  5
ED
330
1F
100
AcDbEntity
  8
0
  6
Continuous
 62
     7
370
    25
100
AcDbCircle
 10
0.0
 20
0.0
 30
0.0
 40
32.50000000000011
100
AcDbArc
 50
243.1646783533
 51
296.8353216467
  0
ARC
  5
EE
330
1F
100
AcDbEntity
  8
0
  6
Continuous
 62
     7
370
    25
100
AcDbCircle
 10
0.0
 20
0.0
 30
0.0
 40
32.50000000000008
100
AcDbArc
 50
67.380135052
 51
112.619864948
  0
ARC
  5
EF
330
1F
100
AcDbEntity
  8
0
  6
Continuous
 62
     7
370
    25
100
AcDbCircle
 10
-56.0
 20
-25.0
 30
0.0
 40
3.500000000000007
100
AcDbArc
 50
180.0
 51
270.0
  0
ARC
  5
F0
330
1F
100
AcDbEntity
  8
0
  6
Continuous
 62
     7
370
    25
100
AcDbCircle
 10
-56.0
 20
-25.0
 30
0.0
 40
3.999999999999996
100
AcDbArc
 50
180.0
 51
270.0
  0
ARC
  5
F1
330
1F
100
AcDbEntity
  8
0
  6
Continuous
 62
     7
370
    25
100
AcDbCircle
 10
55.0
 20
-25.0
 30
0.0
 40
3.999999999999993
100
AcDbArc
 50
270.0
 51
0.0
  0
ARC
  5
F2
330
1F
100
AcDbEntity
  8
0
  6
Continuous
 62
     7
370
    25
100
AcDbCircle
 10
55.0
 20
-25.0
 30
0.0
 40
3.499999999999982
100
AcDbArc
 50
270.0
 51
0.0
  0
ARC
  5
F3
330
1F
100
AcDbEntity
  8
0
  6
Continuous
 62
     7
370
    25
100
AcDbCircle
 10
55.0
 20
26.0
 30
0.0
 40
3.499999999999993
100
AcDbArc
 50
0.0
 51
90.0
  0
ARC
  5
F4
330
1F
100
AcDbEntity
  8
0
  6
Continuous
 62
     7
370
    25
100
AcDbCircle
 10
55.0
 20
26.0
 30
0.0
 40
4.0
100
AcDbArc
 50
0.0
 51
90.0
  0
ARC
  5
F5
330
1F
100
AcDbEntity
  8
0
  6
Continuous
 62
     7
370
    25
100
AcDbCircle
 10
-56.0
 20
26.0
 30
0.0
 40
3.500000000000021
100
AcDbArc
 50
90.0
 51
180.0
  0
ARC
  5
F6
330
1F
100
AcDbEntity
  8
0
  6
Continuous
 62
     7
370
    25
100
AcDbCircle
 10
-56.0
 20
26.0
 30
0.0
 40
4.000000000000004
100
AcDbArc
 50
90.0
 51
180.0
  0
LINE
  5
104
330
1B
100
AcDbEntity
 67
     1
  8
0
  6
Continuous
 62
     7
370
    25
100
AcDbLine
 10
-246.0
 20
135.0
 30
0.0
 11
-246.0
 21
0.0
 31
0.0
  0
LINE
  5
105
330
1B
100
AcDbEntity
 67
     1
  8
0
  6
Continuous
 62
     7
370
    25
100
AcDbLine
 10
-301.0
 20
135.0
 30
0.0
 11
-301.0
 21
0.0
 31
0.0
  0
LINE
  5
106
330
1B
100
AcDbEntity
 67
     1
  8
0
  6
Continuous
 62
     7
370
    25
100
AcDbLine
 10
-301.0
 20
135.0
 30
0.0
 11
301.0
 21
135.0
 31
0.0
  0
LINE
  5
107
330
1B
100
AcDbEntity
 67
     1
  8
0
  6
Continuous
 62
     7
370
    25
100
AcDbLine
 10
-301.0
 20
0.0
 30
0.0
 11
301.0
 21
0.0
 31
0.0
  0
LINE
  5
108
330
1B
100
AcDbEntity
 67
     1
  8
0
  6
Continuous
 62
     7
370
    25
100
AcDbLine
 10
246.0
 20
135.0
 30
0.0
 11
246.0
 21
0.0
 31
0.0
  0
LINE
  5
109
330
1B
100
AcDbEntity
 67
     1
  8
0
  6
Continuous
 62
     7
370
    25
100
AcDbLine
 10
301.0
 20
135.0
 30
0.0
 11
301.0
 21
0.0
 31
0.0
  0
LINE
  5
10A
330
1B
100
AcDbEntity
 67
     1
  8
0
  6
Continuous
 62
     7
370
    25
100
AcDbLine
 10
80.0
 20
-22.0
 30
0.0
 11
-80.0
 21
-22.0
 31
0.0
  0
LINE
  5
10B
330
1B
100
AcDbEntity
 67
     1
  8
0
  6
Continuous
 62
     7
370
    25
100
AcDbLine
 10
-80.0
 20
-22.0
 30
0.0
 11
-80.0
 21
0.0
 31
0.0
  0
LINE
  5
10C
330
1B
100
AcDbEntity
 67
     1
  8
0
  6
Continuous
 62
     7
370
    25
100
AcDbLine
 10
80.0
 20
-22.0
 30
0.0
 11
80.0
 21
0.0
 31
0.0
  0
VIEWPORT
  5
316
330
1B
100
AcDbEntity
 67
     1
  8
0
100
AcDbViewport
 10
0.0
 20
0.0
 30
0.0
 40
205.6
 41
156.0
 68
     1
 69
     1
 12
0.0
 22
0.0
 13
0.0
 23
0.0
 14
10.0
 24
10.0
 15
10.0
 25
10.0
 16
0.0
 26
0.0
 36
1.0
 17
0.0
 27
0.0
 37
0.0
 42
50.0
 43
0.0
 44
0.0
 45
465.9058365759
 50
0.0
 51
0.0
 72
   100
 90
   557152
  1

281
     0
 71
     1
 74
     0
110
0.0
120
0.0
130
0.0
111
1.0
121
0.0
131
0.0
112
0.0
122
1.0
132
0.0
 79
     0
146
0.0
170
     0
 61
     5
348
2F
292
     1
282
     1
141
0.0
142
0.0
 63
   256
361
317
  0
ENDSEC
  0
SECTION
  2
OBJECTS
  0
DICTIONARY
  5
C
330
0
100
AcDbDictionary
281
     1
  3
ACAD_DETAILVIEWSTYLE
350
331
  3
ACAD_GROUP
350
D
  3
ACAD_LAYOUT
350
1A
  3
ACAD_MATERIAL
350
43
  3
ACAD_MLEADERSTYLE
350
6B
  3
ACAD_MLINESTYLE
350
17
  3
ACAD_PLOTSETTINGS
350
19
  3
ACAD_PLOTSTYLENAME
350
E
  3
ACAD_SCALELIST
350
47
  3
ACAD_SECTIONVIEWSTYLE
350
332
  3
ACAD_TABLESTYLE
350
69
  3
ACAD_VISUALSTYLE
350
2A
  3
ACDB_RECOMPOSE_DATA
350
32E
  3
AcDbVariableDictionary
350
32A
  0
SUN
  5
6D
330
29
100
AcDbSun
 90
        1
290
     0
 63
     7
421
 16777215
 40
1.0
291
     1
 91
  2455826
 92
 54000000
292
     0
 70
     2
 71
   256
280
     1
  0
SUN
  5
319
330
318
100
AcDbSun
 90
        1
290
     0
 63
     7
421
 16777215
 40
1.0
291
     1
 91
  2455826
 92
 54000000
292
     0
 70
     2
 71
   256
280
     1
  0
SUN
  5
31B
330
31A
100
AcDbSun
 90
        1
290
     0
 63
     7
421
 16777215
 40
1.0
291
     1
 91
  2455826
 92
 54000000
292
     0
 70
     2
 71
   256
280
     1
  0
SUN
  5
31D
330
31C
100
AcDbSun
 90
        1
290
     0
 63
     7
421
 16777215
 40
1.0
291
     1
 91
  2455826
 92
 54000000
292
     0
 70
     2
 71
   256
280
     1
  0
SUN
  5
31F
330
31E
100
AcDbSun
 90
        1
290
     0
 63
     7
421
 16777215
 40
1.0
291
     1
 91
  2455826
 92
 54000000
292
     0
 70
     2
 71
   256
280
     1
  0
SUN
  5
321
330
320
100
AcDbSun
 90
        1
290
     0
 63
     7
421
 16777215
 40
1.0
291
     1
 91
  2455826
 92
 54000000
292
     0
 70
     2
 71
   256
280
     1
  0
SUN
  5
323
330
322
100
AcDbSun
 90
        1
290
     0
 63
     7
421
 16777215
 40
1.0
291
     1
 91
  2455826
 92
 54000000
292
     0
 70
     2
 71
   256
280
     1
  0
SUN
  5
325
330
324
100
AcDbSun
 90
        1
290
     0
 63
     7
421
 16777215
 40
1.0
291
     1
 91
  2455826
 92
 54000000
292
     0
 70
     2
 71
   256
280
     1
  0
SUN
  5
327
330
326
100
AcDbSun
 90
        1
290
     0
 63
     7
421
 16777215
 40
1.0
291
     1
 91
  2455826
 92
 54000000
292
     0
 70
     2
 71
   256
280
     1
  0
SUN
  5
329
330
328
100
AcDbSun
 90
        1
290
     0
 63
     7
421
 16777215
 40
1.0
291
     1
 91
  2455826
 92
 54000000
292
     0
 70
     2
 71
   256
280
     1
  0
SUN
  5
317
330
316
100
AcDbSun
 90
        1
290
     0
 63
     7
421
 16777215
 40
1.0
291
     1
 91
  2455826
 92
 54000000
292
     0
 70
     2
 71
   256
280
     1
  0
DICTIONARY
  5
331
102
{ACAD_REACTORS
330
C
102
}
330
C
100
AcDbDictionary
281
     1
  0
DICTIONARY
  5
D
102
{ACAD_REACTORS
330
C
102
}
330
C
100
AcDbDictionary
281
     1
  0
DICTIONARY
  5
1A
102
{ACAD_REACTORS
330
C
102
}
330
C
100
AcDbDictionary
281
     1
  3
_Dimetrisch
350
2D1
  3
_Isometrisch
350
1BF
  3
_Links
350
26
  3
_Normal auf
350
154
  3
_Rechts
350
188
  3
_Rückseite
350
16E
  3
_Trimetrisch
350
259
  3
_Unten
350
1A2
  3
_Vorderseite
350
1E
  3
Beschriftungsansicht  1
350
124
  3
Model
350
22
  0
DICTIONARY
  5
43
102
{ACAD_REACTORS
330
C
102
}
330
C
100
AcDbDictionary
281
     1
  3
ByBlock
350
45
  3
ByLayer
350
44
  3
Global
350
46
  0
DICTIONARY
  5
6B
102
{ACAD_REACTORS
330
C
102
}
330
C
100
AcDbDictionary
281
     1
  3
Standard
350
6C
  0
DICTIONARY
  5
17
102
{ACAD_REACTORS
330
C
102
}
330
C
100
AcDbDictionary
281
     1
  3
Standard
350
18
  0
DICTIONARY
  5
19
102
{ACAD_REACTORS
330
C
102
}
330
C
100
AcDbDictionary
281
     1
  0
ACDBDICTIONARYWDFLT
  5
E
102
{ACAD_REACTORS
330
C
102
}
330
C
100
AcDbDictionary
281
     1
  3
Normal
350
F
100
AcDbDictionaryWithDefault
340
F
  0
DICTIONARY
  5
47
102
{ACAD_REACTORS
330
C
102
}
330
C
100
AcDbDictionary
281
     1
  3
A0
350
48
  3
A1
350
49
  3
A2
350
4A
  3
A3
350
4B
  3
A4
350
4C
  3
A5
350
4D
  3
A6
350
4E
  3
A7
350
4F
  3
A8
350
50
  3
A9
350
51
  3
B0
350
52
  3
B1
350
53
  3
B2
350
54
  3
B3
350
55
  3
B4
350
56
  3
B5
350
57
  3
B6
350
58
  3
B7
350
59
  3
B8
350
5A
  3
B9
350
5B
  3
C0
350
5C
  3
C1
350
5D
  3
C2
350
5E
  3
C3
350
5F
  3
C4
350
60
  3
C5
350
61
  3
C6
350
62
  3
C7
350
63
  3
C8
350
64
  3
C9
350
65
  3
D0
350
66
  3
D1
350
67
  3
D2
350
68
  0
DICTIONARY
  5
332
102
{ACAD_REACTORS
330
C
102
}
330
C
100
AcDbDictionary
281
     1
  0
DICTIONARY
  5
69
102
{ACAD_REACTORS
330
C
102
}
330
C
100
AcDbDictionary
281
     1
  3
Standard
350
6A
  0
DICTIONARY
  5
2A
102
{ACAD_REACTORS
330
C
102
}
330
C
100
AcDbDictionary
281
     1
  3
2dWireframe
350
2F
  3
Basic
350
32
  3
Brighten
350
36
  3
ColorChange
350
3A
  3
Conceptual
350
34
  3
Dim
350
35
  3
EdgeColorOff
350
3D
  3
Facepattern
350
39
  3
Flat
350
2B
  3
FlatWithEdges
350
2C
  3
Gouraud
350
2D
  3
GouraudWithEdges
350
2E
  3
Hidden
350
31
  3
JitterOff
350
3B
  3
Linepattern
350
38
  3
OverhangOff
350
3C
  3
Realistic
350
33
  3
Shaded
350
42
  3
Shaded with edges
350
41
  3
Shades of Gray
350
3E
  3
Sketchy
350
3F
  3
Thicken
350
37
  3
Wireframe
350
30
  3
X-Ray
350
40
  0
XRECORD
  5
32E
102
{ACAD_REACTORS
330
C
102
}
330
C
100
AcDbXrecord
280
     1
 90
        1
330
6A
  0
DICTIONARY
  5
32A
102
{ACAD_REACTORS
330
C
102
}
330
C
100
AcDbDictionary
281
     1
  3
CANNOSCALE
350
32B
  3
CMLEADERSTYLE
350
330
  3
CTABLESTYLE
350
32F
  0
LAYOUT
  5
2D1
102
{ACAD_REACTORS
330
1A
102
}
330
1A
100
AcDbPlotSettings
  1

  2
none_device
  4
ISO_A4_(210.00_x_297.00_MM)
  6

 40
7.5
 41
20.0
 42
7.5
 43
20.0
 44
210.0
 45
297.0
 46
0.0
 47
0.0
 48
0.0
 49
0.0
140
0.0
141
0.0
142
1.0
143
2.3424124514
 70
   688
 72
     1
 73
     1
 74
     1
  7

 75
     0
 76
     0
 77
     2
 78
   300
147
0.426910299
148
301.0
149
22.0
100
AcDbLayout
  1
_Dimetrisch
 70
     1
 71
    10
 10
0.0
 20
0.0
 11
0.0
 21
0.0
 12
0.0
 22
0.0
 32
0.0
 14
0.0
 24
0.0
 34
0.0
 15
0.0
 25
0.0
 35
0.0
146
0.0
 13
0.0
 23
0.0
 33
0.0
 16
1.0
 26
0.0
 36
0.0
 17
0.0
 27
1.0
 37
0.0
 76
     0
330
2D0
331
328
  0
LAYOUT
  5
1BF
102
{ACAD_REACTORS
330
1A
102
}
330
1A
100
AcDbPlotSettings
  1

  2
none_device
  4
ISO_A4_(210.00_x_297.00_MM)
  6

 40
7.5
 41
20.0
 42
7.5
 43
20.0
 44
210.0
 45
297.0
 46
0.0
 47
0.0
 48
0.0
 49
0.0
140
0.0
141
0.0
142
1.0
143
2.3424124514
 70
   688
 72
     1
 73
     1
 74
     1
  7

 75
     0
 76
     0
 77
     2
 78
   300
147
0.426910299
148
301.0
149
22.0
100
AcDbLayout
  1
_Isometrisch
 70
     1
 71
     8
 10
0.0
 20
0.0
 11
0.0
 21
0.0
 12
0.0
 22
0.0
 32
0.0
 14
0.0
 24
0.0
 34
0.0
 15
0.0
 25
0.0
 35
0.0
146
0.0
 13
0.0
 23
0.0
 33
0.0
 16
1.0
 26
0.0
 36
0.0
 17
0.0
 27
1.0
 37
0.0
 76
     0
330
1BE
331
324
  0
LAYOUT
  5
26
102
{ACAD_REACTORS
330
1A
102
}
330
1A
100
AcDbPlotSettings
  1

  2
none_device
  4
ISO_A4_(210.00_x_297.00_MM)
  6

 40
7.5
 41
20.0
 42
7.5
 43
20.0
 44
210.0
 45
297.0
 46
0.0
 47
0.0
 48
0.0
 49
0.0
140
0.0
141
0.0
142
1.0
143
2.3424124514
 70
   688
 72
     1
 73
     1
 74
     1
  7

 75
     0
 76
     0
 77
     2
 78
   300
147
0.426910299
148
301.0
149
22.0
100
AcDbLayout
  1
_Links
 70
     1
 71
     2
 10
0.0
 20
0.0
 11
0.0
 21
0.0
 12
0.0
 22
0.0
 32
0.0
 14
0.0
 24
0.0
 34
0.0
 15
0.0
 25
0.0
 35
0.0
146
0.0
 13
0.0
 23
0.0
 33
0.0
 16
1.0
 26
0.0
 36
0.0
 17
0.0
 27
1.0
 37
0.0
 76
     0
330
23
331
318
  0
LAYOUT
  5
154
102
{ACAD_REACTORS
330
1A
102
}
330
1A
100
AcDbPlotSettings
  1

  2
none_device
  4
ISO_A4_(210.00_x_297.00_MM)
  6

 40
7.5
 41
20.0
 42
7.5
 43
20.0
 44
210.0
 45
297.0
 46
0.0
 47
0.0
 48
0.0
 49
0.0
140
0.0
141
0.0
142
1.0
143
2.3424124514
 70
   688
 72
     1
 73
     1
 74
     1
  7

 75
     0
 76
     0
 77
     2
 78
   300
147
0.426910299
148
301.0
149
22.0
100
AcDbLayout
  1
_Normal auf
 70
     1
 71
     4
 10
0.0
 20
0.0
 11
0.0
 21
0.0
 12
0.0
 22
0.0
 32
0.0
 14
0.0
 24
0.0
 34
0.0
 15
0.0
 25
0.0
 35
0.0
146
0.0
 13
0.0
 23
0.0
 33
0.0
 16
1.0
 26
0.0
 36
0.0
 17
0.0
 27
1.0
 37
0.0
 76
     0
330
153
331
31C
  0
LAYOUT
  5
188
102
{ACAD_REACTORS
330
1A
102
}
330
1A
100
AcDbPlotSettings
  1

  2
none_device
  4
ISO_A4_(210.00_x_297.00_MM)
  6

 40
7.5
 41
20.0
 42
7.5
 43
20.0
 44
210.0
 45
297.0
 46
0.0
 47
0.0
 48
0.0
 49
0.0
140
0.0
141
0.0
142
1.0
143
2.3424124514
 70
   688
 72
     1
 73
     1
 74
     1
  7

 75
     0
 76
     0
 77
     2
 78
   300
147
0.426910299
148
301.0
149
22.0
100
AcDbLayout
  1
_Rechts
 70
     1
 71
     6
 10
0.0
 20
0.0
 11
0.0
 21
0.0
 12
0.0
 22
0.0
 32
0.0
 14
0.0
 24
0.0
 34
0.0
 15
0.0
 25
0.0
 35
0.0
146
0.0
 13
0.0
 23
0.0
 33
0.0
 16
1.0
 26
0.0
 36
0.0
 17
0.0
 27
1.0
 37
0.0
 76
     0
330
187
331
320
  0
LAYOUT
  5
16E
102
{ACAD_REACTORS
330
1A
102
}
330
1A
100
AcDbPlotSettings
  1

  2
none_device
  4
ISO_A4_(210.00_x_297.00_MM)
  6

 40
7.5
 41
20.0
 42
7.5
 43
20.0
 44
210.0
 45
297.0
 46
0.0
 47
0.0
 48
0.0
 49
0.0
140
0.0
141
0.0
142
1.0
143
2.3424124514
 70
   688
 72
     1
 73
     1
 74
     1
  7

 75
     0
 76
     0
 77
     2
 78
   300
147
0.426910299
148
301.0
149
22.0
100
AcDbLayout
  1
_Rückseite
 70
     1
 71
     5
 10
0.0
 20
0.0
 11
0.0
 21
0.0
 12
0.0
 22
0.0
 32
0.0
 14
0.0
 24
0.0
 34
0.0
 15
0.0
 25
0.0
 35
0.0
146
0.0
 13
0.0
 23
0.0
 33
0.0
 16
1.0
 26
0.0
 36
0.0
 17
0.0
 27
1.0
 37
0.0
 76
     0
330
16D
331
31E
  0
LAYOUT
  5
259
102
{ACAD_REACTORS
330
1A
102
}
330
1A
100
AcDbPlotSettings
  1

  2
none_device
  4
ISO_A4_(210.00_x_297.00_MM)
  6

 40
7.5
 41
20.0
 42
7.5
 43
20.0
 44
210.0
 45
297.0
 46
0.0
 47
0.0
 48
0.0
 49
0.0
140
0.0
141
0.0
142
1.0
143
2.3424124514
 70
   688
 72
     1
 73
     1
 74
     1
  7

 75
     0
 76
     0
 77
     2
 78
   300
147
0.426910299
148
301.0
149
22.0
100
AcDbLayout
  1
_Trimetrisch
 70
     1
 71
     9
 10
0.0
 20
0.0
 11
0.0
 21
0.0
 12
0.0
 22
0.0
 32
0.0
 14
0.0
 24
0.0
 34
0.0
 15
0.0
 25
0.0
 35
0.0
146
0.0
 13
0.0
 23
0.0
 33
0.0
 16
1.0
 26
0.0
 36
0.0
 17
0.0
 27
1.0
 37
0.0
 76
     0
330
258
331
326
  0
LAYOUT
  5
1A2
102
{ACAD_REACTORS
330
1A
102
}
330
1A
100
AcDbPlotSettings
  1

  2
none_device
  4
ISO_A4_(210.00_x_297.00_MM)
  6

 40
7.5
 41
20.0
 42
7.5
 43
20.0
 44
210.0
 45
297.0
 46
0.0
 47
0.0
 48
0.0
 49
0.0
140
0.0
141
0.0
142
1.0
143
2.3424124514
 70
   688
 72
     1
 73
     1
 74
     1
  7

 75
     0
 76
     0
 77
     2
 78
   300
147
0.426910299
148
301.0
149
22.0
100
AcDbLayout
  1
_Unten
 70
     1
 71
     7
 10
0.0
 20
0.0
 11
0.0
 21
0.0
 12
0.0
 22
0.0
 32
0.0
 14
0.0
 24
0.0
 34
0.0
 15
0.0
 25
0.0
 35
0.0
146
0.0
 13
0.0
 23
0.0
 33
0.0
 16
1.0
 26
0.0
 36
0.0
 17
0.0
 27
1.0
 37
0.0
 76
     0
330
1A1
331
322
  0
LAYOUT
  5
1E
102
{ACAD_REACTORS
330
1A
102
}
330
1A
100
AcDbPlotSettings
  1

  2
none_device
  4
ISO_A4_(210.00_x_297.00_MM)
  6

 40
7.5
 41
20.0
 42
7.5
 43
20.0
 44
210.0
 45
297.0
 46
0.0
 47
0.0
 48
0.0
 49
0.0
140
0.0
141
0.0
142
1.0
143
2.3424124514
 70
   688
 72
     1
 73
     1
 74
     1
  7

 75
     0
 76
     0
 77
     2
 78
   300
147
0.426910299
148
301.0
149
22.0
100
AcDbLayout
  1
_Vorderseite
 70
     1
 71
     1
 10
-347.8482490272
 20
-39.5680933852
 11
347.8482490272
 21
452.3385214008
 12
0.0
 22
0.0
 32
0.0
 14
-301.0
 24
-22.0
 34
0.0
 15
301.0
 25
135.0
 35
0.0
146
0.0
 13
0.0
 23
0.0
 33
0.0
 16
1.0
 26
0.0
 36
0.0
 17
0.0
 27
1.0
 37
0.0
 76
     0
330
1B
331
316
  0
LAYOUT
  5
124
102
{ACAD_REACTORS
330
1A
102
}
330
1A
100
AcDbPlotSettings
  1

  2
none_device
  4
ISO_A4_(210.00_x_297.00_MM)
  6

 40
7.5
 41
20.0
 42
7.5
 43
20.0
 44
210.0
 45
297.0
 46
0.0
 47
0.0
 48
0.0
 49
0.0
140
0.0
141
0.0
142
1.0
143
2.3424124514
 70
   688
 72
     1
 73
     1
 74
     1
  7

 75
     0
 76
     0
 77
     2
 78
   300
147
0.426910299
148
301.0
149
22.0
100
AcDbLayout
  1
Beschriftungsansicht  1
 70
     1
 71
     3
 10
0.0
 20
0.0
 11
0.0
 21
0.0
 12
0.0
 22
0.0
 32
0.0
 14
0.0
 24
0.0
 34
0.0
 15
0.0
 25
0.0
 35
0.0
146
0.0
 13
0.0
 23
0.0
 33
0.0
 16
1.0
 26
0.0
 36
0.0
 17
0.0
 27
1.0
 37
0.0
 76
     0
330
123
331
31A
  0
LAYOUT
  5
22
102
{ACAD_REACTORS
330
1A
102
}
330
1A
100
AcDbPlotSettings
  1

  2
none_device
  4
ANSI_A_(11.00_x_8.50_Inches)
  6

 40
6.35
 41
19.05
 42
6.35000508
 43
19.05000254
 44
279.4
 45
215.9
 46
133.34999746
 47
88.89999873
 48
0.0
 49
0.0
140
0.0
141
0.0
142
0.018089701
143
1.0
 70
  1696
 72
     0
 73
     0
 74
     0
  7

 75
     0
 76
     0
 77
     2
 78
   300
147
0.0179189148
148
-1300.4909072572
149
0.0
100
AcDbLayout
  1
Model
 70
     1
 71
     0
 10
0.0
 20
0.0
 11
420.0
 21
297.0
 12
0.0
 22
0.0
 32
0.0
 14
-301.0
 24
-176.0
 34
0.0
 15
301.0
 25
176.0
 35
0.0
146
0.0
 13
0.0
 23
0.0
 33
0.0
 16
1.0
 26
0.0
 36
0.0
 17
0.0
 27
1.0
 37
0.0
 76
     0
330
1F
331
29
  0
MATERIAL
  5
45
102
{ACAD_REACTORS
330
43
102
}
330
43
100
AcDbMaterial
  1
ByBlock
 72
     1
 94
      127
  0
MATERIAL
  5
44
102
{ACAD_REACTORS
330
43
102
}
330
43
100
AcDbMaterial
  1
ByLayer
 72
     1
 94
      127
  0
MATERIAL
  5
46
102
{ACAD_REACTORS
330
43
102
}
330
43
100
AcDbMaterial
  1
Global
 72
     1
 94
      127
  0
MLEADERSTYLE
  5
6C
102
{ACAD_REACTORS
330
6B
102
}
330
6B
100
AcDbMLeaderStyle
179
     2
170
     2
171
     1
172
     0
 90
        2
 40
0.0
 41
0.0
173
     1
 91
-1056964608
340
14
 92
       -2
290
     1
 42
2.0
291
     1
 43
8.0
  3
Standard
341
0
 44
4.0
300

342
11
174
     1
178
     6
175
     1
176
     0
 93
-1056964608
 45
4.0
292
     0
297
     0
 46
4.0
343
0
 94
-1056964608
 47
1.0
 49
1.0
140
1.0
293
     1
141
0.0
294
     1
177
     0
142
1.0
295
     0
296
     0
143
3.75
271
     0
272
     9
273
     9
298
     0
  0
MLINESTYLE
  5
18
102
{ACAD_REACTORS
330
17
102
}
330
17
100
AcDbMlineStyle
  2
Standard
 70
     0
  3

 62
   256
 51
90.0
 52
90.0
 71
     2
 49
0.5
 62
   256
  6
BYLAYER
 49
-0.5
 62
   256
  6
BYLAYER
  0
ACDBPLACEHOLDER
  5
F
102
{ACAD_REACTORS
330
E
102
}
330
E
  0
SCALE
  5
48
102
{ACAD_REACTORS
330
47
102
}
330
47
100
AcDbScale
 70
     0
300
1:1
140
1.0
141
1.0
290
     1
  0
SCALE
  5
49
102
{ACAD_REACTORS
330
47
102
}
330
47
100
AcDbScale
 70
     0
300
1:2
140
1.0
141
2.0
290
     0
  0
SCALE
  5
4A
102
{ACAD_REACTORS
330
47
102
}
330
47
100
AcDbScale
 70
     0
300
1:4
140
1.0
141
4.0
290
     0
  0
SCALE
  5
4B
102
{ACAD_REACTORS
330
47
102
}
330
47
100
AcDbScale
 70
     0
300
1:5
140
1.0
141
5.0
290
     0
  0
SCALE
  5
4C
102
{ACAD_REACTORS
330
47
102
}
330
47
100
AcDbScale
 70
     0
300
1:8
140
1.0
141
8.0
290
     0
  0
SCALE
  5
4D
102
{ACAD_REACTORS
330
47
102
}
330
47
100
AcDbScale
 70
     0
300
1:10
140
1.0
141
10.0
290
     0
  0
SCALE
  5
4E
102
{ACAD_REACTORS
330
47
102
}
330
47
100
AcDbScale
 70
     0
300
1:16
140
1.0
141
16.0
290
     0
  0
SCALE
  5
4F
102
{ACAD_REACTORS
330
47
102
}
330
47
100
AcDbScale
 70
     0
300
1:20
140
1.0
141
20.0
290
     0
  0
SCALE
  5
50
102
{ACAD_REACTORS
330
47
102
}
330
47
100
AcDbScale
 70
     0
300
1:30
140
1.0
141
30.0
290
     0
  0
SCALE
  5
51
102
{ACAD_REACTORS
330
47
102
}
330
47
100
AcDbScale
 70
     0
300
1:40
140
1.0
141
40.0
290
     0
  0
SCALE
  5
52
102
{ACAD_REACTORS
330
47
102
}
330
47
100
AcDbScale
 70
     0
300
1:50
140
1.0
141
50.0
290
     0
  0
SCALE
  5
53
102
{ACAD_REACTORS
330
47
102
}
330
47
100
AcDbScale
 70
     0
300
1:100
140
1.0
141
100.0
290
     0
  0
SCALE
  5
54
102
{ACAD_REACTORS
330
47
102
}
330
47
100
AcDbScale
 70
     0
300
2:1
140
2.0
141
1.0
290
     0
  0
SCALE
  5
55
102
{ACAD_REACTORS
330
47
102
}
330
47
100
AcDbScale
 70
     0
300
4:1
140
4.0
141
1.0
290
     0
  0
SCALE
  5
56
102
{ACAD_REACTORS
330
47
102
}
330
47
100
AcDbScale
 70
     0
300
8:1
140
8.0
141
1.0
290
     0
  0
SCALE
  5
57
102
{ACAD_REACTORS
330
47
102
}
330
47
100
AcDbScale
 70
     0
300
10:1
140
10.0
141
1.0
290
     0
  0
SCALE
  5
58
102
{ACAD_REACTORS
330
47
102
}
330
47
100
AcDbScale
 70
     0
300
100:1
140
100.0
141
1.0
290
     0
  0
SCALE
  5
59
102
{ACAD_REACTORS
330
47
102
}
330
47
100
AcDbScale
 70
     0
300
1/128" = 1'-0"
140
0.0078125
141
12.0
290
     0
  0
SCALE
  5
5A
102
{ACAD_REACTORS
330
47
102
}
330
47
100
AcDbScale
 70
     0
300
1/64" = 1'-0"
140
0.015625
141
12.0
290
     0
  0
SCALE
  5
5B
102
{ACAD_REACTORS
330
47
102
}
330
47
100
AcDbScale
 70
     0
300
1/32" = 1'-0"
140
0.03125
141
12.0
290
     0
  0
SCALE
  5
5C
102
{ACAD_REACTORS
330
47
102
}
330
47
100
AcDbScale
 70
     0
300
1/16" = 1'-0"
140
0.0625
141
12.0
290
     0
  0
SCALE
  5
5D
102
{ACAD_REACTORS
330
47
102
}
330
47
100
AcDbScale
 70
     0
300
3/32" = 1'-0"
140
0.09375
141
12.0
290
     0
  0
SCALE
  5
5E
102
{ACAD_REACTORS
330
47
102
}
330
47
100
AcDbScale
 70
     0
300
1/8" = 1'-0"
140
0.125
141
12.0
290
     0
  0
SCALE
  5
5F
102
{ACAD_REACTORS
330
47
102
}
330
47
100
AcDbScale
 70
     0
300
3/16" = 1'-0"
140
0.1875
141
12.0
290
     0
  0
SCALE
  5
60
102
{ACAD_REACTORS
330
47
102
}
330
47
100
AcDbScale
 70
     0
300
1/4" = 1'-0"
140
0.25
141
12.0
290
     0
  0
SCALE
  5
61
102
{ACAD_REACTORS
330
47
102
}
330
47
100
AcDbScale
 70
     0
300
3/8" = 1'-0"
140
0.375
141
12.0
290
     0
  0
SCALE
  5
62
102
{ACAD_REACTORS
330
47
102
}
330
47
100
AcDbScale
 70
     0
300
1/2" = 1'-0"
140
0.5
141
12.0
290
     0
  0
SCALE
  5
63
102
{ACAD_REACTORS
330
47
102
}
330
47
100
AcDbScale
 70
     0
300
3/4" = 1'-0"
140
0.75
141
12.0
290
     0
  0
SCALE
  5
64
102
{ACAD_REACTORS
330
47
102
}
330
47
100
AcDbScale
 70
     0
300
1" = 1'-0"
140
1.0
141
12.0
290
     0
  0
SCALE
  5
65
102
{ACAD_REACTORS
330
47
102
}
330
47
100
AcDbScale
 70
     0
300
1-1/2" = 1'-0"
140
1.5
141
12.0
290
     0
  0
SCALE
  5
66
102
{ACAD_REACTORS
330
47
102
}
330
47
100
AcDbScale
 70
     0
300
3" = 1'-0"
140
3.0
141
12.0
290
     0
  0
SCALE
  5
67
102
{ACAD_REACTORS
330
47
102
}
330
47
100
AcDbScale
 70
     0
300
6" = 1'-0"
140
6.0
141
12.0
290
     0
  0
SCALE
  5
68
102
{ACAD_REACTORS
330
47
102
}
330
47
100
AcDbScale
 70
     0
300
1'-0" = 1'-0"
140
12.0
141
12.0
290
     0
  0
TABLESTYLE
  5
6A
102
{ACAD_REACTORS
330
69
102
}
102
{ACAD_XDICTIONARY
360
32C
102
}
330
69
100
AcDbTableStyle
  3
Standard
 70
     0
 71
     0
 40
0.06
 41
0.06
280
     0
281
     0
  7
STANDARD
140
4.5
170
     2
 62
     0
 63
   257
283
     0
 90
        4
 91
        0
  1

274
    -2
284
     1
 64
     0
275
    -2
285
     1
 65
     0
276
    -2
286
     1
 66
     0
277
    -2
287
     1
 67
     0
278
    -2
288
     1
 68
     0
279
    -2
289
     1
 69
     0
  7
STANDARD
140
6.0
170
     5
 62
     0
 63
   257
283
     0
 90
        4
 91
        0
  1

274
    -2
284
     1
 64
     0
275
    -2
285
     1
 65
     0
276
    -2
286
     1
 66
     0
277
    -2
287
     1
 67
     0
278
    -2
288
     1
 68
     0
279
    -2
289
     1
 69
     0
  7
STANDARD
140
4.5
170
     5
 62
     0
 63
   257
283
     0
 90
        4
 91
        0
  1

274
    -2
284
     1
 64
     0
275
    -2
285
     1
 65
     0
276
    -2
286
     1
 66
     0
277
    -2
287
     1
 67
     0
278
    -2
288
     1
 68
     0
279
    -2
289
     1
 69
     0
  0
VISUALSTYLE
  5
2F
102
{ACAD_REACTORS
330
2A
102
}
330
2A
100
AcDbVisualStyle
  2
2dWireframe
 70
     4
177
     3
291
     0
 70
    58
 90
        0
176
     1
 90
        2
176
     1
 90
        0
176
     1
 90
        0
176
     1
 40
0.6
176
     1
 40
30.0
176
     1
 62
     7
420
 16777215
176
     1
 90
        1
176
     1
 90
        4
176
     1
 62
     7
176
     1
 62
   257
176
     1
 90
        1
176
     1
 90
        1
176
     1
 40
1.0
176
     1
 90
        0
176
     1
 62
   257
176
     1
 40
1.0
176
     1
 90
        1
176
     1
 90
        6
176
     1
 90
        2
176
     1
 62
     7
176
     1
 90
        5
176
     1
 90
        0
176
     1
 90
        0
176
     1
290
     0
176
     1
 90
        1
176
     1
 40
0.0
176
     1
 90
        0
176
     1
290
     1
176
     1
290
     1
176
     1
290
     0
176
     1
290
     0
176
     1
290
     0
176
     1
290
     0
176
     1
290
     0
176
     1
290
     0
176
     1
290
     0
176
     1
 90
       50
176
     1
 40
0.0
176
     1
 40
1.0
176
     1
 90
        0
176
     1
 62
    18
420
        0
176
     1
 90
       50
176
     1
 90
        3
176
     1
 62
     5
420
      255
176
     1
290
     0
176
     1
 90
       50
176
     1
 90
       50
176
     1
 90
       50
176
     1
290
     0
176
     1
 90
       50
176
     1
 62
   256
176
     0
 40
1.0
176
     0
 90
        2
176
     1
  1
strokes_ogs.tif
176
     1
290
     0
176
     1
 40
1.0
176
     1
 40
1.0
176
     1
  0
VISUALSTYLE
  5
32
102
{ACAD_REACTORS
330
2A
102
}
330
2A
100
AcDbVisualStyle
  2
Basic
 70
     7
177
     3
291
     1
 70
    58
 90
        1
176
     1
 90
        0
176
     1
 90
        1
176
     1
 90
        0
176
     1
 40
0.6
176
     1
 40
30.0
176
     1
 62
     7
420
 16777215
176
     1
 90
        0
176
     1
 90
        4
176
     1
 62
     7
176
     1
 62
   257
176
     1
 90
        1
176
     1
 90
        1
176
     1
 40
1.0
176
     1
 90
        8
176
     1
 62
     7
176
     1
 40
1.0
176
     1
 90
        1
176
     1
 90
        6
176
     1
 90
        2
176
     1
 62
     7
176
     1
 90
        5
176
     1
 90
        0
176
     1
 90
        0
176
     1
290
     0
176
     1
 90
        1
176
     1
 40
0.0
176
     1
 90
        0
176
     1
290
     0
176
     1
290
     1
176
     1
290
     1
176
     1
290
     0
176
     1
290
     0
176
     1
290
     0
176
     1
290
     0
176
     1
290
     0
176
     1
290
     0
176
     1
 90
       50
176
     1
 40
0.0
176
     1
 40
1.0
176
     1
 90
        0
176
     1
 62
    18
420
        0
176
     1
 90
       50
176
     1
 90
        3
176
     1
 62
     5
420
      255
176
     1
290
     0
176
     1
 90
       50
176
     1
 90
       50
176
     1
 90
       50
176
     1
290
     0
176
     1
 90
       50
176
     1
 62
   256
176
     0
 40
1.0
176
     0
 90
        2
176
     1
  1
strokes_ogs.tif
176
     1
290
     0
176
     1
 40
1.0
176
     1
 40
1.0
176
     1
  0
VISUALSTYLE
  5
36
102
{ACAD_REACTORS
330
2A
102
}
330
2A
100
AcDbVisualStyle
  2
Brighten
 70
    12
177
     3
291
     1
 70
    58
 90
        2
176
     1
 90
        2
176
     1
 90
        0
176
     1
 90
        0
176
     1
 40
0.6
176
     1
 40
30.0
176
     1
 62
     7
420
 16777215
176
     1
 90
        1
176
     1
 90
        4
176
     1
 62
     7
176
     1
 62
   257
176
     1
 90
        1
176
     1
 90
        1
176
     1
 40
1.0
176
     1
 90
        8
176
     1
 62
     7
176
     1
 40
1.0
176
     1
 90
        1
176
     1
 90
        6
176
     1
 90
        2
176
     1
 62
     7
176
     1
 90
        5
176
     1
 90
        0
176
     1
 90
        0
176
     1
290
     0
176
     1
 90
        1
176
     1
 40
50.0
176
     1
 90
        0
176
     1
290
     0
176
     1
290
     1
176
     1
290
     1
176
     1
290
     0
176
     1
290
     0
176
     1
290
     0
176
     1
290
     0
176
     1
290
     0
176
     1
290
     0
176
     1
 90
       50
176
     1
 40
0.0
176
     1
 40
1.0
176
     1
 90
        0
176
     1
 62
    18
420
        0
176
     1
 90
       50
176
     1
 90
        3
176
     1
 62
     5
420
      255
176
     1
290
     0
176
     1
 90
       50
176
     1
 90
       50
176
     1
 90
       50
176
     1
290
     0
176
     1
 90
       50
176
     1
 62
   256
176
     0
 40
1.0
176
     0
 90
        2
176
     1
  1
strokes_ogs.tif
176
     1
290
     0
176
     1
 40
1.0
176
     1
 40
1.0
176
     1
  0
VISUALSTYLE
  5
3A
102
{ACAD_REACTORS
330
2A
102
}
330
2A
100
AcDbVisualStyle
  2
ColorChange
 70
    16
177
     3
291
     1
 70
    58
 90
        2
176
     1
 90
        2
176
     1
 90
        3
176
     1
 90
        0
176
     1
 40
0.6
176
     1
 40
30.0
176
     1
 62
     8
420
  8421504
176
     1
 90
        1
176
     1
 90
        4
176
     1
 62
     7
176
     1
 62
   257
176
     1
 90
        1
176
     1
 90
        1
176
     1
 40
1.0
176
     1
 90
        8
176
     1
 62
     8
420
  8421504
176
     1
 40
1.0
176
     1
 90
        1
176
     1
 90
        6
176
     1
 90
        2
176
     1
 62
     7
176
     1
 90
        5
176
     1
 90
        0
176
     1
 90
        0
176
     1
290
     0
176
     1
 90
        1
176
     1
 40
0.0
176
     1
 90
        0
176
     1
290
     0
176
     1
290
     1
176
     1
290
     1
176
     1
290
     0
176
     1
290
     0
176
     1
290
     0
176
     1
290
     0
176
     1
290
     0
176
     1
290
     0
176
     1
 90
       50
176
     1
 40
0.0
176
     1
 40
1.0
176
     1
 90
        0
176
     1
 62
    18
420
        0
176
     1
 90
       50
176
     1
 90
        3
176
     1
 62
     5
420
      255
176
     1
290
     0
176
     1
 90
       50
176
     1
 90
       50
176
     1
 90
       50
176
     1
290
     0
176
     1
 90
       50
176
     1
 62
   256
176
     0
 40
1.0
176
     0
 90
        2
176
     1
  1
strokes_ogs.tif
176
     1
290
     0
176
     1
 40
1.0
176
     1
 40
1.0
176
     1
  0
VISUALSTYLE
  5
34
102
{ACAD_REACTORS
330
2A
102
}
330
2A
100
AcDbVisualStyle
  2
Conceptual
 70
     9
177
     3
291
     0
 70
    58
 90
        3
176
     1
 90
        2
176
     1
 90
        0
176
     1
 90
        0
176
     1
 40
0.6
176
     1
 40
30.0
176
     1
 62
     7
420
 16777215
176
     1
 90
        2
176
     1
 90
        2
176
     1
 62
     7
176
     1
 62
   257
176
     1
 90
        1
176
     1
 90
        1
176
     1
 40
179.0
176
     1
 90
        8
176
     1
 62
     7
176
     1
 40
1.0
176
     1
 90
        1
176
     1
 90
        6
176
     1
 90
        2
176
     1
 62
     7
176
     1
 90
        3
176
     1
 90
        0
176
     1
 90
        0
176
     1
290
     0
176
     1
 90
        1
176
     1
 40
0.0
176
     1
 90
        0
176
     1
290
     0
176
     1
290
     1
176
     1
290
     1
176
     1
290
     0
176
     1
290
     0
176
     1
290
     0
176
     1
290
     0
176
     1
290
     0
176
     1
290
     0
176
     1
 90
       50
176
     1
 40
0.0
176
     1
 40
1.0
176
     1
 90
        0
176
     1
 62
    18
420
        0
176
     1
 90
       50
176
     1
 90
        3
176
     1
 62
     5
420
      255
176
     1
290
     0
176
     1
 90
       50
176
     1
 90
       50
176
     1
 90
       50
176
     1
290
     0
176
     1
 90
       50
176
     1
 62
   256
176
     0
 40
1.0
176
     0
 90
        2
176
     1
  1
strokes_ogs.tif
176
     1
290
     0
176
     1
 40
1.0
176
     1
 40
1.0
176
     1
  0
VISUALSTYLE
  5
35
102
{ACAD_REACTORS
330
2A
102
}
330
2A
100
AcDbVisualStyle
  2
Dim
 70
    11
177
     3
291
     1
 70
    58
 90
        2
176
     1
 90
        2
176
     1
 90
        0
176
     1
 90
        0
176
     1
 40
0.6
176
     1
 40
30.0
176
     1
 62
     7
420
 16777215
176
     1
 90
        1
176
     1
 90
        4
176
     1
 62
     7
176
     1
 62
   257
176
     1
 90
        1
176
     1
 90
        1
176
     1
 40
1.0
176
     1
 90
        8
176
     1
 62
     7
176
     1
 40
1.0
176
     1
 90
        1
176
     1
 90
        6
176
     1
 90
        2
176
     1
 62
     7
176
     1
 90
        5
176
     1
 90
        0
176
     1
 90
        0
176
     1
290
     0
176
     1
 90
        1
176
     1
 40
-50.0
176
     1
 90
        0
176
     1
290
     0
176
     1
290
     1
176
     1
290
     1
176
     1
290
     0
176
     1
290
     0
176
     1
290
     0
176
     1
290
     0
176
     1
290
     0
176
     1
290
     0
176
     1
 90
       50
176
     1
 40
0.0
176
     1
 40
1.0
176
     1
 90
        0
176
     1
 62
    18
420
        0
176
     1
 90
       50
176
     1
 90
        3
176
     1
 62
     5
420
      255
176
     1
290
     0
176
     1
 90
       50
176
     1
 90
       50
176
     1
 90
       50
176
     1
290
     0
176
     1
 90
       50
176
     1
 62
   256
176
     0
 40
1.0
176
     0
 90
        2
176
     1
  1
strokes_ogs.tif
176
     1
290
     0
176
     1
 40
1.0
176
     1
 40
1.0
176
     1
  0
VISUALSTYLE
  5
3D
102
{ACAD_REACTORS
330
2A
102
}
330
2A
100
AcDbVisualStyle
  2
EdgeColorOff
 70
    22
177
     3
291
     1
 70
    58
 90
        2
176
     0
 90
        2
176
     0
 90
        0
176
     0
 90
        0
176
     0
 40
0.6
176
     0
 40
30.0
176
     0
 62
     7
420
 16777215
176
     0
 90
        1
176
     0
 90
        4
176
     0
 62
     7
176
     0
 62
   257
176
     0
 90
        1
176
     0
 90
        1
176
     0
 40
1.0
176
     0
 90
        8
176
     2
 62
     7
176
     0
 40
1.0
176
     0
 90
        1
176
     0
 90
        6
176
     0
 90
        2
176
     0
 62
     7
176
     0
 90
        5
176
     0
 90
        0
176
     0
 90
        0
176
     0
290
     0
176
     0
 90
        1
176
     0
 40
0.0
176
     0
 90
        0
176
     0
290
     0
176
     0
290
     1
176
     0
290
     1
176
     0
290
     0
176
     0
290
     0
176
     0
290
     0
176
     0
290
     0
176
     0
290
     0
176
     0
290
     0
176
     0
 90
       50
176
     0
 40
0.0
176
     0
 40
1.0
176
     0
 90
        0
176
     0
 62
    18
420
        0
176
     0
 90
       50
176
     0
 90
        3
176
     0
 62
     5
420
      255
176
     0
290
     0
176
     0
 90
       50
176
     0
 90
       50
176
     0
 90
       50
176
     0
290
     0
176
     0
 90
       50
176
     0
 62
   256
176
     0
 40
1.0
176
     0
 90
        2
176
     0
  1
strokes_ogs.tif
176
     0
290
     0
176
     0
 40
1.0
176
     0
 40
1.0
176
     0
  0
VISUALSTYLE
  5
39
102
{ACAD_REACTORS
330
2A
102
}
330
2A
100
AcDbVisualStyle
  2
Facepattern
 70
    15
177
     3
291
     1
 70
    58
 90
        2
176
     1
 90
        2
176
     1
 90
        0
176
     1
 90
        0
176
     1
 40
0.6
176
     1
 40
30.0
176
     1
 62
     7
420
 16777215
176
     1
 90
        1
176
     1
 90
        4
176
     1
 62
     7
176
     1
 62
   257
176
     1
 90
        1
176
     1
 90
        1
176
     1
 40
1.0
176
     1
 90
        8
176
     1
 62
     7
176
     1
 40
1.0
176
     1
 90
        1
176
     1
 90
        6
176
     1
 90
        2
176
     1
 62
     7
176
     1
 90
        5
176
     1
 90
        0
176
     1
 90
        0
176
     1
290
     0
176
     1
 90
        1
176
     1
 40
0.0
176
     1
 90
        0
176
     1
290
     0
176
     1
290
     1
176
     1
290
     1
176
     1
290
     0
176
     1
290
     0
176
     1
290
     0
176
     1
290
     0
176
     1
290
     0
176
     1
290
     0
176
     1
 90
       50
176
     1
 40
0.0
176
     1
 40
1.0
176
     1
 90
        0
176
     1
 62
    18
420
        0
176
     1
 90
       50
176
     1
 90
        3
176
     1
 62
     5
420
      255
176
     1
290
     0
176
     1
 90
       50
176
     1
 90
       50
176
     1
 90
       50
176
     1
290
     0
176
     1
 90
       50
176
     1
 62
   256
176
     0
 40
1.0
176
     0
 90
        2
176
     1
  1
strokes_ogs.tif
176
     1
290
     0
176
     1
 40
1.0
176
     1
 40
1.0
176
     1
  0
VISUALSTYLE
  5
2B
102
{ACAD_REACTORS
330
2A
102
}
330
2A
100
AcDbVisualStyle
  2
Flat
 70
     0
177
     3
291
     1
 70
    58
 90
        2
176
     1
 90
        1
176
     1
 90
        1
176
     1
 90
        2
176
     1
 40
0.6
176
     1
 40
30.0
176
     1
 62
     7
420
 16777215
176
     1
 90
        0
176
     1
 90
        0
176
     1
 62
     7
176
     1
 62
   257
176
     1
 90
        1
176
     1
 90
        1
176
     1
 40
1.0
176
     1
 90
        8
176
     1
 62
     7
176
     1
 40
1.0
176
     1
 90
        1
176
     1
 90
        6
176
     1
 90
        2
176
     1
 62
     7
176
     1
 90
        5
176
     1
 90
        0
176
     1
 90
        0
176
     1
290
     0
176
     1
 90
       13
176
     1
 40
0.0
176
     1
 90
        0
176
     1
290
     0
176
     1
290
     1
176
     1
290
     1
176
     1
290
     0
176
     1
290
     0
176
     1
290
     0
176
     1
290
     0
176
     1
290
     0
176
     1
290
     0
176
     1
 90
       50
176
     1
 40
0.0
176
     1
 40
1.0
176
     1
 90
        0
176
     1
 62
    18
420
        0
176
     1
 90
       50
176
     1
 90
        3
176
     1
 62
     5
420
      255
176
     1
290
     0
176
     1
 90
       50
176
     1
 90
       50
176
     1
 90
       50
176
     1
290
     0
176
     1
 90
       50
176
     1
 62
   256
176
     0
 40
1.0
176
     0
 90
        2
176
     1
  1
strokes_ogs.tif
176
     1
290
     0
176
     1
 40
1.0
176
     1
 40
1.0
176
     1
  0
VISUALSTYLE
  5
2C
102
{ACAD_REACTORS
330
2A
102
}
330
2A
100
AcDbVisualStyle
  2
FlatWithEdges
 70
     1
177
     3
291
     1
 70
    58
 90
        2
176
     1
 90
        1
176
     1
 90
        1
176
     1
 90
        2
176
     1
 40
0.6
176
     1
 40
30.0
176
     1
 62
     7
420
 16777215
176
     1
 90
        1
176
     1
 90
        0
176
     1
 62
     7
176
     1
 62
   257
176
     1
 90
        1
176
     1
 90
        1
176
     1
 40
1.0
176
     1
 90
        0
176
     1
 62
   257
176
     1
 40
1.0
176
     1
 90
        1
176
     1
 90
        6
176
     1
 90
        2
176
     1
 62
     7
176
     1
 90
        5
176
     1
 90
        0
176
     1
 90
        0
176
     1
290
     0
176
     1
 90
       13
176
     1
 40
0.0
176
     1
 90
        0
176
     1
290
     0
176
     1
290
     1
176
     1
290
     1
176
     1
290
     0
176
     1
290
     0
176
     1
290
     0
176
     1
290
     0
176
     1
290
     0
176
     1
290
     0
176
     1
 90
       50
176
     1
 40
0.0
176
     1
 40
1.0
176
     1
 90
        0
176
     1
 62
    18
420
        0
176
     1
 90
       50
176
     1
 90
        3
176
     1
 62
     5
420
      255
176
     1
290
     0
176
     1
 90
       50
176
     1
 90
       50
176
     1
 90
       50
176
     1
290
     0
176
     1
 90
       50
176
     1
 62
   256
176
     0
 40
1.0
176
     0
 90
        2
176
     1
  1
strokes_ogs.tif
176
     1
290
     0
176
     1
 40
1.0
176
     1
 40
1.0
176
     1
  0
VISUALSTYLE
  5
2D
102
{ACAD_REACTORS
330
2A
102
}
330
2A
100
AcDbVisualStyle
  2
Gouraud
 70
     2
177
     3
291
     1
 70
    58
 90
        2
176
     1
 90
        2
176
     1
 90
        1
176
     1
 90
        2
176
     1
 40
0.6
176
     1
 40
30.0
176
     1
 62
     7
420
 16777215
176
     1
 90
        0
176
     1
 90
        0
176
     1
 62
     7
176
     1
 62
   257
176
     1
 90
        1
176
     1
 90
        1
176
     1
 40
1.0
176
     1
 90
        0
176
     1
 62
     7
176
     1
 40
1.0
176
     1
 90
        1
176
     1
 90
        6
176
     1
 90
        2
176
     1
 62
     7
176
     1
 90
        5
176
     1
 90
        0
176
     1
 90
        0
176
     1
290
     0
176
     1
 90
       13
176
     1
 40
0.0
176
     1
 90
        0
176
     1
290
     0
176
     1
290
     1
176
     1
290
     1
176
     1
290
     0
176
     1
290
     0
176
     1
290
     0
176
     1
290
     0
176
     1
290
     0
176
     1
290
     0
176
     1
 90
       50
176
     1
 40
0.0
176
     1
 40
1.0
176
     1
 90
        0
176
     1
 62
    18
420
        0
176
     1
 90
       50
176
     1
 90
        3
176
     1
 62
     5
420
      255
176
     1
290
     0
176
     1
 90
       50
176
     1
 90
       50
176
     1
 90
       50
176
     1
290
     0
176
     1
 90
       50
176
     1
 62
   256
176
     0
 40
1.0
176
     0
 90
        2
176
     1
  1
strokes_ogs.tif
176
     1
290
     0
176
     1
 40
1.0
176
     1
 40
1.0
176
     1
  0
VISUALSTYLE
  5
2E
102
{ACAD_REACTORS
330
2A
102
}
330
2A
100
AcDbVisualStyle
  2
GouraudWithEdges
 70
     3
177
     3
291
     1
 70
    58
 90
        2
176
     1
 90
        2
176
     1
 90
        1
176
     1
 90
        2
176
     1
 40
0.6
176
     1
 40
30.0
176
     1
 62
     7
420
 16777215
176
     1
 90
        1
176
     1
 90
        0
176
     1
 62
     7
176
     1
 62
   257
176
     1
 90
        1
176
     1
 90
        1
176
     1
 40
1.0
176
     1
 90
        0
176
     1
 62
   257
176
     1
 40
1.0
176
     1
 90
        1
176
     1
 90
        6
176
     1
 90
        2
176
     1
 62
     7
176
     1
 90
        5
176
     1
 90
        0
176
     1
 90
        0
176
     1
290
     0
176
     1
 90
       13
176
     1
 40
0.0
176
     1
 90
        0
176
     1
290
     0
176
     1
290
     1
176
     1
290
     1
176
     1
290
     0
176
     1
290
     0
176
     1
290
     0
176
     1
290
     0
176
     1
290
     0
176
     1
290
     0
176
     1
 90
       50
176
     1
 40
0.0
176
     1
 40
1.0
176
     1
 90
        0
176
     1
 62
    18
420
        0
176
     1
 90
       50
176
     1
 90
        3
176
     1
 62
     5
420
      255
176
     1
290
     0
176
     1
 90
       50
176
     1
 90
       50
176
     1
 90
       50
176
     1
290
     0
176
     1
 90
       50
176
     1
 62
   256
176
     0
 40
1.0
176
     0
 90
        2
176
     1
  1
strokes_ogs.tif
176
     1
290
     0
176
     1
 40
1.0
176
     1
 40
1.0
176
     1
  0
VISUALSTYLE
  5
31
102
{ACAD_REACTORS
330
2A
102
}
330
2A
100
AcDbVisualStyle
  2
Hidden
 70
     6
177
     3
291
     0
 70
    58
 90
        1
176
     1
 90
        2
176
     1
 90
        2
176
     1
 90
        0
176
     1
 40
0.6
176
     1
 40
30.0
176
     1
 62
     7
420
 16777215
176
     1
 90
        2
176
     1
 90
        2
176
     1
 62
     7
176
     1
 62
   257
176
     1
 90
        2
176
     1
 90
        1
176
     1
 40
40.0
176
     1
 90
        0
176
     1
 62
   257
176
     1
 40
1.0
176
     1
 90
        1
176
     1
 90
        6
176
     1
 90
        2
176
     1
 62
     7
176
     1
 90
        3
176
     1
 90
        0
176
     1
 90
        0
176
     1
290
     0
176
     1
 90
        1
176
     1
 40
0.0
176
     1
 90
        0
176
     1
290
     0
176
     1
290
     1
176
     1
290
     1
176
     1
290
     0
176
     1
290
     0
176
     1
290
     0
176
     1
290
     0
176
     1
290
     0
176
     1
290
     0
176
     1
 90
       50
176
     1
 40
0.0
176
     1
 40
1.0
176
     1
 90
        0
176
     1
 62
    18
420
        0
176
     1
 90
       50
176
     1
 90
        3
176
     1
 62
     5
420
      255
176
     1
290
     0
176
     1
 90
       50
176
     1
 90
       50
176
     1
 90
       50
176
     1
290
     0
176
     1
 90
       50
176
     1
 62
   256
176
     0
 40
1.0
176
     0
 90
        2
176
     1
  1
strokes_ogs.tif
176
     1
290
     0
176
     1
 40
1.0
176
     1
 40
1.0
176
     1
  0
VISUALSTYLE
  5
3B
102
{ACAD_REACTORS
330
2A
102
}
330
2A
100
AcDbVisualStyle
  2
JitterOff
 70
    20
177
     3
291
     1
 70
    58
 90
        2
176
     0
 90
        2
176
     0
 90
        0
176
     0
 90
        0
176
     0
 40
0.6
176
     0
 40
30.0
176
     0
 62
     7
420
 16777215
176
     0
 90
        1
176
     0
 90
        4
176
     0
 62
     7
176
     0
 62
   257
176
     0
 90
        1
176
     0
 90
        1
176
     0
 40
1.0
176
     0
 90
       10
176
     2
 62
     7
176
     0
 40
1.0
176
     0
 90
        1
176
     0
 90
        6
176
     0
 90
        2
176
     0
 62
     7
176
     0
 90
        5
176
     0
 90
        0
176
     0
 90
        0
176
     0
290
     0
176
     0
 90
        1
176
     0
 40
0.0
176
     0
 90
        0
176
     0
290
     0
176
     0
290
     1
176
     0
290
     1
176
     0
290
     0
176
     0
290
     0
176
     0
290
     0
176
     0
290
     0
176
     0
290
     0
176
     0
290
     0
176
     0
 90
       50
176
     0
 40
0.0
176
     0
 40
1.0
176
     0
 90
        0
176
     0
 62
    18
420
        0
176
     0
 90
       50
176
     0
 90
        3
176
     0
 62
     5
420
      255
176
     0
290
     0
176
     0
 90
       50
176
     0
 90
       50
176
     0
 90
       50
176
     0
290
     0
176
     0
 90
       50
176
     0
 62
   256
176
     0
 40
1.0
176
     0
 90
        2
176
     0
  1
strokes_ogs.tif
176
     0
290
     0
176
     0
 40
1.0
176
     0
 40
1.0
176
     0
  0
VISUALSTYLE
  5
38
102
{ACAD_REACTORS
330
2A
102
}
330
2A
100
AcDbVisualStyle
  2
Linepattern
 70
    14
177
     3
291
     1
 70
    58
 90
        2
176
     1
 90
        2
176
     1
 90
        0
176
     1
 90
        0
176
     1
 40
0.6
176
     1
 40
30.0
176
     1
 62
     7
420
 16777215
176
     1
 90
        1
176
     1
 90
        4
176
     1
 62
     7
176
     1
 62
   257
176
     1
 90
        7
176
     1
 90
        7
176
     1
 40
1.0
176
     1
 90
        8
176
     1
 62
     7
176
     1
 40
1.0
176
     1
 90
        1
176
     1
 90
        6
176
     1
 90
        2
176
     1
 62
     7
176
     1
 90
        5
176
     1
 90
        0
176
     1
 90
        0
176
     1
290
     0
176
     1
 90
        1
176
     1
 40
0.0
176
     1
 90
        0
176
     1
290
     0
176
     1
290
     1
176
     1
290
     1
176
     1
290
     0
176
     1
290
     0
176
     1
290
     0
176
     1
290
     0
176
     1
290
     0
176
     1
290
     0
176
     1
 90
       50
176
     1
 40
0.0
176
     1
 40
1.0
176
     1
 90
        0
176
     1
 62
    18
420
        0
176
     1
 90
       50
176
     1
 90
        3
176
     1
 62
     5
420
      255
176
     1
290
     0
176
     1
 90
       50
176
     1
 90
       50
176
     1
 90
       50
176
     1
290
     0
176
     1
 90
       50
176
     1
 62
   256
176
     0
 40
1.0
176
     0
 90
        2
176
     1
  1
strokes_ogs.tif
176
     1
290
     0
176
     1
 40
1.0
176
     1
 40
1.0
176
     1
  0
VISUALSTYLE
  5
3C
102
{ACAD_REACTORS
330
2A
102
}
330
2A
100
AcDbVisualStyle
  2
OverhangOff
 70
    21
177
     3
291
     1
 70
    58
 90
        2
176
     0
 90
        2
176
     0
 90
        0
176
     0
 90
        0
176
     0
 40
0.6
176
     0
 40
30.0
176
     0
 62
     7
420
 16777215
176
     0
 90
        1
176
     0
 90
        4
176
     0
 62
     7
176
     0
 62
   257
176
     0
 90
        1
176
     0
 90
        1
176
     0
 40
1.0
176
     0
 90
        9
176
     2
 62
     7
176
     0
 40
1.0
176
     0
 90
        1
176
     0
 90
        6
176
     0
 90
        2
176
     0
 62
     7
176
     0
 90
        5
176
     0
 90
        0
176
     0
 90
        0
176
     0
290
     0
176
     0
 90
        1
176
     0
 40
0.0
176
     0
 90
        0
176
     0
290
     0
176
     0
290
     1
176
     0
290
     1
176
     0
290
     0
176
     0
290
     0
176
     0
290
     0
176
     0
290
     0
176
     0
290
     0
176
     0
290
     0
176
     0
 90
       50
176
     0
 40
0.0
176
     0
 40
1.0
176
     0
 90
        0
176
     0
 62
    18
420
        0
176
     0
 90
       50
176
     0
 90
        3
176
     0
 62
     5
420
      255
176
     0
290
     0
176
     0
 90
       50
176
     0
 90
       50
176
     0
 90
       50
176
     0
290
     0
176
     0
 90
       50
176
     0
 62
   256
176
     0
 40
1.0
176
     0
 90
        2
176
     0
  1
strokes_ogs.tif
176
     0
290
     0
176
     0
 40
1.0
176
     0
 40
1.0
176
     0
  0
VISUALSTYLE
  5
33
102
{ACAD_REACTORS
330
2A
102
}
330
2A
100
AcDbVisualStyle
  2
Realistic
 70
     8
177
     3
291
     0
 70
    58
 90
        2
176
     1
 90
        3
176
     1
 90
        0
176
     1
 90
        2
176
     1
 40
0.6
176
     1
 40
30.0
176
     1
 62
     7
420
 16777215
176
     1
 90
        0
176
     1
 90
        0
176
     1
 62
     7
176
     1
 62
   257
176
     1
 90
        1
176
     1
 90
        1
176
     1
 40
1.0
176
     1
 90
        8
176
     1
 62
   257
176
     1
 40
1.0
176
     1
 90
        1
176
     1
 90
        6
176
     1
 90
        2
176
     1
 62
     7
176
     1
 90
        3
176
     1
 90
        0
176
     1
 90
        0
176
     1
290
     0
176
     1
 90
       13
176
     1
 40
0.0
176
     1
 90
        0
176
     1
290
     0
176
     1
290
     1
176
     1
290
     1
176
     1
290
     0
176
     1
290
     0
176
     1
290
     0
176
     1
290
     0
176
     1
290
     0
176
     1
290
     0
176
     1
 90
       50
176
     1
 40
0.0
176
     1
 40
1.0
176
     1
 90
        0
176
     1
 62
    18
420
        0
176
     1
 90
       50
176
     1
 90
        3
176
     1
 62
     5
420
      255
176
     1
290
     0
176
     1
 90
       50
176
     1
 90
       50
176
     1
 90
       50
176
     1
290
     0
176
     1
 90
       50
176
     1
 62
   256
176
     0
 40
1.0
176
     0
 90
        2
176
     1
  1
strokes_ogs.tif
176
     1
290
     0
176
     1
 40
1.0
176
     1
 40
1.0
176
     1
  0
VISUALSTYLE
  5
42
102
{ACAD_REACTORS
330
2A
102
}
330
2A
100
AcDbVisualStyle
  2
Shaded
 70
    27
177
     3
291
     0
 70
    58
 90
        2
176
     1
 90
        2
176
     1
 90
        1
176
     1
 90
        2
176
     1
 40
0.6
176
     1
 40
30.0
176
     1
 62
     7
420
 16777215
176
     1
 90
        0
176
     1
 90
        4
176
     1
 62
     7
176
     1
 62
   257
176
     1
 90
        1
176
     1
 90
        1
176
     1
 40
1.0
176
     1
 90
        8
176
     1
 62
   257
176
     1
 40
1.0
176
     1
 90
        1
176
     1
 90
        6
176
     1
 90
        2
176
     1
 62
     8
420
  7895160
176
     1
 90
        3
176
     1
 90
        0
176
     1
 90
        0
176
     1
290
     0
176
     1
 90
        5
176
     1
 40
0.0
176
     1
 90
        0
176
     1
290
     0
176
     1
290
     1
176
     1
290
     1
176
     1
290
     0
176
     1
290
     0
176
     1
290
     0
176
     1
290
     0
176
     1
290
     0
176
     1
290
     0
176
     1
 90
       50
176
     1
 40
0.0
176
     1
 40
1.0
176
     1
 90
        0
176
     1
 62
    18
420
        0
176
     1
 90
       50
176
     1
 90
        3
176
     1
 62
     5
420
      255
176
     1
290
     0
176
     1
 90
       50
176
     1
 90
       50
176
     1
 90
       50
176
     1
290
     0
176
     1
 90
       50
176
     1
 62
   256
176
     0
 40
1.0
176
     0
 90
        2
176
     1
  1
strokes_ogs.tif
176
     1
290
     0
176
     1
 40
1.0
176
     1
 40
1.0
176
     1
  0
VISUALSTYLE
  5
41
102
{ACAD_REACTORS
330
2A
102
}
330
2A
100
AcDbVisualStyle
  2
Shaded with edges
 70
    26
177
     3
291
     0
 70
    58
 90
        2
176
     1
 90
        2
176
     1
 90
        1
176
     1
 90
        2
176
     1
 40
0.6
176
     1
 40
30.0
176
     1
 62
     7
420
 16777215
176
     1
 90
        1
176
     1
 90
       10
176
     1
 62
     7
176
     1
 62
   257
176
     1
 90
        2
176
     1
 90
        1
176
     1
 40
1.0
176
     1
 90
        8
176
     1
 62
   257
176
     1
 40
1.0
176
     1
 90
        1
176
     1
 90
        6
176
     1
 90
        2
176
     1
 62
     7
176
     1
 90
        3
176
     1
 90
        0
176
     1
 90
        0
176
     1
290
     0
176
     1
 90
        5
176
     1
 40
0.0
176
     1
 90
        0
176
     1
290
     0
176
     1
290
     1
176
     1
290
     1
176
     1
290
     0
176
     1
290
     0
176
     1
290
     0
176
     1
290
     0
176
     1
290
     0
176
     1
290
     0
176
     1
 90
       50
176
     1
 40
0.0
176
     1
 40
1.0
176
     1
 90
        0
176
     1
 62
    18
420
        0
176
     1
 90
       50
176
     1
 90
        3
176
     1
 62
     5
420
      255
176
     1
290
     0
176
     1
 90
       50
176
     1
 90
       50
176
     1
 90
       50
176
     1
290
     0
176
     1
 90
       50
176
     1
 62
   256
176
     0
 40
1.0
176
     0
 90
        2
176
     1
  1
strokes_ogs.tif
176
     1
290
     0
176
     1
 40
1.0
176
     1
 40
1.0
176
     1
  0
VISUALSTYLE
  5
3E
102
{ACAD_REACTORS
330
2A
102
}
330
2A
100
AcDbVisualStyle
  2
Shades of Gray
 70
    23
177
     3
291
     0
 70
    58
 90
        2
176
     1
 90
        2
176
     1
 90
        3
176
     1
 90
        0
176
     1
 40
0.6
176
     1
 40
30.0
176
     1
 62
     7
420
 16777215
176
     1
 90
        2
176
     1
 90
        2
176
     1
 62
     7
176
     1
 62
     7
176
     1
 90
        1
176
     1
 90
        1
176
     1
 40
40.0
176
     1
 90
        8
176
     1
 62
     7
176
     1
 40
1.0
176
     1
 90
        1
176
     1
 90
        6
176
     1
 90
        2
176
     1
 62
     7
176
     1
 90
        3
176
     1
 90
        0
176
     1
 90
        0
176
     1
290
     0
176
     1
 90
        1
176
     1
 40
0.0
176
     1
 90
        0
176
     1
290
     0
176
     1
290
     1
176
     1
290
     1
176
     1
290
     0
176
     1
290
     0
176
     1
290
     0
176
     1
290
     0
176
     1
290
     0
176
     1
290
     0
176
     1
 90
       50
176
     1
 40
0.0
176
     1
 40
1.0
176
     1
 90
        0
176
     1
 62
    18
420
        0
176
     1
 90
       50
176
     1
 90
        3
176
     1
 62
     5
420
      255
176
     1
290
     0
176
     1
 90
       50
176
     1
 90
       50
176
     1
 90
       50
176
     1
290
     0
176
     1
 90
       50
176
     1
 62
   256
176
     0
 40
1.0
176
     0
 90
        2
176
     1
  1
strokes_ogs.tif
176
     1
290
     0
176
     1
 40
1.0
176
     1
 40
1.0
176
     1
  0
VISUALSTYLE
  5
3F
102
{ACAD_REACTORS
330
2A
102
}
330
2A
100
AcDbVisualStyle
  2
Sketchy
 70
    24
177
     3
291
     0
 70
    58
 90
        1
176
     1
 90
        2
176
     1
 90
        2
176
     1
 90
        0
176
     1
 40
0.6
176
     1
 40
30.0
176
     1
 62
     7
420
 16777215
176
     1
 90
        2
176
     1
 90
        2
176
     1
 62
     7
176
     1
 62
     7
176
     1
 90
        1
176
     1
 90
        1
176
     1
 40
40.0
176
     1
 90
       11
176
     1
 62
     7
176
     1
 40
1.0
176
     1
 90
        1
176
     1
 90
        6
176
     1
 90
        2
176
     1
 62
     7
176
     1
 90
        6
176
     1
 90
        0
176
     1
 90
        0
176
     1
290
     0
176
     1
 90
        1
176
     1
 40
0.0
176
     1
 90
        0
176
     1
290
     0
176
     1
290
     1
176
     1
290
     1
176
     1
290
     0
176
     1
290
     0
176
     1
290
     0
176
     1
290
     0
176
     1
290
     0
176
     1
290
     0
176
     1
 90
       50
176
     1
 40
0.0
176
     1
 40
1.0
176
     1
 90
        0
176
     1
 62
    18
420
        0
176
     1
 90
       50
176
     1
 90
        3
176
     1
 62
     5
420
      255
176
     1
290
     0
176
     1
 90
       50
176
     1
 90
       50
176
     1
 90
       50
176
     1
290
     0
176
     1
 90
       50
176
     1
 62
   256
176
     0
 40
1.0
176
     0
 90
        2
176
     1
  1
strokes_ogs.tif
176
     1
290
     0
176
     1
 40
1.0
176
     1
 40
1.0
176
     1
  0
VISUALSTYLE
  5
37
102
{ACAD_REACTORS
330
2A
102
}
330
2A
100
AcDbVisualStyle
  2
Thicken
 70
    13
177
     3
291
     1
 70
    58
 90
        2
176
     1
 90
        2
176
     1
 90
        0
176
     1
 90
        0
176
     1
 40
0.6
176
     1
 40
30.0
176
     1
 62
     7
420
 16777215
176
     1
 90
        1
176
     1
 90
        4
176
     1
 62
     7
176
     1
 62
   257
176
     1
 90
        1
176
     1
 90
        1
176
     1
 40
1.0
176
     1
 90
       12
176
     1
 62
     7
176
     1
 40
1.0
176
     1
 90
        1
176
     1
 90
        6
176
     1
 90
        2
176
     1
 62
     7
176
     1
 90
        5
176
     1
 90
        0
176
     1
 90
        0
176
     1
290
     0
176
     1
 90
        1
176
     1
 40
0.0
176
     1
 90
        0
176
     1
290
     0
176
     1
290
     1
176
     1
290
     1
176
     1
290
     0
176
     1
290
     0
176
     1
290
     0
176
     1
290
     0
176
     1
290
     0
176
     1
290
     0
176
     1
 90
       50
176
     1
 40
0.0
176
     1
 40
1.0
176
     1
 90
        0
176
     1
 62
    18
420
        0
176
     1
 90
       50
176
     1
 90
        3
176
     1
 62
     5
420
      255
176
     1
290
     0
176
     1
 90
       50
176
     1
 90
       50
176
     1
 90
       50
176
     1
290
     0
176
     1
 90
       50
176
     1
 62
   256
176
     0
 40
1.0
176
     0
 90
        2
176
     1
  1
strokes_ogs.tif
176
     1
290
     0
176
     1
 40
1.0
176
     1
 40
1.0
176
     1
  0
VISUALSTYLE
  5
30
102
{ACAD_REACTORS
330
2A
102
}
330
2A
100
AcDbVisualStyle
  2
Wireframe
 70
     5
177
     3
291
     0
 70
    58
 90
        0
176
     1
 90
        2
176
     1
 90
        0
176
     1
 90
        0
176
     1
 40
0.6
176
     1
 40
30.0
176
     1
 62
     7
420
 16777215
176
     1
 90
        1
176
     1
 90
        4
176
     1
 62
     7
176
     1
 62
   257
176
     1
 90
        1
176
     1
 90
        1
176
     1
 40
1.0
176
     1
 90
        0
176
     1
 62
   257
176
     1
 40
1.0
176
     1
 90
        1
176
     1
 90
        6
176
     1
 90
        2
176
     1
 62
     7
176
     1
 90
        3
176
     1
 90
        0
176
     1
 90
        0
176
     1
290
     0
176
     1
 90
        1
176
     1
 40
0.0
176
     1
 90
        0
176
     1
290
     0
176
     1
290
     1
176
     1
290
     1
176
     1
290
     0
176
     1
290
     0
176
     1
290
     0
176
     1
290
     0
176
     1
290
     0
176
     1
290
     0
176
     1
 90
       50
176
     1
 40
0.0
176
     1
 40
1.0
176
     1
 90
        0
176
     1
 62
    18
420
        0
176
     1
 90
       50
176
     1
 90
        3
176
     1
 62
     5
420
      255
176
     1
290
     0
176
     1
 90
       50
176
     1
 90
       50
176
     1
 90
       50
176
     1
290
     0
176
     1
 90
       50
176
     1
 62
   256
176
     0
 40
1.0
176
     0
 90
        2
176
     1
  1
strokes_ogs.tif
176
     1
290
     0
176
     1
 40
1.0
176
     1
 40
1.0
176
     1
  0
VISUALSTYLE
  5
40
102
{ACAD_REACTORS
330
2A
102
}
330
2A
100
AcDbVisualStyle
  2
X-Ray
 70
    25
177
     3
291
     0
 70
    58
 90
        2
176
     1
 90
        2
176
     1
 90
        1
176
     1
 90
        1
176
     1
 40
0.5
176
     1
 40
30.0
176
     1
 62
     7
420
 16777215
176
     1
 90
        1
176
     1
 90
        0
176
     1
 62
     7
176
     1
 62
   257
176
     1
 90
        1
176
     1
 90
        1
176
     1
 40
1.0
176
     1
 90
        8
176
     1
 62
     7
176
     1
 40
1.0
176
     1
 90
        1
176
     1
 90
        6
176
     1
 90
        2
176
     1
 62
     7
176
     1
 90
        3
176
     1
 90
        0
176
     1
 90
        0
176
     1
290
     0
176
     1
 90
       13
176
     1
 40
0.0
176
     1
 90
        0
176
     1
290
     0
176
     1
290
     1
176
     1
290
     1
176
     1
290
     0
176
     1
290
     0
176
     1
290
     0
176
     1
290
     0
176
     1
290
     0
176
     1
290
     0
176
     1
 90
       50
176
     1
 40
0.0
176
     1
 40
1.0
176
     1
 90
        0
176
     1
 62
    18
420
        0
176
     1
 90
       50
176
     1
 90
        3
176
     1
 62
     5
420
      255
176
     1
290
     0
176
     1
 90
       50
176
     1
 90
       50
176
     1
 90
       50
176
     1
290
     0
176
     1
 90
       50
176
     1
 62
   256
176
     0
 40
1.0
176
     0
 90
        2
176
     1
  1
strokes_ogs.tif
176
     1
290
     0
176
     1
 40
1.0
176
     1
 40
1.0
176
     1
  0
DICTIONARYVAR
  5
32B
102
{ACAD_REACTORS
330
32A
102
}
330
32A
100
DictionaryVariables
280
     0
  1
1:1
  0
DICTIONARYVAR
  5
330
102
{ACAD_REACTORS
330
32A
102
}
330
32A
100
DictionaryVariables
280
     0
  1
Standard
  0
DICTIONARYVAR
  5
32F
102
{ACAD_REACTORS
330
32A
102
}
330
32A
100
DictionaryVariables
280
     0
  1
Standard
  0
DICTIONARY
  5
32C
330
6A
100
AcDbDictionary
280
     1
281
     1
  3
ACAD_ROUNDTRIP_2008_TABLESTYLE_CELLSTYLEMAP
360
32D
  0
CELLSTYLEMAP
  5
32D
102
{ACAD_REACTORS
330
32C
102
}
330
32C
100
AcDbCellStyleMap
 90
        3
300
CELLSTYLE
  1
TABLEFORMAT_BEGIN
 90
        5
170
     1
 91
        0
 92
    32768
 62
   257
 93
        1
300
CONTENTFORMAT
  1
CONTENTFORMAT_BEGIN
 90
        0
 91
        0
 92
        4
 93
        0
300

 40
0.0
140
1.0
 94
        5
 62
     0
340
11
144
6.0
309
CONTENTFORMAT_END
171
     1
301
MARGIN
  1
CELLMARGIN_BEGIN
 40
1.5
 40
1.5
 40
1.5
 40
1.5
 40
1.5
 40
1.5
309
CELLMARGIN_END
 94
        6
 95
        1
302
GRIDFORMAT
  1
GRIDFORMAT_BEGIN
 90
        0
 91
        1
 62
     0
 92
       -2
340
14
 93
        0
 40
0.045
309
GRIDFORMAT_END
 95
        2
302
GRIDFORMAT
  1
GRIDFORMAT_BEGIN
 90
        0
 91
        1
 62
     0
 92
       -2
340
14
 93
        0
 40
0.045
309
GRIDFORMAT_END
 95
        4
302
GRIDFORMAT
  1
GRIDFORMAT_BEGIN
 90
        0
 91
        1
 62
     0
 92
       -2
340
14
 93
        0
 40
0.045
309
GRIDFORMAT_END
 95
        8
302
GRIDFORMAT
  1
GRIDFORMAT_BEGIN
 90
        0
 91
        1
 62
     0
 92
       -2
340
14
 93
        0
 40
0.045
309
GRIDFORMAT_END
 95
       16
302
GRIDFORMAT
  1
GRIDFORMAT_BEGIN
 90
        0
 91
        1
 62
     0
 92
       -2
340
14
 93
        0
 40
0.045
309
GRIDFORMAT_END
 95
       32
302
GRIDFORMAT
  1
GRIDFORMAT_BEGIN
 90
        0
 91
        1
 62
     0
 92
       -2
340
14
 93
        0
 40
0.045
309
GRIDFORMAT_END
309
TABLEFORMAT_END
  1
CELLSTYLE_BEGIN
 90
        1
 91
        1
300
_TITLE
309
CELLSTYLE_END
300
CELLSTYLE
  1
TABLEFORMAT_BEGIN
 90
        5
170
     1
 91
        0
 92
        0
 62
   257
 93
        1
300
CONTENTFORMAT
  1
CONTENTFORMAT_BEGIN
 90
        0
 91
        0
 92
        4
 93
        0
300

 40
0.0
140
1.0
 94
        5
 62
     0
340
11
144
4.5
309
CONTENTFORMAT_END
171
     1
301
MARGIN
  1
CELLMARGIN_BEGIN
 40
1.5
 40
1.5
 40
1.5
 40
1.5
 40
1.5
 40
1.5
309
CELLMARGIN_END
 94
        6
 95
        1
302
GRIDFORMAT
  1
GRIDFORMAT_BEGIN
 90
        0
 91
        1
 62
     0
 92
       -2
340
14
 93
        0
 40
0.045
309
GRIDFORMAT_END
 95
        2
302
GRIDFORMAT
  1
GRIDFORMAT_BEGIN
 90
        0
 91
        1
 62
     0
 92
       -2
340
14
 93
        0
 40
0.045
309
GRIDFORMAT_END
 95
        4
302
GRIDFORMAT
  1
GRIDFORMAT_BEGIN
 90
        0
 91
        1
 62
     0
 92
       -2
340
14
 93
        0
 40
0.045
309
GRIDFORMAT_END
 95
        8
302
GRIDFORMAT
  1
GRIDFORMAT_BEGIN
 90
        0
 91
        1
 62
     0
 92
       -2
340
14
 93
        0
 40
0.045
309
GRIDFORMAT_END
 95
       16
302
GRIDFORMAT
  1
GRIDFORMAT_BEGIN
 90
        0
 91
        1
 62
     0
 92
       -2
340
14
 93
        0
 40
0.045
309
GRIDFORMAT_END
 95
       32
302
GRIDFORMAT
  1
GRIDFORMAT_BEGIN
 90
        0
 91
        1
 62
     0
 92
       -2
340
14
 93
        0
 40
0.045
309
GRIDFORMAT_END
309
TABLEFORMAT_END
  1
CELLSTYLE_BEGIN
 90
        2
 91
        1
300
_HEADER
309
CELLSTYLE_END
300
CELLSTYLE
  1
TABLEFORMAT_BEGIN
 90
        5
170
     1
 91
        0
 92
        0
 62
   257
 93
        1
300
CONTENTFORMAT
  1
CONTENTFORMAT_BEGIN
 90
        0
 91
        0
 92
        4
 93
        0
300

 40
0.0
140
1.0
 94
        2
 62
     0
340
11
144
4.5
309
CONTENTFORMAT_END
171
     1
301
MARGIN
  1
CELLMARGIN_BEGIN
 40
1.5
 40
1.5
 40
1.5
 40
1.5
 40
1.5
 40
1.5
309
CELLMARGIN_END
 94
        6
 95
        1
302
GRIDFORMAT
  1
GRIDFORMAT_BEGIN
 90
        0
 91
        1
 62
     0
 92
       -2
340
14
 93
        0
 40
0.045
309
GRIDFORMAT_END
 95
        2
302
GRIDFORMAT
  1
GRIDFORMAT_BEGIN
 90
        0
 91
        1
 62
     0
 92
       -2
340
14
 93
        0
 40
0.045
309
GRIDFORMAT_END
 95
        4
302
GRIDFORMAT
  1
GRIDFORMAT_BEGIN
 90
        0
 91
        1
 62
     0
 92
       -2
340
14
 93
        0
 40
0.045
309
GRIDFORMAT_END
 95
        8
302
GRIDFORMAT
  1
GRIDFORMAT_BEGIN
 90
        0
 91
        1
 62
     0
 92
       -2
340
14
 93
        0
 40
0.045
309
GRIDFORMAT_END
 95
       16
302
GRIDFORMAT
  1
GRIDFORMAT_BEGIN
 90
        0
 91
        1
 62
     0
 92
       -2
340
14
 93
        0
 40
0.045
309
GRIDFORMAT_END
 95
       32
302
GRIDFORMAT
  1
GRIDFORMAT_BEGIN
 90
        0
 91
        1
 62
     0
 92
       -2
340
14
 93
        0
 40
0.045
309
GRIDFORMAT_END
309
TABLEFORMAT_END
  1
CELLSTYLE_BEGIN
 90
        3
 91
        2
300
_DATA
309
CELLSTYLE_END
  0
ENDSEC
  0
EOF
