  0
SECTION
  2
HEADER
  9
$ACADVER
  1
AC1015
  9
$ACADMAINTVER
 70
     6
  9
$DWGCODEPAGE
  3
ANSI_1252
  9
$INSBASE
 10
0.0
 20
0.0
 30
0.0
  9
$EXTMIN
 10
-234.1958867366
 20
-209.9838421612
 30
0.0
  9
$EXTMAX
 10
234.1958867364
 20
267.5
 30
0.0
  9
$LIMMIN
 10
0.0
 20
0.0
  9
$LIMMAX
 10
420.0
 20
297.0
  9
$ORTHOMODE
 70
     0
  9
$REGENMODE
 70
     1
  9
$FILLMODE
 70
     1
  9
$QTEXTMODE
 70
     0
  9
$MIRRTEXT
 70
     1
  9
$LTSCALE
 40
1.0
  9
$ATTMODE
 70
     1
  9
$TEXTSIZE
 40
3.5
  9
$TRACEWID
 40
1.0
  9
$TEXTSTYLE
  7
STANDARD
  9
$CLAYER
  8
0
  9
$CELTYPE
  6
ByLayer
  9
$CECOLOR
 62
   256
  9
$CELTSCALE
 40
1.0
  9
$DISPSILH
 70
     0
  9
$DIMSCALE
 40
1.0
  9
$DIMASZ
 40
8.0
  9
$DIMEXO
 40
1.0
  9
$DIMDLI
 40
3.75
  9
$DIMRND
 40
0.0
  9
$DIMDLE
 40
0.0
  9
$DIMEXE
 40
1.0
  9
$DIMTP
 40
0.0
  9
$DIMTM
 40
0.0
  9
$DIMTXT
 40
16.9333333333
  9
$DIMCEN
 40
2.5
  9
$DIMTSZ
 40
0.0
  9
$DIMTOL
 70
     0
  9
$DIMLIM
 70
     0
  9
$DIMTIH
 70
     1
  9
$DIMTOH
 70
     1
  9
$DIMSE1
 70
     0
  9
$DIMSE2
 70
     0
  9
$DIMTAD
 70
     1
  9
$DIMZIN
 70
     0
  9
$DIMBLK
  1

  9
$DIMASO
 70
     1
  9
$DIMSHO
 70
     1
  9
$DIMPOST
  1

  9
$DIMAPOST
  1

  9
$DIMALT
 70
     0
  9
$DIMALTD
 70
     3
  9
$DIMALTF
 40
0.0393700787
  9
$DIMLFAC
 40
1.0
  9
$DIMTOFL
 70
     1
  9
$DIMTVP
 40
0.0
  9
$DIMTIX
 70
     0
  9
$DIMSOXD
 70
     0
  9
$DIMSAH
 70
     0
  9
$DIMBLK1
  1

  9
$DIMBLK2
  1

  9
$DIMSTYLE
  2
ISO-25
  9
$DIMCLRD
 70
     0
  9
$DIMCLRE
 70
     0
  9
$DIMCLRT
 70
     0
  9
$DIMTFAC
 40
1.0
  9
$DIMGAP
 40
1.524
  9
$DIMJUST
 70
     0
  9
$DIMSD1
 70
     0
  9
$DIMSD2
 70
     0
  9
$DIMTOLJ
 70
     0
  9
$DIMTZIN
 70
     0
  9
$DIMALTZ
 70
     0
  9
$DIMALTTZ
 70
     0
  9
$DIMUPT
 70
     0
  9
$DIMDEC
 70
     2
  9
$DIMTDEC
 70
     2
  9
$DIMALTU
 70
     2
  9
$DIMALTTD
 70
     3
  9
$DIMTXSTY
  7
STANDARD
  9
$DIMAUNIT
 70
     0
  9
$DIMADEC
 70
     2
  9
$DIMALTRND
 40
0.0
  9
$DIMAZIN
 70
     0
  9
$DIMDSEP
 70
    44
  9
$DIMATFIT
 70
     3
  9
$DIMFRAC
 70
     0
  9
$DIMLDRBLK
  1

  9
$DIMLUNIT
 70
     2
  9
$DIMLWD
 70
    -2
  9
$DIMLWE
 70
    -2
  9
$DIMTMOVE
 70
     0
  9
$LUNITS
 70
     2
  9
$LUPREC
 70
     2
  9
$SKETCHINC
 40
1.0
  9
$FILLETRAD
 40
10.0
  9
$AUNITS
 70
     0
  9
$AUPREC
 70
     2
  9
$MENU
  1
.
  9
$ELEVATION
 40
0.0
  9
$PELEVATION
 40
0.0
  9
$THICKNESS
 40
0.0
  9
$LIMCHECK
 70
     0
  9
$CHAMFERA
 40
0.0
  9
$CHAMFERB
 40
0.0
  9
$CHAMFERC
 40
0.0
  9
$CHAMFERD
 40
0.0
  9
$SKPOLY
 70
     0
  9
$TDCREATE
 40
2458302.38813162
  9
$TDUCREATE
 40
2458302.304798287
  9
$TDUPDATE
 40
2458302.388149109
  9
$TDUUPDATE
 40
2458302.304815775
  9
$TDINDWG
 40
0.0000000116
  9
$TDUSRTIMER
 40
0.0000000116
  9
$USRTIMER
 70
     1
  9
$ANGBASE
 50
0.0
  9
$ANGDIR
 70
     0
  9
$PDMODE
 70
     0
  9
$PDSIZE
 40
-1.0
  9
$PLINEWID
 40
0.0
  9
$SPLFRAME
 70
     0
  9
$SPLINETYPE
 70
     6
  9
$SPLINESEGS
 70
     8
  9
$HANDSEED
  5
18E
  9
$SURFTAB1
 70
     6
  9
$SURFTAB2
 70
     6
  9
$SURFTYPE
 70
     6
  9
$SURFU
 70
     6
  9
$SURFV
 70
     6
  9
$UCSBASE
  2

  9
$UCSNAME
  2

  9
$UCSORG
 10
0.0
 20
0.0
 30
0.0
  9
$UCSXDIR
 10
1.0
 20
0.0
 30
0.0
  9
$UCSYDIR
 10
0.0
 20
1.0
 30
0.0
  9
$UCSORTHOREF
  2

  9
$UCSORTHOVIEW
 70
     0
  9
$UCSORGTOP
 10
0.0
 20
0.0
 30
0.0
  9
$UCSORGBOTTOM
 10
0.0
 20
0.0
 30
0.0
  9
$UCSORGLEFT
 10
0.0
 20
0.0
 30
0.0
  9
$UCSORGRIGHT
 10
0.0
 20
0.0
 30
0.0
  9
$UCSORGFRONT
 10
0.0
 20
0.0
 30
0.0
  9
$UCSORGBACK
 10
0.0
 20
0.0
 30
0.0
  9
$PUCSBASE
  2

  9
$PUCSNAME
  2

  9
$PUCSORG
 10
0.0
 20
0.0
 30
0.0
  9
$PUCSXDIR
 10
1.0
 20
0.0
 30
0.0
  9
$PUCSYDIR
 10
0.0
 20
1.0
 30
0.0
  9
$PUCSORTHOREF
  2

  9
$PUCSORTHOVIEW
 70
     0
  9
$PUCSORGTOP
 10
0.0
 20
0.0
 30
0.0
  9
$PUCSORGBOTTOM
 10
0.0
 20
0.0
 30
0.0
  9
$PUCSORGLEFT
 10
0.0
 20
0.0
 30
0.0
  9
$PUCSORGRIGHT
 10
0.0
 20
0.0
 30
0.0
  9
$PUCSORGFRONT
 10
0.0
 20
0.0
 30
0.0
  9
$PUCSORGBACK
 10
0.0
 20
0.0
 30
0.0
  9
$USERI1
 70
     0
  9
$USERI2
 70
     0
  9
$USERI3
 70
     0
  9
$USERI4
 70
     0
  9
$USERI5
 70
     0
  9
$USERR1
 40
0.0
  9
$USERR2
 40
0.0
  9
$USERR3
 40
0.0
  9
$USERR4
 40
0.0
  9
$USERR5
 40
0.0
  9
$WORLDVIEW
 70
     1
  9
$SHADEDGE
 70
     3
  9
$SHADEDIF
 70
    70
  9
$TILEMODE
 70
     1
  9
$MAXACTVP
 70
    64
  9
$PINSBASE
 10
0.0
 20
0.0
 30
0.0
  9
$PLIMCHECK
 70
     0
  9
$PEXTMIN
 10
-234.1958867366
 20
0.0
 30
0.0
  9
$PEXTMAX
 10
234.1958867364
 20
990.0
 30
0.0
  9
$PLIMMIN
 10
-335.734348275
 20
-38.0769230769
  9
$PLIMMAX
 10
1172.1118055711
 20
1028.0769230769
  9
$UNITMODE
 70
     0
  9
$VISRETAIN
 70
     1
  9
$PLINEGEN
 70
     0
  9
$PSLTSCALE
 70
     1
  9
$TREEDEPTH
 70
  3020
  9
$CMLSTYLE
  2
Standard
  9
$CMLJUST
 70
     0
  9
$CMLSCALE
 40
20.0
  9
$PROXYGRAPHICS
 70
     1
  9
$MEASUREMENT
 70
     1
  9
$CELWEIGHT
370
    -1
  9
$ENDCAPS
280
     0
  9
$JOINSTYLE
280
     0
  9
$LWDISPLAY
290
     1
  9
$INSUNITS
 70
     4
  9
$HYPERLINKBASE
  1

  9
$STYLESHEET
  1

  9
$XEDIT
290
     1
  9
$CEPSNTYPE
380
     0
  9
$PSTYLEMODE
290
     1
  9
$FINGERPRINTGUID
  2
{0ACBD47A-88ED-4F76-8F2B-BA79982536A4}
  9
$VERSIONGUID
  2
{FAEB1C32-E019-11D5-929B-00C0DF256EC4}
  9
$EXTNAMES
290
     1
  9
$PSVPSCALE
 40
0.0
  9
$OLESTARTUP
290
     0
  0
ENDSEC
  0
SECTION
  2
CLASSES
  0
CLASS
  1
ACDBDICTIONARYWDFLT
  2
AcDbDictionaryWithDefault
  3
ObjectDBX Classes
 90
        0
280
     0
281
     0
  0
CLASS
  1
VISUALSTYLE
  2
AcDbVisualStyle
  3
ObjectDBX Classes
 90
     4095
280
     0
281
     0
  0
CLASS
  1
MATERIAL
  2
AcDbMaterial
  3
ObjectDBX Classes
 90
     1153
280
     0
281
     0
  0
CLASS
  1
SCALE
  2
AcDbScale
  3
ObjectDBX Classes
 90
     1153
280
     0
281
     0
  0
CLASS
  1
TABLESTYLE
  2
AcDbTableStyle
  3
ObjectDBX Classes
 90
     4095
280
     0
281
     0
  0
CLASS
  1
MLEADERSTYLE
  2
AcDbMLeaderStyle
  3
ACDB_MLEADERSTYLE_CLASS
 90
     4095
280
     0
281
     0
  0
CLASS
  1
SUN
  2
AcDbSun
  3
SCENEOE
 90
     1153
280
     0
281
     0
  0
CLASS
  1
ACDBPLACEHOLDER
  2
AcDbPlaceHolder
  3
ObjectDBX Classes
 90
        0
280
     0
281
     0
  0
CLASS
  1
LAYOUT
  2
AcDbLayout
  3
ObjectDBX Classes
 90
        0
280
     0
281
     0
  0
ENDSEC
  0
SECTION
  2
TABLES
  0
TABLE
  2
VPORT
  5
8
330
0
100
AcDbSymbolTable
 70
     1
  0
VPORT
  5
29
330
8
100
AcDbSymbolTableRecord
100
AcDbViewportTableRecord
  2
*Active
 70
     0
 10
0.0
 20
0.0
 11
1.0
 21
1.0
 12
-0.0000000001
 22
28.7580789194
 13
0.0
 23
0.0
 14
10.0
 24
10.0
 15
10.0
 25
10.0
 16
0.0
 26
0.0
 36
1.0
 17
0.0
 27
0.0
 37
0.0
 40
487.0335190044
 41
0.9809583741
 42
50.0
 43
0.0
 44
0.0
 50
0.0
 51
0.0
 71
     0
 72
   100
 73
     1
 74
     3
 75
     0
 76
     0
 77
     0
 78
     0
281
     0
 65
     1
110
0.0
120
0.0
130
0.0
111
1.0
121
0.0
131
0.0
112
0.0
122
1.0
132
0.0
 79
     0
146
0.0
  0
ENDTAB
  0
TABLE
  2
LTYPE
  5
5
330
0
100
AcDbSymbolTable
 70
     6
  0
LTYPE
  5
14
330
5
100
AcDbSymbolTableRecord
100
AcDbLinetypeTableRecord
  2
ByBlock
 70
     0
  3

 72
    65
 73
     0
 40
0.0
  0
LTYPE
  5
15
330
5
100
AcDbSymbolTableRecord
100
AcDbLinetypeTableRecord
  2
ByLayer
 70
     0
  3

 72
    65
 73
     0
 40
0.0
  0
LTYPE
  5
16
330
5
100
AcDbSymbolTableRecord
100
AcDbLinetypeTableRecord
  2
Continuous
 70
     0
  3
Solid line
 72
    65
 73
     0
 40
0.0
  0
LTYPE
  5
6E
330
5
100
AcDbSymbolTableRecord
100
AcDbLinetypeTableRecord
  2
HIDDEN
 70
     0
  3
Hidden __ __ __ __ __ __ __ __ __ __ __ __ __ __
 72
    65
 73
     2
 40
1.905
 49
1.27
 74
     0
 49
-0.635
 74
     0
  0
LTYPE
  5
6F
330
5
100
AcDbSymbolTableRecord
100
AcDbLinetypeTableRecord
  2
PHANTOM
 70
     0
  3
Phantom ______  __  __  ______  __  __  ______
 72
    65
 73
     6
 40
12.7
 49
6.35
 74
     0
 49
-1.27
 74
     0
 49
1.27
 74
     0
 49
-1.27
 74
     0
 49
1.27
 74
     0
 49
-1.27
 74
     0
  0
LTYPE
  5
70
330
5
100
AcDbSymbolTableRecord
100
AcDbLinetypeTableRecord
  2
CENTER
 70
     0
  3
Center ____ _ ____ _ ____ _ ____ _ ____ _ ____
 72
    65
 73
     4
 40
10.16
 49
6.35
 74
     0
 49
-1.27
 74
     0
 49
1.27
 74
     0
 49
-1.27
 74
     0
  0
LTYPE
  5
71
330
5
100
AcDbSymbolTableRecord
100
AcDbLinetypeTableRecord
  2
CENTERX2
 70
     0
  3
Center (2x) ________  __  ________  __  _____
 72
    65
 73
     4
 40
20.32
 49
12.7
 74
     0
 49
-2.54
 74
     0
 49
2.54
 74
     0
 49
-2.54
 74
     0
  0
LTYPE
  5
72
330
5
100
AcDbSymbolTableRecord
100
AcDbLinetypeTableRecord
  2
DOT2
 70
     0
  3
Dot (.5x) ........................................
 72
    65
 73
     2
 40
0.635
 49
0.0
 74
     0
 49
-0.635
 74
     0
  0
ENDTAB
  0
TABLE
  2
LAYER
  5
2
330
0
100
AcDbSymbolTable
 70
     1
  0
LAYER
  5
10
330
2
100
AcDbSymbolTableRecord
100
AcDbLayerTableRecord
  2
0
 70
     0
 62
     7
  6
Continuous
370
    -3
390
F
  0
ENDTAB
  0
TABLE
  2
STYLE
  5
3
330
0
100
AcDbSymbolTable
 70
     1
  0
STYLE
  5
11
330
3
100
AcDbSymbolTableRecord
100
AcDbTextStyleTableRecord
  2
STANDARD
 70
     0
 40
0.0
 41
1.0
 50
0.0
 71
     0
 42
3.5
  3
GOTHIC.TTF
  4

1001
ACAD
1000
CENTURY GOTHIC
1071
       34
  0
ENDTAB
  0
TABLE
  2
VIEW
  5
6
330
0
100
AcDbSymbolTable
 70
     0
  0
ENDTAB
  0
TABLE
  2
UCS
  5
7
330
0
100
AcDbSymbolTable
 70
     0
  0
ENDTAB
  0
TABLE
  2
APPID
  5
9
330
0
100
AcDbSymbolTable
 70
     1
  0
APPID
  5
12
330
9
100
AcDbSymbolTableRecord
100
AcDbRegAppTableRecord
  2
ACAD
 70
     0
  0
ENDTAB
  0
TABLE
  2
DIMSTYLE
  5
A
330
0
100
AcDbSymbolTable
 70
     1
100
AcDbDimStyleTable
  0
DIMSTYLE
105
27
330
A
100
AcDbSymbolTableRecord
100
AcDbDimStyleTableRecord
  2
ISO-25
 70
     0
 41
2.5
 42
0.625
 43
3.75
 44
1.25
 73
     0
 74
     0
 77
     1
 78
     8
140
2.5
141
2.5
143
0.0393700787
147
0.625
171
     3
172
     1
178
     0
271
     2
272
     2
274
     3
278
    44
283
     0
284
     8
340
11
  0
ENDTAB
  0
TABLE
  2
BLOCK_RECORD
  5
1
330
0
100
AcDbSymbolTable
 70
     8
  0
BLOCK_RECORD
  5
1F
330
1
100
AcDbSymbolTableRecord
100
AcDbBlockTableRecord
  2
*Model_Space
340
22
  0
BLOCK_RECORD
  5
1B
330
1
100
AcDbSymbolTableRecord
100
AcDbBlockTableRecord
  2
*Paper_Space
340
1E
  0
BLOCK_RECORD
  5
23
330
1
100
AcDbSymbolTableRecord
100
AcDbBlockTableRecord
  2
*Paper_Space0
340
26
  0
BLOCK_RECORD
  5
A3
330
1
100
AcDbSymbolTableRecord
100
AcDbBlockTableRecord
  2
*Paper_Space1
340
A4
  0
BLOCK_RECORD
  5
C0
330
1
100
AcDbSymbolTableRecord
100
AcDbBlockTableRecord
  2
*Paper_Space2
340
C1
  0
BLOCK_RECORD
  5
E3
330
1
100
AcDbSymbolTableRecord
100
AcDbBlockTableRecord
  2
*Paper_Space3
340
E4
  0
BLOCK_RECORD
  5
FB
330
1
100
AcDbSymbolTableRecord
100
AcDbBlockTableRecord
  2
*Paper_Space4
340
FC
  0
BLOCK_RECORD
  5
142
330
1
100
AcDbSymbolTableRecord
100
AcDbBlockTableRecord
  2
*Paper_Space5
340
143
  0
BLOCK_RECORD
  5
157
330
1
100
AcDbSymbolTableRecord
100
AcDbBlockTableRecord
  2
*Paper_Space6
340
158
  0
BLOCK_RECORD
  5
16B
330
1
100
AcDbSymbolTableRecord
100
AcDbBlockTableRecord
  2
*Paper_Space7
340
16C
  0
ENDTAB
  0
ENDSEC
  0
SECTION
  2
BLOCKS
  0
BLOCK
  5
20
330
1F
100
AcDbEntity
  8
0
100
AcDbBlockBegin
  2
*Model_Space
 70
     0
 10
0.0
 20
0.0
 30
0.0
  3
*Model_Space
  1

  0
ENDBLK
  5
21
330
1F
100
AcDbEntity
  8
0
100
AcDbBlockEnd
  0
BLOCK
  5
1C
330
1B
100
AcDbEntity
 67
     1
  8
0
100
AcDbBlockBegin
  2
*Paper_Space
 70
     0
 10
0.0
 20
0.0
 30
0.0
  3
*Paper_Space
  1

  0
ENDBLK
  5
1D
330
1B
100
AcDbEntity
 67
     1
  8
0
100
AcDbBlockEnd
  0
BLOCK
  5
24
330
23
100
AcDbEntity
  8
0
100
AcDbBlockBegin
  2
*Paper_Space0
 70
     0
 10
0.0
 20
0.0
 30
0.0
  3
*Paper_Space0
  1

  0
SPLINE
  5
94
330
23
100
AcDbEntity
  8
0
  6
Continuous
 62
     7
370
    25
100
AcDbSpline
210
0.0
220
0.0
230
1.0
 70
     8
 71
     3
 72
    30
 73
    26
 74
     0
 42
0.000000001
 43
0.00000001
 40
0.0
 40
0.0
 40
0.0
 40
0.0
 40
0.062694971584931
 40
0.1210738243651052
 40
0.175140722864169
 40
0.2248989805514757
 40
0.2703511873422722
 40
0.311499325631516
 40
0.3408115690344808
 40
0.3674681627274315
 40
0.3914695150524337
 40
0.4128159276978283
 40
0.4318578454942401
 40
0.4524856992323064
 40
0.4825950416120492
 40
0.5170229106831848
 40
0.5557696415582014
 40
0.5988358612017558
 40
0.6462225771513249
 40
0.6979312764701379
 40
0.7506456569976508
 40
0.8072063523875384
 40
0.8676163361793089
 40
0.9318793462821404
 40
1.0
 40
1.0
 40
1.0
 40
1.0
 10
180.0
 20
759.9999999999999
 30
0.0
 10
181.4165962176184
 20
764.9506903846216
 30
0.0
 10
184.1522657188936
 20
774.5112500748305
 30
0.0
 10
188.2975033520327
 20
788.2862876355592
 30
0.0
 10
192.2528139378965
 20
801.0080410911645
 30
0.0
 10
196.0020360122458
 20
812.6815041350224
 30
0.0
 10
199.5154620654178
 20
823.3157881346427
 30
0.0
 10
202.5709939022843
 20
832.3324642469264
 30
0.0
 10
205.177817845047
 20
839.8710074490339
 30
0.0
 10
207.3549386550656
 20
846.0679076725336
 30
0.0
 10
209.3400490416441
 20
851.6387361313347
 30
0.0
 10
211.1350941731764
 20
856.6133056874485
 30
0.0
 10
212.8528369531336
 20
861.321169905691
 30
0.0
 10
214.8360607141449
 20
866.6982712121385
 30
0.0
 10
217.285861786428
 20
873.250141603032
 30
0.0
 10
220.3019431379751
 20
881.1789307422275
 30
0.0
 10
223.7537900245582
 20
890.0803495921801
 30
0.0
 10
227.6615983341588
 20
899.9462619907149
 30
0.0
 10
232.0477549980473
 20
910.7674172678679
 30
0.0
 10
236.8321526102722
 20
922.2817406300618
 30
0.0
 10
242.0178393907582
 20
934.4446633483797
 30
0.0
 10
247.6061566101436
 20
947.2122183615472
 30
0.0
 10
253.7177740363152
 20
960.7851797173344
 30
0.0
 10
260.3653513868635
 20
975.1575329691608
 30
0.0
 10
265.0760276210482
 20
984.9573227682137
 30
0.0
 10
267.5000000000003
 20
990.0000000000001
 30
0.0
  0
SPLINE
  5
95
330
23
100
AcDbEntity
  8
0
  6
Continuous
 62
     7
370
    25
100
AcDbSpline
210
0.0
220
0.0
230
1.0
 70
     8
 71
     3
 72
    21
 73
    17
 74
     0
 42
0.000000001
 43
0.00000001
 40
0.0
 40
0.0
 40
0.0
 40
0.0
 40
0.0829865120974775
 40
0.15823380166069
 40
0.2257506800883737
 40
0.2855435472477303
 40
0.3376168805927621
 40
0.3819736683050492
 40
0.418615786499778
 40
0.4524875027823227
 40
0.5092849815838429
 40
0.5798536213831095
 40
0.6641974975603655
 40
0.7623251319467563
 40
0.8742514405827748
 40
1.0
 40
1.0
 40
1.0
 40
1.0
 10
-209.9838421611649
 20
845.0049065688611
 30
0.0
 10
-209.0110224979611
 20
842.7071862423048
 30
0.0
 10
-207.1561071659586
 20
838.3260282295787
 30
0.0
 10
-204.5914709345731
 20
832.0413735112472
 30
0.0
 10
-202.3381854433044
 20
826.3832140704628
 30
0.0
 10
-200.3847884025981
 20
821.3558154599694
 30
0.0
 10
-198.7150062101836
 20
816.9654466905821
 30
0.0
 10
-197.3159885638721
 20
813.2169094974681
 30
0.0
 10
-196.1252332395312
 20
809.9748448607373
 30
0.0
 10
-194.8218713808921
 20
806.3756981909646
 30
0.0
 10
-193.1978274333476
 20
801.8078388130106
 30
0.0
 10
-191.1148258161139
 20
795.7927421599721
 30
0.0
 10
-188.6965895214995
 20
788.5789654497772
 30
0.0
 10
-185.9843358500921
 20
780.1529245339198
 30
0.0
 10
-183.0103201685168
 20
770.5037308394727
 30
0.0
 10
-181.0399848274289
 20
763.6344080258203
 30
0.0
 10
-179.9975236166999
 20
759.9999999999993
 30
0.0
  0
SPLINE
  5
98
330
23
100
AcDbEntity
  8
0
  6
Continuous
 62
     7
370
    25
100
AcDbSpline
210
0.0
220
0.0
230
1.0
 70
    11
 71
     3
 72
    66
 73
    62
 74
     0
 42
0.000000001
 43
0.00000001
 40
0.0
 40
0.0
 40
0.0
 40
0.0
 40
0.0312499999999997
 40
0.0312499999999997
 40
0.0624999999999994
 40
0.0624999999999994
 40
0.0937499999999991
 40
0.0937499999999991
 40
0.1249999999999988
 40
0.1249999999999988
 40
0.1562499999999985
 40
0.1562499999999985
 40
0.1874999999999982
 40
0.1874999999999982
 40
0.2187499999999979
 40
0.2187499999999979
 40
0.2499999999999976
 40
0.2499999999999976
 40
0.2812499999999973
 40
0.2812499999999973
 40
0.3124999999999971
 40
0.3124999999999971
 40
0.3437499999999967
 40
0.3437499999999967
 40
0.3749999999999964
 40
0.3749999999999964
 40
0.4062499999999962
 40
0.4062499999999962
 40
0.4374999999999959
 40
0.4374999999999959
 40
0.4687499999999956
 40
0.4687499999999956
 40
0.4999999999999959
 40
0.4999999999999959
 40
0.5312499999999961
 40
0.5312499999999961
 40
0.5624999999999964
 40
0.5624999999999964
 40
0.6249999999999969
 40
0.6249999999999969
 40
0.6562499999999972
 40
0.6562499999999972
 40
0.6874999999999974
 40
0.6874999999999974
 40
0.7187499999999978
 40
0.7187499999999978
 40
0.749999999999998
 40
0.749999999999998
 40
0.7812499999999982
 40
0.7812499999999982
 40
0.8124999999999986
 40
0.8124999999999986
 40
0.8437499999999988
 40
0.8437499999999988
 40
0.874999999999999
 40
0.874999999999999
 40
0.9062499999999993
 40
0.9062499999999993
 40
0.9374999999999996
 40
0.9374999999999996
 40
1.0
 40
1.0
 40
1.0
 40
1.0
 10
1.775018067294325
 20
28.23951402709961
 30
0.0
 10
1.658713649571299
 20
28.12224956379666
 30
0.0
 10
1.532846566480391
 20
28.0183565727995
 30
0.0
 10
1.262767051497238
 20
27.83621890141574
 30
0.0
 10
1.116842628877995
 20
27.75734200342816
 30
0.0
 10
0.8145467983326597
 20
27.63074571635027
 30
0.0
 10
0.6589058172237587
 20
27.5828661595014
 30
0.0
 10
0.3387169094315433
 20
27.51766969681307
 30
0.0
 10
0.17312744816219
 20
27.50067452381727
 30
0.0
 10
-0.1530658746592486
 20
27.49936572301787
 30
0.0
 10
-0.3153092423909577
 20
27.51452163630108
 30
0.0
 10
-0.6380487032341466
 20
27.57720895101251
 30
0.0
 10
-0.7960596936104138
 20
27.62454220096222
 30
0.0
 10
-1.097448140672919
 20
27.74786359886128
 30
0.0
 10
-1.243081294134776
 20
27.82472699344429
 30
0.0
 10
-1.517412278232828
 20
28.00637923998922
 30
0.0
 10
-1.643759432814109
 20
28.10932906189534
 30
0.0
 10
-1.875394499335822
 20
28.33883259693071
 30
0.0
 10
-1.981545506763951
 20
28.4669656549843
 30
0.0
 10
-2.164286609840485
 20
28.7380252106958
 30
0.0
 10
-2.241708091390973
 20
28.88126679703063
 30
0.0
 10
-2.368493366732241
 20
29.18326361769585
 30
0.0
 10
-2.417337043749308
 20
29.3419557077057
 30
0.0
 10
-2.482293943869177
 20
29.66124131017167
 30
0.0
 10
-2.49921628189953
 20
29.823515881092
 30
0.0
 10
-2.50073104993705
 20
30.15353463394044
 30
0.0
 10
-2.485241281705342
 20
30.31638443676732
 30
0.0
 10
-2.423190137527006
 20
30.63613905517021
 30
0.0
 10
-2.375906801592064
 20
30.79495432328955
 30
0.0
 10
-2.251722558292639
 20
31.09846758097096
 30
0.0
 10
-2.175565861090162
 20
31.24240833375552
 30
0.0
 10
-1.995467040620633
 20
31.51485199723364
 30
0.0
 10
-1.890449221756938
 20
31.6440239503194
 30
0.0
 10
-1.660769641197116
 20
31.87575510345653
 30
0.0
 10
-1.535403988158671
 20
31.97977576426586
 30
0.0
 10
-1.263184424015587
 20
32.16364105030212
 30
0.0
 10
-1.117820301248299
 20
32.24209464749001
 30
0.0
 10
-0.6674345742234202
 20
32.43116713244392
 30
0.0
 10
-0.3386825186624774
 20
32.49831377675066
 30
0.0
 10
0.1503148118956812
 20
32.50079484388713
 30
0.0
 10
0.315916452830807
 20
32.48534568530359
 30
0.0
 10
0.6370076131963394
 20
32.42300798210746
 30
0.0
 10
0.7930525318673998
 20
32.37652150222042
 30
0.0
 10
1.0961215826048
 20
32.25284359087915
 30
0.0
 10
1.243017001191206
 20
32.17519102717942
 30
0.0
 10
1.514831757976308
 20
31.99545283457128
 30
0.0
 10
1.641529182967234
 20
31.89276428123522
 30
0.0
 10
1.875849695225574
 20
31.66083190111918
 30
0.0
 10
1.980326883299806
 20
31.53454203080575
 30
0.0
 10
2.162647854261509
 20
31.26470078180077
 30
0.0
 10
2.241502822455891
 20
31.11919030427057
 30
0.0
 10
2.368553319214626
 20
30.81662538185409
 30
0.0
 10
2.416555116927552
 20
30.66098951297119
 30
0.0
 10
2.481988509967104
 20
30.34114338011729
 30
0.0
 10
2.499165878844668
 20
30.17552286486541
 30
0.0
 10
2.500773484645328
 20
29.84910154219855
 30
0.0
 10
2.4857423817055
 20
29.6869071049024
 30
0.0
 10
2.423466714871165
 20
29.36458562254301
 30
0.0
 10
2.376170621854235
 20
29.20606707207302
 30
0.0
 10
2.191571059454969
 20
28.75377306873944
 30
0.0
 10
2.007626902740381
 20
28.47404295370548
 30
0.0
 10
1.775018067294325
 20
28.2395140270996
 30
0.0
  0
SPLINE
  5
99
330
23
100
AcDbEntity
  8
0
  6
Continuous
 62
     7
370
    25
100
AcDbSpline
210
0.0
220
0.0
230
1.0
 70
    24
 71
     3
 72
    30
 73
    26
 74
     0
 42
0.000000001
 43
0.00000001
 40
0.0
 40
0.0
 40
0.0
 40
0.0
 40
0.00703125
 40
0.0093749999999999
 40
0.046875
 40
0.078125
 40
0.09375
 40
0.125
 40
0.140625
 40
0.171875
 40
0.203125
 40
0.21875
 40
0.25
 40
0.2678239461198844
 40
0.28125
 40
0.296875
 40
0.328125
 40
0.34375
 40
0.375
 40
0.390625
 40
0.421875
 40
0.453125
 40
0.46875
 40
0.484375
 40
0.4999999999971685
 40
0.4999999999971685
 40
0.4999999999971685
 40
0.4999999999971685
 10
267.5000000000003
 20
990.0000000000001
 30
0.0
 10
267.5000000000003
 20
990.0000000000001
 30
0.0
 10
267.392165911879
 20
989.9672545700994
 30
0.0
 10
266.1437498768795
 20
989.588154412874
 30
0.0
 10
259.6993704979466
 20
987.6312224548727
 30
0.0
 10
243.4107490401111
 20
982.6849394990903
 30
0.0
 10
223.0742948237097
 20
976.5094717265724
 30
0.0
 10
202.8436499023897
 20
970.366134525333
 30
0.0
 10
173.3751114804141
 20
961.4175731197066
 30
0.0
 10
140.3836947376202
 20
951.3992371454544
 30
0.0
 10
104.2317564610003
 20
940.4211616478425
 30
0.0
 10
66.16056873169437
 20
928.8602774159082
 30
0.0
 10
33.54752726393452
 20
918.9568407398335
 30
0.0
 10
2.127924034675654
 20
909.4158093927282
 30
0.0
 10
-21.06698048934991
 20
902.3723305320295
 30
0.0
 10
-50.16663494733287
 20
893.5357862463605
 30
0.0
 10
-78.6992549292409
 20
884.871430440335
 30
0.0
 10
-111.8951794581039
 20
874.7909926252887
 30
0.0
 10
-136.0670738108638
 20
867.4508362249741
 30
0.0
 10
-162.105252498161
 20
859.5439547387781
 30
0.0
 10
-183.6271860678116
 20
853.0084984715544
 30
0.0
 10
-198.2954519974669
 20
848.5542606499831
 30
0.0
 10
-205.787909485798
 20
846.2790641352033
 30
0.0
 10
-209.2209453110801
 20
845.2365715809289
 30
0.0
 10
-209.983842161162
 20
845.004906568862
 30
0.0
 10
-209.9838421611649
 20
845.0049065688611
 30
0.0
  0
SPLINE
  5
9A
330
23
100
AcDbEntity
  8
0
  6
Continuous
 62
     7
370
    25
100
AcDbSpline
210
0.0
220
0.0
230
1.0
 70
    24
 71
     3
 72
    30
 73
    26
 74
     0
 42
0.000000001
 43
0.00000001
 40
0.0
 40
0.0
 40
0.0
 40
0.0
 40
0.00703125
 40
0.0093749999999999
 40
0.046875
 40
0.078125
 40
0.09375
 40
0.125
 40
0.140625
 40
0.171875
 40
0.203125
 40
0.21875
 40
0.25
 40
0.2678239461198844
 40
0.28125
 40
0.296875
 40
0.328125
 40
0.34375
 40
0.375
 40
0.390625
 40
0.421875
 40
0.453125
 40
0.46875
 40
0.484375
 40
0.4999999999971685
 40
0.4999999999971685
 40
0.4999999999971685
 40
0.4999999999971685
 10
180.0
 20
759.9999999999999
 30
0.0
 10
179.9999999999999
 20
759.9999999999999
 30
0.0
 10
179.9346820475125
 20
759.9999999999999
 30
0.0
 10
179.1772582717699
 20
759.9999999999999
 30
0.0
 10
175.2613390762224
 20
759.9999999999997
 30
0.0
 10
165.272367005922
 20
759.9999999999999
 30
0.0
 10
152.7018314991597
 20
760.0000000000001
 30
0.0
 10
140.0114329704676
 20
760.0000000000003
 30
0.0
 10
121.1610630492383
 20
759.9999999999999
 30
0.0
 10
99.49736625642657
 20
760.0000000000003
 30
0.0
 10
74.94872444270413
 20
760.0000000000003
 30
0.0
 10
48.56740516473656
 20
759.9999999999997
 30
0.0
 10
25.20459816746984
 20
759.9999999999997
 30
0.0
 10
1.710881933748049
 20
759.9999999999999
 30
0.0
 10
-16.17876134246909
 20
759.9999999999999
 30
0.0
 10
-39.35922597768861
 20
759.9999999999999
 30
0.0
 10
-63.04894670594273
 20
760.0000000000003
 30
0.0
 10
-91.30585814569153
 20
759.9999999999999
 30
0.0
 10
-112.5969429394835
 20
760.0000000000003
 30
0.0
 10
-136.1372553600414
 20
759.9999999999997
 30
0.0
 10
-155.9061826288917
 20
759.999999999999
 30
0.0
 10
-169.4046453662111
 20
759.9999999999994
 30
0.0
 10
-176.2201691038373
 20
760.0000000000003
 30
0.0
 10
-179.3107318873235
 20
759.9999999999994
 30
0.0
 10
-179.9975236168249
 20
759.9999999999993
 30
0.0
 10
-179.9975236166999
 20
759.9999999999993
 30
0.0
  0
LINE
  5
9C
330
23
100
AcDbEntity
  8
0
  6
Continuous
 62
     7
370
    25
100
AcDbLine
 10
180.0
 20
760.0
 30
0.0
 11
-180.0
 21
760.0
 31
0.0
  0
LINE
  5
9D
330
23
100
AcDbEntity
  8
0
  6
Continuous
 62
     7
370
    25
100
AcDbLine
 10
100.0
 20
0.0
 30
0.0
 11
-100.0
 21
0.0
 31
0.0
  0
LINE
  5
9E
330
23
100
AcDbEntity
  8
0
  6
Continuous
 62
    60
370
    25
100
AcDbLine
 10
102.5
 20
230.0
 30
0.0
 11
-102.5
 21
230.0
 31
0.0
  0
ARC
  5
9F
330
23
100
AcDbEntity
  8
0
  6
Continuous
 62
     7
370
    25
100
AcDbCircle
 10
2276.7932178932
 20
182.7271709684
 30
0.0
 40
2174.807052991332
100
AcDbArc
 50
164.6071180754
 51
178.7544886256
  0
ARC
  5
A0
330
23
100
AcDbEntity
  8
0
  6
Continuous
 62
     7
370
    25
100
AcDbCircle
 10
-2276.7932178932
 20
182.7271709684
 30
0.0
 40
2174.807052991371
100
AcDbArc
 50
1.2455113744
 51
15.3928819246
  0
ARC
  5
A1
330
23
100
AcDbEntity
  8
0
  6
Continuous
 62
     7
370
    25
100
AcDbCircle
 10
10681.2499999914
 20
0.0
 30
0.0
 40
10581.24999999138
100
AcDbArc
 50
178.7544886256
 51
180.0
  0
ARC
  5
A2
330
23
100
AcDbEntity
  8
0
  6
Continuous
 62
     7
370
    25
100
AcDbCircle
 10
-10681.2500000269
 20
-0.0000000004
 30
0.0
 40
10581.25000002687
100
AcDbArc
 50
0.0
 51
1.2455113744
  0
VIEWPORT
  5
17E
330
23
100
AcDbEntity
  8
0
100
AcDbViewport
 10
0.0
 20
0.0
 30
0.0
 40
205.6
 41
156.0
 68
     1
 69
     1
 12
-0.0000000001
 22
28.7580789194
 13
0.0
 23
0.0
 14
10.0
 24
10.0
 15
10.0
 25
10.0
 16
0.0
 26
0.0
 36
1.0
 17
0.0
 27
0.0
 37
0.0
 42
50.0
 43
0.0
 44
0.0
 45
487.0335190044
 50
0.0
 51
0.0
 72
   100
 90
   557152
  1

281
     0
 71
     1
 74
     0
110
0.0
120
0.0
130
0.0
111
1.0
121
0.0
131
0.0
112
0.0
122
1.0
132
0.0
 79
     0
146
0.0
  0
ENDBLK
  5
25
330
23
100
AcDbEntity
  8
0
100
AcDbBlockEnd
  0
BLOCK
  5
A5
330
A3
100
AcDbEntity
  8
0
100
AcDbBlockBegin
  2
*Paper_Space1
 70
     0
 10
0.0
 20
0.0
 30
0.0
  3
*Paper_Space1
  1

  0
SPLINE
  5
AD
330
A3
100
AcDbEntity
  8
0
  6
Continuous
 62
     7
370
    25
100
AcDbSpline
210
0.0
220
0.0
230
1.0
 70
     8
 71
     3
 72
    24
 73
    20
 74
     0
 42
0.000000001
 43
0.00000001
 40
0.0
 40
0.0
 40
0.0
 40
0.0
 40
0.0686233720957889
 40
0.1314423177459759
 40
0.1890079174229998
 40
0.2419110770192686
 40
0.2908018927876473
 40
0.3505083221011493
 40
0.408483419502771
 40
0.4650014009205464
 40
0.5071432631240969
 40
0.5483868603980906
 40
0.5913910216889632
 40
0.6418351787567975
 40
0.699862290468732
 40
0.7641774621907688
 40
0.8356868311573894
 40
0.9143197866420989
 40
1.0
 40
1.0
 40
1.0
 40
1.0
 10
179.9896135514286
 20
759.9999999999998
 30
0.0
 10
180.9056976639623
 20
763.409575083141
 30
0.0
 10
182.6603800021258
 20
769.940330389532
 30
0.0
 10
185.3065926597671
 20
779.3943374430038
 30
0.0
 10
187.8318174644781
 20
788.0987762314205
 30
0.0
 10
190.250164151052
 20
796.1119322666082
 30
0.0
 10
192.786311814612
 20
804.2006986279985
 30
0.0
 10
195.4389567770425
 20
812.3475213863954
 30
0.0
 10
198.2961573151419
 20
820.9399966352951
 30
0.0
 10
200.9412341177054
 20
828.6864742568571
 30
0.0
 10
203.3621097534
 20
835.6123242450236
 30
0.0
 10
205.5920194801099
 20
841.8627596471381
 30
0.0
 10
208.0097272553107
 20
848.5010105044535
 30
0.0
 10
210.7831667571115
 20
855.9446489326454
 30
0.0
 10
214.0185108759191
 20
864.4046871626247
 30
0.0
 10
217.7387066555337
 20
873.8574004190973
 30
0.0
 10
221.9686779553393
 20
884.2644885291853
 30
0.0
 10
226.745505439942
 20
895.651994322853
 30
0.0
 10
230.2067964012652
 20
903.523634343372
 30
0.0
 10
232.0116678558716
 20
907.6282584656215
 30
0.0
  0
SPLINE
  5
AE
330
A3
100
AcDbEntity
  8
0
  6
Continuous
 62
     7
370
    25
100
AcDbSpline
210
0.0
220
0.0
230
1.0
 70
     8
 71
     3
 72
    24
 73
    20
 74
     0
 42
0.000000001
 43
0.00000001
 40
0.0
 40
0.0
 40
0.0
 40
0.0
 40
0.0775488111733778
 40
0.1485442133788999
 40
0.2129059585179342
 40
0.2705619122601463
 40
0.3220522285984515
 40
0.3715026604023606
 40
0.4196903462875746
 40
0.4665995870088604
 40
0.5075319815465849
 40
0.5474154704195022
 40
0.5902724972998843
 40
0.640734720903243
 40
0.6987939801874713
 40
0.7631926429839796
 40
0.8348781946191125
 40
0.913823999561637
 40
1.0
 40
1.0
 40
1.0
 40
1.0
 10
-232.0116678558642
 20
907.628258465615
 30
0.0
 10
-230.384560518693
 20
903.9318760336403
 30
0.0
 10
-227.2678476274696
 20
896.8514809586254
 30
0.0
 10
-222.9534644281672
 20
886.6262953318336
 30
0.0
 10
-219.1329204952291
 20
877.3125203738704
 30
0.0
 10
-215.7799814365914
 20
868.9010599713336
 30
0.0
 10
-212.7797474419348
 20
861.1817718013344
 30
0.0
 10
-210.0160148383644
 20
853.8988915524781
 30
0.0
 10
-207.3909365055058
 20
846.8175438798071
 30
0.0
 10
-204.9699666910546
 20
840.1338303889389
 30
0.0
 10
-202.7397390313411
 20
833.8416501300361
 30
0.0
 10
-200.6186418498938
 20
827.7349080623488
 30
0.0
 10
-198.3764278467246
 20
821.1422359051645
 30
0.0
 10
-195.8828081514835
 20
813.6314411675758
 30
0.0
 10
-193.1072977199497
 20
805.0281394794422
 30
0.0
 10
-190.083136752525
 20
795.339988761001
 30
0.0
 10
-186.8506677998335
 20
784.5741499044888
 30
0.0
 10
-183.4199048763067
 20
772.6800244665642
 30
0.0
 10
-181.1659421140858
 20
764.348282271812
 30
0.0
 10
-179.9896135514398
 20
760.0
 30
0.0
  0
SPLINE
  5
B1
330
A3
100
AcDbEntity
  8
0
  6
Continuous
 62
     7
370
    25
100
AcDbSpline
210
0.0
220
0.0
230
1.0
 70
     8
 71
     3
 72
    17
 73
    13
 74
     0
 42
0.000000001
 43
0.00000001
 40
0.0
 40
0.0
 40
0.0
 40
0.0
 40
0.0707273112960257
 40
0.1781124766075123
 40
0.2855165163508654
 40
0.3929382862053594
 40
0.5003449217910318
 40
0.6077255836442891
 40
0.7151125625348516
 40
0.822532763535183
 40
0.9299634214066321
 40
1.0
 40
1.0
 40
1.0
 40
1.0
 10
100.0350289289933
 20
27.53188429077641
 30
0.0
 10
100.0350365114724
 20
27.531294517952
 30
0.0
 10
100.0350556064177
 20
27.52980929397753
 30
0.0
 10
100.0281965065776
 20
27.84809692434492
 30
0.0
 10
100.0188192617681
 20
28.40873348310574
 30
0.0
 10
100.0113520605245
 20
29.15977572998118
 30
0.0
 10
100.0100588305257
 20
30.00278445602295
 30
0.0
 10
100.0161784885787
 20
30.84534515338877
 30
0.0
 10
100.0279251389415
 20
31.59539245034426
 30
0.0
 10
100.0404693454625
 20
32.15464723411782
 30
0.0
 10
100.04908902338
 20
32.47110900057887
 30
0.0
 10
100.0490367918372
 20
32.46875660985088
 30
0.0
 10
100.0490161789138
 20
32.46782825033295
 30
0.0
  0
SPLINE
  5
B2
330
A3
100
AcDbEntity
  8
0
  6
Continuous
 62
     7
370
    25
100
AcDbSpline
210
0.0
220
0.0
230
1.0
 70
     8
 71
     3
 72
    18
 73
    14
 74
     0
 42
0.000000001
 43
0.00000001
 40
0.0
 40
0.0
 40
0.0
 40
0.0
 40
0.0000710492127471
 40
0.1074070732316459
 40
0.21474189086501
 40
0.3221124071129992
 40
0.429503864929537
 40
0.5368733268996109
 40
0.644213200385436
 40
0.7515588472775755
 40
0.8589322642707939
 40
0.9663106837810859
 40
1.0
 40
1.0
 40
1.0
 40
1.0
 10
-100.0499089686391
 20
32.49990680288328
 30
0.0
 10
-100.0499098181055
 20
32.49993786208033
 30
0.0
 10
-100.0511939800742
 20
32.54689091505847
 30
0.0
 10
-100.0465561221636
 20
32.38232830514731
 30
0.0
 10
-100.0365899543942
 20
31.9953148019429
 30
0.0
 10
-100.0233928470452
 20
31.34901099998738
 30
0.0
 10
-100.0132798778595
 20
30.55981534087587
 30
0.0
 10
-100.0096659254706
 20
29.70467240361258
 30
0.0
 10
-100.013387493159
 20
28.88505254280188
 30
0.0
 10
-100.0221738946785
 20
28.18555843279208
 30
0.0
 10
-100.0310135501932
 20
27.71058317566655
 30
0.0
 10
-100.0360537223969
 20
27.48556764149601
 30
0.0
 10
-100.0352513082016
 20
27.52185810187863
 30
0.0
 10
-100.0350596783761
 20
27.53052486603441
 30
0.0
  0
SPLINE
  5
B3
330
A3
100
AcDbEntity
  8
0
  6
Continuous
 62
     7
370
    25
100
AcDbSpline
210
0.0
220
0.0
230
1.0
 70
    11
 71
     3
 72
    53
 73
    49
 74
     0
 42
0.000000001
 43
0.00000001
 40
0.0
 40
0.0
 40
0.0
 40
0.0
 40
0.00703125
 40
0.0093749999999999
 40
0.046875
 40
0.078125
 40
0.09375
 40
0.125
 40
0.140625
 40
0.171875
 40
0.203125
 40
0.21875
 40
0.25
 40
0.2678239461198844
 40
0.28125
 40
0.296875
 40
0.328125
 40
0.34375
 40
0.375
 40
0.390625
 40
0.421875
 40
0.453125
 40
0.46875
 40
0.484375
 40
0.4999999999971685
 40
0.515625
 40
0.53125
 40
0.546875
 40
0.578125
 40
0.609375
 40
0.625
 40
0.65625
 40
0.671875
 40
0.703125
 40
0.71875
 40
0.7321760538703969
 40
0.75
 40
0.78125
 40
0.796875
 40
0.828125
 40
0.859375
 40
0.875
 40
0.90625
 40
0.921875
 40
0.953125
 40
0.990625
 40
0.99296875
 40
1.0
 40
1.0
 40
1.0
 40
1.0
 10
0.0000000002702699
 20
990.0000000000001
 30
0.0
 10
3.492285492779093
 20
990.0000000000001
 30
0.0
 10
8.147719898197181
 20
989.9672545700994
 30
0.0
 10
31.38371884026808
 20
989.588154412874
 30
0.0
 10
66.2846782837464
 20
987.6312224548727
 30
0.0
 10
104.5542296637784
 20
982.6849394990903
 30
0.0
 10
137.5565138728698
 20
976.5094717265724
 30
0.0
 10
161.5950101781568
 20
970.366134525333
 30
0.0
 10
187.4455497622833
 20
961.4175731197066
 30
0.0
 10
208.7433732203974
 20
951.3992371454544
 30
0.0
 10
223.1300075683221
 20
940.4211616478425
 30
0.0
 10
232.184162809045
 20
928.8602774159082
 30
0.0
 10
235.1339299743731
 20
918.9568407398335
 30
0.0
 10
233.1147838226082
 20
909.4158093927282
 30
0.0
 10
229.3709354111141
 20
902.3723305320295
 30
0.0
 10
221.9747789860591
 20
893.5357862463605
 30
0.0
 10
210.1266915290405
 20
884.871430440335
 30
0.0
 10
190.3019568086611
 20
874.7909926252887
 30
0.0
 10
170.6686541257103
 20
867.4508362249741
 30
0.0
 10
142.1313142513219
 20
859.5439547387781
 30
0.0
 10
110.2091490241096
 20
853.0084984715544
 30
0.0
 10
75.20828936342886
 20
848.5542606499831
 30
0.0
 10
45.67729802493606
 20
846.2790641352033
 30
0.0
 10
22.9798253556993
 20
845.2365715809918
 30
0.0
 10
0.0000000015149132
 20
844.8890740628286
 30
0.0
 10
-22.97982535294538
 20
845.2365715808604
 30
0.0
 10
-45.67729802559867
 20
846.279064135235
 30
0.0
 10
-75.20828936539914
 20
848.5542606501607
 30
0.0
 10
-110.209149028207
 20
853.0084984721499
 30
0.0
 10
-142.1313142574937
 20
859.5439547401687
 30
0.0
 10
-170.6686541332291
 20
867.4508362273668
 30
0.0
 10
-190.3019568165223
 20
874.7909926285816
 30
0.0
 10
-210.1266915361762
 20
884.8714304446529
 30
0.0
 10
-221.974778991798
 20
893.5357862513974
 30
0.0
 10
-229.3709354137214
 20
902.3723305361285
 30
0.0
 10
-233.1147838241582
 20
909.4158093969444
 30
0.0
 10
-235.1339299744285
 20
918.9568407440483
 30
0.0
 10
-232.1841628062125
 20
928.8602774213729
 30
0.0
 10
-223.1300075630228
 20
940.4211616527457
 30
0.0
 10
-208.743373213127
 20
951.3992371496546
 30
0.0
 10
-187.4455497539405
 20
961.4175731230764
 30
0.0
 10
-161.5950101695822
 20
970.3661345278061
 30
0.0
 10
-137.5565138648132
 20
976.5094717283334
 30
0.0
 10
-104.5542296571482
 20
982.6849395000697
 30
0.0
 10
-66.28467827922964
 20
987.6312224551988
 30
0.0
 10
-31.38371883896111
 20
989.5881544129313
 30
0.0
 10
-8.147719897589417
 20
989.9672545701038
 30
0.0
 10
-3.492285492238567
 20
990.0000000000001
 30
0.0
 10
0.0000000002702699
 20
990.0000000000001
 30
0.0
  0
SPLINE
  5
B4
330
A3
100
AcDbEntity
  8
0
  6
Continuous
 62
     7
370
    25
100
AcDbSpline
210
0.0
220
0.0
230
1.0
 70
    24
 71
     3
 72
    49
 73
    45
 74
     0
 42
0.000000001
 43
0.00000001
 40
0.0
 40
0.0
 40
0.0
 40
0.0
 40
0.01131079517196
 40
0.0350368792339466
 40
0.0590192292122094
 40
0.083190079247258
 40
0.1075413158082623
 40
0.1306815035747769
 40
0.1540323820672023
 40
0.1776498780146178
 40
0.2015131278614146
 40
0.2255725106815515
 40
0.2512526343998593
 40
0.2770372789803454
 40
0.3028551196288072
 40
0.3286256300782032
 40
0.354286877215154
 40
0.3798622003131893
 40
0.4039377439329028
 40
0.4280101258860675
 40
0.4520910911992913
 40
0.4760875959316921
 40
0.4999734450924382
 40
0.5253088021576925
 40
0.5507713183062781
 40
0.5763123787694183
 40
0.6018411679327234
 40
0.627382188572623
 40
0.6529775008776691
 40
0.6772003534234982
 40
0.7015145026144253
 40
0.7258581867802344
 40
0.7501645081759315
 40
0.7743744863599497
 40
0.7998854244843333
 40
0.82517250695966
 40
0.8501766466677056
 40
0.8748895216978654
 40
0.8993789629649314
 40
0.9236774189173597
 40
0.9464251372301432
 40
0.9689953208871582
 40
0.991328317293832
 40
1.0
 40
1.0
 40
1.0
 40
1.0
 10
179.8675471015193
 20
759.9999999999999
 30
0.0
 10
179.8943071419889
 20
760.0
 30
0.0
 10
179.9772003685015
 20
760.0000000000001
 30
0.0
 10
179.0421777198949
 20
760.0
 30
0.0
 10
177.0943274162968
 20
759.9999999999998
 30
0.0
 10
174.0654402434416
 20
760.0
 30
0.0
 10
170.0929602909487
 20
760.0000000000002
 30
0.0
 10
165.2167526143494
 20
760.0000000000003
 30
0.0
 10
159.4955823385554
 20
759.9999999999998
 30
0.0
 10
152.8363083582146
 20
760.0000000000002
 30
0.0
 10
145.2636160419504
 20
760.0
 30
0.0
 10
136.6372244212343
 20
759.9999999999998
 30
0.0
 10
126.9385682592108
 20
760.0000000000005
 30
0.0
 10
116.1741248978614
 20
759.9999999999995
 30
0.0
 10
104.6348694472621
 20
759.9999999999994
 30
0.0
 10
92.43656985948301
 20
759.9999999999991
 30
0.0
 10
79.67339996086817
 20
759.9999999999993
 30
0.0
 10
66.68271661110059
 20
759.9999999999993
 30
0.0
 10
53.56394407971827
 20
760.0
 30
0.0
 10
40.40295630289889
 20
760.0
 30
0.0
 10
27.02694552252928
 20
759.9999999999999
 30
0.0
 10
13.53382165097003
 20
759.9999999999994
 30
0.0
 10
-0.2732352319468412
 20
759.9999999999992
 30
0.0
 10
-14.35743040560735
 20
759.9999999999993
 30
0.0
 10
-28.66114313760455
 20
760.0
 30
0.0
 10
-42.81985044780227
 20
760.0000000000005
 30
0.0
 10
-56.71859139313486
 20
759.9999999999999
 30
0.0
 10
-70.25936142020497
 20
760.0
 30
0.0
 10
-83.12149311462217
 20
760.0000000000002
 30
0.0
 10
-95.26460819553752
 20
760.0000000000006
 30
0.0
 10
-106.6494085742439
 20
759.9999999999995
 30
0.0
 10
-117.4322923663846
 20
760.0000000000006
 30
0.0
 10
-127.5138296554178
 20
759.9999999999998
 30
0.0
 10
-136.9953177194578
 20
760.0000000000005
 30
0.0
 10
-145.7622694484756
 20
760.0000000000001
 30
0.0
 10
-153.7072523385198
 20
760.0000000000001
 30
0.0
 10
-160.6215945627535
 20
759.9999999999998
 30
0.0
 10
-166.4784918399838
 20
760.0000000000003
 30
0.0
 10
-171.2794094191986
 20
760.0000000000002
 30
0.0
 10
-174.9619961843495
 20
760.0000000000005
 30
0.0
 10
-177.6218395771905
 20
760.0000000000001
 30
0.0
 10
-179.2617229611851
 20
760.0000000000001
 30
0.0
 10
-180.0134121454502
 20
760.0
 30
0.0
 10
-179.9139938846759
 20
759.9999999999998
 30
0.0
 10
-179.8861876426085
 20
759.9999999999998
 30
0.0
  0
LWPOLYLINE
  5
B5
330
A3
100
AcDbEntity
  8
0
  6
Continuous
 62
     7
370
    25
100
AcDbPolyline
 90
       89
 70
   128
 43
0.0
 10
0.0
 20
981.3499678464
 10
-15.4399126973
 20
981.1713524916
 10
-30.7758704378
 20
980.640774197
 10
-45.9135004856
 20
979.7661346172
 10
-60.7584301048
 20
978.5553354069
 10
-75.22609944
 20
977.0157059501
 10
-89.2733606719
 20
975.1521605502
 10
-102.1038038634
 20
973.1022872357
 10
-114.4933313669
 20
970.7741968983
 10
-126.3807362869
 20
968.1784812432
 10
-137.6928695514
 20
965.3283793129
 10
-148.3527549148
 20
962.2379952432
 10
-158.866478075
 20
958.7154166692
 10
-168.5064195621
 20
954.9667870668
 10
-177.2222587195
 20
951.0191115894
 10
-184.9657438245
 20
946.8985002724
 10
-191.6942946923
 20
942.6284984509
 10
-197.3891141702
 20
938.2218936761
 10
-201.8004207145
 20
933.9509566167
 10
-205.2679983321
 20
929.58006732
 10
-207.7722150598
 20
925.1303051916
 10
-209.2912207173
 20
920.6270772913
 10
-209.8025351201
 20
916.0971674932
 10
-209.2275699522
 20
911.293403052
 10
-207.5206268844
 20
906.5215881979
 10
-204.7085340425
 20
901.8135180178
 10
-200.8167806094
 20
897.1986471178
 10
-195.8672839817
 20
892.7003526801
 10
-189.8757374606
 20
888.3318330067
 10
-183.2848705855
 20
884.3413629997
 10
-175.799458944
 20
880.4879961774
 10
-167.4535757053
 20
876.790801217
 10
-158.2897840717
 20
873.2725278052
 10
-148.3534279234
 20
869.9571157222
 10
-137.0274573476
 20
866.6871623967
 10
-124.9746746162
 20
863.6889701483
 10
-112.2819088065
 20
860.9781897547
 10
-99.0331111666
 20
858.5698285708
 10
-85.303985994
 20
856.4771299684
 10
-71.135645234
 20
854.7059402258
 10
-57.4035009889
 20
853.3339454343
 10
-43.3496462989
 20
852.2554252657
 10
-29.0413561903
 20
851.4766311545
 10
-14.5625206061
 20
851.0060941634
 10
0.0
 20
850.8491454129
 10
15.4432545443
 20
851.0256947419
 10
30.7865549697
 20
851.5547960091
 10
45.9259663739
 20
852.429430253
 10
60.7642137458
 20
853.6398045906
 10
75.2266953126
 20
855.1789602813
 10
89.2728100073
 20
857.042407177
 10
102.106061597
 20
859.0928681871
 10
114.4996278539
 20
861.4218328997
 10
126.3861069113
 20
864.0173567547
 10
137.6950945678
 20
866.8668524065
 10
148.3534279234
 20
869.9571157222
 10
158.8676139872
 20
873.4802227073
 10
168.5096618421
 20
877.2298930988
 10
177.2255363345
 20
881.1775921867
 10
184.9658835059
 20
885.2967887508
 10
191.693117218
 20
889.5661209519
 10
197.3883742222
 20
893.9728009984
 10
201.800288321
 20
898.2439074668
 10
205.267946463
 20
902.6147341211
 10
207.7721438901
 20
907.0643087794
 10
209.291174069
 20
911.5673453553
 10
209.8025351201
 20
916.0971674932
 10
209.2276189393
 20
920.9010293208
 10
207.5206984597
 20
925.6730508439
 10
204.7085796591
 20
930.3813083957
 10
200.8170079208
 20
934.9961961393
 10
195.8682359678
 20
939.4942825039
 10
189.876786667
 20
943.8628731884
 10
183.2840403104
 20
947.8542424421
 10
175.7958347372
 20
951.7088615769
 10
167.4505741664
 20
955.4057675737
 10
158.2887294966
 20
958.923063721
 10
148.3527549148
 20
962.2379952432
 10
137.0250781385
 20
965.5080947161
 10
124.9689458678
 20
968.5069426613
 10
112.2761089269
 20
971.2177315408
 10
99.0318751974
 20
973.6251101785
 10
85.3046352765
 20
975.7174053338
 10
71.1339691389
 20
977.4888397831
 10
57.3960216453
 20
978.861315096
 10
43.3366487718
 20
979.940166152
 10
29.0314532656
 20
980.7189739723
 10
14.5595365379
 20
981.1911155421
 10
0.0
 20
981.3499678464
  0
LINE
  5
B7
330
A3
100
AcDbEntity
  8
0
  6
Continuous
 62
     7
370
    25
100
AcDbLine
 10
100.0358186923
 20
27.5320139541
 30
0.0
 11
100.0
 21
0.0
 31
0.0
  0
LINE
  5
B8
330
A3
100
AcDbEntity
  8
0
  6
Continuous
 62
     7
370
    25
100
AcDbLine
 10
-100.0
 20
0.0
 30
0.0
 11
-100.0358150745
 21
27.5306235041
 31
0.0
  0
LINE
  5
B9
330
A3
100
AcDbEntity
  8
0
  6
Continuous
 62
     7
370
    25
100
AcDbLine
 10
180.0
 20
760.0
 30
0.0
 11
-180.0
 21
760.0
 31
0.0
  0
LINE
  5
BA
330
A3
100
AcDbEntity
  8
0
  6
Continuous
 62
     7
370
    25
100
AcDbLine
 10
100.0
 20
0.0
 30
0.0
 11
-100.0
 21
0.0
 31
0.0
  0
LINE
  5
BB
330
A3
100
AcDbEntity
  8
0
  6
Continuous
 62
    60
370
    25
100
AcDbLine
 10
102.5
 20
230.0
 30
0.0
 11
-102.5
 21
230.0
 31
0.0
  0
ARC
  5
BC
330
A3
100
AcDbEntity
  8
0
  6
Continuous
 62
     7
370
    25
100
AcDbCircle
 10
2276.7932178932
 20
182.7271709684
 30
0.0
 40
2174.807052991332
100
AcDbArc
 50
164.6071180754
 51
178.7544886256
  0
ARC
  5
BD
330
A3
100
AcDbEntity
  8
0
  6
Continuous
 62
     7
370
    25
100
AcDbCircle
 10
-2276.7932178932
 20
182.7271709684
 30
0.0
 40
2174.80705299137
100
AcDbArc
 50
1.2455113744
 51
15.3928819246
  0
ARC
  5
BE
330
A3
100
AcDbEntity
  8
0
  6
Continuous
 62
     7
370
    25
100
AcDbCircle
 10
10681.249999951
 20
0.0000000006
 30
0.0
 40
10581.24999995104
100
AcDbArc
 50
178.7544886256
 51
179.8241909344
  0
ARC
  5
BF
330
A3
100
AcDbEntity
  8
0
  6
Continuous
 62
     7
370
    25
100
AcDbCircle
 10
-10681.2499999392
 20
0.0000000007
 30
0.0
 40
10581.2499999392
100
AcDbArc
 50
0.1759838838
 51
1.2455113744
  0
VIEWPORT
  5
180
330
A3
100
AcDbEntity
  8
0
100
AcDbViewport
 10
0.0
 20
0.0
 30
0.0
 40
205.6
 41
156.0
 68
     1
 69
     1
 12
-0.0000000001
 22
28.7580789194
 13
0.0
 23
0.0
 14
10.0
 24
10.0
 15
10.0
 25
10.0
 16
0.0
 26
0.0
 36
1.0
 17
0.0
 27
0.0
 37
0.0
 42
50.0
 43
0.0
 44
0.0
 45
487.0335190044
 50
0.0
 51
0.0
 72
   100
 90
   557152
  1

281
     0
 71
     1
 74
     0
110
0.0
120
0.0
130
0.0
111
1.0
121
0.0
131
0.0
112
0.0
122
1.0
132
0.0
 79
     0
146
0.0
  0
ENDBLK
  5
A6
330
A3
100
AcDbEntity
  8
0
100
AcDbBlockEnd
  0
BLOCK
  5
C2
330
C0
100
AcDbEntity
  8
0
100
AcDbBlockBegin
  2
*Paper_Space2
 70
     0
 10
0.0
 20
0.0
 30
0.0
  3
*Paper_Space2
  1

  0
SPLINE
  5
CA
330
C0
100
AcDbEntity
  8
0
  6
Continuous
 62
     7
370
    25
100
AcDbSpline
210
0.0
220
0.0
230
1.0
 70
     8
 71
     3
 72
    24
 73
    20
 74
     0
 42
0.000000001
 43
0.00000001
 40
0.0
 40
0.0
 40
0.0
 40
0.0
 40
0.0686233721114864
 40
0.1314423177745239
 40
0.1890079174603745
 40
0.2419110770599554
 40
0.2908018928243489
 40
0.3505083221218405
 40
0.4084834195099211
 40
0.4650014009188471
 40
0.5071432631187771
 40
0.5483868603918014
 40
0.5913910216833255
 40
0.6418351787519423
 40
0.6998622904647628
 40
0.7641774621877514
 40
0.8356868311553727
 40
0.9143197866411026
 40
1.0
 40
1.0
 40
1.0
 40
1.0
 10
179.9896135514398
 20
759.9999999999999
 30
0.0
 10
180.9056976642626
 20
763.4095750841506
 30
0.0
 10
182.6603800029593
 20
769.9403303923992
 30
0.0
 10
185.3065926613519
 20
779.3943374479543
 30
0.0
 10
187.8318174665549
 20
788.0987762375771
 30
0.0
 10
190.2501641532829
 20
796.1119322730037
 30
0.0
 10
192.7863118165485
 20
804.200698633453
 30
0.0
 10
195.4389567785034
 20
812.3475213906028
 30
0.0
 10
198.2961573160085
 20
820.9399966377468
 30
0.0
 10
200.9412341181318
 20
828.686474258023
 30
0.0
 10
203.3621097535675
 20
835.6123242454452
 30
0.0
 10
205.5920194801705
 20
841.862759647263
 30
0.0
 10
208.009727255345
 20
848.501010504511
 30
0.0
 10
210.7831667571466
 20
855.9446489327108
 30
0.0
 10
214.0185108759547
 20
864.4046871626971
 30
0.0
 10
217.7387066555668
 20
873.8574004191703
 30
0.0
 10
221.9686779553662
 20
884.2644885292478
 30
0.0
 10
226.7455054399547
 20
895.6519943228892
 30
0.0
 10
230.2067964012654
 20
903.5236343433816
 30
0.0
 10
232.0116678558642
 20
907.628258465615
 30
0.0
  0
SPLINE
  5
CB
330
C0
100
AcDbEntity
  8
0
  6
Continuous
 62
     7
370
    25
100
AcDbSpline
210
0.0
220
0.0
230
1.0
 70
     8
 71
     3
 72
    24
 73
    20
 74
     0
 42
0.000000001
 43
0.00000001
 40
0.0
 40
0.0
 40
0.0
 40
0.0
 40
0.0775488111731233
 40
0.148544213378576
 40
0.2129059585177009
 40
0.2705619122601524
 40
0.3220522285987581
 40
0.3715026604028625
 40
0.4196903462882037
 40
0.4665995870095607
 40
0.5075319815473118
 40
0.547415470420233
 40
0.5902724973005135
 40
0.6407347209038441
 40
0.6987939801880888
 40
0.7631926429846122
 40
0.8348781946196945
 40
0.9138239995620336
 40
1.0
 40
1.0
 40
1.0
 40
1.0
 10
-232.0116678558716
 20
907.6282584656215
 30
0.0
 10
-230.3845605187078
 20
903.9318760336648
 30
0.0
 10
-227.2678476274951
 20
896.8514809586769
 30
0.0
 10
-222.9534644281974
 20
886.626295331905
 30
0.0
 10
-219.1329204952511
 20
877.3125203739313
 30
0.0
 10
-215.7799814365968
 20
868.9010599713608
 30
0.0
 10
-212.7797474419203
 20
861.1817718013186
 30
0.0
 10
-210.0160148383344
 20
853.8988915524279
 30
0.0
 10
-207.3909365054654
 20
846.8175438797352
 30
0.0
 10
-204.9699666910083
 20
840.1338303888555
 30
0.0
 10
-202.7397390312913
 20
833.8416501299473
 30
0.0
 10
-200.618641849844
 20
827.7349080622638
 30
0.0
 10
-198.3764278466754
 20
821.1422359050842
 30
0.0
 10
-195.8828081514342
 20
813.6314411674985
 30
0.0
 10
-193.1072977198988
 20
805.0281394793622
 30
0.0
 10
-190.0831367524738
 20
795.3399887609186
 30
0.0
 10
-186.8506677997869
 20
784.5741499044151
 30
0.0
 10
-183.4199048762729
 20
772.6800244665186
 30
0.0
 10
-181.165942114066
 20
764.3482822717931
 30
0.0
 10
-179.9896135514286
 20
759.9999999999998
 30
0.0
  0
SPLINE
  5
D0
330
C0
100
AcDbEntity
  8
0
  6
Continuous
 62
     7
370
    25
100
AcDbSpline
210
0.0
220
0.0
230
1.0
 70
     8
 71
     3
 72
    10
 73
     6
 74
     0
 42
0.000000001
 43
0.00000001
 40
0.0
 40
0.0
 40
0.0
 40
0.0
 40
0.4271080867952088
 40
0.8542186233600356
 40
1.0
 40
1.0
 40
1.0
 40
1.0
 10
-100.0219344891095
 20
28.23951402709962
 30
0.0
 10
-100.0248890453658
 20
28.06304367043533
 30
0.0
 10
-100.0307981748251
 20
27.71010194492341
 30
0.0
 10
-100.0359840447885
 20
27.48947300192695
 30
0.0
 10
-100.0352227246446
 20
27.5232788670805
 30
0.0
 10
-100.0350289947349
 20
27.53188130228163
 30
0.0
  0
SPLINE
  5
D1
330
C0
100
AcDbEntity
  8
0
  6
Continuous
 62
     7
370
    25
100
AcDbSpline
210
0.0
220
0.0
230
1.0
 70
     8
 71
     3
 72
    15
 73
    11
 74
     0
 42
0.000000001
 43
0.00000001
 40
0.0
 40
0.0
 40
0.0
 40
0.0
 40
0.0498616327843799
 40
0.1931767453247191
 40
0.3365121040400992
 40
0.4798969756283631
 40
0.6232896774475571
 40
0.7666411508219915
 40
0.9099659060235317
 40
1.0
 40
1.0
 40
1.0
 40
1.0
 10
-100.0490162582473
 20
32.46783111765556
 30
0.0
 10
-100.0492595150859
 20
32.47658297934491
 30
0.0
 10
-100.0502019544272
 20
32.51048993469857
 30
0.0
 10
-100.0436762976743
 20
32.27750917528383
 30
0.0
 10
-100.0320153556161
 20
31.79375534572226
 30
0.0
 10
-100.0193354319042
 20
31.08903381888084
 30
0.0
 10
-100.0111744435248
 20
30.26565847062235
 30
0.0
 10
-100.0101893482476
 20
29.41424618432226
 30
0.0
 10
-100.0153185435659
 20
28.71622143819347
 30
0.0
 10
-100.0200925792119
 20
28.37223157940932
 30
0.0
 10
-100.0219344891095
 20
28.23951402709962
 30
0.0
  0
SPLINE
  5
D2
330
C0
100
AcDbEntity
  8
0
  6
Continuous
 62
     7
370
    25
100
AcDbSpline
210
0.0
220
0.0
230
1.0
 70
     8
 71
     3
 72
    14
 73
    10
 74
     0
 42
0.000000001
 43
0.00000001
 40
0.0
 40
0.0
 40
0.0
 40
0.0
 40
0.1428634617634401
 40
0.2857279875707222
 40
0.4285650561416265
 40
0.5713918871542363
 40
0.7142567133770732
 40
0.8571529971532638
 40
1.0
 40
1.0
 40
1.0
 40
1.0
 10
100.0221741048228
 20
28.22355270216026
 30
0.0
 10
100.0192413920974
 20
28.44096963494636
 30
0.0
 10
100.0133759448038
 20
28.87580511983495
 30
0.0
 10
100.0096712098338
 20
29.7085337582812
 30
0.0
 10
100.0132694050311
 20
30.55927584260532
 30
0.0
 10
100.0234718331075
 20
31.35223329933906
 30
0.0
 10
100.036341239343
 20
31.98642108398014
 30
0.0
 10
100.0475297982502
 20
32.41726449582721
 30
0.0
 10
100.0491172685733
 20
32.47240880749164
 30
0.0
 10
100.0499108668428
 20
32.49997620807138
 30
0.0
  0
SPLINE
  5
D3
330
C0
100
AcDbEntity
  8
0
  6
Continuous
 62
     7
370
    25
100
AcDbSpline
210
0.0
220
0.0
230
1.0
 70
     8
 71
     3
 72
    10
 73
     6
 74
     0
 42
0.000000001
 43
0.00000001
 40
0.0
 40
0.0
 40
0.0
 40
0.0
 40
0.2964713767615185
 40
0.7285305515924878
 40
1.0
 40
1.0
 40
1.0
 40
1.0
 10
100.0350595879119
 20
27.53052898091707
 30
0.0
 10
100.0350345499253
 20
27.53171853833403
 30
0.0
 10
100.034973023115
 20
27.53464168366621
 30
0.0
 10
100.0288802184133
 20
27.81069168283889
 30
0.0
 10
100.0240412930874
 20
28.1085994971812
 30
0.0
 10
100.0221741048228
 20
28.22355270216026
 30
0.0
  0
SPLINE
  5
D4
330
C0
100
AcDbEntity
  8
0
  6
Continuous
 62
     7
370
    25
100
AcDbSpline
210
0.0
220
0.0
230
1.0
 70
     8
 71
     3
 72
    31
 73
    27
 74
     0
 42
0.000000001
 43
0.00000001
 40
0.0
 40
0.0
 40
0.0
 40
0.0
 40
0.0419662181684037
 40
0.083906704619626
 40
0.1258126612543498
 40
0.1676681167205926
 40
0.2094822043857908
 40
0.2513785181954107
 40
0.2910928435057121
 40
0.3310982609950318
 40
0.3713956131099577
 40
0.4119471226165491
 40
0.4527054569592204
 40
0.4961103465098215
 40
0.5396372979349497
 40
0.5832299732199984
 40
0.6268375426647742
 40
0.6704338640042258
 40
0.7141080407023198
 40
0.7554636167654879
 40
0.797042649243038
 40
0.8388061059807271
 40
0.8806840720186504
 40
0.9226012142468378
 40
0.9670226465137424
 40
0.9999999999999999
 40
0.9999999999999999
 40
0.9999999999999999
 40
0.9999999999999999
 10
-0.0000000002702699
 20
990.0000000000001
 30
0.0
 10
-5.792774190973201
 20
989.9609860851702
 30
0.0
 10
-17.37477071486898
 20
989.8829821770139
 30
0.0
 10
-34.63164729665453
 20
989.2607427988372
 30
0.0
 10
-51.66044644642508
 20
988.2801316635588
 30
0.0
 10
-68.35852909125698
 20
986.9131141359325
 30
0.0
 10
-84.6399602769046
 20
985.1755931218725
 30
0.0
 10
-100.139748578446
 20
983.1117336021886
 30
0.0
 10
-114.8446582712366
 20
980.7527587048547
 30
0.0
 10
-128.7456088929431
 20
978.1290665822298
 30
0.0
 10
-142.0666349459279
 20
975.2066950031801
 30
0.0
 10
-154.728762237884
 20
972.000532895046
 30
0.0
 10
-166.889048377812
 20
968.455918995966
 30
0.0
 10
-178.3967888408784
 20
964.5722251164618
 30
0.0
 10
-189.1329481129891
 20
960.3642172693072
 30
0.0
 10
-198.8206657233642
 20
955.937083737932
 30
0.0
 10
-207.4089389083751
 20
951.3192029382462
 30
0.0
 10
-214.8534407515624
 20
946.5330567395882
 30
0.0
 10
-221.0077814556288
 20
941.6908079945983
 30
0.0
 10
-225.933786650419
 20
936.8163191283684
 30
0.0
 10
-229.696343863517
 20
931.9335494378043
 30
0.0
 10
-232.3713227486485
 20
926.9696939014165
 30
0.0
 10
-233.9508753218433
 20
921.952025550566
 30
0.0
 10
-234.3720359815971
 20
916.8099754904262
 30
0.0
 10
-233.7794260746597
 20
912.0221326500134
 30
0.0
 10
-232.45537076887
 20
908.9415688548956
 30
0.0
 10
-231.8912296207952
 20
907.6290309355987
 30
0.0
  0
SPLINE
  5
D5
330
C0
100
AcDbEntity
  8
0
  6
Continuous
 62
     7
370
    25
100
AcDbSpline
210
0.0
220
0.0
230
1.0
 70
     8
 71
     3
 72
    31
 73
    27
 74
     0
 42
0.000000001
 43
0.00000001
 40
0.0
 40
0.0
 40
0.0
 40
0.0
 40
0.0355041313120255
 40
0.0773909038910284
 40
0.1218473014346471
 40
0.1662546214741406
 40
0.2105227004575362
 40
0.2545723658328216
 40
0.2983743614061467
 40
0.3420145580344165
 40
0.3831192847926453
 40
0.4242377218781068
 40
0.4653348721327967
 40
0.5063686117358814
 40
0.5472906498627356
 40
0.5905122169443364
 40
0.6334979956230015
 40
0.6761914218404785
 40
0.7185534065803674
 40
0.760601664057498
 40
0.8024592329627993
 40
0.8418877115546469
 40
0.8813638040042323
 40
0.920882087406225
 40
0.9604297205220836
 40
0.9999999999999999
 40
0.9999999999999999
 40
0.9999999999999999
 40
0.9999999999999999
 10
231.9396720433684
 20
907.6285262359467
 30
0.0
 10
232.5190056729049
 20
909.0426055910187
 30
0.0
 10
233.7818207760339
 20
912.1249758791662
 30
0.0
 10
234.3819594593753
 20
917.0132317679868
 30
0.0
 10
233.9100941342527
 20
922.2573538170152
 30
0.0
 10
232.1289052212726
 20
927.5750569149309
 30
0.0
 10
229.1157966136995
 20
932.8285190016408
 30
0.0
 10
224.8841730906753
 20
937.9858691831547
 30
0.0
 10
219.4555687627764
 20
943.0213136126952
 30
0.0
 10
212.9706588067471
 20
947.8235671534352
 30
0.0
 10
205.5242062769944
 20
952.3871026617303
 30
0.0
 10
197.2162033539653
 20
956.706833890853
 30
0.0
 10
187.9377576576681
 20
960.8530634152221
 30
0.0
 10
177.7325712553977
 20
964.8014777898394
 30
0.0
 10
166.4245983852323
 20
968.6012084223445
 30
0.0
 10
154.0009684836222
 20
972.2071682506916
 30
0.0
 10
140.5041607703213
 20
975.5810753695293
 30
0.0
 10
126.2770747686792
 20
978.6337616195173
 30
0.0
 10
111.4114943866517
 20
981.3479219312285
 30
0.0
 10
95.97928577859025
 20
983.7095383421834
 30
0.0
 10
80.33766862471684
 20
985.6718058824723
 30
0.0
 10
64.56910213211161
 20
987.251278317176
 30
0.0
 10
48.75724403836022
 20
988.4691654320006
 30
0.0
 10
32.66575329249944
 20
989.342330398643
 30
0.0
 10
16.38244588812366
 20
989.8959685977443
 30
0.0
 10
5.461857249556409
 20
989.9653162493264
 30
0.0
 10
-0.0000000002702699
 20
990.0000000000001
 30
0.0
  0
SPLINE
  5
D6
330
C0
100
AcDbEntity
  8
0
  6
Continuous
 62
     7
370
    25
100
AcDbSpline
210
0.0
220
0.0
230
1.0
 70
    24
 71
     3
 72
    27
 73
    23
 74
     0
 42
0.000000001
 43
0.00000001
 40
0.0
 40
0.0
 40
0.0
 40
0.0
 40
0.0508766473781794
 40
0.1017106282773382
 40
0.1524478559172702
 40
0.2030407428519966
 40
0.253582562223344
 40
0.3033569443491989
 40
0.3534387775837148
 40
0.4039128201309573
 40
0.4547296963996766
 40
0.5067708139531197
 40
0.5590762419171225
 40
0.6115856332881904
 40
0.6642331183440862
 40
0.7170593598651214
 40
0.7692385963142432
 40
0.8219193337367942
 40
0.8752964864136256
 40
0.9293708994576138
 40
0.975803826762553
 40
1.0
 40
1.0
 40
1.0
 40
1.0
 10
-0.0000000000502515
 20
759.9999999999999
 30
0.0
 10
-4.792464282212356
 20
759.9999999999999
 30
0.0
 10
-14.3733737614103
 20
760.0
 30
0.0
 10
-28.64132389501069
 20
760.0
 30
0.0
 10
-42.7027541433293
 20
760.0
 30
0.0
 10
-56.46957850420657
 20
759.9999999999997
 30
0.0
 10
-69.79368664533409
 20
759.9999999999997
 30
0.0
 10
-82.63552342758248
 20
760.0
 30
0.0
 10
-94.95933215506564
 20
760.0000000000001
 30
0.0
 10
-106.7780571151811
 20
760.0000000000002
 30
0.0
 10
-118.0751097944522
 20
760.0000000000002
 30
0.0
 10
-128.7359746751447
 20
760.0
 30
0.0
 10
-138.6373940674458
 20
760.0000000000001
 30
0.0
 10
-147.6397847427959
 20
760.0000000000001
 30
0.0
 10
-155.6755237665051
 20
760.0000000000007
 30
0.0
 10
-162.6340592897452
 20
760.0000000000001
 30
0.0
 10
-168.4829393164566
 20
760.0000000000002
 30
0.0
 10
-173.187630336199
 20
759.9999999999999
 30
0.0
 10
-176.7555568847306
 20
759.9999999999995
 30
0.0
 10
-178.9331407824603
 20
759.9999999999993
 30
0.0
 10
-179.9449271670993
 20
760.0
 30
0.0
 10
-179.8872418172585
 20
759.9999999999999
 30
0.0
 10
-179.8674799243942
 20
759.9999999999998
 30
0.0
  0
SPLINE
  5
D7
330
C0
100
AcDbEntity
  8
0
  6
Continuous
 62
     7
370
    25
100
AcDbSpline
210
0.0
220
0.0
230
1.0
 70
    24
 71
     3
 72
    27
 73
    23
 74
     0
 42
0.000000001
 43
0.00000001
 40
0.0
 40
0.0
 40
0.0
 40
0.0
 40
0.0269764427946807
 40
0.0707382645668905
 40
0.1257823776621184
 40
0.1801034621502512
 40
0.2337061543244071
 40
0.2868039756033876
 40
0.3396074128934882
 40
0.3913011682624462
 40
0.442860075917343
 40
0.4942197412164973
 40
0.5453236362508387
 40
0.597054898884506
 40
0.6484296571621101
 40
0.699398310107015
 40
0.7500573284725714
 40
0.8005906607072744
 40
0.8502829365700996
 40
0.9001143173666323
 40
0.9500370163539935
 40
1.0
 40
1.0
 40
1.0
 40
1.0
 10
179.8864617205155
 20
759.9999999999999
 30
0.0
 10
179.8935622328737
 20
759.9999999999999
 30
0.0
 10
179.9121813638532
 20
760.0
 30
0.0
 10
178.8941726876708
 20
760.0000000000002
 30
0.0
 10
176.7079894451732
 20
759.9999999999999
 30
0.0
 10
173.0447702488854
 20
760.0
 30
0.0
 10
168.2014214209902
 20
760.0000000000002
 30
0.0
 10
162.2116432906555
 20
760.0000000000006
 30
0.0
 10
155.1769462549888
 20
759.9999999999998
 30
0.0
 10
147.1752833830538
 20
760.0000000000002
 30
0.0
 10
138.2929086314828
 20
760.0000000000001
 30
0.0
 10
128.5456119829838
 20
760.0000000000001
 30
0.0
 10
117.9432727423342
 20
759.9999999999998
 30
0.0
 10
106.5731668383022
 20
759.9999999999999
 30
0.0
 10
94.52428565886949
 20
759.9999999999995
 30
0.0
 10
81.9541383189386
 20
760.0000000000005
 30
0.0
 10
68.92941883765668
 20
760.0
 30
0.0
 10
55.57757760785425
 20
760.0000000000006
 30
0.0
 10
41.95510682432164
 20
759.9999999999998
 30
0.0
 10
28.13398906241125
 20
760.0
 30
0.0
 10
14.1169292926997
 20
759.9999999999995
 30
0.0
 10
4.706908141998253
 20
759.9999999999998
 30
0.0
 10
-0.0000000000502515
 20
759.9999999999999
 30
0.0
  0
LINE
  5
DA
330
C0
100
AcDbEntity
  8
0
  6
Continuous
 62
     7
370
    25
100
AcDbLine
 10
100.0358151658
 20
27.5306586205
 30
0.0
 11
100.0
 21
0.0
 31
0.0
  0
LINE
  5
DB
330
C0
100
AcDbEntity
  8
0
  6
Continuous
 62
     7
370
    25
100
AcDbLine
 10
-100.0
 20
0.0
 30
0.0
 11
-100.0358186037
 21
27.5319799217
 31
0.0
  0
LINE
  5
DC
330
C0
100
AcDbEntity
  8
0
  6
Continuous
 62
     7
370
    25
100
AcDbLine
 10
180.0
 20
760.0
 30
0.0
 11
-180.0
 21
760.0
 31
0.0
  0
LINE
  5
DD
330
C0
100
AcDbEntity
  8
0
  6
Continuous
 62
     7
370
    25
100
AcDbLine
 10
100.0
 20
0.0
 30
0.0
 11
-100.0
 21
0.0
 31
0.0
  0
LINE
  5
DE
330
C0
100
AcDbEntity
  8
0
  6
Continuous
 62
    60
370
    25
100
AcDbLine
 10
102.5
 20
230.0
 30
0.0
 11
-102.5
 21
230.0
 31
0.0
  0
ARC
  5
DF
330
C0
100
AcDbEntity
  8
0
  6
Continuous
 62
     7
370
    25
100
AcDbCircle
 10
2276.7932178932
 20
182.7271709684
 30
0.0
 40
2174.807052991332
100
AcDbArc
 50
164.6071180754
 51
178.7544886256
  0
ARC
  5
E0
330
C0
100
AcDbEntity
  8
0
  6
Continuous
 62
     7
370
    25
100
AcDbCircle
 10
-2276.7932178932
 20
182.7271709684
 30
0.0
 40
2174.80705299137
100
AcDbArc
 50
1.2455113744
 51
15.3928819246
  0
ARC
  5
E1
330
C0
100
AcDbEntity
  8
0
  6
Continuous
 62
     7
370
    25
100
AcDbCircle
 10
10681.2499999248
 20
0.0000000008
 30
0.0
 40
10581.24999992476
100
AcDbArc
 50
178.7544886256
 51
179.8240168608
  0
ARC
  5
E2
330
C0
100
AcDbEntity
  8
0
  6
Continuous
 62
     7
370
    25
100
AcDbCircle
 10
-10681.2500000368
 20
-0.0000000005
 30
0.0
 40
10581.25000003681
100
AcDbArc
 50
0.1758090177
 51
1.2455113744
  0
VIEWPORT
  5
182
330
C0
100
AcDbEntity
  8
0
100
AcDbViewport
 10
0.0
 20
0.0
 30
0.0
 40
205.6
 41
156.0
 68
     1
 69
     1
 12
-0.0000000001
 22
28.7580789194
 13
0.0
 23
0.0
 14
10.0
 24
10.0
 15
10.0
 25
10.0
 16
0.0
 26
0.0
 36
1.0
 17
0.0
 27
0.0
 37
0.0
 42
50.0
 43
0.0
 44
0.0
 45
487.0335190044
 50
0.0
 51
0.0
 72
   100
 90
   557152
  1

281
     0
 71
     1
 74
     0
110
0.0
120
0.0
130
0.0
111
1.0
121
0.0
131
0.0
112
0.0
122
1.0
132
0.0
 79
     0
146
0.0
  0
ENDBLK
  5
C3
330
C0
100
AcDbEntity
  8
0
100
AcDbBlockEnd
  0
BLOCK
  5
E5
330
E3
100
AcDbEntity
  8
0
100
AcDbBlockBegin
  2
*Paper_Space3
 70
     0
 10
0.0
 20
0.0
 30
0.0
  3
*Paper_Space3
  1

  0
SPLINE
  5
EB
330
E3
100
AcDbEntity
  8
0
  6
Continuous
 62
     7
370
    25
100
AcDbSpline
210
0.0
220
0.0
230
1.0
 70
     8
 71
     3
 72
    21
 73
    17
 74
     0
 42
0.000000001
 43
0.00000001
 40
0.0
 40
0.0
 40
0.0
 40
0.0
 40
0.0829874426435665
 40
0.1582354361204044
 40
0.2257528636606694
 40
0.2855461897480266
 40
0.3376199491714489
 40
0.3819771801159914
 40
0.4186198013323927
 40
0.4524913650597271
 40
0.5092885192748284
 40
0.579856891846752
 40
0.6642004369557862
 40
0.7623275317430298
 40
0.8742529242539068
 40
0.9999999999999999
 40
0.9999999999999999
 40
0.9999999999999999
 40
0.9999999999999999
 10
179.9975236166999
 20
759.9999999999993
 30
0.0
 10
180.6817185402529
 20
762.3995653187211
 30
0.0
 10
181.9863000368146
 20
766.9749113302634
 30
0.0
 10
183.9325841102068
 20
773.4777655795718
 30
0.0
 10
185.7282115486355
 20
779.2974230282705
 30
0.0
 10
187.3615827161249
 20
784.4377596446733
 30
0.0
 10
188.8160945073525
 20
788.9041095099357
 30
0.0
 10
190.0787297283312
 20
792.7008006938374
 30
0.0
 10
191.185744164022
 20
795.9724310573099
 30
0.0
 10
192.4291164883796
 20
799.592740450244
 30
0.0
 10
194.0305875911257
 20
804.1685388866938
 30
0.0
 10
196.1827389679835
 20
810.1592128599941
 30
0.0
 10
198.8259541454867
 20
817.2935897884619
 30
0.0
 10
202.00084696381
 20
825.5563732182085
 30
0.0
 10
205.7393604159306
 20
834.9357890417949
 30
0.0
 10
208.5152057701721
 20
841.5208834741602
 30
0.0
 10
209.9838421611649
 20
845.0049065688611
 30
0.0
  0
SPLINE
  5
EC
330
E3
100
AcDbEntity
  8
0
  6
Continuous
 62
     7
370
    25
100
AcDbSpline
210
0.0
220
0.0
230
1.0
 70
     8
 71
     3
 72
    30
 73
    26
 74
     0
 42
0.000000001
 43
0.00000001
 40
0.0
 40
0.0
 40
0.0
 40
0.0
 40
0.0626949715849318
 40
0.1210738243651048
 40
0.1751407228641689
 40
0.2248989805514755
 40
0.2703511873422718
 40
0.3114993256315158
 40
0.3408115690344808
 40
0.3674681627274314
 40
0.3914695150524337
 40
0.412815927697829
 40
0.4318578454942402
 40
0.4524856992323057
 40
0.4825950416120494
 40
0.5170229106831847
 40
0.5557696415582003
 40
0.5988358612017558
 40
0.6462225771513247
 40
0.6979312764701382
 40
0.750645656997652
 40
0.807206352387539
 40
0.8676163361793093
 40
0.9318793462821401
 40
1.0
 40
1.0
 40
1.0
 40
1.0
 10
-267.5000000000003
 20
990.0000000000001
 30
0.0
 10
-265.2678082301971
 20
985.3595905319705
 30
0.0
 10
-260.9570957846181
 20
976.3982319618774
 30
0.0
 10
-254.898279945543
 20
963.3511861099284
 30
0.0
 10
-249.3976504767607
 20
951.2173257076074
 30
0.0
 10
-244.4398134031485
 20
940.0036618482518
 30
0.0
 10
-239.9965171126496
 20
929.7231328302232
 30
0.0
 10
-236.2862891019127
 20
920.9555259145202
 30
0.0
 10
-233.223287791157
 20
913.5905284502369
 30
0.0
 10
-230.7309913833115
 20
907.5135319867796
 30
0.0
 10
-228.5113690088417
 20
902.0319200451112
 30
0.0
 10
-226.5460582198842
 20
897.1221254673658
 30
0.0
 10
-224.7002634442238
 20
892.4629766822709
 30
0.0
 10
-222.607996377699
 20
887.1273592420517
 30
0.0
 10
-220.0834907161136
 20
880.603909075349
 30
0.0
 10
-217.0668750537576
 20
872.67532320657
 30
0.0
 10
-213.7293564469127
 20
863.7304099023693
 30
0.0
 10
-210.0914318423749
 20
853.7618243551691
 30
0.0
 10
-206.1759759754151
 20
842.7615981226631
 30
0.0
 10
-202.097331312639
 20
830.97878179057
 30
0.0
 10
-197.8873988426188
 20
818.44464819327
 30
0.0
 10
-193.5764043195855
 20
805.1911551977951
 30
0.0
 10
-189.121055719811
 20
790.9880915710959
 30
0.0
 10
-184.5348092030248
 20
775.8315363716422
 30
0.0
 10
-181.5406858624699
 20
765.3787101456655
 30
0.0
 10
-180.0
 20
759.9999999999999
 30
0.0
  0
SPLINE
  5
EF
330
E3
100
AcDbEntity
  8
0
  6
Continuous
 62
     7
370
    25
100
AcDbSpline
210
0.0
220
0.0
230
1.0
 70
    11
 71
     3
 72
    66
 73
    62
 74
     0
 42
0.000000001
 43
0.00000001
 40
0.0
 40
0.0
 40
0.0
 40
0.0
 40
0.0312499999999996
 40
0.0312499999999996
 40
0.0624999999999992
 40
0.0624999999999992
 40
0.0937499999999988
 40
0.0937499999999988
 40
0.1249999999999984
 40
0.1249999999999984
 40
0.1562499999999979
 40
0.1562499999999979
 40
0.1874999999999976
 40
0.1874999999999976
 40
0.2187499999999971
 40
0.2187499999999971
 40
0.2499999999999973
 40
0.2499999999999973
 40
0.2812499999999974
 40
0.2812499999999974
 40
0.3124999999999976
 40
0.3124999999999976
 40
0.3437499999999977
 40
0.3437499999999977
 40
0.3749999999999978
 40
0.3749999999999978
 40
0.406249999999998
 40
0.406249999999998
 40
0.4374999999999982
 40
0.4374999999999982
 40
0.4687499999999983
 40
0.4687499999999983
 40
0.4999999999999984
 40
0.4999999999999984
 40
0.5312499999999986
 40
0.5312499999999986
 40
0.5624999999999988
 40
0.5624999999999988
 40
0.6249999999999983
 40
0.6249999999999983
 40
0.6562499999999986
 40
0.6562499999999986
 40
0.6874999999999987
 40
0.6874999999999987
 40
0.7187499999999988
 40
0.7187499999999988
 40
0.7499999999999989
 40
0.7499999999999989
 40
0.7812499999999991
 40
0.7812499999999991
 40
0.8124999999999992
 40
0.8124999999999992
 40
0.8437499999999993
 40
0.8437499999999993
 40
0.8749999999999996
 40
0.8749999999999996
 40
0.9062499999999997
 40
0.9062499999999997
 40
0.9374999999999998
 40
0.9374999999999998
 40
1.0
 40
1.0
 40
1.0
 40
1.0
 10
-1.75904377375831
 20
28.22355270216028
 30
0.0
 10
-1.876402616196825
 20
28.33976180182679
 30
0.0
 10
-1.980398303462163
 20
28.46554496034487
 30
0.0
 10
-2.162756563674446
 20
28.73547884345018
 30
0.0
 10
-2.241752834005462
 20
28.88134141702764
 30
0.0
 10
-2.368594793563751
 20
29.18353720358369
 30
0.0
 10
-2.416600635878664
 20
29.33914088251927
 30
0.0
 10
-2.482056289683222
 20
29.65928020114689
 30
0.0
 10
-2.49918493510631
 20
29.82485624558084
 30
0.0
 10
-2.500756997859552
 20
30.15104672201302
 30
0.0
 10
-2.485732193964252
 20
30.31330105603658
 30
0.0
 10
-2.423306456238561
 20
30.63608797424294
 30
0.0
 10
-2.376103293876379
 20
30.79412980727209
 30
0.0
 10
-2.253031525000674
 20
31.09560848906956
 30
0.0
 10
-2.176288201691544
 20
31.24130180864027
 30
0.0
 10
-1.994872276493313
 20
31.51576552191754
 30
0.0
 10
-1.892032669135863
 20
31.64219109379823
 30
0.0
 10
-1.662732554497802
 20
31.87400631318066
 30
0.0
 10
-1.534694199240672
 20
31.98025954196165
 30
0.0
 10
-1.263802500614423
 20
32.16321921638882
 30
0.0
 10
-1.120632378825762
 20
32.24075896683321
 30
0.0
 10
-0.818751612989943
 20
32.36779717715482
 30
0.0
 10
-0.6601056939900991
 20
32.41677476756899
 30
0.0
 10
-0.3408809051334005
 20
32.48200322580607
 30
0.0
 10
-0.1786217663063833
 20
32.49906448467421
 30
0.0
 10
0.1513977890642733
 20
32.50086140028286
 30
0.0
 10
0.3142613434616789
 20
32.48551078770085
 30
0.0
 10
0.6340731837088144
 20
32.42373168182306
 30
0.0
 10
0.7929323675975042
 20
32.3765825291088
 30
0.0
 10
1.09655531571989
 20
32.25265458888293
 30
0.0
 10
1.24056286690585
 20
32.17661892115853
 30
0.0
 10
1.513163435727466
 20
31.99674799898949
 30
0.0
 10
1.642424607263385
 20
31.89183886917607
 30
0.0
 10
1.874349460235486
 20
31.66235585792709
 30
0.0
 10
1.978476149029247
 20
31.53707830418445
 30
0.0
 10
2.16257197579179
 20
31.26501384774716
 30
0.0
 10
2.241145427041222
 20
31.11972182226586
 30
0.0
 10
2.430597343756002
 20
30.66950406283364
 30
0.0
 10
2.498023435609034
 20
30.3408165544754
 30
0.0
 10
2.500922385350761
 20
29.85182282694165
 30
0.0
 10
2.485614709521876
 20
29.68620675004135
 30
0.0
 10
2.423550843054803
 20
29.36506063357242
 30
0.0
 10
2.377196856491848
 20
29.2089731226225
 30
0.0
 10
2.253772890573557
 20
28.90578970350116
 30
0.0
 10
2.176242023106335
 20
28.75882308539907
 30
0.0
 10
1.996725612802789
 20
28.48684557838616
 30
0.0
 10
1.894138511023168
 20
28.36005582026224
 30
0.0
 10
1.662389091610515
 20
28.1255293761461
 30
0.0
 10
1.536180157102818
 20
28.02094292461171
 30
0.0
 10
1.266476171977119
 20
27.83839076414468
 30
0.0
 10
1.121022427133297
 20
27.75941252580427
 30
0.0
 10
0.8185518179599609
 20
27.63211139768507
 30
0.0
 10
0.6629504148242988
 20
27.5839817983552
 30
0.0
 10
0.343148768031834
 20
27.51828766248121
 30
0.0
 10
0.1775404491040321
 20
27.50097663753814
 30
0.0
 10
-0.1488795375183538
 20
27.4991055079219
 30
0.0
 10
-0.3110863589957727
 20
27.51400566410572
 30
0.0
 10
-0.6334592544675715
 20
27.57602146589927
 30
0.0
 10
-0.7920110233135581
 20
27.62318822619958
 30
0.0
 10
-1.24444877263773
 20
27.80741934497577
 30
0.0
 10
-1.524326088881273
 20
27.99113450282725
 30
0.0
 10
-1.75904377375831
 20
28.22355270216028
 30
0.0
  0
LINE
  5
F3
330
E3
100
AcDbEntity
  8
0
  6
Continuous
 62
     7
370
    25
100
AcDbLine
 10
180.0
 20
760.0
 30
0.0
 11
-180.0
 21
760.0
 31
0.0
  0
LINE
  5
F4
330
E3
100
AcDbEntity
  8
0
  6
Continuous
 62
     7
370
    25
100
AcDbLine
 10
100.0
 20
0.0
 30
0.0
 11
-100.0
 21
0.0
 31
0.0
  0
LINE
  5
F5
330
E3
100
AcDbEntity
  8
0
  6
Continuous
 62
     7
370
    25
100
AcDbLine
 10
209.9838421612
 20
845.0049065689
 30
0.0
 11
-267.5
 21
990.0
 31
0.0
  0
LINE
  5
F6
330
E3
100
AcDbEntity
  8
0
  6
Continuous
 62
    60
370
    25
100
AcDbLine
 10
102.5
 20
230.0
 30
0.0
 11
-102.5
 21
230.0
 31
0.0
  0
ARC
  5
F7
330
E3
100
AcDbEntity
  8
0
  6
Continuous
 62
     7
370
    25
100
AcDbCircle
 10
2276.7932178932
 20
182.7271709684
 30
0.0
 40
2174.807052991333
100
AcDbArc
 50
164.6071180754
 51
178.7544886256
  0
ARC
  5
F8
330
E3
100
AcDbEntity
  8
0
  6
Continuous
 62
     7
370
    25
100
AcDbCircle
 10
-2276.7932178932
 20
182.7271709684
 30
0.0
 40
2174.80705299137
100
AcDbArc
 50
1.2455113744
 51
15.3928819246
  0
ARC
  5
F9
330
E3
100
AcDbEntity
  8
0
  6
Continuous
 62
     7
370
    25
100
AcDbCircle
 10
10681.2499999912
 20
0.0
 30
0.0
 40
10581.24999999119
100
AcDbArc
 50
178.7544886256
 51
180.0
  0
ARC
  5
FA
330
E3
100
AcDbEntity
  8
0
  6
Continuous
 62
     7
370
    25
100
AcDbCircle
 10
-10681.2500000267
 20
-0.0000000003
 30
0.0
 40
10581.25000002674
100
AcDbArc
 50
0.0
 51
1.2455113744
  0
VIEWPORT
  5
184
330
E3
100
AcDbEntity
  8
0
100
AcDbViewport
 10
0.0
 20
0.0
 30
0.0
 40
205.6
 41
156.0
 68
     1
 69
     1
 12
-0.0000000001
 22
28.7580789194
 13
0.0
 23
0.0
 14
10.0
 24
10.0
 15
10.0
 25
10.0
 16
0.0
 26
0.0
 36
1.0
 17
0.0
 27
0.0
 37
0.0
 42
50.0
 43
0.0
 44
0.0
 45
487.0335190044
 50
0.0
 51
0.0
 72
   100
 90
   557152
  1

281
     0
 71
     1
 74
     0
110
0.0
120
0.0
130
0.0
111
1.0
121
0.0
131
0.0
112
0.0
122
1.0
132
0.0
 79
     0
146
0.0
  0
ENDBLK
  5
E6
330
E3
100
AcDbEntity
  8
0
100
AcDbBlockEnd
  0
BLOCK
  5
FD
330
FB
100
AcDbEntity
  8
0
100
AcDbBlockBegin
  2
*Paper_Space4
 70
     0
 10
0.0
 20
0.0
 30
0.0
  3
*Paper_Space4
  1

  0
LWPOLYLINE
  5
FF
330
FB
100
AcDbEntity
  8
0
  6
Continuous
 62
     7
370
    25
100
AcDbPolyline
 90
        3
 70
   128
 43
0.0
 10
-29.9991210424
 20
-40.0407372926
 10
-29.8487327362
 20
-40.1524475709
 10
-29.6982152719
 20
-40.2642780788
  0
LWPOLYLINE
  5
100
330
FB
100
AcDbEntity
  8
0
  6
Continuous
 62
     7
370
    25
100
AcDbPolyline
 90
        3
 70
   128
 43
0.0
 10
29.6982153059
 20
-40.264278054
 10
29.8487327706
 20
-40.1524475456
 10
29.9991210772
 20
-40.0407372668
  0
CIRCLE
  5
101
330
FB
100
AcDbEntity
  8
0
  6
Continuous
 62
     7
370
    25
100
AcDbCircle
 10
0.0
 20
0.0
 30
0.0
 40
99.9999999999979
  0
CIRCLE
  5
102
330
FB
100
AcDbEntity
  8
0
  6
Continuous
 62
     7
370
    25
100
AcDbCircle
 10
0.0
 20
0.0
 30
0.0
 40
90.00000000000003
  0
CIRCLE
  5
103
330
FB
100
AcDbEntity
  8
0
  6
Continuous
 62
     7
370
    25
100
AcDbCircle
 10
0.0
 20
0.0
 30
0.0
 40
102.4999999999971
  0
SPLINE
  5
104
330
FB
100
AcDbEntity
  8
0
  6
Continuous
 62
     7
370
    25
100
AcDbSpline
210
0.0
220
0.0
230
1.0
 70
     8
 71
     3
 72
    38
 73
    34
 74
     0
 42
0.000000001
 43
0.00000001
 40
0.0
 40
0.0
 40
0.0
 40
0.0
 40
0.0625
 40
0.0625
 40
0.1250000000000001
 40
0.1250000000000001
 40
0.1875000000000001
 40
0.1875000000000001
 40
0.2500000000000002
 40
0.2500000000000002
 40
0.3125000000000002
 40
0.3125000000000002
 40
0.3750000000000002
 40
0.3750000000000002
 40
0.4375000000000003
 40
0.4375000000000003
 40
0.5000000000000003
 40
0.5000000000000003
 40
0.5625000000000003
 40
0.5625000000000003
 40
0.6250000000000004
 40
0.6250000000000004
 40
0.6875000000000004
 40
0.6875000000000004
 40
0.7500000000000004
 40
0.7500000000000004
 40
0.8125000000000006
 40
0.8125000000000006
 40
0.8750000000000006
 40
0.8750000000000006
 40
0.9375000000000007
 40
0.9375000000000007
 40
1.0
 40
1.0
 40
1.0
 40
1.0
 10
100.0219344891101
 20
-1.775018067294326
 30
0.0
 10
100.0249432945885
 20
-1.575163819383107
 30
0.0
 10
100.0279652764547
 20
-1.347596481558213
 30
0.0
 10
100.0328901342716
 20
-0.8370237465426047
 30
0.0
 10
100.0346453124091
 20
-0.5684034523314486
 30
0.0
 10
100.036090912829
 20
-0.0045050311143456
 30
0.0
 10
100.0357379986993
 20
0.274888286775965
 30
0.0
 10
100.0330108728085
 20
0.8285277240065239
 30
0.0
 10
100.0307183610253
 20
1.087182549612958
 30
0.0
 10
100.0251290359846
 20
1.568139315016717
 30
0.0
 10
100.0219998393486
 20
1.776899173075046
 30
0.0
 10
100.0162752479442
 20
2.130981087162899
 30
0.0
 10
100.0138522115306
 20
2.266328425206663
 30
0.0
 10
100.0109103402849
 20
2.453630118949026
 30
0.0
 10
100.0104815676884
 20
2.500304124698229
 30
0.0
 10
100.0121068697451
 20
2.499692977378162
 30
0.0
 10
100.0141151544726
 20
2.452423699098788
 30
0.0
 10
100.0201187303858
 20
2.263979692520665
 30
0.0
 10
100.0239378717287
 20
2.128108938765388
 30
0.0
 10
100.0321819193562
 20
1.773104887643279
 30
0.0
 10
100.0363638088853
 20
1.563959977807939
 30
0.0
 10
100.0436453642268
 20
1.082383974689964
 30
0.0
 10
100.0465297439025
 20
0.8235190189913831
 30
0.0
 10
100.049936194589
 20
0.2696201124728348
 30
0.0
 10
100.0503573555854
 20
-0.0098013286511794
 30
0.0
 10
100.0485104551519
 20
-0.5735642954853917
 30
0.0
 10
100.046297005022
 20
-0.8420254825323193
 30
0.0
 10
100.0399450459008
 20
-1.352058094237361
 30
0.0
 10
100.0359941304894
 20
-1.579285295580161
 30
0.0
 10
100.0276901990524
 20
-1.978118542696118
 30
0.0
 10
100.0235819659489
 20
-2.138514582361147
 30
0.0
 10
100.0165909114164
 20
-2.381238131661516
 30
0.0
 10
100.0139137381319
 20
-2.456732814595401
 30
0.0
 10
100.012369928899
 20
-2.486350470415198
 30
0.0
  0
SPLINE
  5
105
330
FB
100
AcDbEntity
  8
0
  6
Continuous
 62
     7
370
    25
100
AcDbSpline
210
0.0
220
0.0
230
1.0
 70
     8
 71
     3
 72
    10
 73
     6
 74
     0
 42
0.000000001
 43
0.00000001
 40
0.0
 40
0.0
 40
0.0
 40
0.0
 40
0.2979448738711515
 40
0.7291343464145658
 40
1.0
 40
1.0
 40
1.0
 40
1.0
 10
100.0120482821313
 20
-2.469724321039351
 30
0.0
 10
100.0115289331142
 20
-2.46839661978309
 30
0.0
 10
100.0102579758352
 20
-2.465147452998851
 30
0.0
 10
100.0154082064792
 20
-2.188230046378151
 30
0.0
 10
100.0201175417824
 20
-1.890058197094715
 30
0.0
 10
100.0219344891095
 20
-1.775018067294264
 30
0.0
  0
SPLINE
  5
106
330
FB
100
AcDbEntity
  8
0
  6
Continuous
 62
     7
370
    25
100
AcDbSpline
210
0.0
220
0.0
230
1.0
 70
     8
 71
     3
 72
    10
 73
     6
 74
     0
 42
0.000000001
 43
0.00000001
 40
0.0
 40
0.0
 40
0.0
 40
0.0
 40
0.4269767980636572
 40
0.8539567762408794
 40
1.0
 40
1.0
 40
1.0
 40
1.0
 10
-100.0221741048229
 20
-1.759043773758323
 30
0.0
 10
-100.0193339127355
 20
-1.935687314234647
 30
0.0
 10
-100.0136535074071
 20
-2.288975710824401
 30
0.0
 10
-100.0096776709964
 20
-2.510152412895254
 30
0.0
 10
-100.0115916993257
 20
-2.476633970203233
 30
0.0
 10
-100.0120795170382
 20
-2.468091311878778
 30
0.0
  0
SPLINE
  5
107
330
FB
100
AcDbEntity
  8
0
  6
Continuous
 62
     7
370
    25
100
AcDbSpline
210
0.0
220
0.0
230
1.0
 70
     8
 71
     3
 72
    22
 73
    18
 74
     0
 42
0.000000001
 43
0.00000001
 40
0.0
 40
0.0
 40
0.0
 40
0.0
 40
0.1249999999999989
 40
0.1249999999999989
 40
0.249999999999999
 40
0.249999999999999
 40
0.3749999999999991
 40
0.3749999999999991
 40
0.4999999999999992
 40
0.4999999999999992
 40
0.6249999999999994
 40
0.6249999999999994
 40
0.7499999999999996
 40
0.7499999999999996
 40
0.8749999999999998
 40
0.8749999999999998
 40
1.0
 40
1.0
 40
1.0
 40
1.0
 10
-100.0143701904952
 20
-2.438825128768335
 30
0.0
 10
-100.01669140528
 20
-2.376424679215515
 30
0.0
 10
-100.0200161149502
 20
-2.269963218340044
 30
0.0
 10
-100.0278192671118
 20
-1.968951967273959
 30
0.0
 10
-100.0320679248437
 20
-1.782871763807467
 30
0.0
 10
-100.0400567454059
 20
-1.339575377839585
 30
0.0
 10
-100.0435609336814
 20
-1.094841597496579
 30
0.0
 10
-100.0485631144703
 20
-0.5591825374206376
 30
0.0
 10
-100.0499129903142
 20
-0.2833555008455932
 30
0.0
 10
-100.0499100424725
 20
0.284280905180092
 30
0.0
 10
-100.0485572554668
 20
0.5600985462338621
 30
0.0
 10
-100.0435503275153
 20
1.095687811898543
 30
0.0
 10
-100.0400442173333
 20
1.340383767286246
 30
0.0
 10
-100.0320538004508
 20
1.78354193046551
 30
0.0
 10
-100.0278052282187
 20
1.969544981766179
 30
0.0
 10
-100.0200041445619
 20
2.270373355687607
 30
0.0
 10
-100.016681418568
 20
2.37673332583865
 30
0.0
 10
-100.0143625548051
 20
2.439030330308734
 30
0.0
  0
SPLINE
  5
108
330
FB
100
AcDbEntity
  8
0
  6
Continuous
 62
     7
370
    25
100
AcDbSpline
210
0.0
220
0.0
230
1.0
 70
     8
 71
     3
 72
    15
 73
    11
 74
     0
 42
0.000000001
 43
0.00000001
 40
0.0
 40
0.0
 40
0.0
 40
0.0
 40
0.0492562468691458
 40
0.1926726132369526
 40
0.3360966934293457
 40
0.4795578771403203
 40
0.6230257446939161
 40
0.766462991824533
 40
0.9098854535579513
 40
1.0
 40
1.0
 40
1.0
 40
1.0
 10
-100.0120813102808
 20
2.468021595518177
 30
0.0
 10
-100.0115916414475
 20
2.47671710907103
 30
0.0
 10
-100.0096762341697
 20
2.510730811416565
 30
0.0
 10
-100.0137059948012
 20
2.278407302870759
 30
0.0
 10
-100.0220189099792
 20
1.795340674120686
 30
0.0
 10
-100.0313149807648
 20
1.091011010812014
 30
0.0
 10
-100.0364975513801
 20
0.2678765680249398
 30
0.0
 10
-100.0352474471565
 20
-0.5835733789471345
 30
0.0
 10
-100.0289603187696
 20
-1.281902674371369
 30
0.0
 10
-100.0240635954901
 20
-1.626193017608149
 30
0.0
 10
-100.0221741048229
 20
-1.759043773758323
 30
0.0
  0
CIRCLE
  5
109
330
FB
100
AcDbEntity
  8
0
  6
Continuous
 62
     7
370
    25
100
AcDbCircle
 10
0.0
 20
0.0
 30
0.0
 40
180.0000000000001
  0
SPLINE
  5
10A
330
FB
100
AcDbEntity
  8
0
  6
Continuous
 62
     7
370
    25
100
AcDbSpline
210
0.0
220
0.0
230
1.0
 70
    11
 71
     3
 72
    53
 73
    49
 74
     0
 42
0.000000001
 43
0.00000001
 40
0.0
 40
0.0
 40
0.0
 40
0.0
 40
0.00703125
 40
0.0093749999999999
 40
0.046875
 40
0.078125
 40
0.09375
 40
0.125
 40
0.140625
 40
0.171875
 40
0.203125
 40
0.21875
 40
0.25
 40
0.2678239461198844
 40
0.28125
 40
0.296875
 40
0.328125
 40
0.34375
 40
0.375
 40
0.390625
 40
0.421875
 40
0.453125
 40
0.46875
 40
0.484375
 40
0.4999999999971685
 40
0.515625
 40
0.53125
 40
0.546875
 40
0.578125
 40
0.609375
 40
0.625
 40
0.65625
 40
0.671875
 40
0.703125
 40
0.71875
 40
0.7321760538703969
 40
0.75
 40
0.78125
 40
0.796875
 40
0.828125
 40
0.859375
 40
0.875
 40
0.90625
 40
0.921875
 40
0.953125
 40
0.990625
 40
0.99296875
 40
1.0
 40
1.0
 40
1.0
 40
1.0
 10
0.0000000000064393
 20
-22.49999999999996
 30
0.0
 10
0.3041014280859011
 20
-22.49999999999997
 30
0.0
 10
0.7095791902433992
 20
-22.49126110529138
 30
0.0
 10
2.734741613449054
 20
-22.39046172374382
 30
0.0
 10
5.786971732850199
 20
-21.87197427751276
 30
0.0
 10
9.208893143298646
 20
-20.58919012943745
 30
0.0
 10
12.16329337736896
 20
-19.0182226309209
 30
0.0
 10
14.32055292074428
 20
-17.46893830553104
 30
0.0
 10
16.72894388890192
 20
-15.18409562101592
 30
0.0
 10
18.83122866191062
 20
-12.55619608600062
 30
0.0
 10
20.47195556157511
 20
-9.487297822262597
 30
0.0
 10
21.70604706809493
 20
-6.141694287542801
 30
0.0
 10
22.35755624398206
 20
-3.183549280437518
 30
0.0
 10
22.53484306928736
 20
-0.2152701255394608
 30
0.0
 10
22.43658103200169
 20
2.044314219288912
 30
0.0
 10
22.01985247977276
 20
4.973457408418702
 30
0.0
 10
21.11588674809351
 20
7.984281970558012
 30
0.0
 10
19.42615989563943
 20
11.5431464931578
 30
0.0
 10
17.64560463500021
 20
14.14782661711135
 30
0.0
 10
14.92491411745592
 20
16.99783727777515
 30
0.0
 10
11.73084985348899
 20
19.40512628061109
 30
0.0
 10
8.00333377442348
 20
21.11643086845083
 30
0.0
 10
4.839450647961653
 20
22.00165393160774
 30
0.0
 10
2.429087919780526
 20
22.40764385370753
 30
0.0
 10
-0.0000000002922107
 20
22.5429738277409
 30
0.0
 10
-2.429087920375269
 20
22.40764385365734
 30
0.0
 10
-4.839450648868259
 20
22.00165393140624
 30
0.0
 10
-8.003333775354012
 20
21.11643086810477
 30
0.0
 10
-11.73084985442636
 20
19.40512628006353
 30
0.0
 10
-14.92491411835001
 20
16.9978372770011
 30
0.0
 10
-17.64560463580766
 20
14.14782661610564
 30
0.0
 10
-19.42615989633878
 20
11.54314649196886
 30
0.0
 10
-21.11588674860682
 20
7.98428196919776
 30
0.0
 10
-22.01985248010185
 20
4.97345740698446
 30
0.0
 10
-22.4365810320703
 20
2.044314218329235
 30
0.0
 10
-22.53484306928133
 20
-0.2152701264719337
 30
0.0
 10
-22.35755624387847
 20
-3.183549281311981
 30
0.0
 10
-21.70604706774892
 20
-6.141694288739563
 30
0.0
 10
-20.47195556110498
 20
-9.487297823277508
 30
0.0
 10
-18.83122866136583
 20
-12.55619608681108
 30
0.0
 10
-16.72894388833929
 20
-15.18409562162903
 30
0.0
 10
-14.32055292020146
 20
-17.46893830596574
 30
0.0
 10
-12.16329337687039
 20
-19.01822263122793
 30
0.0
 10
-9.208893142891137
 20
-20.58919012961086
 30
0.0
 10
-5.786971732577529
 20
-21.87197427757215
 30
0.0
 10
-2.734741613386105
 20
-22.39046172375431
 30
0.0
 10
-0.7095791902261284
 20
-22.4912611052922
 30
0.0
 10
-0.3041014280730191
 20
-22.49999999999996
 30
0.0
 10
0.0000000000064393
 20
-22.49999999999996
 30
0.0
  0
SPLINE
  5
10B
330
FB
100
AcDbEntity
  8
0
  6
Continuous
 62
     7
370
    25
100
AcDbSpline
210
0.0
220
0.0
230
1.0
 70
    11
 71
     3
 72
    53
 73
    49
 74
     0
 42
0.000000001
 43
0.00000001
 40
0.0
 40
0.0
 40
0.0
 40
0.0
 40
0.00703125
 40
0.0093749999999999
 40
0.046875
 40
0.078125
 40
0.09375
 40
0.125
 40
0.140625
 40
0.171875
 40
0.203125
 40
0.21875
 40
0.25
 40
0.2678239461198844
 40
0.28125
 40
0.296875
 40
0.328125
 40
0.34375
 40
0.375
 40
0.390625
 40
0.421875
 40
0.453125
 40
0.46875
 40
0.484375
 40
0.4999999999971685
 40
0.515625
 40
0.53125
 40
0.546875
 40
0.578125
 40
0.609375
 40
0.625
 40
0.65625
 40
0.671875
 40
0.703125
 40
0.71875
 40
0.7321760538703969
 40
0.75
 40
0.78125
 40
0.796875
 40
0.828125
 40
0.859375
 40
0.875
 40
0.90625
 40
0.921875
 40
0.953125
 40
0.990625
 40
0.99296875
 40
1.0
 40
1.0
 40
1.0
 40
1.0
 10
0.0000000000502515
 20
-180.0
 30
0.0
 10
2.407248749550006
 20
-179.9999999999999
 30
0.0
 10
5.616908268066656
 20
-179.9346820475125
 30
0.0
 10
21.64572897786441
 20
-179.1772582717699
 30
0.0
 10
45.78879257495377
 20
-175.2613390762224
 30
0.0
 10
72.73086623725638
 20
-165.272367005922
 30
0.0
 10
96.34112415703152
 20
-152.7018314991597
 30
0.0
 10
114.0327499216761
 20
-140.0114329704676
 30
0.0
 10
133.9141009845614
 20
-121.1610630492383
 30
0.0
 10
151.2063859023112
 20
-99.49736625642657
 30
0.0
 10
164.339278972862
 20
-74.94872444270413
 30
0.0
 10
173.9702055145194
 20
-48.56740516473656
 30
0.0
 10
178.9357002011145
 20
-25.20459816746984
 30
0.0
 10
180.2761008406939
 20
-1.710881933748049
 30
0.0
 10
179.5259662093169
 20
16.17876134246909
 30
0.0
 10
176.3673255438762
 20
39.35922597768861
 30
0.0
 10
169.4157789846863
 20
63.04894670594273
 30
0.0
 10
156.0167622871685
 20
91.30585814569153
 30
0.0
 10
141.4711080125363
 20
112.5969429394835
 30
0.0
 10
119.0213767195243
 20
136.1372553600414
 30
0.0
 10
92.73985547605024
 20
155.9061826288917
 30
0.0
 10
63.23463688643072
 20
169.4046453662111
 30
0.0
 10
38.32944469244858
 20
176.2201691038373
 30
0.0
 10
19.17863615723191
 20
179.3107318871368
 30
0.0
 10
-0.0000000023363256
 20
180.3409194815756
 30
0.0
 10
-19.17863616195031
 20
179.3107318867605
 30
0.0
 10
-38.32944469960263
 20
176.220169102298
 30
0.0
 10
-63.23463689375065
 20
169.4046453635195
 30
0.0
 10
-92.73985548361793
 20
155.9061826244753
 30
0.0
 10
-119.0213767269196
 20
136.1372553536541
 30
0.0
 10
-141.4711080191761
 20
112.5969429311796
 30
0.0
 10
-156.0167622927988
 20
91.30585813613185
 30
0.0
 10
-169.4157789886851
 20
63.04894669523402
 30
0.0
 10
-176.3673255463867
 20
39.35922596635905
 30
0.0
 10
-179.5259662098321
 20
16.17876133486959
 30
0.0
 10
-180.2761008406485
 20
-1.710881941136277
 30
0.0
 10
-178.9357002003472
 20
-25.20459817439583
 30
0.0
 10
-173.9702055118601
 20
-48.56740517414758
 30
0.0
 10
-164.3392789691491
 20
-74.94872445074343
 30
0.0
 10
-151.2063858978616
 20
-99.49736626304524
 30
0.0
 10
-133.9141009799164
 20
-121.1610630543091
 30
0.0
 10
-114.0327499172017
 20
-140.0114329740365
 30
0.0
 10
-96.3411241530009
 20
-152.7018315016456
 30
0.0
 10
-72.73086623403927
 20
-165.2723670072849
 30
0.0
 10
-45.78879257281027
 20
-175.2613390766707
 30
0.0
 10
-21.64572897737008
 20
-179.1772582718479
 30
0.0
 10
-5.616908267931708
 20
-179.9346820475188
 30
0.0
 10
-2.407248749449531
 20
-180.0
 30
0.0
 10
0.0000000000502515
 20
-180.0
 30
0.0
  0
SPLINE
  5
10C
330
FB
100
AcDbEntity
  8
0
  6
Continuous
 62
     7
370
    25
100
AcDbSpline
210
0.0
220
0.0
230
1.0
 70
    11
 71
     3
 72
    53
 73
    49
 74
     0
 42
0.000000001
 43
0.00000001
 40
0.0
 40
0.0
 40
0.0
 40
0.0
 40
0.00703125
 40
0.0093749999999999
 40
0.046875
 40
0.078125
 40
0.09375
 40
0.125
 40
0.140625
 40
0.171875
 40
0.203125
 40
0.21875
 40
0.25
 40
0.2678239461198844
 40
0.28125
 40
0.296875
 40
0.328125
 40
0.34375
 40
0.375
 40
0.390625
 40
0.421875
 40
0.453125
 40
0.46875
 40
0.484375
 40
0.4999999999971685
 40
0.515625
 40
0.53125
 40
0.546875
 40
0.578125
 40
0.609375
 40
0.625
 40
0.65625
 40
0.671875
 40
0.703125
 40
0.71875
 40
0.7321760538703969
 40
0.75
 40
0.78125
 40
0.796875
 40
0.828125
 40
0.859375
 40
0.875
 40
0.90625
 40
0.921875
 40
0.953125
 40
0.990625
 40
0.99296875
 40
1.0
 40
1.0
 40
1.0
 40
1.0
 10
0.0000000002702699
 20
-267.5000000000003
 30
0.0
 10
3.492285492779093
 20
-267.5000000000003
 30
0.0
 10
8.147719898197181
 20
-267.392165911879
 30
0.0
 10
31.38371884026808
 20
-266.1437498768795
 30
0.0
 10
66.2846782837464
 20
-259.6993704979466
 30
0.0
 10
104.5542296637784
 20
-243.4107490401111
 30
0.0
 10
137.5565138728698
 20
-223.0742948237097
 30
0.0
 10
161.5950101781568
 20
-202.8436499023897
 30
0.0
 10
187.4455497622833
 20
-173.3751114804141
 30
0.0
 10
208.7433732203974
 20
-140.3836947376202
 30
0.0
 10
223.1300075683221
 20
-104.2317564610003
 30
0.0
 10
232.184162809045
 20
-66.16056873169437
 30
0.0
 10
235.1339299743731
 20
-33.54752726393452
 30
0.0
 10
233.1147838226082
 20
-2.127924034675654
 30
0.0
 10
229.3709354111141
 20
21.06698048934991
 30
0.0
 10
221.9747789860591
 20
50.16663494733287
 30
0.0
 10
210.1266915290405
 20
78.6992549292409
 30
0.0
 10
190.3019568086611
 20
111.8951794581039
 30
0.0
 10
170.6686541257103
 20
136.0670738108638
 30
0.0
 10
142.1313142513219
 20
162.105252498161
 30
0.0
 10
110.2091490241096
 20
183.6271860678116
 30
0.0
 10
75.20828936342886
 20
198.2954519974669
 30
0.0
 10
45.67729802493606
 20
205.787909485798
 30
0.0
 10
22.9798253556993
 20
209.2209453108727
 30
0.0
 10
0.0000000015149132
 20
210.365290586203
 30
0.0
 10
-22.97982535294538
 20
209.2209453113047
 30
0.0
 10
-45.67729802559867
 20
205.7879094856928
 30
0.0
 10
-75.20828936539914
 20
198.295451996885
 30
0.0
 10
-110.209149028207
 20
183.6271860658485
 30
0.0
 10
-142.1313142574937
 20
162.1052524935778
 30
0.0
 10
-170.6686541332291
 20
136.0670738029881
 30
0.0
 10
-190.3019568165223
 20
111.8951794472624
 30
0.0
 10
-210.1266915361762
 20
78.69925491501999
 30
0.0
 10
-221.974778991798
 20
50.16663493074184
 30
0.0
 10
-229.3709354137214
 20
21.0669804758542
 30
0.0
 10
-233.1147838241582
 20
-2.127924048556856
 30
0.0
 10
-235.1339299744285
 20
-33.54752727781651
 30
0.0
 10
-232.1841628062125
 20
-66.16056874969495
 30
0.0
 10
-223.1300075630228
 20
-104.2317564771433
 30
0.0
 10
-208.743373213127
 20
-140.3836947514471
 30
0.0
 10
-187.4455497539405
 20
-173.3751114915225
 30
0.0
 10
-161.5950101695822
 20
-202.8436499105219
 30
0.0
 10
-137.5565138648132
 20
-223.0742948295018
 30
0.0
 10
-104.5542296571482
 20
-243.4107490433412
 30
0.0
 10
-66.28467827922964
 20
-259.6993704990231
 30
0.0
 10
-31.38371883896111
 20
-266.1437498770677
 30
0.0
 10
-8.147719897589417
 20
-267.3921659118938
 30
0.0
 10
-3.492285492238567
 20
-267.5000000000003
 30
0.0
 10
0.0000000002702699
 20
-267.5000000000003
 30
0.0
  0
CIRCLE
  5
10D
330
FB
100
AcDbEntity
  8
0
  6
Continuous
 62
     7
370
    25
100
AcDbCircle
 10
0.0
 20
0.0
 30
0.0
 40
49.99999999999996
  0
CIRCLE
  5
10E
330
FB
100
AcDbEntity
  8
0
  6
Continuous
 62
     7
370
    25
100
AcDbCircle
 10
0.0
 20
0.0
 30
0.0
 40
64.0
  0
CIRCLE
  5
12B
330
FB
100
AcDbEntity
  8
0
  6
Continuous
 62
     7
370
    25
100
AcDbCircle
 10
-30.0972699167
 20
-68.1498667905
 30
0.0
 40
3.250000000000028
  0
CIRCLE
  5
12C
330
FB
100
AcDbEntity
  8
0
  6
Continuous
 62
     7
370
    25
100
AcDbCircle
 10
30.0972699167
 20
68.1498667905
 30
0.0
 40
3.24999999999998
  0
LINE
  5
12D
330
FB
100
AcDbEntity
  8
0
  6
Continuous
 62
     7
370
    25
100
AcDbLine
 10
-70.2272727273
 20
-43.2941123629
 30
0.0
 11
-55.3305785124
 21
-34.1105127708
 31
0.0
  0
LINE
  5
12E
330
FB
100
AcDbEntity
  8
0
  6
Continuous
 62
     7
370
    25
100
AcDbLine
 10
-39.1715460389
 20
-72.6074375042
 30
0.0
 11
-30.8624302124
 21
-57.2058598518
 31
0.0
  0
LINE
  5
12F
330
FB
100
AcDbEntity
  8
0
  6
Continuous
 62
     7
370
    25
100
AcDbLine
 10
30.8624302124
 20
57.2058598518
 30
0.0
 11
39.1715460389
 21
72.6074375042
 31
0.0
  0
LINE
  5
130
330
FB
100
AcDbEntity
  8
0
  6
Continuous
 62
     7
370
    25
100
AcDbLine
 10
55.3305785124
 20
34.1105127708
 30
0.0
 11
70.2272727273
 21
43.2941123629
 31
0.0
  0
LINE
  5
131
330
FB
100
AcDbEntity
  8
0
  6
Continuous
 62
     7
370
    25
100
AcDbLine
 10
-27.2796229748
 20
-77.8593101071
 30
0.0
 11
-26.2793168249
 21
-75.0043165906
 31
0.0
  0
LINE
  5
132
330
FB
100
AcDbEntity
  8
0
  6
Continuous
 62
     7
370
    25
100
AcDbLine
 10
82.5
 20
0.0
 30
0.0
 11
79.4748387856
 21
0.0
 31
0.0
  0
LINE
  5
133
330
FB
100
AcDbEntity
  8
0
  6
Continuous
 62
     7
370
    25
100
AcDbLine
 10
27.2796229748
 20
77.8593101071
 30
0.0
 11
26.2793168249
 21
75.0043165906
 31
0.0
  0
LINE
  5
134
330
FB
100
AcDbEntity
  8
0
  6
Continuous
 62
     7
370
    25
100
AcDbLine
 10
-79.4748387856
 20
0.0
 30
0.0
 11
-82.5
 21
0.0
 31
0.0
  0
ARC
  5
135
330
FB
100
AcDbEntity
  8
0
  6
Continuous
 62
     7
370
    25
100
AcDbCircle
 10
0.0
 20
0.0
 30
0.0
 40
81.50000000000081
100
AcDbArc
 50
211.6532402637
 51
241.6532402637
  0
ARC
  5
136
330
FB
100
AcDbEntity
  8
0
  6
Continuous
 62
     7
370
    25
100
AcDbCircle
 10
0.0
 20
0.0
 30
0.0
 40
81.50000000000034
100
AcDbArc
 50
31.6532402637
 51
61.6532402637
  0
ARC
  5
137
330
FB
100
AcDbEntity
  8
0
  6
Continuous
 62
     7
370
    25
100
AcDbCircle
 10
0.0
 20
0.0
 30
0.0
 40
65.0
100
AcDbArc
 50
31.6532402637
 51
241.6532402637
  0
ARC
  5
138
330
FB
100
AcDbEntity
  8
0
  6
Continuous
 62
     7
370
    25
100
AcDbCircle
 10
0.0
 20
0.0
 30
0.0
 40
82.49999999999928
100
AcDbArc
 50
180.0
 51
211.6532402637
  0
ARC
  5
139
330
FB
100
AcDbEntity
  8
0
  6
Continuous
 62
     7
370
    25
100
AcDbCircle
 10
0.0
 20
0.0
 30
0.0
 40
82.49999999999223
100
AcDbArc
 50
241.6532402637
 51
250.6910330193
  0
ARC
  5
13A
330
FB
100
AcDbEntity
  8
0
  6
Continuous
 62
     7
370
    25
100
AcDbCircle
 10
-24.391818398
 20
-75.6656407839
 30
0.0
 40
2.000000000000055
100
AcDbArc
 50
72.1325883615
 51
160.6910330193
  0
ARC
  5
13B
330
FB
100
AcDbEntity
  8
0
  6
Continuous
 62
     7
370
    25
100
AcDbCircle
 10
0.0
 20
0.0
 30
0.0
 40
77.50000000000003
100
AcDbArc
 50
252.1325883615
 51
358.5584446578
  0
ARC
  5
13C
330
FB
100
AcDbEntity
  8
0
  6
Continuous
 62
     7
370
    25
100
AcDbCircle
 10
79.4748387856
 20
-2.0
 30
0.0
 40
1.999999999999938
100
AcDbArc
 50
90.0
 51
178.5584446578
  0
ARC
  5
13D
330
FB
100
AcDbEntity
  8
0
  6
Continuous
 62
     7
370
    25
100
AcDbCircle
 10
0.0
 20
0.0
 30
0.0
 40
82.49999999999874
100
AcDbArc
 50
0.0
 51
31.6532402637
  0
ARC
  5
13E
330
FB
100
AcDbEntity
  8
0
  6
Continuous
 62
     7
370
    25
100
AcDbCircle
 10
0.0
 20
0.0
 30
0.0
 40
82.4999999999975
100
AcDbArc
 50
61.6532402637
 51
70.6910330193
  0
ARC
  5
13F
330
FB
100
AcDbEntity
  8
0
  6
Continuous
 62
     7
370
    25
100
AcDbCircle
 10
24.391818398
 20
75.6656407839
 30
0.0
 40
2.000000000000277
100
AcDbArc
 50
252.1325883615
 51
340.6910330193
  0
ARC
  5
140
330
FB
100
AcDbEntity
  8
0
  6
Continuous
 62
     7
370
    25
100
AcDbCircle
 10
0.0
 20
0.0
 30
0.0
 40
77.50000000000003
100
AcDbArc
 50
72.1325883615
 51
178.5584446577
  0
ARC
  5
141
330
FB
100
AcDbEntity
  8
0
  6
Continuous
 62
     7
370
    25
100
AcDbCircle
 10
-79.4748387856
 20
2.0
 30
0.0
 40
2.000000000000055
100
AcDbArc
 50
270.0
 51
358.5584446577
  0
VIEWPORT
  5
186
330
FB
100
AcDbEntity
  8
0
100
AcDbViewport
 10
0.0
 20
0.0
 30
0.0
 40
205.6
 41
156.0
 68
     1
 69
     1
 12
-0.0000000001
 22
28.7580789194
 13
0.0
 23
0.0
 14
10.0
 24
10.0
 15
10.0
 25
10.0
 16
0.0
 26
0.0
 36
1.0
 17
0.0
 27
0.0
 37
0.0
 42
50.0
 43
0.0
 44
0.0
 45
487.0335190044
 50
0.0
 51
0.0
 72
   100
 90
   557152
  1

281
     0
 71
     1
 74
     0
110
0.0
120
0.0
130
0.0
111
1.0
121
0.0
131
0.0
112
0.0
122
1.0
132
0.0
 79
     0
146
0.0
  0
ENDBLK
  5
FE
330
FB
100
AcDbEntity
  8
0
100
AcDbBlockEnd
  0
BLOCK
  5
144
330
142
100
AcDbEntity
  8
0
100
AcDbBlockBegin
  2
*Paper_Space5
 70
     0
 10
0.0
 20
0.0
 30
0.0
  3
*Paper_Space5
  1

  0
SPLINE
  5
146
330
142
100
AcDbEntity
  8
0
  6
Continuous
 62
     7
370
    25
100
AcDbSpline
210
0.0
220
0.0
230
1.0
 70
     8
 71
     3
 72
    29
 73
    25
 74
     0
 42
0.000000001
 43
0.00000001
 40
0.0
 40
0.0
 40
0.0
 40
0.0
 40
0.0017399637255604
 40
0.0495568682930801
 40
0.0975474111444358
 40
0.1456991165068071
 40
0.1939999378039763
 40
0.2424382678247102
 40
0.2910029428647385
 40
0.3396832414282275
 40
0.3884688780881557
 40
0.4373499930974583
 40
0.4863171383257079
 40
0.5353612600618792
 40
0.584473679183589
 40
0.6336460691504622
 40
0.6828704322288563
 40
0.7321390743069186
 40
0.7814445786113331
 40
0.8307797785930616
 40
0.880137730202093
 40
0.9295116837390266
 40
0.978895055430521
 40
1.0
 40
1.0
 40
1.0
 40
1.0
 10
-176.5517151581616
 20
600.3134968492033
 30
0.0
 10
-176.4732074120721
 20
600.090208309995
 30
0.0
 10
-174.2371849158593
 20
593.7306040456359
 30
0.0
 10
-170.0590778439324
 20
581.0466670221027
 30
0.0
 10
-164.0379670673045
 20
562.2359534573418
 30
0.0
 10
-158.2811881131824
 20
543.1776461316039
 30
0.0
 10
-152.7614205028274
 20
523.9102232137895
 30
0.0
 10
-147.4962295690665
 20
504.4382009641449
 30
0.0
 10
-142.4904392201672
 20
484.7752801230362
 30
0.0
 10
-137.7516539502807
 20
464.9327027913184
 30
0.0
 10
-133.2860911680551
 20
444.9223626608562
 30
0.0
 10
-129.0997137951647
 20
424.7559488905761
 30
0.0
 10
-125.1979380047804
 20
404.445160501507
 30
0.0
 10
-121.5857261481632
 20
384.0016361219472
 30
0.0
 10
-118.2675721832546
 20
363.4369634616519
 30
0.0
 10
-115.2475326942704
 20
342.7626693270438
 30
0.0
 10
-112.5291836370623
 20
321.9902201440997
 30
0.0
 10
-110.1158279816149
 20
301.1310112405529
 30
0.0
 10
-108.009770867671
 20
280.1964006396138
 30
0.0
 10
-106.215074339764
 20
259.197584674823
 30
0.0
 10
-104.7273117764034
 20
238.1460699129066
 30
0.0
 10
-103.5718696439888
 20
217.0519231567184
 30
0.0
 10
-102.8348710790952
 20
199.9625457106947
 30
0.0
 10
-102.5975166384657
 20
189.9023731274339
 30
0.0
 10
-102.5264502181208
 20
186.8902514597376
 30
0.0
  0
SPLINE
  5
147
330
142
100
AcDbEntity
  8
0
  6
Continuous
 62
     7
370
    25
100
AcDbSpline
210
0.0
220
0.0
230
1.0
 70
     8
 71
     3
 72
    29
 73
    25
 74
     0
 42
0.000000001
 43
0.00000001
 40
0.0
 40
0.0
 40
0.0
 40
0.0
 40
0.0276950275436501
 40
0.0770103272173565
 40
0.1262919098174237
 40
0.1755335039798044
 40
0.2247287534835862
 40
0.2738711899833556
 40
0.322954206142044
 40
0.371971029248392
 40
0.4209146954245052
 40
0.4697780245537179
 40
0.5185535960904983
 40
0.5672337259432245
 40
0.615810444660454
 40
0.6642754771848628
 40
0.7126202244809872
 40
0.7608357473807683
 40
0.8089127530291084
 40
0.856841584348773
 40
0.9046122129710995
 40
0.9522142361066653
 40
0.9996368778403418
 40
1.0
 40
1.0
 40
1.0
 40
1.0
 10
102.5266582719099
 20
186.8915642172201
 30
0.0
 10
102.6263703723126
 20
190.8440948286697
 30
0.0
 10
102.9036353603123
 20
201.8347203207231
 30
0.0
 10
103.7060944929851
 20
219.8391462056855
 30
0.0
 10
104.9036974075911
 20
240.8903098528703
 30
0.0
 10
106.4275827405531
 20
261.8878357656661
 30
0.0
 10
108.2568958849497
 20
282.8217448118132
 30
0.0
 10
110.3942770426179
 20
303.6809231337908
 30
0.0
 10
112.8356032310527
 20
324.4545571358504
 30
0.0
 10
115.5780787613425
 20
345.1317451512512
 30
0.0
 10
118.6180636649101
 20
365.7015980437064
 30
0.0
 10
121.9516466499745
 20
386.1532101149949
 30
0.0
 10
125.5744827013039
 20
406.4756664825438
 30
0.0
 10
129.4818286296219
 20
426.6580408434998
 30
0.0
 10
133.6685180828267
 20
446.6894029779901
 30
0.0
 10
138.1289791978224
 20
466.5588056207464
 30
0.0
 10
142.8571415785494
 20
486.2553535260817
 30
0.0
 10
147.846742233347
 20
505.76797611032
 30
0.0
 10
153.0901534569384
 20
525.0863111115495
 30
0.0
 10
158.5827047005804
 20
544.1974700050746
 30
0.0
 10
164.3065997796854
 20
563.0981125356653
 30
0.0
 10
170.2906123361468
 20
581.7496821542451
 30
0.0
 10
174.3794310632522
 20
594.1511606909576
 30
0.0
 10
176.5366400854964
 20
600.2828785576311
 30
0.0
 10
176.5530326328822
 20
600.3294732430091
 30
0.0
  0
SPLINE
  5
148
330
142
100
AcDbEntity
  8
0
  6
Continuous
 62
     7
370
    25
100
AcDbSpline
210
0.0
220
0.0
230
1.0
 70
     8
 71
     3
 72
    12
 73
     8
 74
     0
 42
0.000000001
 43
0.00000001
 40
0.0
 40
0.0
 40
0.0
 40
0.0
 40
0.0100930397335111
 40
0.2620478510344723
 40
0.5140076347772854
 40
0.7659665502866835
 40
0.9999999999999999
 40
0.9999999999999999
 40
0.9999999999999999
 40
0.9999999999999999
 10
-102.493865878557
 20
186.8911209021005
 30
0.0
 10
-102.4751178933299
 20
186.2627004947939
 30
0.0
 10
-101.9883597540863
 20
169.9468807190983
 30
0.0
 10
-101.3236756031793
 20
137.9297072637927
 30
0.0
 10
-100.5334610793243
 20
90.8430021707255
 30
0.0
 10
-100.079471751461
 20
44.86427620949907
 30
0.0
 10
-100.0328739616257
 20
14.58230519248427
 30
0.0
 10
-100.010434429064
 20
-0.0002163621144469
 30
0.0
  0
SPLINE
  5
149
330
142
100
AcDbEntity
  8
0
  6
Continuous
 62
     7
370
    25
100
AcDbSpline
210
0.0
220
0.0
230
1.0
 70
     8
 71
     3
 72
    12
 73
     8
 74
     0
 42
0.000000001
 43
0.00000001
 40
0.0
 40
0.0
 40
0.0
 40
0.0
 40
0.0788586088095632
 40
0.3307922520335271
 40
0.5827046226099879
 40
0.8345895607086132
 40
1.0
 40
1.0
 40
1.0
 40
1.0
 10
100.03396333819
 20
0.0002082459080732
 30
0.0
 10
100.024376653178
 20
4.913879620151995
 30
0.0
 10
99.98416289373522
 20
25.52550901833273
 30
0.0
 10
100.231673705149
 20
61.83351288905092
 30
0.0
 10
100.7961665110438
 20
108.9173315380996
 30
0.0
 10
101.5544445043278
 20
150.605104971366
 30
0.0
 10
102.2483437565754
 20
176.5912563607377
 30
0.0
 10
102.5233963604555
 20
186.8918274902163
 30
0.0
  0
SPLINE
  5
14A
330
142
100
AcDbEntity
  8
0
  6
Continuous
 62
     7
370
    25
100
AcDbSpline
210
0.0
220
0.0
230
1.0
 70
     8
 71
     3
 72
    44
 73
    40
 74
     0
 42
0.000000001
 43
0.00000001
 40
0.0
 40
0.0
 40
0.0
 40
0.0
 40
0.0406248699476687
 40
0.0767802315333312
 40
0.1085033554000274
 40
0.1358271122454495
 40
0.1584355119634268
 40
0.1768393745555111
 40
0.1910574323005916
 40
0.2013250410355545
 40
0.2115202853801527
 40
0.2268964710845403
 40
0.2445604904986004
 40
0.264181152600221
 40
0.3153331699203949
 40
0.3629355007341464
 40
0.4033962415465627
 40
0.4484580698149591
 40
0.4945344667245994
 40
0.5381076707668059
 40
0.5732900366179933
 40
0.6095657265932092
 40
0.6472563496100256
 40
0.6774226504686335
 40
0.7123881458708489
 40
0.7463946619233158
 40
0.7807298411426258
 40
0.801006991906718
 40
0.8234640876524909
 40
0.8431747290373491
 40
0.8575032159448532
 40
0.8725134785704192
 40
0.8918654674043847
 40
0.9156018010890268
 40
0.9380668245954401
 40
0.9479412995333749
 40
0.9605473305207275
 40
0.9779118146233639
 40
0.9999999999999999
 40
0.9999999999999999
 40
0.9999999999999999
 40
0.9999999999999999
 10
176.2044117013882
 20
599.3617600787057
 30
0.0
 10
176.8769168793839
 20
601.2163161005785
 30
0.0
 10
178.1479388750331
 20
604.7213917090509
 30
0.0
 10
179.9805762590174
 20
609.6495633955678
 30
0.0
 10
181.6085472411079
 20
613.9587978698288
 30
0.0
 10
183.0212790660522
 20
617.6419884538759
 30
0.0
 10
184.2146199446704
 20
620.7149365920391
 30
0.0
 10
185.1861643286665
 20
623.1913584982005
 30
0.0
 10
185.9447760005839
 20
625.1095092606914
 30
0.0
 10
186.5597526126629
 20
626.6551386417569
 30
0.0
 10
187.1966987859774
 20
628.2479811036034
 30
0.0
 10
187.9681721586264
 20
630.1652302795363
 30
0.0
 10
188.9127534788011
 20
632.4938835351919
 30
0.0
 10
190.5090813693483
 20
636.3938472956401
 30
0.0
 10
192.6665102908032
 20
641.5753244716773
 30
0.0
 10
195.2353789926593
 20
647.6014010651179
 30
0.0
 10
197.7220651600144
 20
653.3146389585852
 30
0.0
 10
200.2054163492911
 20
658.9069891563369
 30
0.0
 10
202.7773467724702
 20
664.5773314906985
 30
0.0
 10
205.1847329852066
 20
669.7760483042999
 30
0.0
 10
207.4221448285322
 20
674.5210570683074
 30
0.0
 10
209.5583573934363
 20
678.9779679604598
 30
0.0
 10
211.6084886870144
 20
683.1838771131249
 30
0.0
 10
213.6467582005878
 20
687.3016319707094
 30
0.0
 10
215.6255162884502
 20
691.24046122862
 30
0.0
 10
217.685465083034
 20
695.2775510514095
 30
0.0
 10
219.4598829939039
 20
698.7021954706113
 30
0.0
 10
221.0089201302857
 20
701.6554586617431
 30
0.0
 10
222.2674327087437
 20
704.0319456174146
 30
0.0
 10
223.4093279090532
 20
706.167908446579
 30
0.0
 10
224.4003616892983
 20
708.007579205282
 30
0.0
 10
225.3830996011806
 20
709.8199224087437
 30
0.0
 10
226.5590615178568
 20
711.971996697308
 30
0.0
 10
227.8870087114405
 20
714.3788449568732
 30
0.0
 10
229.0216159656909
 20
716.414106904181
 30
0.0
 10
229.931736947806
 20
718.0349861736244
 30
0.0
 10
230.737603776881
 20
719.4627978840492
 30
0.0
 10
231.7901211723795
 20
721.3163073481536
 30
0.0
 10
232.5891057989419
 20
722.7072755930744
 30
0.0
 10
233.0364296626379
 20
723.4860306140237
 30
0.0
  0
SPLINE
  5
14B
330
142
100
AcDbEntity
  8
0
  6
Continuous
 62
     7
370
    25
100
AcDbSpline
210
0.0
220
0.0
230
1.0
 70
     8
 71
     3
 72
    31
 73
    27
 74
     0
 42
0.000000001
 43
0.00000001
 40
0.0
 40
0.0
 40
0.0
 40
0.0
 40
0.0485944720365303
 40
0.0868800818197339
 40
0.1147947172951802
 40
0.1346914007309402
 40
0.1553983807393839
 40
0.1777441638814202
 40
0.2324031347458221
 40
0.2838918097754043
 40
0.3358735568643573
 40
0.3931832231068933
 40
0.4447711590683056
 40
0.4915368077782097
 40
0.5313994388898731
 40
0.5740086084252658
 40
0.6154332880968414
 40
0.655514736772796
 40
0.7019948334791867
 40
0.752249135197239
 40
0.8131038876411874
 40
0.8647813060902905
 40
0.8853788120719427
 40
0.9145934799630707
 40
0.9527685041292014
 40
1.0
 40
1.0
 40
1.0
 40
1.0
 10
-200.5677006794384
 20
655.406924404678
 30
0.0
 10
-200.1205741546802
 20
654.6067448448064
 30
0.0
 10
-199.3211748109532
 20
653.1761363266224
 30
0.0
 10
-198.2778907948658
 20
651.2603370694521
 30
0.0
 10
-197.5012308905896
 20
649.8140661107589
 30
0.0
 10
-196.8880755494397
 20
648.6590734286788
 30
0.0
 10
-196.3281366561104
 20
647.5942808303961
 30
0.0
 10
-195.4643936360149
 20
645.934916656444
 30
0.0
 10
-194.3407781433015
 20
643.7363016998943
 30
0.0
 10
-192.9794915892201
 20
641.0030572753167
 30
0.0
 10
-191.6186628654925
 20
638.1999734426597
 30
0.0
 10
-190.2805904248213
 20
635.3669589673383
 30
0.0
 10
-189.0085821193347
 20
632.5973526807584
 30
0.0
 10
-187.8979571054705
 20
630.1161159266047
 30
0.0
 10
-186.8699071608133
 20
627.7653148129903
 30
0.0
 10
-185.9104905018362
 20
625.5217360308629
 30
0.0
 10
-184.9627844406716
 20
623.2540657776439
 30
0.0
 10
-183.9972576270267
 20
620.8902982743299
 30
0.0
 10
-182.9838924542316
 20
618.3472704154103
 30
0.0
 10
-181.8400214842684
 20
615.394725942392
 30
0.0
 10
-180.6856640660994
 20
612.3147109152284
 30
0.0
 10
-179.7656361683309
 20
609.7736523863128
 30
0.0
 10
-179.0756014547484
 20
607.8243018763245
 30
0.0
 10
-178.4840615546678
 20
606.1257482262805
 30
0.0
 10
-177.7251027590336
 20
603.9028956588005
 30
0.0
 10
-177.1757136676495
 20
602.2338948587825
 30
0.0
 10
-176.8718906270908
 20
601.3109043849837
 30
0.0
  0
SPLINE
  5
14C
330
142
100
AcDbEntity
  8
0
  6
Continuous
 62
     7
370
    25
100
AcDbSpline
210
0.0
220
0.0
230
1.0
 70
     8
 71
     3
 72
    10
 73
     6
 74
     0
 42
0.000000001
 43
0.00000001
 40
0.0
 40
0.0
 40
0.0
 40
0.0
 40
0.271552432208849
 40
0.770420240312745
 40
1.0
 40
1.0
 40
1.0
 40
1.0
 10
-166.6936247251075
 20
642.4539375569134
 30
0.0
 10
-166.7848536853386
 20
642.5967154722
 30
0.0
 10
-167.0436789769888
 20
643.0017900830651
 30
0.0
 10
-167.3090347153834
 20
643.4642235215144
 30
0.0
 10
-167.3770401184231
 20
643.558099471039
 30
0.0
 10
-167.3984729088909
 20
643.5876857019296
 30
0.0
  0
LWPOLYLINE
  5
14D
330
142
100
AcDbEntity
  8
0
  6
Continuous
 62
     7
370
    25
100
AcDbPolyline
 90
       64
 70
   128
 43
0.0
 10
176.557624448
 20
600.3461208253
 10
175.1650690728
 20
596.6487368129
 10
173.1606323009
 20
592.1992468894
 10
170.8172254596
 20
587.8052960382
 10
168.1394358779
 20
583.4754856246
 10
165.1325054546
 20
579.2182914557
 10
161.8023203973
 20
575.0420471891
 10
158.1553996995
 20
570.954928019
 10
154.1988823799
 20
566.964934673
 10
149.9405135068
 20
563.0798777507
 10
145.3886290373
 20
559.3073624333
 10
140.552139499
 20
555.6547735967
 10
135.4405125473
 20
552.1292613551
 10
130.063754432
 20
548.7377270643
 10
124.4323904096
 20
545.4868098119
 10
118.5574441396
 20
542.382873421
 10
112.4504161053
 20
539.4319939931
 10
106.1232611007
 20
536.639948013
 10
99.588364829
 20
534.0122010419
 10
92.8585196565
 20
531.5538970179
 10
85.946899571
 20
529.2698481866
 10
78.8670343937
 20
527.1645256809
 10
71.6327832928
 20
525.2420507683
 10
64.2583076548
 20
523.5061867839
 10
56.758043362
 20
521.9603317628
 10
49.146672534
 20
520.6075117889
 10
41.4390947865
 20
519.4503750708
 10
33.6503980651
 20
518.491186758
 10
25.7958291091
 20
517.7318245067
 10
17.8907636064
 20
517.173774804
 10
9.9506760937
 20
516.8181300585
 10
1.9911096653
 20
516.6655864616
 10
-5.9723544538
 20
516.7164426244
 10
-13.9241274086
 20
516.9705989936
 10
-21.8486432301
 20
517.4275580462
 10
-29.7303893065
 20
518.0864252633
 10
-37.5539367497
 20
518.9459108816
 10
-45.3039705981
 20
520.0043324175
 10
-52.9653197967
 20
521.2596179611
 10
-60.5229868944
 20
522.7093102321
 10
-67.9621774032
 20
524.3505713897
 10
-75.2683287582
 20
526.1801885882
 10
-82.427138825
 20
528.194580266
 10
-89.4245938968
 20
530.3898031567
 10
-96.2469961267
 20
532.7615600085
 10
-102.8809903418
 20
535.305207996
 10
-109.3135901871
 20
538.0157678088
 10
-115.5322035463
 20
540.8879333987
 10
-121.5246571915
 20
543.9160823667
 10
-127.2792206136
 20
547.0942869691
 10
-132.7846289842
 20
550.4163257211
 10
-138.0301052081
 20
553.8756955757
 10
-143.005381019
 20
557.4656246542
 10
-147.7007170811
 20
561.1790855016
 10
-152.1069220535
 20
565.0088088441
 10
-156.215370583
 20
568.9472978183
 10
-160.0180201887
 20
572.9868426471
 10
-163.5074270055
 20
577.1195357319
 10
-166.6767603555
 20
581.3372871317
 10
-169.5198161201
 20
585.6318404003
 10
-172.0310288839
 20
589.9947887479
 10
-174.20548283
 20
594.4175914982
 10
-176.0389213629
 20
598.8915908071
 10
-177.3275537148
 20
602.7316246151
  0
LWPOLYLINE
  5
14E
330
142
100
AcDbEntity
  8
0
  6
Continuous
 62
     7
370
    25
100
AcDbPolyline
 90
       55
 70
   128
 43
0.0
 10
99.9999999905
 20
-0.0007946278
 10
99.9011972555
 20
-2.56557382
 10
99.4624676021
 20
-5.9775776943
 10
98.6743724037
 20
-9.3685851089
 10
97.5396798735
 20
-12.7266850266
 10
96.0623756603
 20
-16.040081999
 10
94.2476488491
 20
-19.2971375984
 10
92.101873734
 20
-22.4864112982
 10
89.6325874283
 20
-25.5967006582
 10
86.8484633902
 20
-28.6170806736
 10
83.759280957
 20
-31.5369421494
 10
80.3758909947
 20
-34.3460289657
 10
76.7101777837
 20
-37.0344741026
 10
72.7750172756
 20
-39.5928342986
 10
68.5842318651
 20
-42.01212322
 10
64.1525418389
 20
-44.2838430264
 10
59.4955136696
 20
-46.4000142191
 10
54.6295053388
 20
-48.3532036696
 10
49.571608878
 20
-50.1365507287
 10
44.3395903331
 20
-51.7437913248
 10
38.95182736
 20
-53.1692799667
 10
33.4272446727
 20
-54.4080095736
 10
27.7852475694
 20
-55.4556290625
 10
22.0456537706
 20
-56.3084586317
 10
16.2286238088
 20
-56.9635026864
 10
10.3545902141
 20
-57.4184603604
 10
4.4441857436
 20
-57.6717335982
 10
-1.4818290914
 20
-57.7224327684
 10
-7.4026389476
 20
-57.5703797883
 10
-13.2974467646
 20
-57.2161087495
 10
-19.1455468149
 20
-56.660864042
 10
-24.9263974337
 20
-55.906595983
 10
-30.6196931724
 20
-54.9559539666
 10
-36.2054361221
 20
-53.8122771576
 10
-41.664006157
 20
-52.4795827625
 10
-46.9762298507
 20
-50.962551919
 10
-52.1234478237
 20
-49.2665132531
 10
-57.0875802853
 20
-47.3974241626
 10
-61.851190539
 20
-45.3618498912
 10
-66.3975462302
 20
-43.1669404675
 10
-70.7106781187
 20
-40.8204055911
 10
-74.7754361713
 20
-38.3304875513
 10
-78.5775427772
 20
-35.705932276
 10
-82.1036428983
 20
-32.9559586114
 10
-85.3413509793
 20
-30.0902259402
 10
-88.2792944524
 20
-27.1188002529
 10
-90.9071536841
 20
-24.0521187907
 10
-93.215698223
 20
-20.900953384
 10
-95.1968192222
 20
-17.6763726163
 10
-96.8435579219
 20
-14.389702945
 10
-98.1501300924
 20
-11.0524889174
 10
-99.1119463513
 20
-7.6764526193
 10
-99.7256282839
 20
-4.2734525015
 10
-99.9890203099
 20
-0.8554417259
 10
-99.9999999849
 20
-0.0010014872
  0
SPLINE
  5
14F
330
142
100
AcDbEntity
  8
0
  6
Continuous
 62
     7
370
    25
100
AcDbSpline
210
0.0
220
0.0
230
1.0
 70
    11
 71
     3
 72
    66
 73
    62
 74
     0
 42
0.000000001
 43
0.00000001
 40
0.0
 40
0.0
 40
0.0
 40
0.0
 40
0.0312499999999997
 40
0.0312499999999997
 40
0.0624999999999994
 40
0.0624999999999994
 40
0.0937499999999991
 40
0.0937499999999991
 40
0.1249999999999988
 40
0.1249999999999988
 40
0.1562499999999985
 40
0.1562499999999985
 40
0.1874999999999982
 40
0.1874999999999982
 40
0.2187499999999979
 40
0.2187499999999979
 40
0.2499999999999976
 40
0.2499999999999976
 40
0.2812499999999973
 40
0.2812499999999973
 40
0.3124999999999971
 40
0.3124999999999971
 40
0.3437499999999967
 40
0.3437499999999967
 40
0.3749999999999964
 40
0.3749999999999964
 40
0.4062499999999962
 40
0.4062499999999962
 40
0.4374999999999959
 40
0.4374999999999959
 40
0.4687499999999956
 40
0.4687499999999956
 40
0.4999999999999959
 40
0.4999999999999959
 40
0.5312499999999961
 40
0.5312499999999961
 40
0.5624999999999964
 40
0.5624999999999964
 40
0.6249999999999969
 40
0.6249999999999969
 40
0.6562499999999972
 40
0.6562499999999972
 40
0.6874999999999974
 40
0.6874999999999974
 40
0.7187499999999978
 40
0.7187499999999978
 40
0.749999999999998
 40
0.749999999999998
 40
0.7812499999999982
 40
0.7812499999999982
 40
0.8124999999999986
 40
0.8124999999999986
 40
0.8437499999999988
 40
0.8437499999999988
 40
0.874999999999999
 40
0.874999999999999
 40
0.9062499999999993
 40
0.9062499999999993
 40
0.9374999999999996
 40
0.9374999999999996
 40
1.0
 40
1.0
 40
1.0
 40
1.0
 10
71.98131545675865
 20
-17.04607405322214
 30
0.0
 10
71.90031393202976
 20
-17.19001595847658
 30
0.0
 10
71.81255429735934
 20
-17.32694517462918
 30
0.0
 10
71.62390802602707
 20
-17.58725994919441
 30
0.0
 10
71.52182110936738
 20
-17.71186651530321
 30
0.0
 10
71.30989494829304
 20
-17.9396919499053
 30
0.0
 10
71.20057228911863
 20
-18.04274349384283
 30
0.0
 10
70.97517346372597
 20
-18.22726391583796
 30
0.0
 10
70.85835580408798
 20
-18.30889234814309
 30
0.0
 10
70.62772301641321
 20
-18.44312643785562
 30
0.0
 10
70.51275690660249
 20
-18.49683929512408
 30
0.0
 10
70.2835735836784
 20
-18.57683494197332
 30
0.0
 10
70.17111748236987
 20
-18.60226734049608
 30
0.0
 10
69.956214820952
 20
-18.62356569339313
 30
0.0
 10
69.8521606963599
 20
-18.61963051509374
 30
0.0
 10
69.65584161227021
 20
-18.58193748806819
 30
0.0
 10
69.56526272514297
 20
-18.54873552029845
 30
0.0
 10
69.39902355188605
 20
-18.4544774327724
 30
0.0
 10
69.32274139641842
 20
-18.39247735405958
 30
0.0
 10
69.19136403039339
 20
-18.24449494423219
 30
0.0
 10
69.13567330387829
 20
-18.15859029650341
 30
0.0
 10
69.044542378862
 20
-17.96289733141593
 30
0.0
 10
69.00947816788798
 20
-17.85295299939815
 30
0.0
 10
68.9630512505656
 20
-17.61847292563362
 30
0.0
 10
68.95110619073554
 20
-17.49288891352496
 30
0.0
 10
68.9506698887939
 20
-17.22439993030017
 30
0.0
 10
68.96222843222672
 20
-17.08545305274328
 30
0.0
 10
69.0078333165791
 20
-16.80002843892098
 30
0.0
 10
69.04240622992543
 20
-16.6517053099855
 30
0.0
 10
69.13287702400208
 20
-16.35471700227309
 30
0.0
 10
69.18823484817847
 20
-16.20696594943005
 30
0.0
 10
69.31881059305765
 20
-15.9128502143146
 30
0.0
 10
69.39480258994425
 20
-15.76550788968234
 30
0.0
 10
69.56058529625642
 20
-15.48448199230173
 30
0.0
 10
69.65088934935224
 20
-15.34932676159079
 30
0.0
 10
69.84646418875685
 20
-15.08985394287127
 30
0.0
 10
69.9506584936441
 20
-14.96726702181361
 30
0.0
 10
70.27261793323933
 20
-14.63104628872008
 30
0.0
 10
70.50645273009144
 20
-14.44281242320483
 30
0.0
 10
70.85227528409737
 20
-14.24120425429326
 30
0.0
 10
70.96906410767299
 20
-14.18604135255452
 30
0.0
 10
71.19489338379263
 20
-14.10516966950948
 30
0.0
 10
71.3043345283272
 20
-14.0789104680627
 30
0.0
 10
71.51634625444213
 20
-14.05486226304142
 30
0.0
 10
71.61881948594042
 20
-14.05749867648798
 30
0.0
 10
71.807986836293
 20
-14.09155446074095
 30
0.0
 10
71.89592589973084
 20
-14.12273319067869
 30
0.0
 10
72.05820990321682
 20
-14.21449883874759
 30
0.0
 10
72.13037641027562
 20
-14.27398448589118
 30
0.0
 10
72.25606056861801
 20
-14.41802847900037
 30
0.0
 10
72.31027320988004
 20
-14.50376217840954
 30
0.0
 10
72.39741474973388
 20
-14.69739946981258
 30
0.0
 10
72.43021481351822
 20
-14.80422852529217
 30
0.0
 10
72.47469799605874
 20
-15.03765518810474
 30
0.0
 10
72.48620293484983
 20
-15.1655090145944
 30
0.0
 10
72.4866563861434
 20
-15.43099465586517
 30
0.0
 10
72.47597345502774
 20
-15.56953742288592
 30
0.0
 10
72.43238252127504
 20
-15.85840391693882
 30
0.0
 10
72.39944137249705
 20
-16.00743717642361
 30
0.0
 10
72.27105226723556
 20
-16.45334481646521
 30
0.0
 10
72.14331850621642
 20
-16.75819024271324
 30
0.0
 10
71.98131545675865
 20
-17.04607405322214
 30
0.0
  0
SPLINE
  5
150
330
142
100
AcDbEntity
  8
0
  6
Continuous
 62
     7
370
    25
100
AcDbSpline
210
0.0
220
0.0
230
1.0
 70
    11
 71
     3
 72
    53
 73
    49
 74
     0
 42
0.000000001
 43
0.00000001
 40
0.0
 40
0.0
 40
0.0
 40
0.0
 40
0.00703125
 40
0.0093749999999999
 40
0.046875
 40
0.078125
 40
0.09375
 40
0.125
 40
0.140625
 40
0.171875
 40
0.203125
 40
0.21875
 40
0.25
 40
0.2678239461198844
 40
0.28125
 40
0.296875
 40
0.328125
 40
0.34375
 40
0.375
 40
0.390625
 40
0.421875
 40
0.453125
 40
0.46875
 40
0.484375
 40
0.4999999999971685
 40
0.515625
 40
0.53125
 40
0.546875
 40
0.578125
 40
0.609375
 40
0.625
 40
0.65625
 40
0.671875
 40
0.703125
 40
0.71875
 40
0.7321760538703969
 40
0.75
 40
0.78125
 40
0.796875
 40
0.828125
 40
0.859375
 40
0.875
 40
0.90625
 40
0.921875
 40
0.953125
 40
0.990625
 40
0.99296875
 40
1.0
 40
1.0
 40
1.0
 40
1.0
 10
189.1510639675931
 20
917.5699887230693
 30
0.0
 10
191.6204827211855
 20
916.1444236206269
 30
0.0
 10
194.8361217436722
 20
914.1733001222526
 30
0.0
 10
210.3836907191638
 20
903.8691118718291
 30
0.0
 10
230.5055314521817
 20
885.3938620617001
 30
0.0
 10
246.0483960569531
 20
859.0841527256385
 30
0.0
 10
255.0044903341401
 20
832.2685418944114
 30
0.0
 10
257.6970478694936
 20
809.1814133480101
 30
0.0
 10
255.1387363569254
 20
779.293075741283
 30
0.0
 10
246.8701172488908
 20
748.9516075087664
 30
0.0
 10
231.4797232463241
 20
719.3575105036937
 30
0.0
 10
210.9615828037366
 20
690.6808205702534
 30
0.0
 10
189.9864803922905
 20
668.0773776226865
 30
0.0
 10
166.3417139505711
 20
648.285350315613
 30
0.0
 10
147.2931390731561
 20
634.5940623713035
 30
0.0
 10
121.486703712858
 20
618.5192074015137
 30
0.0
 10
92.93323165368298
 20
604.6337134295497
 30
0.0
 10
55.44196395556241
 20
590.9444506397045
 30
0.0
 10
24.46701208039856
 20
583.0982418454818
 30
0.0
 10
-14.12370718134162
 20
577.6621181502057
 30
0.0
 10
-51.91439185500717
 20
576.5710681287574
 30
0.0
 10
-87.03576737554006
 20
581.2338483898018
 30
0.0
 10
-113.2152991039004
 20
588.3722764843995
 30
0.0
 10
-131.6923588560807
 20
595.3848600224339
 30
0.0
 10
-148.7507234987118
 20
604.0144456477847
 30
0.0
 10
-164.1907395334338
 20
614.1457758496882
 30
0.0
 10
-177.8127534637167
 20
625.6635931184401
 30
0.0
 10
-193.3963501971629
 20
642.6345059036017
 30
0.0
 10
-207.7736651040095
 20
666.5467113920787
 30
0.0
 10
-215.1277394345964
 20
693.6992760545334
 30
0.0
 10
-216.894913255891
 20
722.433515515814
 30
0.0
 10
-213.6856443072772
 20
746.3085118843537
 30
0.0
 10
-204.2307853182633
 20
776.1828489165704
 30
0.0
 10
-192.4330392263228
 20
799.7412175990135
 30
0.0
 10
-177.0863485917449
 20
821.8543546672204
 30
0.0
 10
-163.3323749123135
 20
838.6021508239296
 30
0.0
 10
-142.5431123417761
 20
860.0426254276488
 30
0.0
 10
-117.3964091943258
 20
880.2378545349765
 30
0.0
 10
-84.07375961404578
 20
901.5226586819647
 30
0.0
 10
-48.3375921999854
 20
919.3713907012403
 30
0.0
 10
-9.949302309621947
 20
932.325143096159
 30
0.0
 10
29.16719287553986
 20
941.1088904893695
 30
0.0
 10
60.47020283215757
 20
944.5707956547892
 30
0.0
 10
98.18638646993885
 20
944.4430739479337
 30
0.0
 10
136.7648404497253
 20
939.5092111009711
 30
0.0
 10
166.0004098986099
 20
929.4910345117771
 30
0.0
 10
183.3135057616648
 20
920.8251647397617
 30
0.0
 10
186.6816452140007
 20
918.9955538255118
 30
0.0
 10
189.1510639675931
 20
917.5699887230693
 30
0.0
  0
SPLINE
  5
151
330
142
100
AcDbEntity
  8
0
  6
Continuous
 62
     7
370
    25
100
AcDbSpline
210
0.0
220
0.0
230
1.0
 70
     8
 71
     3
 72
    43
 73
    39
 74
     0
 42
0.000000001
 43
0.00000001
 40
0.0
 40
0.0
 40
0.0
 40
0.0
 40
0.0188451973852578
 40
0.0490099747168612
 40
0.0788052999851578
 40
0.1088869917402516
 40
0.1393663497019661
 40
0.1702438564456464
 40
0.1967579311304844
 40
0.2235675219479734
 40
0.2506904383231108
 40
0.2781063098693922
 40
0.3057376687781712
 40
0.333575239915058
 40
0.3600283779911269
 40
0.3867223711077905
 40
0.4137211529505224
 40
0.4410008729558424
 40
0.4685048060348586
 40
0.4978615193591105
 40
0.5273377176601886
 40
0.5568518646667223
 40
0.5863119052717141
 40
0.6156470394792328
 40
0.6448839480159656
 40
0.6724063556150216
 40
0.6999251488958789
 40
0.7274537544051887
 40
0.754885807223179
 40
0.7821913620565634
 40
0.8111539489385725
 40
0.8402619001029691
 40
0.8694596406683405
 40
0.8986433530679863
 40
0.9278410481086761
 40
0.9571008076809502
 40
0.9847916142317213
 40
1.0
 40
1.0
 40
1.0
 40
1.0
 10
176.0624976177441
 20
599.3727640362529
 30
0.0
 10
175.4385741501583
 20
597.6143351709845
 30
0.0
 10
173.8159605607906
 20
593.0412573482164
 30
0.0
 10
169.8639708868608
 20
585.8771317784096
 30
0.0
 10
164.3734980850354
 20
577.9057222559854
 30
0.0
 10
157.6817486012577
 20
570.206381606122
 30
0.0
 10
149.8231147844149
 20
562.7652386667814
 30
0.0
 10
141.256321738154
 20
556.0047031952655
 30
0.0
 10
132.1964100700609
 20
549.9204048247692
 30
0.0
 10
122.8274947182342
 20
544.4874907586674
 30
0.0
 10
112.6715383329927
 20
539.415759641373
 30
0.0
 10
101.7761763508247
 20
534.7514184099541
 30
0.0
 10
90.20596450818252
 20
530.5353351439553
 30
0.0
 10
78.25437313622764
 20
526.8815502414665
 30
0.0
 10
66.00545293159871
 20
523.7907198518437
 30
0.0
 10
53.5248587692498
 20
521.2568103873856
 30
0.0
 10
40.62117965058285
 20
519.2443128122088
 30
0.0
 10
27.36375557010744
 20
517.7733851439742
 30
0.0
 10
13.56650328485631
 20
516.8510534852473
 30
0.0
 10
-0.6783279597457198
 20
516.545750027315
 30
0.0
 10
-15.25027700437054
 20
516.9217215030136
 30
0.0
 10
-29.73806073742819
 20
517.9788438076185
 30
0.0
 10
-44.01029202655549
 20
519.6984507749501
 30
0.0
 10
-57.95170349866338
 20
522.0702006834115
 30
0.0
 10
-71.21743713423615
 20
525.0177549371288
 30
0.0
 10
-83.76928216296791
 20
528.4820013154365
 30
0.0
 10
-95.5838018769766
 20
532.4063615688143
 30
0.0
 10
-106.8391502705379
 20
536.8290704734908
 30
0.0
 10
-117.4654339522802
 20
541.7105450346586
 30
0.0
 10
-127.5988388460547
 20
547.132841431194
 30
0.0
 10
-137.1570950484078
 20
553.1134553320101
 30
0.0
 10
-146.0509843267064
 20
559.6566885067526
 30
0.0
 10
-154.0432726966332
 20
566.6025000983501
 30
0.0
 10
-161.0487278562881
 20
573.9039708500486
 30
0.0
 10
-167.0280608066305
 20
581.5122409913627
 30
0.0
 10
-171.7880479149752
 20
589.2457457564693
 30
0.0
 10
-175.0417148351996
 20
595.8672041378336
 30
0.0
 10
-176.2965614775973
 20
599.8880902043559
 30
0.0
 10
-176.7414228091505
 20
601.3135526227431
 30
0.0
  0
LWPOLYLINE
  5
152
330
142
100
AcDbEntity
  8
0
  6
Continuous
 62
     7
370
    25
100
AcDbPolyline
 90
       89
 70
   128
 43
0.0
 10
169.0088086034
 20
898.8790079303
 10
157.6752222451
 20
904.7956910369
 10
145.5955707648
 20
909.9094181416
 10
132.8549853657
 20
914.1987397981
 10
119.5385972509
 20
917.6422065604
 10
105.7232662937
 20
920.2211380781
 10
91.4509459374
 20
921.9285400583
 10
77.6051672001
 20
922.7366148083
 10
63.4233135146
 20
922.7635349223
 10
48.9733282803
 20
922.0072020436
 10
34.3377638154
 20
920.4663633336
 10
19.6038930945
 20
918.1400729794
 10
3.9669770039
 20
914.8202331701
 10
-11.5784590902
 20
910.6552613024
 10
-26.9339495636
 20
905.6829689892
 10
-42.0045761006
 20
899.9400782192
 10
-56.7054028664
 20
893.4600843251
 10
-70.9933614852
 20
886.2629455602
 10
-84.0578268484
 20
878.8350222736
 10
-96.687721447
 20
870.8058883173
 10
-108.820078393
 20
862.2130782031
 10
-120.3802850121
 20
853.1025721475
 10
-131.2900771323
 20
843.523068217
 10
-142.0694448911
 20
832.9083957217
 10
-151.9739863657
 20
821.9006818925
 10
-160.9486346373
 20
810.5795808704
 10
-168.9428259969
 20
799.0191429269
 10
-175.9176228444
 20
787.278828224
 10
-181.8533887728
 20
775.3935617088
 10
-186.4850539185
 20
764.0805395335
 10
-190.1649252385
 20
752.6986129804
 10
-192.872693242
 20
741.3028944337
 10
-194.5854802885
 20
729.9599158656
 10
-195.2796037512
 20
718.7399158845
 10
-194.885267267
 20
707.0508968956
 10
-193.3441807171
 20
695.6524112995
 10
-190.6812975089
 20
684.6137212624
 10
-186.9210343761
 20
674.0015239017
 10
-182.0860841461
 20
663.8753382829
 10
-176.1919038519
 20
654.2645791016
 10
-169.676605377
 20
645.6944571564
 10
-162.2504453661
 20
637.6271513732
 10
-153.9464375076
 20
630.1036317843
 10
-144.8040357232
 20
623.1765765159
 10
-134.8722457103
 20
616.8929618378
 10
-123.5411072071
 20
610.9704503092
 10
-111.459703035
 20
605.8505343313
 10
-98.7178704517
 20
601.5604739881
 10
-85.4071967475
 20
598.1188168818
 10
-71.5966372967
 20
595.5409793188
 10
-57.325357039
 20
593.8338325121
 10
-43.4762239706
 20
593.0258812546
 10
-29.2894784063
 20
592.9992018541
 10
-14.8405944768
 20
593.7554982323
 10
-0.2086660581
 20
595.2963109462
 10
14.5238260427
 20
597.6229739111
 10
30.162299901
 20
600.9437665515
 10
45.7116489781
 20
605.1101275272
 10
61.0672194162
 20
610.0824564342
 10
76.1323327396
 20
615.8235711248
 10
90.8306688741
 20
622.3026557723
 10
105.1191121461
 20
629.4997785838
 10
118.1844015971
 20
636.9278199231
 10
130.8142072674
 20
644.9567856514
 10
142.9461140277
 20
653.5491985592
 10
154.5058924725
 20
662.6592811913
 10
165.4155134548
 20
672.2385766639
 10
176.195142624
 20
682.8534395946
 10
186.1001813157
 20
693.8615907737
 10
195.0752475406
 20
705.1831072646
 10
203.0696065995
 20
716.743507435
 10
210.0444313555
 20
728.4830767188
 10
215.9804313838
 20
740.3684569891
 10
220.6128614993
 20
751.6841894675
 10
224.2936733159
 20
763.0699625106
 10
227.0012087384
 20
774.4648024895
 10
228.7130968619
 20
785.804874627
 10
229.4063711104
 20
797.0236804557
 10
229.0111684758
 20
808.7137117178
 10
227.4692402835
 20
820.1149814383
 10
224.8063265382
 20
831.153718848
 10
221.0470026441
 20
841.7619301171
 10
216.2124460309
 20
851.8864744001
 10
210.3171912648
 20
861.4987115721
 10
203.7989082039
 20
870.072240737
 10
196.3696167443
 20
878.1425140461
 10
188.0678290229
 20
885.6648000286
 10
178.9340559918
 20
892.5924981636
 10
169.0088086034
 20
898.8790079303
  0
SPLINE
  5
153
330
142
100
AcDbEntity
  8
0
  6
Continuous
 62
     7
370
    25
100
AcDbSpline
210
0.0
220
0.0
230
1.0
 70
     8
 71
     3
 72
    10
 73
     6
 74
     0
 42
0.000000001
 43
0.00000001
 40
0.0
 40
0.0
 40
0.0
 40
0.0
 40
0.3678819832254147
 40
0.7353954331234352
 40
0.9999999999999999
 40
0.9999999999999999
 40
0.9999999999999999
 40
0.9999999999999999
 10
24.3951839509429
 20
609.986628088234
 30
0.0
 10
25.7726582932391
 20
609.0924861723149
 30
0.0
 10
28.52622706463675
 20
607.3050980654929
 30
0.0
 10
31.35222931066176
 20
604.4533143756788
 30
0.0
 10
32.44205630569746
 20
602.4961288874122
 30
0.0
 10
32.89825782557067
 20
601.6768511502224
 30
0.0
  0
SPLINE
  5
154
330
142
100
AcDbEntity
  8
0
  6
Continuous
 62
     7
370
    25
100
AcDbSpline
210
0.0
220
0.0
230
1.0
 70
     8
 71
     3
 72
    22
 73
    18
 74
     0
 42
0.000000001
 43
0.00000001
 40
0.0
 40
0.0
 40
0.0
 40
0.0
 40
0.0211686838034003
 40
0.0884293546560035
 40
0.1553897829136901
 40
0.2223969520813726
 40
0.2888790582927618
 40
0.3540064568497002
 40
0.4175313141868748
 40
0.4950591472211495
 40
0.5702568063990225
 40
0.6429318610896966
 40
0.7139115081760337
 40
0.7845938688074902
 40
0.8560216352730463
 40
0.927974741245195
 40
0.9999999999999999
 40
0.9999999999999999
 40
0.9999999999999999
 40
0.9999999999999999
 10
-34.04329129106107
 20
593.0081418098425
 30
0.0
 10
-34.16562258858842
 20
593.3525785699964
 30
0.0
 10
-34.67664527639656
 20
594.7914172197233
 30
0.0
 10
-34.55856702556183
 20
597.3987605565749
 30
0.0
 10
-33.66526039208107
 20
600.703251232203
 30
0.0
 10
-31.7620112908204
 20
603.8625823076613
 30
0.0
 10
-29.05750663583778
 20
606.7785657409481
 30
0.0
 10
-25.63482352221494
 20
609.3627835862269
 30
0.0
 10
-21.27881557811964
 20
611.7041195648084
 30
0.0
 10
-16.0173583183609
 20
613.6557408146814
 30
0.0
 10
-9.989557724594526
 20
615.0795852146451
 30
0.0
 10
-3.797189691513291
 20
615.8266273862093
 30
0.0
 10
2.395970105911464
 20
615.8977635529478
 30
0.0
 10
8.475284811308482
 20
615.3219480521741
 30
0.0
 10
14.28863847039795
 20
614.1183826930014
 30
0.0
 10
19.75676604499987
 20
612.3834721586533
 30
0.0
 10
22.84852818423221
 20
610.7858429883556
 30
0.0
 10
24.3951839509429
 20
609.986628088234
 30
0.0
  0
SPLINE
  5
155
330
142
100
AcDbEntity
  8
0
  6
Continuous
 62
     7
370
    25
100
AcDbSpline
210
0.0
220
0.0
230
1.0
 70
     8
 71
     3
 72
    14
 73
    10
 74
     0
 42
0.000000001
 43
0.00000001
 40
0.0
 40
0.0
 40
0.0
 40
0.0
 40
0.1300363567652389
 40
0.2849210436379607
 40
0.4351863121273593
 40
0.5803656470093568
 40
0.7221733983669832
 40
0.9105748419980726
 40
1.0
 40
1.0
 40
1.0
 40
1.0
 10
-16.63474260721622
 20
593.6615873295609
 30
0.0
 10
-15.79130040798185
 20
594.1734775297934
 30
0.0
 10
-13.94324469777764
 20
595.2950737795381
 30
0.0
 10
-10.43459541130541
 20
596.5486340144498
 30
0.0
 10
-6.518723791978203
 20
597.4838276532523
 30
0.0
 10
-2.472370452532409
 20
597.9737672779595
 30
0.0
 10
1.994159177379023
 20
598.006452933367
 30
0.0
 10
5.959613252407098
 20
597.6442928730598
 30
0.0
 10
8.301553793043194
 20
596.9748352841415
 30
0.0
 10
9.055363549367884
 20
596.759354295954
 30
0.0
  0
LWPOLYLINE
  5
156
330
142
100
AcDbEntity
  8
0
  6
Continuous
 62
    60
370
    25
100
AcDbPolyline
 90
       55
 70
   128
 43
0.0
 10
102.4878273777
 20
186.8924841979
 10
102.4309764428
 20
185.6332119482
 10
102.0337023558
 20
182.1666295898
 10
101.2846969593
 20
178.7194817482
 10
100.1865422301
 20
175.3036514562
 10
98.743023735
 20
171.9309137883
 10
96.9591175814
 20
168.61289527
 10
94.8409732633
 20
165.3610337985
 10
92.3958924629
 20
162.186539214
 10
89.6323038804
 20
159.1003546569
 10
86.559734178
 20
156.1131188448
 10
83.18877514
 20
153.2351293983
 10
79.5310471607
 20
150.4763073432
 10
75.599159186
 20
147.8461629108
 10
71.4066652483
 20
145.3537627537
 10
66.9680177429
 20
143.0076986915
 10
62.2985176071
 20
140.8160580932
 10
57.4142615752
 20
138.7863959979
 10
52.3320866897
 20
136.9257090713
 10
47.0695122601
 20
135.2404114867
 10
41.6446794708
 20
133.736312814
 10
36.0762888442
 20
132.4185979929
 10
30.3835357764
 20
131.2918094594
 10
24.5860443664
 20
130.359831487
 10
18.7037997682
 20
129.6258767969
 10
12.7570792975
 20
129.0924754828
 10
6.7663825317
 20
128.7614662897
 10
0.7523606435
 20
128.6339902748
 10
-5.2642547876
 20
128.7104868743
 10
-11.262723242
 20
128.9906923885
 10
-17.2223667561
 20
129.4736408912
 10
-23.1226412042
 20
130.1576675586
 10
-28.9432071179
 20
131.0404144092
 10
-34.6639998008
 20
132.1188384317
 10
-40.2652984954
 20
133.3892220751
 10
-45.7277943646
 20
134.8471860638
 10
-51.0326570536
 20
136.4877044939
 10
-56.1615996017
 20
138.3051221586
 10
-61.0969414815
 20
140.2931740425
 10
-65.821669547
 20
142.4450069191
 10
-70.3194966819
 20
144.7532029747
 10
-74.5749179443
 20
147.2098053792
 10
-78.5732640155
 20
149.8063457153
 10
-82.3007517682
 20
152.5338731705
 10
-85.7445317801
 20
155.3829853926
 10
-88.8927326279
 20
158.3438609016
 10
-91.7345018112
 20
161.4062929463
 10
-94.2600431629
 20
164.5597246889
 10
-96.4606506188
 20
167.793285597
 10
-98.3287382291
 20
171.0958289162
 10
-99.8578663088
 20
174.4559700956
 10
-101.0427636366
 20
177.8621260324
 10
-101.879345626
 20
181.3025550015
 10
-102.3647284055
 20
184.7653971315
 10
-102.4878669672
 20
186.8939682275
  0
VIEWPORT
  5
188
330
142
100
AcDbEntity
  8
0
100
AcDbViewport
 10
0.0
 20
0.0
 30
0.0
 40
205.6
 41
156.0
 68
     1
 69
     1
 12
-0.0000000001
 22
28.7580789194
 13
0.0
 23
0.0
 14
10.0
 24
10.0
 15
10.0
 25
10.0
 16
0.0
 26
0.0
 36
1.0
 17
0.0
 27
0.0
 37
0.0
 42
50.0
 43
0.0
 44
0.0
 45
487.0335190044
 50
0.0
 51
0.0
 72
   100
 90
   557152
  1

281
     0
 71
     1
 74
     0
110
0.0
120
0.0
130
0.0
111
1.0
121
0.0
131
0.0
112
0.0
122
1.0
132
0.0
 79
     0
146
0.0
  0
ENDBLK
  5
145
330
142
100
AcDbEntity
  8
0
100
AcDbBlockEnd
  0
BLOCK
  5
159
330
157
100
AcDbEntity
  8
0
100
AcDbBlockBegin
  2
*Paper_Space6
 70
     0
 10
0.0
 20
0.0
 30
0.0
  3
*Paper_Space6
  1

  0
SPLINE
  5
15B
330
157
100
AcDbEntity
  8
0
  6
Continuous
 62
     7
370
    25
100
AcDbSpline
210
0.0
220
0.0
230
1.0
 70
     8
 71
     3
 72
    29
 73
    25
 74
     0
 42
0.000000001
 43
0.00000001
 40
0.0
 40
0.0
 40
0.0
 40
0.0
 40
0.0032568901635506
 40
0.0514592839179875
 40
0.0997832353693414
 40
0.148219147055896
 40
0.1967578599044383
 40
0.2453906432101787
 40
0.2941091816790561
 40
0.3429055600195682
 40
0.391772245530442
 40
0.4407020690884608
 40
0.4896882048906073
 40
0.5387241492618888
 40
0.5878036987946373
 40
0.6369209280450556
 40
0.6860701669680812
 40
0.7352459782453775
 40
0.7844431346189009
 40
0.8336565963221875
 40
0.882881488670296
 40
0.9321130798534625
 40
0.9813467589544063
 40
1.0
 40
1.0
 40
1.0
 40
1.0
 10
-177.5264755372588
 20
636.1008336903316
 30
0.0
 10
-177.376515714586
 20
635.6502829077742
 30
0.0
 10
-175.0071312086
 20
628.5315225336732
 30
0.0
 10
-170.6556388667976
 20
614.5804579557182
 30
0.0
 10
-164.4935556024825
 20
594.2284961675562
 30
0.0
 10
-158.6174474353767
 20
573.6688414716868
 30
0.0
 10
-152.9973593565571
 20
552.9341140899334
 30
0.0
 10
-147.6490905122807
 20
532.0286323994634
 30
0.0
 10
-142.5755968028376
 20
510.9642490266867
 30
0.0
 10
-137.7827580952687
 20
489.7507071092603
 30
0.0
 10
-133.2751560681043
 20
468.3982244312797
 30
0.0
 10
-129.0572241095432
 20
446.9167938163386
 30
0.0
 10
-125.1329535117383
 20
425.3163678067425
 30
0.0
 10
-121.5059884353544
 20
403.6068075970823
 30
0.0
 10
-118.1796111762532
 20
381.7978970615257
 30
0.0
 10
-115.1567743143111
 20
359.8993399966408
 30
0.0
 10
-112.4400521026232
 20
337.9207657048588
 30
0.0
 10
-110.0318646151844
 20
315.871723549479
 30
0.0
 10
-107.9336868422424
 20
293.7617180368116
 30
0.0
 10
-106.1490430703334
 20
271.6000967375003
 30
0.0
 10
-104.6723641766036
 20
249.396489923244
 30
0.0
 10
-103.5306194341247
 20
227.159192631997
 30
0.0
 10
-102.8148302653341
 20
209.5093557902541
 30
0.0
 10
-102.5901478254108
 20
199.2703210254245
 30
0.0
 10
-102.5284119902668
 20
196.4569486831483
 30
0.0
  0
SPLINE
  5
15C
330
157
100
AcDbEntity
  8
0
  6
Continuous
 62
     7
370
    25
100
AcDbSpline
210
0.0
220
0.0
230
1.0
 70
     8
 71
     3
 72
    28
 73
    24
 74
     0
 42
0.000000001
 43
0.00000001
 40
0.0
 40
0.0
 40
0.0
 40
0.0
 40
0.0338422989840258
 40
0.083003602150164
 40
0.1321363999081741
 40
0.1812362856140538
 40
0.2302987851008908
 40
0.2793193361784224
 40
0.3282932681638329
 40
0.3772157814431808
 40
0.4260819270733682
 40
0.4748865864474666
 40
0.5236244510650602
 40
0.5722900024700622
 40
0.6208774924362062
 40
0.6693809235096473
 40
0.7177940300452818
 40
0.7661102598998386
 40
0.8143227569826869
 40
0.8624243448956236
 40
0.9104075119308552
 40
0.9582643977323536
 40
1.0
 40
1.0
 40
1.0
 40
1.0
 10
102.5249952252143
 20
196.4539226338716
 30
0.0
 10
102.6554159946434
 20
201.5573576821947
 30
0.0
 10
102.9752936029264
 20
214.0743410156901
 30
0.0
 10
103.8470510235373
 20
233.9819618200649
 30
0.0
 10
105.0893658767602
 20
256.1653563481928
 30
0.0
 10
106.6555705855146
 20
278.3014994285106
 30
0.0
 10
108.5290835663168
 20
300.3819432065143
 30
0.0
 10
110.7120146546454
 20
322.3974315931936
 30
0.0
 10
113.2011139958752
 20
344.3389088825769
 30
0.0
 10
115.9942038571743
 20
366.1972436818807
 30
0.0
 10
119.0884509266349
 20
387.9632971631214
 30
0.0
 10
122.4808211102567
 20
409.6278998300504
 30
0.0
 10
126.1679499247637
 20
431.18185318682
 30
0.0
 10
130.1461667983525
 20
452.6159265058664
 30
0.0
 10
134.4114835108519
 20
473.9208521973762
 30
0.0
 10
138.9595690599769
 20
495.0873360505414
 30
0.0
 10
143.7858114117535
 20
516.1060145595169
 30
0.0
 10
148.8850437249559
 20
536.967614222833
 30
0.0
 10
154.2525204021669
 20
557.6623644135548
 30
0.0
 10
159.8802422781418
 20
578.1821927987207
 30
0.0
 10
165.7705790248845
 20
598.512578568636
 30
0.0
 10
171.6305721218284
 20
617.8225682727068
 30
0.0
 10
175.6532126180846
 20
630.278690039471
 30
0.0
 10
177.527112176359
 20
636.0812272282343
 30
0.0
  0
SPLINE
  5
15D
330
157
100
AcDbEntity
  8
0
  6
Continuous
 62
     7
370
    25
100
AcDbSpline
210
0.0
220
0.0
230
1.0
 70
     8
 71
     3
 72
    12
 73
     8
 74
     0
 42
0.000000001
 43
0.00000001
 40
0.0
 40
0.0
 40
0.0
 40
0.0
 40
0.138120823175865
 40
0.3899193914225294
 40
0.641715160439384
 40
0.8935039449505343
 40
0.9999999999999999
 40
0.9999999999999999
 40
0.9999999999999999
 40
0.9999999999999999
 10
-102.5303291833738
 20
196.456726758439
 30
0.0
 10
-102.2950419498272
 20
187.4149614968011
 30
0.0
 10
-101.6308187515831
 20
161.8897761761617
 30
0.0
 10
-100.8809602245174
 20
119.8688998506421
 30
0.0
 10
-100.2763839749541
 20
70.39948651150569
 30
0.0
 10
-99.99866271880525
 20
30.44172113206695
 30
0.0
 10
-100.0294098063899
 20
6.975204827460557
 30
0.0
 10
-100.0385490251634
 20
0.0000522777202083
 30
0.0
  0
SPLINE
  5
15E
330
157
100
AcDbEntity
  8
0
  6
Continuous
 62
     7
370
    25
100
AcDbSpline
210
0.0
220
0.0
230
1.0
 70
     8
 71
     3
 72
    12
 73
     8
 74
     0
 42
0.000000001
 43
0.00000001
 40
0.0
 40
0.0
 40
0.0
 40
0.0
 40
0.1879051194338093
 40
0.4396673796140775
 40
0.6914080602311313
 40
0.9431229971525186
 40
1.0
 40
1.0
 40
1.0
 40
1.0
 10
100.029903138915
 20
-0.0001975331597737
 30
0.0
 10
100.0351493022921
 20
12.30685530714787
 30
0.0
 10
100.0474244702705
 20
41.10335478185273
 30
0.0
 10
100.4311502393875
 20
86.3861825472747
 30
0.0
 10
101.1529342117447
 20
135.8416605110986
 30
0.0
 10
101.8576605793351
 20
172.5317089952431
 30
0.0
 10
102.4158674740618
 20
192.7313341239119
 30
0.0
 10
102.5187513509532
 20
196.4543546824588
 30
0.0
  0
SPLINE
  5
15F
330
157
100
AcDbEntity
  8
0
  6
Continuous
 62
     7
370
    25
100
AcDbSpline
210
0.0
220
0.0
230
1.0
 70
     8
 71
     3
 72
    48
 73
    44
 74
     0
 42
0.000000001
 43
0.00000001
 40
0.0
 40
0.0
 40
0.0
 40
0.0
 40
0.0500495568629457
 40
0.092598518615664
 40
0.1277051373050619
 40
0.1557153481048568
 40
0.1802301270046733
 40
0.2023059377084258
 40
0.219979811539967
 40
0.2335956451901701
 40
0.2480338296146939
 40
0.2647889454654785
 40
0.2838509758302563
 40
0.3016858087468209
 40
0.3219098253936004
 40
0.3445526751838621
 40
0.3695984462442259
 40
0.3969466603930155
 40
0.4223227755556062
 40
0.4466480658690457
 40
0.4671278502007239
 40
0.487076812047864
 40
0.506532790102846
 40
0.5281225981700666
 40
0.5541107321889729
 40
0.5847752122970319
 40
0.6192731099911913
 40
0.6486522719911659
 40
0.6705856563788432
 40
0.6945554513928358
 40
0.7209730300456596
 40
0.7516774203849611
 40
0.7852217536129211
 40
0.8141932417130099
 40
0.839123946507387
 40
0.8650003473582817
 40
0.8957771035855124
 40
0.9096235489133739
 40
0.9211738999048665
 40
0.9347620365029071
 40
0.9513370841606673
 40
0.9729679668740532
 40
1.0
 40
1.0
 40
1.0
 40
1.0
 10
177.4473371858556
 20
635.8688738420848
 30
0.0
 10
178.2017551814509
 20
638.1229003445693
 30
0.0
 10
179.5975315516678
 20
642.2931573484834
 30
0.0
 10
181.5714319469682
 20
648.0101010006503
 30
0.0
 10
183.2276582210103
 20
652.719999744778
 30
0.0
 10
184.6166088676394
 20
656.6051933110389
 30
0.0
 10
185.8087749827314
 20
659.8962433440903
 30
0.0
 10
186.8422471575086
 20
662.7159711148596
 30
0.0
 10
187.7048563059588
 20
665.0462966482372
 30
0.0
 10
188.4439518697627
 20
667.0275551018821
 30
0.0
 10
189.1714975778353
 20
668.9644566071042
 30
0.0
 10
189.9927038298571
 20
671.1340194433122
 30
0.0
 10
190.8754873621672
 20
673.4458801763631
 30
0.0
 10
191.821760418371
 20
675.901733825062
 30
0.0
 10
192.83189204878
 20
678.4991185073557
 30
0.0
 10
193.9692374907262
 20
681.3933630692229
 30
0.0
 10
195.2349072813763
 20
684.577247348186
 30
0.0
 10
196.5578151665041
 20
687.8633733936699
 30
0.0
 10
197.8780900134567
 20
691.101680457146
 30
0.0
 10
199.0857801974567
 20
694.0288335438182
 30
0.0
 10
200.2018694548389
 20
696.70536800883
 30
0.0
 10
201.2400744654899
 20
699.1714489082759
 30
0.0
 10
202.3021736042519
 20
701.6709150205711
 30
0.0
 10
203.4743320913301
 20
704.4028436831182
 30
0.0
 10
204.8472236747728
 20
707.5670848401678
 30
0.0
 10
206.4566753110586
 20
711.2277286920701
 30
0.0
 10
208.1390679683788
 20
714.9964730261757
 30
0.0
 10
209.6771751742844
 20
718.3909852484819
 30
0.0
 10
211.0296631001856
 20
721.3403721291402
 30
0.0
 10
212.3295354783022
 20
724.1449992266674
 30
0.0
 10
213.7915628853121
 20
727.2629535617115
 30
0.0
 10
215.4324021364375
 20
730.7163791752964
 30
0.0
 10
217.1289556372382
 20
734.2344440050032
 30
0.0
 10
218.7261929160076
 20
737.4990339373677
 30
0.0
 10
220.1834016965289
 20
740.440482100836
 30
0.0
 10
221.6632863462116
 20
743.3932055321036
 30
0.0
 10
222.9626355608291
 20
745.9521822704442
 30
0.0
 10
223.9983133196438
 20
747.9707782105676
 30
0.0
 10
224.7149682499778
 20
749.3593851383406
 30
0.0
 10
225.4788952797974
 20
750.8310815608164
 30
0.0
 10
226.426590426733
 20
752.6438413908289
 30
0.0
 10
227.6207955236753
 20
754.9098936490312
 30
0.0
 10
228.5141751989972
 20
756.5805755613436
 30
0.0
 10
229.0104436317621
 20
757.5086319265986
 30
0.0
  0
SPLINE
  5
160
330
157
100
AcDbEntity
  8
0
  6
Continuous
 62
     7
370
    25
100
AcDbSpline
210
0.0
220
0.0
230
1.0
 70
     8
 71
     3
 72
    30
 73
    26
 74
     0
 42
0.000000001
 43
0.00000001
 40
0.0
 40
0.0
 40
0.0
 40
0.0
 40
0.0507802001567449
 40
0.0916798029800464
 40
0.123004641563092
 40
0.1505384038969606
 40
0.1761172498232145
 40
0.2273634824909564
 40
0.2857328630262828
 40
0.3393416340116969
 40
0.3873738015047552
 40
0.4340572917712234
 40
0.4830057704699997
 40
0.5321363348153704
 40
0.5869794967808096
 40
0.6457760205124286
 40
0.6992139056497878
 40
0.7491318926563099
 40
0.7775134459954066
 40
0.8059872036777682
 40
0.8341617466738945
 40
0.8620917838323838
 40
0.896680037693134
 40
0.942596862671132
 40
1.0
 40
1.0
 40
1.0
 40
1.0
 10
-206.5546622613178
 20
707.4902113921245
 30
0.0
 10
-206.0007538752985
 20
706.4556722279245
 30
0.0
 10
-205.0007142625658
 20
704.5878901700316
 30
0.0
 10
-203.6771009473034
 20
702.040144406897
 30
0.0
 10
-202.610761768204
 20
699.952559267366
 30
0.0
 10
-201.7152397091573
 20
698.1717691272374
 30
0.0
 10
-200.618570664894
 20
695.9608436564215
 30
0.0
 10
-199.2043792001323
 20
693.0520328713858
 30
0.0
 10
-197.5032837482713
 20
689.4483701545547
 30
0.0
 10
-195.8726020406258
 20
685.8863623532876
 30
0.0
 10
-194.3784863815977
 20
682.529602366656
 30
0.0
 10
-192.9553050207637
 20
679.2455270046905
 30
0.0
 10
-191.5461081279674
 20
675.9040941130243
 30
0.0
 10
-190.069555813445
 20
672.3015370226506
 30
0.0
 10
-188.5307877595912
 20
668.4290035997116
 30
0.0
 10
-186.9875519931139
 20
664.4094887375247
 30
0.0
 10
-185.5211367651301
 20
660.4552151799833
 30
0.0
 10
-184.3525076473477
 20
657.199108780107
 30
0.0
 10
-183.4205283898733
 20
654.5357248903027
 30
0.0
 10
-182.6865727141951
 20
652.398788527121
 30
0.0
 10
-181.9629480869764
 20
650.2517548471457
 30
0.0
 10
-181.1927006138715
 20
647.9227211973072
 30
0.0
 10
-180.2900030155512
 20
645.1320574637663
 30
0.0
 10
-179.1697765283238
 20
641.5792982017146
 30
0.0
 10
-178.3646396049672
 20
638.9013779456585
 30
0.0
 10
-177.9173167029058
 20
637.413562611797
 30
0.0
  0
SPLINE
  5
161
330
157
100
AcDbEntity
  8
0
  6
Continuous
 62
     7
370
    25
100
AcDbSpline
210
0.0
220
0.0
230
1.0
 70
     8
 71
     3
 72
    16
 73
    12
 74
     0
 42
0.000000001
 43
0.00000001
 40
0.0
 40
0.0
 40
0.0
 40
0.0
 40
0.1074785675659536
 40
0.2404029808604821
 40
0.3481377769059891
 40
0.4613482574709014
 40
0.5764768483025938
 40
0.722056997240409
 40
0.8598275326031649
 40
0.9872632362104512
 40
1.0
 40
1.0
 40
1.0
 40
1.0
 10
-163.3666876363179
 20
683.1761123062414
 30
0.0
 10
-163.5767944961932
 20
683.4576186272517
 30
0.0
 10
-164.0467515914276
 20
684.0872786630572
 30
0.0
 10
-164.6545577063578
 20
684.9527319208331
 30
0.0
 10
-165.2360684777703
 20
685.8105113395989
 30
0.0
 10
-165.7345292474378
 20
686.5790829525838
 30
0.0
 10
-166.2094430539876
 20
687.3373756456184
 30
0.0
 10
-166.6941002684848
 20
688.1444209687578
 30
0.0
 10
-167.1346896580125
 20
688.9077976550245
 30
0.0
 10
-167.4604343863069
 20
689.5574392017687
 30
0.0
 10
-167.4217031684095
 20
689.4369577523275
 30
0.0
 10
-167.4181838583567
 20
689.4260102118365
 30
0.0
  0
LWPOLYLINE
  5
162
330
157
100
AcDbEntity
  8
0
  6
Continuous
 62
     7
370
    25
100
AcDbPolyline
 90
       66
 70
   128
 43
0.0
 10
177.519467904
 20
636.1094001417
 10
176.4852761352
 20
633.2163479896
 10
174.7468094417
 20
629.2135293589
 10
172.6662676625
 20
625.2542340817
 10
170.247723556
 20
621.3462126646
 10
167.4959115358
 20
617.497115243
 10
164.4162184031
 20
613.7144766059
 10
161.014672802
 20
610.005701446
 10
157.2979334175
 20
606.3780498649
 10
153.2732759417
 20
602.8386231608
 10
148.9485788305
 20
599.3943499279
 10
144.3323078816
 20
596.0519724926
 10
139.4334996622
 20
592.8180337158
 10
134.2617438193
 20
589.6988641844
 10
128.8271643081
 20
586.7005698194
 10
123.1403995729
 20
583.8290199227
 10
117.2125817229
 20
581.0898356881
 10
111.0553147399
 20
578.4883791974
 10
104.6806517631
 20
576.0297429238
 10
98.1010714947
 20
573.7187397633
 10
91.3294537719
 20
571.5598936131
 10
84.3790543546
 20
569.5574305159
 10
77.263478976
 20
567.7152703873
 10
69.9966567089
 20
566.0370193422
 10
62.5928126993
 20
564.5259626359
 10
55.0664403195
 20
563.1850582327
 10
47.4322727969
 20
562.0169310162
 10
39.7052543728
 20
561.02386765
 10
31.9005110487
 20
560.2078121025
 10
24.0333209762
 20
559.5703618407
 10
16.1190845493
 20
559.1127647033
 10
8.1732942574
 20
558.8359164583
 10
0.2115043582
 20
558.7403590492
 10
-7.7506995708
 20
558.8262795339
 10
-15.6977311413
 20
559.0935097193
 10
-23.614033666
 20
559.5415264895
 10
-31.4841106108
 20
560.1694528308
 10
-39.2925559307
 20
560.9760595478
 10
-47.0240842271
 20
561.95976767
 10
-54.6635606704
 20
563.1186515426
 10
-62.1960306267
 20
564.450442596
 10
-69.6067489323
 20
565.9525337866
 10
-76.8812087581
 20
567.6219847004
 10
-84.0051700074
 20
569.4555273089
 10
-90.9646871916
 20
571.4495723662
 10
-97.7461367288
 20
573.6002164356
 10
-104.3362436133
 20
575.9032495302
 10
-110.7221074013
 20
578.3541633547
 10
-116.8912274645
 20
580.9481601301
 10
-122.8315274607
 20
583.680161986
 10
-128.5313789737
 20
586.5448209004
 10
-133.9796242766
 20
589.5365291689
 10
-139.1655981732
 20
592.6494303822
 10
-144.0791488762
 20
595.8774308899
 10
-148.7106578793
 20
599.2142117294
 10
-153.0510587862
 20
602.6532409956
 10
-157.0918550582
 20
606.1877866271
 10
-160.8251366469
 20
609.810929585
 10
-164.2435954782
 20
613.5155773967
 10
-167.3405397585
 20
617.2944780402
 10
-170.1099070739
 20
621.14023414
 10
-172.5462762578
 20
625.0453174479
 10
-174.6448780032
 20
629.00208358
 10
-176.4016041985
 20
633.0027869808
 10
-177.8130159698
 20
637.0395960854
 10
-178.5381649212
 20
639.655996984
  0
LWPOLYLINE
  5
163
330
157
100
AcDbEntity
  8
0
  6
Continuous
 62
     7
370
    25
100
AcDbPolyline
 90
       55
 70
   128
 43
0.0
 10
99.9999999711
 20
0.001239083
 10
99.9160207874
 20
-2.1103234968
 10
99.4978081588
 20
-5.1551727926
 10
98.7301058502
 20
-8.1819143559
 10
97.615610444
 20
-11.1799166467
 10
96.1582366459
 20
-14.1386490725
 10
94.3631035346
 20
-17.0477189777
 10
92.2365165806
 20
-19.8969081483
 10
89.7859454981
 20
-22.6762087034
 10
87.0199980074
 20
-25.3758582483
 10
83.9483896
 20
-27.9863741657
 10
80.5819094124
 20
-30.4985869231
 10
76.932382329
 20
-32.9036722816
 10
73.0126274469
 20
-35.1931822912
 10
68.836413048
 20
-37.3590749644
 10
64.4184082377
 20
-39.3937425243
 10
59.7741314191
 20
-41.2900381268
 10
54.9198957838
 20
-43.0413009646
 10
49.8727520116
 20
-44.6413796628
 10
44.650428379
 20
-46.0846538869
 10
39.2712684882
 20
-47.3660540835
 10
33.7541668346
 20
-48.4810792876
 10
28.118502439
 20
-49.4258129325
 10
22.384070778
 20
-50.1969366068
 10
16.571014252
 20
-50.7917417106
 10
10.6997514341
 20
-51.2081389692
 10
4.7909053491
 20
-51.444665772
 10
-1.1347689657
 20
-51.50049131
 10
-7.0564573632
 20
-51.375419494
 10
-12.9533596968
 20
-51.0698896434
 10
-18.804762882
 20
-50.5849749427
 10
-24.5901136518
 20
-49.9223786727
 10
-30.2890907505
 20
-49.0844282268
 10
-35.8816763133
 20
-48.0740669366
 10
-41.3482261794
 20
-46.894843733
 10
-46.669538893
 20
-45.5509006804
 10
-51.8269231491
 20
-44.0469584279
 10
-56.8022634475
 20
-42.3882996275
 10
-61.5780837239
 20
-40.5807503787
 10
-66.1376087354
 20
-38.6306597641
 10
-70.464822984
 20
-36.5448775482
 10
-74.544526972
 20
-34.330730117
 10
-78.3623905902
 20
-31.9959947443
 10
-81.9050034535
 20
-29.548872273
 10
-85.159922005
 20
-26.9979583103
 10
-88.1157132245
 20
-24.3522130343
 10
-90.7619947877
 20
-21.6209297218
 10
-93.0894715339
 20
-18.8137021052
 10
-95.0899681163
 20
-15.9403906737
 10
-96.7564577176
 20
-13.0110880387
 10
-98.0830867323
 20
-10.0360834824
 10
-99.0651953277
 20
-7.0258268168
 10
-99.6993338114
 20
-3.9908916783
 10
-99.983274749
 20
-0.9419383872
 10
-99.999999975
 20
0.0011509973
  0
SPLINE
  5
164
330
157
100
AcDbEntity
  8
0
  6
Continuous
 62
     7
370
    25
100
AcDbSpline
210
0.0
220
0.0
230
1.0
 70
    11
 71
     3
 72
    66
 73
    62
 74
     0
 42
0.000000001
 43
0.00000001
 40
0.0
 40
0.0
 40
0.0
 40
0.0
 40
0.0312499999999997
 40
0.0312499999999997
 40
0.0624999999999994
 40
0.0624999999999994
 40
0.0937499999999991
 40
0.0937499999999991
 40
0.1249999999999988
 40
0.1249999999999988
 40
0.1562499999999985
 40
0.1562499999999985
 40
0.1874999999999982
 40
0.1874999999999982
 40
0.2187499999999979
 40
0.2187499999999979
 40
0.2499999999999976
 40
0.2499999999999976
 40
0.2812499999999973
 40
0.2812499999999973
 40
0.3124999999999971
 40
0.3124999999999971
 40
0.3437499999999967
 40
0.3437499999999967
 40
0.3749999999999964
 40
0.3749999999999964
 40
0.4062499999999962
 40
0.4062499999999962
 40
0.4374999999999959
 40
0.4374999999999959
 40
0.4687499999999956
 40
0.4687499999999956
 40
0.4999999999999959
 40
0.4999999999999959
 40
0.5312499999999961
 40
0.5312499999999961
 40
0.5624999999999964
 40
0.5624999999999964
 40
0.6249999999999969
 40
0.6249999999999969
 40
0.6562499999999972
 40
0.6562499999999972
 40
0.6874999999999974
 40
0.6874999999999974
 40
0.7187499999999978
 40
0.7187499999999978
 40
0.749999999999998
 40
0.749999999999998
 40
0.7812499999999982
 40
0.7812499999999982
 40
0.8124999999999986
 40
0.8124999999999986
 40
0.8437499999999988
 40
0.8437499999999988
 40
0.874999999999999
 40
0.874999999999999
 40
0.9062499999999993
 40
0.9062499999999993
 40
0.9374999999999996
 40
0.9374999999999996
 40
1.0
 40
1.0
 40
1.0
 40
1.0
 10
89.28960417467461
 20
0.9726629571504259
 30
0.0
 10
89.23687402251124
 20
0.81874911210994
 30
0.0
 10
89.17968566580704
 20
0.6719397126536131
 30
0.0
 10
89.05655354378504
 20
0.3920019839541156
 30
0.0
 10
88.98982365838016
 20
0.2575484167071096
 30
0.0
 10
88.85103155957383
 20
0.0107139238990639
 30
0.0
 10
88.77931035242784
 20
-0.1014716086910616
 30
0.0
 10
88.63114158163343
 20
-0.3035477777523221
 30
0.0
 10
88.55420166323884
 20
-0.3936353582273955
 30
0.0
 10
88.40199466283447
 20
-0.5433482602787976
 30
0.0
 10
88.32597284234883
 20
-0.604177913343551
 30
0.0
 10
88.1741360121626
 20
-0.6971246966234745
 30
0.0
 10
88.09948563989339
 20
-0.7282810076464363
 30
0.0
 10
87.95659163041022
 20
-0.7592510097165772
 30
0.0
 10
87.88727957793063
 20
-0.7593376934229012
 30
0.0
 10
87.75632657382596
 20
-0.7277968814714542
 30
0.0
 10
87.69581255668184
 20
-0.696683110177232
 30
0.0
 10
87.58464712924628
 20
-0.6046397462298736
 30
0.0
 10
87.53357844669121
 20
-0.5427456059979296
 30
0.0
 10
87.44559251736945
 20
-0.3929082270816009
 30
0.0
 10
87.4082777141755
 20
-0.3050710122990408
 30
0.0
 10
87.34725624527398
 20
-0.1034578860797386
 30
0.0
 10
87.3238025836604
 20
0.010498027364414
 30
0.0
 10
87.29286780732875
 20
0.2547591709421981
 30
0.0
 10
87.28499629613827
 20
0.3861402653180246
 30
0.0
 10
87.28508334186633
 20
0.6681157713747665
 30
0.0
 10
87.2930698322854
 20
0.8145551574883503
 30
0.0
 10
87.32419024617597
 20
1.116315785048894
 30
0.0
 10
87.34768120422443
 20
1.27359800069643
 30
0.0
 10
87.40896352053726
 20
1.589422718423161
 30
0.0
 10
87.44639027327369
 20
1.746981845451245
 30
0.0
 10
87.53447731156672
 20
2.061451449742346
 30
0.0
 10
87.58565643512974
 20
2.219420827116791
 30
0.0
 10
87.69706778468837
 20
2.521527148438285
 30
0.0
 10
87.75764804699723
 20
2.66723212882608
 30
0.0
 10
87.88855217063387
 20
2.947784699617761
 30
0.0
 10
87.95815193470997
 20
3.080769166898811
 30
0.0
 10
88.17270831185304
 20
3.446804785496471
 30
0.0
 10
88.32785140394388
 20
3.653643837200904
 30
0.0
 10
88.55612577251674
 20
3.878496482003668
 30
0.0
 10
88.63302453630709
 20
3.940792120084968
 30
0.0
 10
88.78135480456454
 20
4.03403170478872
 30
0.0
 10
88.85305547409543
 20
4.065570569827925
 30
0.0
 10
88.99163160224683
 20
4.098387182052798
 30
0.0
 10
89.05843906620467
 20
4.099213185363881
 30
0.0
 10
89.1814980810437
 20
4.069993138035965
 30
0.0
 10
89.2385640066861
 20
4.040244413860028
 30
0.0
 10
89.34366070966253
 20
3.949332333369415
 30
0.0
 10
89.3902809122492
 20
3.889252371566454
 30
0.0
 10
89.47132152605435
 20
3.742102210660125
 30
0.0
 10
89.50618880513976
 20
3.653820147523856
 30
0.0
 10
89.56210973718892
 20
3.453260730532426
 30
0.0
 10
89.58308317501164
 20
3.342108315853465
 30
0.0
 10
89.61138777127873
 20
3.098359014673202
 30
0.0
 10
89.61860226621144
 20
2.964436965568251
 30
0.0
 10
89.6184978896958
 20
2.685603832941974
 30
0.0
 10
89.61141498180673
 20
2.539747732632269
 30
0.0
 10
89.58290731713622
 20
2.234946033916052
 30
0.0
 10
89.5614626275026
 20
2.077354593980063
 30
0.0
 10
89.47799060427363
 20
1.604847904417228
 30
0.0
 10
89.39506447900132
 20
1.280490647231403
 30
0.0
 10
89.28960417467461
 20
0.9726629571504259
 30
0.0
  0
SPLINE
  5
165
330
157
100
AcDbEntity
  8
0
  6
Continuous
 62
     7
370
    25
100
AcDbSpline
210
0.0
220
0.0
230
1.0
 70
    11
 71
     3
 72
    53
 73
    49
 74
     0
 42
0.000000001
 43
0.00000001
 40
0.0
 40
0.0
 40
0.0
 40
0.0
 40
0.00703125
 40
0.0093749999999999
 40
0.046875
 40
0.078125
 40
0.09375
 40
0.125
 40
0.140625
 40
0.171875
 40
0.203125
 40
0.21875
 40
0.25
 40
0.2678239461198844
 40
0.28125
 40
0.296875
 40
0.328125
 40
0.34375
 40
0.375
 40
0.390625
 40
0.421875
 40
0.453125
 40
0.46875
 40
0.484375
 40
0.4999999999971685
 40
0.515625
 40
0.53125
 40
0.546875
 40
0.578125
 40
0.609375
 40
0.625
 40
0.65625
 40
0.671875
 40
0.703125
 40
0.71875
 40
0.7321760538703969
 40
0.75
 40
0.78125
 40
0.796875
 40
0.828125
 40
0.859375
 40
0.875
 40
0.90625
 40
0.921875
 40
0.953125
 40
0.990625
 40
0.99296875
 40
1.0
 40
1.0
 40
1.0
 40
1.0
 10
124.8410165390308
 20
970.444287015191
 30
0.0
 10
127.9296571146767
 20
969.6048606882925
 30
0.0
 10
131.9966819954134
 20
968.4086653221538
 30
0.0
 10
151.9643905280577
 20
961.9299066409226
 30
0.0
 10
179.8238693831346
 20
948.9280153644984
 30
0.0
 10
206.0683296057011
 20
928.0699146156979
 30
0.0
 10
225.7652184069883
 20
905.580443941991
 30
0.0
 10
237.5837514573984
 20
885.3213005295047
 30
0.0
 10
246.693606120695
 20
858.0141135605083
 30
0.0
 10
250.1328450712056
 20
829.2795656920258
 30
0.0
 10
245.9847023038743
 20
799.9439286158716
 30
0.0
 10
236.2247135108924
 20
770.5162376495759
 30
0.0
 10
223.6131849746492
 20
746.4627780146212
 30
0.0
 10
207.1640315786059
 20
724.457939539031
 30
0.0
 10
193.0279492106315
 20
708.7549053267845
 30
0.0
 10
172.9059798825531
 20
689.7031375697298
 30
0.0
 10
149.1112744486967
 20
672.1273458435732
 30
0.0
 10
116.0855348956549
 20
653.1308716575975
 30
0.0
 10
87.44057457833767
 20
640.5477903849926
 30
0.0
 10
50.04973611946228
 20
628.7690484424619
 30
0.0
 10
11.77300755151985
 20
621.0366342552965
 30
0.0
 10
-26.02799907964452
 20
618.9500929469826
 30
0.0
 10
-55.64243833206518
 20
620.6852301767889
 30
0.0
 10
-77.31867646661026
 20
623.6835592342952
 30
0.0
 10
-98.17651110617372
 20
628.3880024257824
 30
0.0
 10
-117.9662244195018
 20
634.7306917959296
 30
0.0
 10
-136.4380985776296
 20
642.6437593900389
 30
0.0
 10
-159.059147107867
 20
655.1051084688492
 30
0.0
 10
-183.1689295943279
 20
674.0176756727536
 30
0.0
 10
-201.3572838472521
 20
697.0960894724661
 30
0.0
 10
-214.4443264467849
 20
722.5936378792924
 30
0.0
 10
-220.5274634907456
 20
744.6150718840776
 30
0.0
 10
-222.5684332237872
 20
773.1419262681675
 30
0.0
 10
-219.7310542960017
 20
796.4134702794837
 30
0.0
 10
-212.6916745127575
 20
819.020805546233
 30
0.0
 10
-205.1778469035452
 20
836.5236267044809
 30
0.0
 10
-192.300232400052
 20
859.4991329222443
 30
0.0
 10
-174.4710487878421
 20
882.1345457118455
 30
0.0
 10
-148.6957420507936
 20
907.2096164261338
 30
0.0
 10
-119.099999028297
 20
929.6291410270978
 30
0.0
 10
-84.8668759418427
 20
948.1251481127131
 30
0.0
 10
-48.25135927964132
 20
963.005158929128
 30
0.0
 10
-17.54972883105863
 20
971.7082329975095
 30
0.0
 10
21.12901878773517
 20
978.3324565286599
 30
0.0
 10
62.57712806022543
 20
980.7931673631994
 30
0.0
 10
96.451731193377
 20
977.0170579558426
 30
0.0
 10
117.5846997393232
 20
972.3255332879463
 30
0.0
 10
121.7523759633848
 20
971.2837133420898
 30
0.0
 10
124.8410165390308
 20
970.444287015191
 30
0.0
  0
SPLINE
  5
166
330
157
100
AcDbEntity
  8
0
  6
Continuous
 62
     7
370
    25
100
AcDbSpline
210
0.0
220
0.0
230
1.0
 70
     8
 71
     3
 72
    44
 73
    40
 74
     0
 42
0.000000001
 43
0.00000001
 40
0.0
 40
0.0
 40
0.0
 40
0.0
 40
0.012866330658666
 40
0.0425767222528923
 40
0.0726752176989067
 40
0.0985203664922176
 40
0.1246535758160195
 40
0.1510922057797806
 40
0.1778163999232457
 40
0.2047506448798366
 40
0.231885899518334
 40
0.2576716490778677
 40
0.2836921771252715
 40
0.3100098043575196
 40
0.3366012819390676
 40
0.3634113159032147
 40
0.3920273861589775
 40
0.4207599268947153
 40
0.4495294589247252
 40
0.4782462496082937
 40
0.5068412851687325
 40
0.535340573202359
 40
0.5621686155912764
 40
0.5889931348479426
 40
0.6158272187794981
 40
0.6425671859559637
 40
0.6691838465764565
 40
0.6974157338401962
 40
0.7257893179782261
 40
0.7542504262126403
 40
0.7826978601991396
 40
0.8111589240574184
 40
0.8396804866158272
 40
0.8666726794046906
 40
0.8937666065636412
 40
0.9208934453598367
 40
0.9479786497906297
 40
0.9749564963229829
 40
1.0
 40
1.0
 40
1.0
 40
1.0
 10
177.2960851998153
 20
635.8795719367132
 30
0.0
 10
176.9633653664876
 20
634.7712154833686
 30
0.0
 10
175.8623428366429
 20
631.1034887535674
 30
0.0
 10
172.668446902224
 20
624.9721445258944
 30
0.0
 10
168.0002326801285
 20
617.9016091252439
 30
0.0
 10
162.4443562051628
 20
611.3384376369497
 30
0.0
 10
156.2766894002146
 20
605.2820551238971
 30
0.0
 10
149.1679417209002
 20
599.4141684615978
 30
0.0
 10
141.1455211977879
 20
593.7809395110913
 30
0.0
 10
132.2486834855872
 20
588.4271514633879
 30
0.0
 10
122.6998650533471
 20
583.4946185769677
 30
0.0
 10
112.5789201047317
 20
578.9966960663442
 30
0.0
 10
101.9516903978233
 20
574.9382266803244
 30
0.0
 10
90.65346634157262
 20
571.259825331369
 30
0.0
 10
78.74018208699235
 20
567.9892224010168
 30
0.0
 10
66.03046161684446
 20
565.1040980299017
 30
0.0
 10
52.57742434644216
 20
562.6768149748943
 30
0.0
 10
38.46328416699868
 20
560.780460340011
 30
0.0
 10
24.0810368757028
 20
559.4774964935978
 30
0.0
 10
9.565758026429046
 20
558.7720009270273
 30
0.0
 10
-4.967136632438694
 20
558.6726942797529
 30
0.0
 10
-19.14911674368644
 20
559.1669714332244
 30
0.0
 10
-32.91343124054679
 20
560.2102603442034
 30
0.0
 10
-46.20873994502891
 20
561.7579014024718
 30
0.0
 10
-59.22481254064557
 20
563.8153816419988
 30
0.0
 10
-71.87461569088617
 20
566.3595963625016
 30
0.0
 10
-84.3302643101877
 20
569.4397636040044
 30
0.0
 10
-96.5220309556484
 20
573.0833336060633
 30
0.0
 10
-108.3671875917306
 20
577.3074612280122
 30
0.0
 10
-119.5560358524148
 20
582.0121426780373
 30
0.0
 10
-129.9874891058478
 20
587.1691603219747
 30
0.0
 10
-139.5827653292352
 20
592.7472966721467
 30
0.0
 10
-148.124422476311
 20
598.6047309321569
 30
0.0
 10
-155.6223650570217
 20
604.6878362763275
 30
0.0
 10
-162.0884641071008
 20
610.939464712445
 30
0.0
 10
-167.6344265025421
 20
617.4313381873753
 30
0.0
 10
-172.1658220261109
 20
624.1155072121936
 30
0.0
 10
-175.6922476716681
 20
630.7764922851353
 30
0.0
 10
-177.1508262571824
 20
635.2491964646958
 30
0.0
 10
-177.8529979236718
 20
637.4023928564893
 30
0.0
  0
LWPOLYLINE
  5
167
330
157
100
AcDbEntity
  8
0
  6
Continuous
 62
     7
370
    25
100
AcDbPolyline
 90
       89
 70
   128
 43
0.0
 10
111.5469880396
 20
950.0543829407
 10
97.6171397662
 20
953.3445782587
 10
83.2383076768
 20
955.7801373442
 10
68.5061005943
 20
957.3570020346
 10
53.5161273413
 20
958.0711141672
 10
38.3544385423
 20
957.9194253015
 10
23.0667475862
 20
956.903148197
 10
8.5688696195
 20
955.1551763351
 10
-5.966639642
 20
952.64540866
 10
-20.4693695711
 20
949.3840999484
 10
-34.8542790339
 20
945.3848748027
 10
-49.0316125331
 20
940.6624771064
 10
-63.7439069762
 20
934.8861757037
 10
-78.0308255176
 20
928.3669982411
 10
-91.8063600791
 20
921.1565060481
 10
-104.9877080711
 20
913.3046477767
 10
-117.5010245415
 20
904.8566897984
 10
-129.3100320649
 20
895.8382568054
 10
-139.775373008
 20
886.8311077741
 10
-149.5596772006
 20
877.3615105233
 10
-158.6131853418
 20
867.4744346912
 10
-166.8775252311
 20
857.2245179025
 10
-174.291651487
 20
846.6694917858
 10
-181.1659330873
 20
835.2078294145
 10
-186.9899703595
 20
823.5493899079
 10
-191.7386254727
 20
811.7755693882
 10
-195.3891734385
 20
799.9619251479
 10
-197.9250705654
 20
788.1688302059
 10
-199.3399121367
 20
776.431167808
 10
-199.6436883939
 20
765.4405900204
 10
-198.9456024282
 20
754.5581745721
 10
-197.2464829718
 20
743.8370602831
 10
-194.5490102403
 20
733.3411035842
 10
-190.856494705
 20
723.1376345808
 10
-185.8651145054
 20
712.7073052994
 10
-179.8132653344
 20
702.7428718918
 10
-172.7536870938
 20
693.3020972073
 10
-164.7375633421
 20
684.4405356836
 10
-155.8114949092
 20
676.2076014017
 10
-146.0028569384
 20
668.6269571512
 10
-135.9664858528
 20
662.0921442331
 10
-125.194554058
 20
656.1717831153
 10
-113.7369531257
 20
650.8967803361
 10
-101.6547656545
 20
646.307409645
 10
-89.0166193315
 20
642.4371158801
 10
-75.086990694
 20
639.1412472485
 10
-60.7039346094
 20
636.7004415745
 10
-45.9701602636
 20
635.1231361291
 10
-30.986749888
 20
634.4096286686
 10
-15.8303773651
 20
634.5614477327
 10
-0.5438518159
 20
635.5777682312
 10
13.9574131642
 20
637.3264503692
 10
28.497838179
 20
639.8373083478
 10
42.9994544854
 20
643.0983874929
 10
57.3806501405
 20
647.0969396125
 10
71.5564254319
 20
651.8194257163
 10
86.2699413779
 20
657.5968614266
 10
100.560322393
 20
664.1179859439
 10
114.3359244919
 20
671.3285252985
 10
127.5123229384
 20
679.1778029586
 10
140.023445369
 20
687.6244991035
 10
151.8329555316
 20
696.6430043606
 10
162.2990941677
 20
705.6504066885
 10
172.0833733038
 20
715.1198369231
 10
181.136576257
 20
725.0064754889
 10
189.4006437914
 20
735.2559353924
 10
196.8146765812
 20
745.8107436636
 10
203.6891511772
 20
757.2726238194
 10
209.5135260517
 20
768.9315450582
 10
214.2624461735
 20
780.7058134909
 10
217.9131807201
 20
792.5194537617
 10
220.4493989798
 20
804.3118840457
 10
221.8644356698
 20
816.049690463
 10
222.1679317102
 20
827.042839723
 10
221.46929939
 20
837.9288786953
 10
219.7702865311
 20
848.6491621696
 10
217.0730337953
 20
859.1423472716
 10
213.3801171616
 20
869.3445917786
 10
208.3874525781
 20
879.7756756721
 10
202.3336487385
 20
889.7424598067
 10
195.27402063
 20
899.1832715919
 10
187.2604232316
 20
908.0414200438
 10
178.335402101
 20
916.2729501675
 10
168.5250836082
 20
923.8547301836
 10
158.4843185263
 20
930.3920706924
 10
147.7080148829
 20
936.3145381628
 10
136.2531719423
 20
941.5888294204
 10
124.1795696719
 20
946.1803193761
 10
111.5469880396
 20
950.0543829407
  0
SPLINE
  5
168
330
157
100
AcDbEntity
  8
0
  6
Continuous
 62
     7
370
    25
100
AcDbSpline
210
0.0
220
0.0
230
1.0
 70
     8
 71
     3
 72
     9
 73
     5
 74
     0
 42
0.000000001
 43
0.00000001
 40
0.0
 40
0.0
 40
0.0
 40
0.0
 40
0.7631716005057998
 40
1.0
 40
1.0
 40
1.0
 40
1.0
 10
16.10099091809587
 20
641.2674675539275
 30
0.0
 10
17.92107582658762
 20
640.7411997301504
 30
0.0
 10
20.30597184117396
 20
640.0516197937005
 30
0.0
 10
22.24184993257029
 20
639.0689178500897
 30
0.0
 10
22.70032084257157
 20
638.8361861216047
 30
0.0
  0
SPLINE
  5
169
330
157
100
AcDbEntity
  8
0
  6
Continuous
 62
     7
370
    25
100
AcDbSpline
210
0.0
220
0.0
230
1.0
 70
     8
 71
     3
 72
    16
 73
    12
 74
     0
 42
0.000000001
 43
0.00000001
 40
0.0
 40
0.0
 40
0.0
 40
0.0
 40
0.0482476948192774
 40
0.1749279706920141
 40
0.2978007485939267
 40
0.416551597378913
 40
0.5325321545843683
 40
0.6480269465021384
 40
0.7647397295981108
 40
0.88231091607023
 40
1.0
 40
1.0
 40
1.0
 40
1.0
 10
-29.75929625651449
 20
634.4219238837372
 30
0.0
 10
-29.3524741510163
 20
634.8061175529887
 30
0.0
 10
-27.87749041108813
 20
636.1990591052556
 30
0.0
 10
-24.3516708623648
 20
638.2368764622845
 30
0.0
 10
-19.36409622063321
 20
640.3801544210233
 30
0.0
 10
-13.81933812435782
 20
641.9557161000225
 30
0.0
 10
-7.941727937242014
 20
642.9593448153186
 30
0.0
 10
-1.838292806174703
 20
643.3931613372749
 30
0.0
 10
4.331290716527854
 20
643.2517289262687
 30
0.0
 10
10.4431755980449
 20
642.6048035473485
 30
0.0
 10
14.2144225085248
 20
641.7133951241027
 30
0.0
 10
16.10099091809588
 20
641.2674675539276
 30
0.0
  0
LWPOLYLINE
  5
16A
330
157
100
AcDbEntity
  8
0
  6
Continuous
 62
    60
370
    25
100
AcDbPolyline
 90
       55
 70
   128
 43
0.0
 10
102.4912552499
 20
196.4589054377
 10
102.452453103
 20
195.5406978131
 10
102.0926620374
 20
192.4467045556
 10
101.3809364162
 20
189.3689192892
 10
100.3197297048
 20
186.3179517774
 10
98.9127001028
 20
183.304319337
 10
97.1646979327
 20
180.3384105836
 10
95.08174892
 20
177.430449619
 10
92.6710334215
 20
174.590460787
 10
89.9408616729
 20
171.8282341175
 10
86.9006451418
 20
169.153291578
 10
83.5608640845
 20
166.5748542497
 10
79.9330314181
 20
164.1018105401
 10
76.0296530333
 20
161.7426855433
 10
71.8641846841
 20
159.5056116518
 10
67.4509856028
 20
157.3983005227
 10
62.8052690009
 20
155.4280164941
 10
57.943049626
 20
153.6015515432
 10
52.8810885554
 20
151.925201873
 10
47.6368354176
 20
150.4047462082
 10
42.2283682396
 20
149.0454258744
 10
36.6743311282
 20
147.8519267303
 10
30.9938699999
 20
146.8283630148
 10
25.206566581
 20
145.9782631641
 10
19.3323709052
 20
145.3045576484
 10
13.391532542
 20
144.8095688703
 10
7.4045307919
 20
144.4950031585
 10
1.3920040903
 20
144.3619448862
 10
-4.6253211379
 20
144.410852733
 10
-10.6267019258
 20
144.6415581032
 10
-16.5914502708
 20
145.0532657078
 10
-22.4990044496
 20
145.6445563052
 10
-28.3289998992
 20
146.4133915944
 10
-34.0613394174
 20
147.3571212408
 10
-39.6762624424
 20
148.4724920127
 10
-45.1544131714
 20
149.7556589962
 10
-50.4769072839
 20
151.2021988487
 10
-55.6253970402
 20
152.8071250478
 10
-60.5821345294
 20
154.5649050803
 10
-65.3300328506
 20
156.4694795144
 10
-69.8527250148
 20
158.5142828874
 10
-74.134620365
 20
160.6922663384
 10
-78.1609583209
 20
162.9959219074
 10
-81.9178592616
 20
165.4173084163
 10
-85.3923723712
 20
167.9480788442
 10
-88.5725202832
 20
170.5795091013
 10
-91.447340369
 20
173.3025281022
 10
-94.0069225282
 20
176.1077490363
 10
-96.2424433508
 20
178.9855017261
 10
-98.1461965334
 20
181.9258659617
 10
-99.7116194445
 20
184.9187056986
 10
-100.9333157469
 20
187.9537039981
 10
-101.8070740005
 20
191.0203985924
 10
-102.3298821795
 20
194.10821795
 10
-102.4912074828
 20
196.4570247287
  0
VIEWPORT
  5
18A
330
157
100
AcDbEntity
  8
0
100
AcDbViewport
 10
0.0
 20
0.0
 30
0.0
 40
205.6
 41
156.0
 68
     1
 69
     1
 12
-0.0000000001
 22
28.7580789194
 13
0.0
 23
0.0
 14
10.0
 24
10.0
 15
10.0
 25
10.0
 16
0.0
 26
0.0
 36
1.0
 17
0.0
 27
0.0
 37
0.0
 42
50.0
 43
0.0
 44
0.0
 45
487.0335190044
 50
0.0
 51
0.0
 72
   100
 90
   557152
  1

281
     0
 71
     1
 74
     0
110
0.0
120
0.0
130
0.0
111
1.0
121
0.0
131
0.0
112
0.0
122
1.0
132
0.0
 79
     0
146
0.0
  0
ENDBLK
  5
15A
330
157
100
AcDbEntity
  8
0
100
AcDbBlockEnd
  0
BLOCK
  5
16D
330
16B
100
AcDbEntity
  8
0
100
AcDbBlockBegin
  2
*Paper_Space7
 70
     0
 10
0.0
 20
0.0
 30
0.0
  3
*Paper_Space7
  1

  0
SPLINE
  5
16F
330
16B
100
AcDbEntity
  8
0
  6
Continuous
 62
     7
370
    25
100
AcDbSpline
210
0.0
220
0.0
230
1.0
 70
     8
 71
     3
 72
    28
 73
    24
 74
     0
 42
0.000000001
 43
0.00000001
 40
0.0
 40
0.0
 40
0.0
 40
0.0
 40
0.0259004973321292
 40
0.0747410485996209
 40
0.1236120721618238
 40
0.1725100729923171
 40
0.2214317790842778
 40
0.2703741249587704
 40
0.3193342359303097
 40
0.3683094131249171
 40
0.4172971192368797
 40
0.4662949650031746
 40
0.5153006963657184
 40
0.5643121822906955
 40
0.6133274032053202
 40
0.6623444400142369
 40
0.7113614636552862
 40
0.7603767251496422
 40
0.8093885461059859
 40
0.8583953096340996
 40
0.9073954516251698
 40
0.9563874523566444
 40
1.0
 40
1.0
 40
1.0
 40
1.0
 10
-179.1732508038858
 20
710.6520311105035
 30
0.0
 10
-177.9570359488026
 20
706.5299824692455
 30
0.0
 10
-174.4474055187109
 20
694.6349893393613
 30
0.0
 10
-168.9633215700389
 20
674.8403137821336
 30
0.0
 10
-162.7003138593516
 20
651.2786852312755
 30
0.0
 10
-156.7463902466025
 20
627.5981881086087
 30
0.0
 10
-151.0856966593273
 20
603.8125936695467
 30
0.0
 10
-145.7256197639678
 20
579.9265276837995
 30
0.0
 10
-140.6670634155417
 20
555.9469723325233
 30
0.0
 10
-135.9124299796873
 20
531.8801869561078
 30
0.0
 10
-131.4634904908073
 20
507.7325387007245
 30
0.0
 10
-127.3219649244921
 20
483.510284831529
 30
0.0
 10
-123.4893756623219
 20
459.2196360452144
 30
0.0
 10
-119.9670932099729
 20
434.8667444484635
 30
0.0
 10
-116.7563367007051
 20
410.457711443895
 30
0.0
 10
-113.8581597316768
 20
385.9985909723821
 30
0.0
 10
-111.273537036806
 20
361.4953909930005
 30
0.0
 10
-109.0030595397642
 20
336.9540862044797
 30
0.0
 10
-107.0480921531258
 20
312.3805870977131
 30
0.0
 10
-105.4064700693741
 20
287.7808719575582
 30
0.0
 10
-104.0885727251643
 20
263.1605103665623
 30
0.0
 10
-103.0950368616429
 20
239.4264811803513
 30
0.0
 10
-102.6989069947813
 20
223.895205398616
 30
0.0
 10
-102.5123477706973
 20
216.5806780143744
 30
0.0
  0
SPLINE
  5
170
330
16B
100
AcDbEntity
  8
0
  6
Continuous
 62
     7
370
    25
100
AcDbSpline
210
0.0
220
0.0
230
1.0
 70
     8
 71
     3
 72
    29
 73
    25
 74
     0
 42
0.000000001
 43
0.00000001
 40
0.0
 40
0.0
 40
0.0
 40
0.0
 40
0.0048401906121714
 40
0.0537588922151205
 40
0.1026595144120038
 40
0.1515406184288426
 40
0.2004007427247552
 40
0.2492383956064793
 40
0.298052047735227
 40
0.3468401244848461
 40
0.3956009981186382
 40
0.4443329797449103
 40
0.4930343110167922
 40
0.5417031555390539
 40
0.5903375899497442
 40
0.6389355946387301
 40
0.6874950440748356
 40
0.7360136967082136
 40
0.7844891844191756
 40
0.8329190014912123
 40
0.8813004930828855
 40
0.9296308431845277
 40
0.9779070620472078
 40
1.0
 40
1.0
 40
1.0
 40
1.0
 10
102.5109737714517
 20
216.5804067374288
 30
0.0
 10
102.5251004739784
 20
217.3923577082501
 30
0.0
 10
102.682002534112
 20
226.4105117897405
 30
0.0
 10
103.2789103014037
 20
243.6238285010483
 30
0.0
 10
104.3241536634812
 20
268.2100863253578
 30
0.0
 10
105.7162639974215
 20
292.7661106451487
 30
0.0
 10
107.4127671503792
 20
317.2871885218409
 30
0.0
 10
109.4238941067241
 20
341.7673039789417
 30
0.0
 10
111.7456047440351
 20
366.2007833529785
 30
0.0
 10
114.3775205760292
 20
390.5818509859114
 30
0.0
 10
117.318120345474
 20
414.9047444751024
 30
0.0
 10
120.5660234348653
 20
439.1636800471478
 30
0.0
 10
124.1196424989313
 20
463.3528581481499
 30
0.0
 10
127.9772732748863
 20
487.4664578398911
 30
0.0
 10
132.137062966928
 20
511.4986356733067
 30
0.0
 10
136.5970250946734
 20
535.443517734289
 30
0.0
 10
141.3549874223167
 20
559.2952144035733
 30
0.0
 10
146.4087583557317
 20
583.0477511055144
 30
0.0
 10
151.7554847235638
 20
606.6953119806495
 30
0.0
 10
157.394019105779
 20
630.231317348917
 30
0.0
 10
163.3160696767788
 20
653.6518474202463
 30
0.0
 10
169.5391489770776
 20
676.9428701259949
 30
0.0
 10
174.8211870175802
 20
695.9453394636506
 30
0.0
 10
178.1335600881667
 20
707.1415188216713
 30
0.0
 10
179.1735050873212
 20
710.6566454347943
 30
0.0
  0
SPLINE
  5
171
330
16B
100
AcDbEntity
  8
0
  6
Continuous
 62
     7
370
    25
100
AcDbSpline
210
0.0
220
0.0
230
1.0
 70
     8
 71
     3
 72
    12
 73
     8
 74
     0
 42
0.000000001
 43
0.00000001
 40
0.0
 40
0.0
 40
0.0
 40
0.0
 40
0.2159817652619288
 40
0.467513965652717
 40
0.7190348894086942
 40
0.9705431067233441
 40
0.9999999999999999
 40
0.9999999999999999
 40
0.9999999999999999
 40
0.9999999999999999
 10
-102.5161038392499
 20
216.5812256658019
 30
0.0
 10
-102.1716246335119
 20
200.9916367447699
 30
0.0
 10
-101.4259652054385
 20
167.2464243629351
 30
0.0
 10
-100.6553228227321
 20
115.3372975957199
 30
0.0
 10
-100.162839688843
 20
60.85959030978388
 30
0.0
 10
-99.9604997027254
 20
22.41315078057665
 30
0.0
 10
-100.0110341744849
 20
2.127098587334342
 30
0.0
 10
-100.0163323004276
 20
0.0002719745801349
 30
0.0
  0
SPLINE
  5
172
330
16B
100
AcDbEntity
  8
0
  6
Continuous
 62
     7
370
    25
100
AcDbSpline
210
0.0
220
0.0
230
1.0
 70
     8
 71
     3
 72
    12
 73
     8
 74
     0
 42
0.000000001
 43
0.00000001
 40
0.0
 40
0.0
 40
0.0
 40
0.0
 40
0.1531680436432048
 40
0.4046527290525089
 40
0.656120345922133
 40
0.9075694685045299
 40
1.0
 40
1.0
 40
1.0
 40
1.0
 10
100.037608987854
 20
-0.000110151130106
 30
0.0
 10
100.034293130637
 20
11.05880425084776
 30
0.0
 10
100.0255330091386
 20
40.27521118976979
 30
0.0
 10
100.3612540907913
 20
87.64700740528214
 30
0.0
 10
101.0328971265165
 20
142.1104788917953
 30
0.0
 10
101.7619094633979
 20
185.0882878974799
 30
0.0
 10
102.3700971143278
 20
209.9076508471748
 30
0.0
 10
102.5335703153673
 20
216.5787838485469
 30
0.0
  0
SPLINE
  5
173
330
16B
100
AcDbEntity
  8
0
  6
Continuous
 62
     7
370
    25
100
AcDbSpline
210
0.0
220
0.0
230
1.0
 70
     8
 71
     3
 72
    45
 73
    41
 74
     0
 42
0.000000001
 43
0.00000001
 40
0.0
 40
0.0
 40
0.0
 40
0.0
 40
0.054843172322593
 40
0.1023712245535365
 40
0.142621971060368
 40
0.1756274123337805
 40
0.2014138462812422
 40
0.2200019758234641
 40
0.2309316916676078
 40
0.2382920630709103
 40
0.248912067045804
 40
0.2630988466834518
 40
0.2808433186807611
 40
0.3021339818961375
 40
0.3405484086569219
 40
0.3768725462835973
 40
0.4102343999714686
 40
0.4503024738919805
 40
0.4851203383767365
 40
0.5151627568496276
 40
0.5417400652533672
 40
0.5616507930893493
 40
0.5797155462661969
 40
0.602424308130613
 40
0.6315822008492051
 40
0.6670333077373439
 40
0.7008934332746383
 40
0.7326347756895939
 40
0.7582648036338627
 40
0.7834052688997379
 40
0.8080795798350064
 40
0.8292297651774216
 40
0.8377763233480463
 40
0.8463015458466558
 40
0.8594673238350485
 40
0.8776593030739526
 40
0.9008487928817397
 40
0.9289993063940157
 40
0.9620668052024942
 40
0.9999999999999999
 40
0.9999999999999999
 40
0.9999999999999999
 40
0.9999999999999999
 10
179.1382404980077
 20
710.6715840675442
 30
0.0
 10
179.982953615117
 20
713.4929914054478
 30
0.0
 10
181.5597098918375
 20
718.759479683088
 30
0.0
 10
183.8264428085554
 20
726.0708646668769
 30
0.0
 10
185.7822390350888
 20
732.2484838259317
 30
0.0
 10
187.4134435608217
 20
737.302430715675
 30
0.0
 10
188.7044480801667
 20
741.2434070068299
 30
0.0
 10
189.6355867878971
 20
744.0541446580728
 30
0.0
 10
190.2602795068787
 20
745.9259400362811
 30
0.0
 10
190.7492973636338
 20
747.3845426439591
 30
0.0
 10
191.2942640300051
 20
749.002807323232
 30
0.0
 10
192.0183485049101
 20
751.1398469200572
 30
0.0
 10
192.929539585983
 20
753.8081071518826
 30
0.0
 10
194.2658586677153
 20
757.6841353217667
 30
0.0
 10
195.9428180138579
 20
762.4781864071773
 30
0.0
 10
197.8582265107148
 20
767.8561598851012
 30
0.0
 10
199.8286259580878
 20
773.2971567935913
 30
0.0
 10
201.7979548991084
 20
778.6413531246196
 30
0.0
 10
203.7310769059644
 20
783.7957106891296
 30
0.0
 10
205.4318627290839
 20
788.2625289607096
 30
0.0
 10
206.8694553612605
 20
791.9889071126805
 30
0.0
 10
208.0908002379127
 20
795.1209768898342
 30
0.0
 10
209.2451770707325
 20
798.0555907620719
 30
0.0
 10
210.5805034132096
 20
801.4187168583094
 30
0.0
 10
212.2604608765712
 20
805.6002545856921
 30
0.0
 10
214.1741799710442
 20
810.2945193843509
 30
0.0
 10
216.161326536188
 20
815.0933179732328
 30
0.0
 10
217.9747290495233
 20
819.408437431385
 30
0.0
 10
219.6297631147945
 20
823.2963510290488
 30
0.0
 10
221.1486834740342
 20
826.8242555571668
 30
0.0
 10
222.5813338941554
 20
830.1152353029019
 30
0.0
 10
223.6851043712474
 20
832.625246042036
 30
0.0
 10
224.4652417301094
 20
834.3877181111645
 30
0.0
 10
225.0837315415117
 20
835.7797431048526
 30
0.0
 10
225.8998351701817
 20
837.6077941212409
 30
0.0
 10
227.0206327690544
 20
840.1010971424446
 30
0.0
 10
228.4570536416134
 20
843.2678735187798
 30
0.0
 10
230.2135835697472
 20
847.0960017704014
 30
0.0
 10
232.2931123011378
 20
851.5727325953325
 30
0.0
 10
233.8011899258996
 20
854.754977733297
 30
0.0
 10
234.606903214101
 20
856.4551403455341
 30
0.0
  0
SPLINE
  5
174
330
16B
100
AcDbEntity
  8
0
  6
Continuous
 62
     7
370
    25
100
AcDbSpline
210
0.0
220
0.0
230
1.0
 70
     8
 71
     3
 72
    34
 73
    30
 74
     0
 42
0.000000001
 43
0.00000001
 40
0.0
 40
0.0
 40
0.0
 40
0.0
 40
0.0493269359152432
 40
0.0916909196885441
 40
0.1270095628357861
 40
0.1552128464724804
 40
0.1762441648674953
 40
0.1930989133381865
 40
0.2204729641252392
 40
0.2490319429550426
 40
0.2802278766415001
 40
0.3183180391595266
 40
0.3600951226984991
 40
0.3988691700345709
 40
0.434991330565873
 40
0.4764040095826943
 40
0.5365792573404785
 40
0.5881303495190615
 40
0.631204724738539
 40
0.6661358972368574
 40
0.6778142020043255
 40
0.6905092771143576
 40
0.7088222507698727
 40
0.7328941750060417
 40
0.7627487757436255
 40
0.808243989886133
 40
0.862890936206968
 40
0.9267753776610057
 40
1.0
 40
1.0
 40
1.0
 40
1.0
 10
-215.9720613464639
 20
810.8929326740276
 30
0.0
 10
-215.2554605110096
 20
809.3933648748157
 30
0.0
 10
-213.9234136600703
 20
806.6059071076978
 30
0.0
 10
-212.1141207910012
 20
802.7061380737667
 30
0.0
 10
-210.6235574514465
 20
799.4350347935676
 30
0.0
 10
-209.4459724614066
 20
796.807537552351
 30
0.0
 10
-208.5321491893197
 20
794.7428318514769
 30
0.0
 10
-207.6334974754956
 20
792.692366930091
 30
0.0
 10
-206.6383810642443
 20
790.3955228352228
 30
0.0
 10
-205.4582322763984
 20
787.6313893745119
 30
0.0
 10
-204.1454466168841
 20
784.5076702016551
 30
0.0
 10
-202.6721547276242
 20
780.9365913276088
 30
0.0
 10
-201.1216190916146
 20
777.0963627654302
 30
0.0
 10
-199.6206354636911
 20
773.2961504147809
 30
0.0
 10
-198.1459220100575
 20
769.4844986360221
 30
0.0
 10
-196.416816564671
 20
764.9170915798097
 30
0.0
 10
-194.5340401346928
 20
759.7971717226179
 30
0.0
 10
-192.6783706449696
 20
754.5843037669143
 30
0.0
 10
-191.1576835704417
 20
750.1909621558879
 30
0.0
 10
-190.1237359571726
 20
747.1327565083811
 30
0.0
 10
-189.446939445979
 20
745.102220575333
 30
0.0
 10
-188.9609644885453
 20
743.6332060018391
 30
0.0
 10
-188.3361458949504
 20
741.7261772960687
 30
0.0
 10
-187.524985356216
 20
739.2172120091109
 30
0.0
 10
-186.423942749333
 20
735.7526343493987
 30
0.0
 10
-185.0135482922926
 20
731.2063387782874
 30
0.0
 10
-183.2857222025799
 20
725.4457422530545
 30
0.0
 10
-181.3305987047105
 20
718.6838172392075
 30
0.0
 10
-180.0082752104315
 20
713.8204247661141
 30
0.0
 10
-179.3020736231701
 20
711.2230758580495
 30
0.0
  0
LWPOLYLINE
  5
175
330
16B
100
AcDbEntity
  8
0
  6
Continuous
 62
     7
370
    25
100
AcDbPolyline
 90
       69
 70
   128
 43
0.0
 10
179.3402991987
 20
711.4026522295
 10
178.7482020192
 20
709.4710335522
 10
177.6358764233
 20
706.8424037181
 10
176.1758202576
 20
704.232747345
 10
174.3708916505
 20
701.6471729579
 10
172.2246238345
 20
699.0907419401
 10
169.7412182297
 20
696.5684586253
 10
166.9255362191
 20
694.0852605016
 10
163.7830896326
 20
691.6460085459
 10
160.3200299568
 20
689.2554777084
 10
156.5431362938
 20
686.9183475656
 10
152.4598020902
 20
684.6391931594
 10
148.0780206645
 20
682.4224760417
 10
143.4063695596
 20
680.2725355402
 10
138.4539937519
 20
678.1935802644
 10
133.2305877496
 20
676.189679867
 10
127.7463766153
 20
674.2647570771
 10
122.0120959498
 20
672.4225800214
 10
116.0389708767
 20
670.6667548481
 10
109.838694069
 20
669.0007186673
 10
103.4234028596
 20
667.4277328231
 10
96.8056554824
 20
665.9508765092
 10
89.9984064885
 20
664.5730407412
 10
83.0149813876
 20
663.2969226972
 10
75.8690505623
 20
662.1250204383
 10
68.5746025076
 20
661.0596280182
 10
61.1459164483
 20
660.1028309926
 10
53.5975343862
 20
659.2565023366
 10
45.9442326335
 20
658.5222987783
 10
38.2009928879
 20
657.9016575555
 10
30.3829729048
 20
657.3957936028
 10
22.5054768254
 20
657.0056971724
 10
14.5839252183
 20
656.7321318965
 10
6.6338248928
 20
656.5756332919
 10
-1.3292614565
 20
656.5365077121
 10
-9.2897457141
 20
656.6148317472
 10
-17.2320448583
 20
656.8104520742
 10
-25.1406114653
 20
657.1229857571
 10
-32.9999641449
 20
657.5518209966
 10
-40.7947178449
 20
658.0961183275
 10
-48.5096139691
 20
658.7548122623
 10
-56.1295502459
 20
659.5266133766
 10
-63.6396102922
 20
660.4100108336
 10
-71.0250928129
 20
661.4032753412
 10
-78.271540379
 20
662.5044625375
 10
-85.3647677292
 20
663.7114167968
 10
-92.2908895379
 20
665.0217754496
 10
-99.0363475963
 20
666.4329734072
 10
-105.5879373535
 20
667.9422481833
 10
-111.9328337649
 20
669.5466453018
 10
-118.0586163979
 20
671.2430240798
 10
-123.9532937452
 20
673.0280637763
 10
-129.6053266992
 20
674.8982700923
 10
-135.0036511399
 20
676.849982011
 10
-140.1376995937
 20
678.8793789647
 10
-144.9974219197
 20
680.9824883136
 10
-149.5733049831
 20
683.1551931224
 10
-153.8563912781
 20
685.3932402193
 10
-157.8382964621
 20
687.6922485222
 10
-161.5112257687
 20
690.0477176142
 10
-164.8679892662
 20
692.455036554
 10
-167.9020159325
 20
694.9094929018
 10
-170.607366518
 20
697.4062819439
 10
-172.9787451718
 20
699.9405160987
 10
-175.0115098088
 20
702.5072344836
 10
-176.7016811968
 20
705.101412627
 10
-178.0459507459
 20
707.7179723032
 10
-179.0416869855
 20
710.351791474
 10
-179.49500971
 20
712.0436271893
  0
LWPOLYLINE
  5
176
330
16B
100
AcDbEntity
  8
0
  6
Continuous
 62
     7
370
    25
100
AcDbPolyline
 90
       55
 70
   128
 43
0.0
 10
99.9999999673
 20
0.000852783
 10
99.9375155137
 20
-1.1781809397
 10
99.5526098937
 20
-3.1495654606
 10
98.8180221006
 20
-5.1098870178
 10
97.7363324008
 20
-7.0522599106
 10
96.311340269
 20
-8.9698614832
 10
94.5480510418
 20
-10.8559560902
 10
92.452658337
 20
-12.7039187556
 10
90.032522298
 20
-14.5072584429
 10
87.2961437407
 20
-16.2596408559
 10
84.2531342948
 20
-17.9549106874
 10
80.9141826418
 20
-19.5871132402
 10
77.2910169713
 20
-21.1505153434
 10
73.3963637847
 20
-22.6396254901
 10
69.2439031935
 20
-24.0492131265
 10
64.8482208669
 20
-25.3743270248
 10
60.2247567994
 20
-26.6103126739
 10
55.3897510772
 20
-27.7528286292
 10
50.3601868341
 20
-28.7978617618
 10
45.1537305981
 20
-29.7417413547
 10
39.7886702366
 20
-30.5811519963
 10
34.2838507197
 20
-31.3131452262
 10
28.6586079268
 20
-31.9351498915
 10
22.9327007283
 20
-32.4449811781
 10
17.1262415821
 20
-32.8408482849
 10
11.2596258877
 20
-33.1213607144
 10
5.3534603468
 20
-33.2855331564
 10
-0.5715094189
 20
-33.3327889493
 10
-6.4944717368
 20
-33.2629621052
 10
-12.394621986
 20
-33.0762978936
 10
-18.2512356733
 20
-32.7734519794
 10
-24.0437412298
 20
-32.3554881197
 10
-29.7517922682
 20
-31.823874428
 10
-35.3553390512
 20
-31.1804782167
 10
-40.8346989164
 20
-30.4275594385
 10
-46.1706254122
 20
-29.567762748
 10
-51.3443759025
 20
-28.6041082125
 10
-56.3377773997
 20
-27.5399807036
 10
-61.1332903992
 20
-26.3791180081
 10
-65.7140704865
 20
-25.1255976986
 10
-70.0640275045
 20
-23.7838228107
 10
-74.1678820706
 20
-22.3585063778
 10
-78.0112192459
 20
-20.8546548758
 10
-81.5805391685
 20
-19.277550638
 10
-84.8633044718
 20
-17.6327333004
 10
-87.8479843232
 20
-15.9259803441
 10
-90.5240949256
 20
-14.1632868009
 10
-92.8822363431
 20
-12.3508441963
 10
-94.9141255179
 20
-10.495018801
 10
-96.6126253652
 20
-8.6023292694
 10
-97.9717698422
 20
-6.6794237425
 10
-98.9867849046
 20
-4.7330564961
 10
-99.6541052748
 20
-2.7700642162
 10
-99.9713869656
 20
-0.7973419846
 10
-99.9999999827
 20
0.0006198563
  0
SPLINE
  5
177
330
16B
100
AcDbEntity
  8
0
  6
Continuous
 62
     7
370
    25
100
AcDbSpline
210
0.0
220
0.0
230
1.0
 70
    11
 71
     3
 72
    66
 73
    62
 74
     0
 42
0.000000001
 43
0.00000001
 40
0.0
 40
0.0
 40
0.0
 40
0.0
 40
0.0312499999999997
 40
0.0312499999999997
 40
0.0624999999999994
 40
0.0624999999999994
 40
0.0937499999999991
 40
0.0937499999999991
 40
0.1249999999999988
 40
0.1249999999999988
 40
0.1562499999999985
 40
0.1562499999999985
 40
0.1874999999999982
 40
0.1874999999999982
 40
0.2187499999999979
 40
0.2187499999999979
 40
0.2499999999999976
 40
0.2499999999999976
 40
0.2812499999999973
 40
0.2812499999999973
 40
0.3124999999999971
 40
0.3124999999999971
 40
0.3437499999999967
 40
0.3437499999999967
 40
0.3749999999999964
 40
0.3749999999999964
 40
0.4062499999999962
 40
0.4062499999999962
 40
0.4374999999999959
 40
0.4374999999999959
 40
0.4687499999999956
 40
0.4687499999999956
 40
0.4999999999999959
 40
0.4999999999999959
 40
0.5312499999999961
 40
0.5312499999999961
 40
0.5624999999999964
 40
0.5624999999999964
 40
0.6249999999999969
 40
0.6249999999999969
 40
0.6562499999999972
 40
0.6562499999999972
 40
0.6874999999999974
 40
0.6874999999999974
 40
0.7187499999999978
 40
0.7187499999999978
 40
0.749999999999998
 40
0.749999999999998
 40
0.7812499999999982
 40
0.7812499999999982
 40
0.8124999999999986
 40
0.8124999999999986
 40
0.8437499999999988
 40
0.8437499999999988
 40
0.874999999999999
 40
0.874999999999999
 40
0.9062499999999993
 40
0.9062499999999993
 40
0.9374999999999996
 40
0.9374999999999996
 40
1.0
 40
1.0
 40
1.0
 40
1.0
 10
94.18951616412798
 20
15.39023025864158
 30
0.0
 10
94.15003421870762
 20
15.24320163579274
 30
0.0
 10
94.10717627578279
 20
15.10579745387702
 30
0.0
 10
94.01476944076356
 20
14.84947619527965
 30
0.0
 10
93.96462886804159
 20
14.72942753785605
 30
0.0
 10
93.86017104979676
 20
14.51550924973349
 30
0.0
 10
93.80611217546591
 20
14.42171634608419
 30
0.0
 10
93.69424298061506
 20
14.26024394517289
 30
0.0
 10
93.63605778481146
 20
14.19254386128871
 30
0.0
 10
93.5207584433458
 20
14.08959782028296
 30
0.0
 10
93.46307565654843
 20
14.05333914847406
 30
0.0
 10
93.34768410928174
 20
14.01197161856082
 30
0.0
 10
93.29085909649208
 20
14.00745016189975
 30
0.0
 10
93.18193576738298
 20
14.03004247290024
 30
0.0
 10
93.12902334502736
 20
14.05728018495933
 30
0.0
 10
93.02894009668606
 20
14.14339548351612
 30
0.0
 10
92.98263196817564
 20
14.20126818565281
 30
0.0
 10
92.89749761416955
 20
14.3458293465995
 30
0.0
 10
92.8583509344316
 20
14.43373963689443
 30
0.0
 10
92.79088492819878
 20
14.63267746913582
 30
0.0
 10
92.76226155913696
 20
14.7437441223271
 30
0.0
 10
92.71547807850648
 20
14.98918389973913
 30
0.0
 10
92.69751271604103
 20
15.12365829758266
 30
0.0
 10
92.67389156136814
 20
15.40451235381185
 30
0.0
 10
92.66793618030226
 20
15.55222634721815
 30
0.0
 10
92.66824039146391
 20
15.86279289925174
 30
0.0
 10
92.6745180158303
 20
16.0210580123778
 30
0.0
 10
92.69874246902977
 20
16.34158538461128
 30
0.0
 10
92.71696580737796
 20
16.50587126795638
 30
0.0
 10
92.76438945584991
 20
16.83030434022392
 30
0.0
 10
92.79330836514228
 20
16.9895078545953
 30
0.0
 10
92.86125136736057
 20
17.30198810273026
 30
0.0
 10
92.90067356155711
 20
17.45622878198611
 30
0.0
 10
92.986341887486
 20
17.74575974707177
 30
0.0
 10
93.0328575421732
 20
17.88264478511675
 30
0.0
 10
93.13318480017278
 20
18.1403595778582
 30
0.0
 10
93.18643920208545
 20
18.25941717594543
 30
0.0
 10
93.35028963701784
 20
18.57752740814173
 30
0.0
 10
93.46833601179463
 20
18.74311166973991
 30
0.0
 10
93.6412877952944
 20
18.89791434413962
 30
0.0
 10
93.69942775770112
 20
18.93503565793769
 30
0.0
 10
93.81134139979457
 20
18.97658361050358
 30
0.0
 10
93.86532198002772
 20
18.98156116809918
 30
0.0
 10
93.96944308354139
 20
18.95983663685735
 30
0.0
 10
94.01952971811681
 20
18.93266071087552
 30
0.0
 10
94.11161620643249
 20
18.84846084335701
 30
0.0
 10
94.15422836777373
 20
18.79142493395752
 30
0.0
 10
94.23256796795195
 20
18.64638684850756
 30
0.0
 10
94.26724408673276
 20
18.56018110729907
 30
0.0
 10
94.32742314559417
 20
18.36316026133561
 30
0.0
 10
94.35325710174848
 20
18.25081673056478
 30
0.0
 10
94.39460879987928
 20
18.00562019316187
 30
0.0
 10
94.41006883384377
 20
17.87404286767424
 30
0.0
 10
94.43084141646696
 20
17.59318902212426
 30
0.0
 10
94.43606617963226
 20
17.44250337116721
 30
0.0
 10
94.43573063626113
 20
17.13536553890393
 30
0.0
 10
94.43034445868754
 20
16.97776944319407
 30
0.0
 10
94.40891485267525
 20
16.65438988249407
 30
0.0
 10
94.39285755879807
 20
16.49010630531461
 30
0.0
 10
94.33042601490045
 20
16.00576332031129
 30
0.0
 10
94.26848005496866
 20
15.68428750433926
 30
0.0
 10
94.18951616412797
 20
15.39023025864158
 30
0.0
  0
SPLINE
  5
178
330
16B
100
AcDbEntity
  8
0
  6
Continuous
 62
     7
370
    25
100
AcDbSpline
210
0.0
220
0.0
230
1.0
 70
    11
 71
     3
 72
    53
 73
    49
 74
     0
 42
0.000000001
 43
0.00000001
 40
0.0
 40
0.0
 40
0.0
 40
0.0
 40
0.00703125
 40
0.0093749999999999
 40
0.046875
 40
0.078125
 40
0.09375
 40
0.125
 40
0.140625
 40
0.171875
 40
0.203125
 40
0.21875
 40
0.25
 40
0.2678239461198844
 40
0.28125
 40
0.296875
 40
0.328125
 40
0.34375
 40
0.375
 40
0.390625
 40
0.421875
 40
0.453125
 40
0.46875
 40
0.484375
 40
0.4999999999971685
 40
0.515625
 40
0.53125
 40
0.546875
 40
0.578125
 40
0.609375
 40
0.625
 40
0.65625
 40
0.671875
 40
0.703125
 40
0.71875
 40
0.7321760538703969
 40
0.75
 40
0.78125
 40
0.796875
 40
0.828125
 40
0.859375
 40
0.875
 40
0.90625
 40
0.921875
 40
0.953125
 40
0.990625
 40
0.99296875
 40
1.0
 40
1.0
 40
1.0
 40
1.0
 10
94.57553196225733
 20
1016.788730423695
 30
0.0
 10
97.84226591480667
 20
1016.377160631622
 30
0.0
 10
102.1589009403998
 20
1015.7640165539
 30
0.0
 10
123.4528059893361
 20
1012.278946672828
 30
0.0
 10
153.8212319880347
 20
1004.311427707079
 30
0.0
 10
183.8602220484264
 20
990.0590474683515
 30
0.0
 10
207.5410098330739
 20
974.0064004479204
 30
0.0
 10
222.8743510465342
 20
959.0734307996294
 30
0.0
 10
236.6366149715589
 20
938.4016996887646
 30
0.0
 10
244.8946773410622
 20
916.1594678753598
 30
0.0
 10
245.5705011598997
 20
892.8414106806173
 30
0.0
 10
240.5796903670181
 20
869.0038836733529
 30
0.0
 10
231.8084935071216
 20
849.1502983473804
 30
0.0
 10
218.8112479783764
 20
830.5961038422741
 30
0.0
 10
207.1085613252292
 20
817.1643829018928
 30
0.0
 10
189.9018089982644
 20
800.6314430267689
 30
0.0
 10
168.7311334749281
 20
784.9623131718419
 30
0.0
 10
138.4502605291195
 20
767.4441046314425
 30
0.0
 10
111.5389323223897
 20
755.3006334667822
 30
0.0
 10
75.6388088288883
 20
743.0902832324965
 30
0.0
 10
38.16920491292785
 20
733.9800174128371
 30
0.0
 10
0.2428834862850809
 20
729.3317771251882
 30
0.0
 10
-30.02981323299516
 20
728.330777908043
 30
0.0
 10
-52.4751162578832
 20
728.9523923199637
 30
0.0
 10
-74.37536173141204
 20
730.976154577076
 30
0.0
 10
-95.46643290133251
 20
734.3687890966818
 30
0.0
 10
-115.4842130178167
 20
739.0970202963892
 30
0.0
 10
-140.4589422416162
 20
747.058540920925
 30
0.0
 10
-168.0132333650329
 20
759.9565629436026
 30
0.0
 10
-190.2645321141523
 20
776.5909552623297
 30
0.0
 10
-207.7528828924384
 20
795.5276210096706
 30
0.0
 10
-217.5721006913998
 20
812.298705995383
 30
0.0
 10
-224.3799102986039
 20
834.4896493208679
 30
0.0
 10
-225.3749767501982
 20
852.951400170725
 30
0.0
 10
-222.0051660826232
 20
871.2276308304403
 30
0.0
 10
-217.3065784604947
 20
885.5417853036827
 30
0.0
 10
-208.0868094873386
 20
904.5718971204293
 30
0.0
 10
-193.7971035713969
 20
923.7302156603405
 30
0.0
 10
-171.8675193575852
 20
945.4336578109925
 30
0.0
 10
-145.6284148351517
 20
965.360752770413
 30
0.0
 10
-114.0418979711771
 20
982.5830394538247
 30
0.0
 10
-79.4422307019328
 20
997.1617399533139
 30
0.0
 10
-49.80366328142366
 20
1006.428781687247
 30
0.0
 10
-11.7428308206078
 20
1014.702715723648
 30
0.0
 10
29.81395392341934
 20
1019.934876200957
 30
0.0
 10
64.73924427713823
 20
1019.676160139598
 30
0.0
 10
86.91591276924679
 20
1017.684452550014
 30
0.0
 10
91.30879800970798
 20
1017.200300215768
 30
0.0
 10
94.57553196225733
 20
1016.788730423695
 30
0.0
  0
SPLINE
  5
179
330
16B
100
AcDbEntity
  8
0
  6
Continuous
 62
     7
370
    25
100
AcDbSpline
210
0.0
220
0.0
230
1.0
 70
     8
 71
     3
 72
    46
 73
    42
 74
     0
 42
0.000000001
 43
0.00000001
 40
0.0
 40
0.0
 40
0.0
 40
0.0
 40
0.0226334181125126
 40
0.0513628255767431
 40
0.0760323580451847
 40
0.1009768480565933
 40
0.126212866062453
 40
0.1517214588118118
 40
0.1774305478088752
 40
0.203331503175675
 40
0.2279443382987854
 40
0.2527812725584775
 40
0.2779017918749042
 40
0.3032837049305417
 40
0.3288742329111633
 40
0.3561886461474476
 40
0.3836142319798091
 40
0.4110751264862431
 40
0.438485678687865
 40
0.4657800140324175
 40
0.492982957110655
 40
0.5185906743681938
 40
0.5441950287499312
 40
0.5698085127389158
 40
0.5953321610545181
 40
0.6207381116501162
 40
0.6476858171970259
 40
0.6747687742632412
 40
0.7019352742239005
 40
0.7290887219361235
 40
0.7562551795391812
 40
0.7834793839425801
 40
0.8092437849032603
 40
0.8351052926504438
 40
0.8609982149857228
 40
0.8868513967748236
 40
0.9126021040460763
 40
0.9397365646747814
 40
0.9666329234247457
 40
0.9932283328587136
 40
0.9999999999999999
 40
0.9999999999999999
 40
0.9999999999999999
 40
0.9999999999999999
 10
179.0372100239915
 20
710.6751137072181
 30
0.0
 10
178.6053865185389
 20
709.3449384276304
 30
0.0
 10
177.6254339863921
 20
706.3263240702089
 30
0.0
 10
174.7429978752133
 20
701.9286421552798
 30
0.0
 10
170.8472475069615
 20
697.4831724019593
 30
0.0
 10
166.1735926061484
 20
693.3392887664141
 30
0.0
 10
160.533521996548
 20
689.2772461566047
 30
0.0
 10
153.9269059619745
 20
685.3282786690575
 30
0.0
 10
146.3863474088968
 20
681.5226432817975
 30
0.0
 10
138.0972629335127
 20
677.9606333638768
 30
0.0
 10
129.1360036853584
 20
674.65411379037
 30
0.0
 10
119.5666543177026
 20
671.6089155478383
 30
0.0
 10
109.2400777267035
 20
668.780099319702
 30
0.0
 10
98.20510231473007
 20
666.1877836247002
 30
0.0
 10
86.28711827494517
 20
663.8101455311275
 30
0.0
 10
73.52143256779435
 20
661.6958508721282
 30
0.0
 10
59.97204894274605
 20
659.8952319110755
 30
0.0
 10
46.01391481273004
 20
658.4646291453455
 30
0.0
 10
31.78008492284536
 20
657.412238233943
 30
0.0
 10
17.38298894010381
 20
656.7484250288163
 30
0.0
 10
3.19135069968346
 20
656.4803102516695
 30
0.0
 10
-10.71787338011394
 20
656.5820249937333
 30
0.0
 10
-24.28299803125816
 20
657.0270078218189
 30
0.0
 10
-37.69365116068438
 20
657.810947359162
 30
0.0
 10
-50.85791306079664
 20
658.9225988163693
 30
0.0
 10
-63.95841001483252
 20
660.3864645543276
 30
0.0
 10
-76.93255295342368
 20
662.2230525356218
 30
0.0
 10
-89.70237758286027
 20
664.4467955065446
 30
0.0
 10
-101.9365162423732
 20
667.0062565258307
 30
0.0
 10
-113.527888513644
 20
669.8874861300616
 30
0.0
 10
-124.3907591510832
 20
673.0736935021465
 30
0.0
 10
-134.2754463834111
 20
676.4827588053586
 30
0.0
 10
-143.178186813752
 20
680.0798972288884
 30
0.0
 10
-151.0995497939101
 20
683.8276830167559
 30
0.0
 10
-158.1582107340311
 20
687.7684358123296
 30
0.0
 10
-164.2840457869272
 20
691.8720150188385
 30
0.0
 10
-169.5209299455078
 20
696.1886136386023
 30
0.0
 10
-173.8107163462609
 20
700.6871215830909
 30
0.0
 10
-176.9659479965697
 20
705.3347669030882
 30
0.0
 10
-178.7481176248601
 20
708.8545179828882
 30
0.0
 10
-179.1208510977775
 20
710.82243020337
 30
0.0
 10
-179.1964953336554
 20
711.2218073106308
 30
0.0
  0
LWPOLYLINE
  5
17A
330
16B
100
AcDbEntity
  8
0
  6
Continuous
 62
     7
370
    25
100
AcDbPolyline
 90
       89
 70
   128
 43
0.0
 10
84.5044042823
 20
999.7515021447
 10
69.8537287386
 20
1001.2193099225
 10
54.8905079645
 20
1001.9816352008
 10
39.712219372
 20
1002.0429192591
 10
24.416340373
 20
1001.4076033771
 10
9.0905029825
 20
1000.0801581407
 10
-6.2192100466
 20
998.0651778139
 10
-20.6076333577
 20
995.5397999537
 10
-34.907542519
 20
992.4144794141
 10
-49.0493519281
 20
988.7028644692
 10
-62.949222837
 20
984.4224102272
 10
-76.5187292864
 20
979.5918246603
 10
-90.4547123413
 20
973.892757174
 10
-103.836535958
 20
967.645480159
 10
-116.5856876993
 20
960.8972530097
 10
-128.6266326137
 20
953.6938159085
 10
-139.8921270368
 20
946.076525965
 10
-150.3496994513
 20
938.0683544585
 10
-159.4486991755
 20
930.1761325946
 10
-167.7812945016
 20
921.9758238396
 10
-175.304578913
 20
913.5066328465
 10
-181.9685323056
 20
904.8160266584
 10
-187.7209422517
 20
895.9541098661
 10
-192.7760763476
 20
886.4247857376
 10
-196.7351435581
 20
876.8249851028
 10
-199.5862206629
 20
867.2204937487
 10
-201.3188569678
 20
857.6723298221
 10
-201.9263365503
 20
848.2291203487
 10
-201.4079725258
 20
838.9187103682
 10
-199.8888369959
 20
830.2822818903
 10
-197.3733038802
 20
821.8104707138
 10
-193.8710442798
 20
813.5448503423
 10
-189.3953852405
 20
805.5352450088
 10
-183.960869282
 20
797.8341506775
 10
-177.1735609707
 20
790.058824941
 10
-169.3899740108
 20
782.7331081136
 10
-160.6731075561
 20
775.898059098
 10
-151.0840179267
 20
769.5931303466
 10
-140.6781009113
 20
763.8533280328
 10
-129.4870064623
 20
758.6950121603
 10
-118.2391586444
 20
754.3743626819
 10
-106.3486893113
 20
750.5938311205
 10
-93.8712500187
 20
747.3736588299
 10
-80.8753800097
 20
744.7405352385
 10
-67.4361228397
 20
742.7151972014
 10
-52.7847267332
 20
741.2429263089
 10
-37.8163571915
 20
740.4768265122
 10
-22.6364085052
 20
740.4153220094
 10
-7.3472748504
 20
741.0505885664
 10
7.9731582271
 20
742.3777120505
 10
23.2816840817
 20
744.392633483
 10
37.6734186555
 20
746.9188379039
 10
51.9781237492
 20
750.0454046538
 10
66.1188437826
 20
753.7567509404
 10
80.0150663619
 20
758.036381761
 10
93.5829804485
 20
762.8669123949
 10
107.5200117328
 20
768.5669660938
 10
120.9050174542
 20
774.8160448241
 10
133.6542297379
 20
781.5643143128
 10
145.6905922044
 20
788.7653347052
 10
156.9540749104
 20
796.3814609832
 10
167.4121442311
 20
804.3897291826
 10
176.5119095113
 20
812.2822131161
 10
184.8445072273
 20
820.4823889998
 10
192.3675553156
 20
828.9512130238
 10
199.031308889
 20
837.6414394866
 10
204.7836604091
 20
846.5031781247
 10
209.8389537138
 20
856.0326882934
 10
213.798282676
 20
865.6328933246
 10
216.6495536532
 20
875.2377567879
 10
218.3823795289
 20
884.7859324769
 10
218.9902947254
 20
894.2286467229
 10
218.4721043196
 20
903.5391851104
 10
216.9522576777
 20
912.1776062564
 10
214.4355691305
 20
920.6522132738
 10
210.9335555459
 20
928.9171911163
 10
206.4585799072
 20
936.9246421637
 10
201.0238613603
 20
944.6247450074
 10
194.2351272023
 20
952.4005596757
 10
186.4491704551
 20
959.7279627199
 10
177.7322473433
 20
966.5630368325
 10
168.1462828945
 20
972.8654924847
 10
157.7416596419
 20
978.604277984
 10
146.5486749106
 20
983.7633498829
 10
135.2959581159
 20
988.0856297225
 10
123.4007122431
 20
991.8674633285
 10
110.9261836472
 20
995.0872979185
 10
97.9386538273
 20
997.7227665161
 10
84.5044042823
 20
999.7515021447
  0
LWPOLYLINE
  5
17B
330
16B
100
AcDbEntity
  8
0
  6
Continuous
 62
    60
370
    25
100
AcDbPolyline
 90
       55
 70
   128
 43
0.0
 10
102.4969762376
 20
216.583641822
 10
102.4711677986
 20
216.0357456207
 10
102.1518784221
 20
214.03254611
 10
101.4804503588
 20
212.039045432
 10
100.4591981603
 20
210.0621155965
 10
99.0916422945
 20
208.1085714901
 10
97.3824970096
 20
206.1851473843
 10
95.3376540837
 20
204.2984737202
 10
92.9641625139
 20
202.4550542528
 10
90.2702042173
 20
200.661243631
 10
87.2650658262
 20
198.9232254915
 10
83.9591066753
 20
197.246991143
 10
80.3637230906
 20
195.6383189124
 10
76.4913091041
 20
194.1027542263
 10
72.355213729
 20
192.6455904942
 10
67.9696949431
 20
191.2718508613
 10
63.3498705379
 20
189.9862708928
 10
58.5116660054
 20
188.7932822491
 10
53.4717596388
 20
187.6969974093
 10
48.2475250394
 20
186.7011954942
 10
42.8569712262
 20
185.8093092394
 10
37.3186805549
 20
185.0244131615
 10
31.6517446607
 20
184.34921296
 10
25.8756986456
 20
183.7860361898
 10
20.0104537368
 20
183.3368242378
 10
14.0762286486
 20
183.0031256309
 10
8.0934798842
 20
182.7860906971
 10
2.082831218
 20
182.6864676009
 10
-3.9349973989
 20
182.7045997637
 10
-9.9392612646
 20
182.8404246802
 10
-15.9092624376
 20
183.0934741338
 10
-21.8244210873
 20
183.4628758105
 10
-27.6643464363
 20
183.9473563063
 10
-33.4089070521
 20
184.5452455166
 10
-39.0383002443
 20
185.2544823933
 10
-44.5331203284
 20
186.0726220501
 10
-49.8744255211
 20
186.99684419
 10
-55.043803237
 20
188.0239628278
 10
-60.0234335601
 20
189.150437273
 10
-64.7961506732
 20
190.3723843346
 10
-69.3455020317
 20
191.685591708
 10
-73.655805079
 20
193.0855324953
 10
-77.7122013075
 20
194.5673808107
 10
-81.5007074792
 20
196.126028416
 10
-85.0082638283
 20
197.75610233
 10
-88.2227790816
 20
199.4519833503
 10
-91.1331721391
 20
201.2078254236
 10
-93.7294102729
 20
203.0175757986
 10
-96.0025437123
 20
204.8749958909
 10
-97.9447364956
 20
206.7736827885
 10
-99.5492934818
 20
208.7070913245
 10
-100.8106834305
 20
210.668556639
 10
-101.7245580694
 20
212.6513171548
 10
-102.2877670832
 20
214.6485378857
 10
-102.4969553845
 20
216.582738453
  0
VIEWPORT
  5
18C
330
16B
100
AcDbEntity
  8
0
100
AcDbViewport
 10
0.0
 20
0.0
 30
0.0
 40
205.6
 41
156.0
 68
     1
 69
     1
 12
-0.0000000001
 22
28.7580789194
 13
0.0
 23
0.0
 14
10.0
 24
10.0
 15
10.0
 25
10.0
 16
0.0
 26
0.0
 36
1.0
 17
0.0
 27
0.0
 37
0.0
 42
50.0
 43
0.0
 44
0.0
 45
487.0335190044
 50
0.0
 51
0.0
 72
   100
 90
   557152
  1

281
     0
 71
     1
 74
     0
110
0.0
120
0.0
130
0.0
111
1.0
121
0.0
131
0.0
112
0.0
122
1.0
132
0.0
 79
     0
146
0.0
  0
ENDBLK
  5
16E
330
16B
100
AcDbEntity
  8
0
100
AcDbBlockEnd
  0
ENDSEC
  0
SECTION
  2
ENTITIES
  0
LWPOLYLINE
  5
73
330
1F
100
AcDbEntity
  8
0
  6
Continuous
 62
     7
370
    25
100
AcDbPolyline
 90
       89
 70
   128
 43
0.0
 10
0.0
 20
239.0145492874
 10
-15.4399126973
 20
238.4263504466
 10
-30.7758704378
 20
236.6791012349
 10
-45.9135004856
 20
233.7988226187
 10
-60.7584301048
 20
229.8115355642
 10
-75.22609944
 20
224.7413764908
 10
-89.2733606719
 20
218.6045287085
 10
-102.1038038634
 20
211.854083828
 10
-114.4933313669
 20
204.1874415099
 10
-126.3807362869
 20
195.6394813355
 10
-137.6928695514
 20
186.2538008408
 10
-148.3527549148
 20
176.0768464043
 10
-158.866478075
 20
164.4766307556
 10
-168.5064195621
 20
152.1320056854
 10
-177.2222587195
 20
139.1319019583
 10
-184.9657438245
 20
125.5623026212
 10
-191.6942946923
 20
111.5007448988
 10
-197.3891141702
 20
96.9893395194
 10
-201.8004207145
 20
82.9247019619
 10
-205.2679983321
 20
68.5309113469
 10
-207.7722150598
 20
53.877384338
 10
-209.2912207173
 20
39.0477890109
 10
-209.8025351201
 20
24.1303274346
 10
-209.2275699522
 20
8.3110341884
 10
-207.5206268844
 20
-7.4030457619
 10
-204.7085340425
 20
-22.907207907
 10
-200.8167806094
 20
-38.1044551811
 10
-195.8672839817
 20
-52.9178041053
 10
-189.8757374606
 20
-67.3037913054
 10
-183.2848705855
 20
-80.444821846
 10
-175.799458944
 20
-93.1343574159
 10
-167.4535757053
 20
-105.309602889
 10
-158.2897840717
 20
-116.8956411932
 10
-148.3534279234
 20
-127.8136361563
 10
-137.0274573476
 20
-138.5819307281
 10
-124.9746746162
 20
-148.4552879598
 10
-112.2819088065
 20
-157.3821682215
 10
-99.0331111666
 20
-165.3131507409
 10
-85.303985994
 20
-172.2046237248
 10
-71.135645234
 20
-178.0373347737
 10
-57.4035009889
 20
-182.5554555527
 10
-43.3496462989
 20
-186.107134039
 10
-29.0413561903
 20
-188.6717836119
 10
-14.5625206061
 20
-190.2213106
 10
0.0
 20
-190.7381590712
 10
15.4432545443
 20
-190.1567638671
 10
30.7865549697
 20
-188.4143786598
 10
45.9259663739
 20
-185.5341176152
 10
60.7642137458
 20
-181.5482297104
 10
75.2266953126
 20
-176.4796307979
 10
89.2728100073
 20
-170.3431073998
 10
102.106061597
 20
-163.590727177
 10
114.4996278539
 20
-155.9212054509
 10
126.3861069113
 20
-147.3738768941
 10
137.6950945678
 20
-137.9901929372
 10
148.3534279234
 20
-127.8136361563
 10
158.8676139872
 20
-116.2116803949
 10
168.5096618421
 20
-103.8636278988
 10
177.2255363345
 20
-90.8634464198
 10
184.9658835059
 20
-77.2985060104
 10
191.693117218
 20
-63.2391534169
 10
197.3883742222
 20
-48.7275001605
 10
201.800288321
 20
-34.6623047214
 10
205.267946463
 20
-20.2687203943
 10
207.7721438901
 20
-5.6158107437
 10
209.291174069
 20
9.2131545321
 10
209.8025351201
 20
24.1303274346
 10
209.2276189393
 20
39.9499413839
 10
207.5206984597
 20
55.664701917
 10
204.7085796591
 20
71.1694810961
 10
200.8170079208
 20
86.3667838379
 10
195.8682359678
 20
101.1794475561
 10
189.876786667
 20
115.5656686031
 10
183.2840403104
 20
128.7096604558
 10
175.7958347372
 20
141.4033200206
 10
167.4505741664
 20
153.5776139066
 10
158.2887294966
 20
165.1604339779
 10
148.3527549148
 20
176.0768464043
 10
137.0250781385
 20
186.8456222549
 10
124.9689458678
 20
196.7211387638
 10
112.2761089269
 20
205.6480469707
 10
99.0318751974
 20
213.5757938638
 10
85.3046352765
 20
220.4659382543
 10
71.1339691389
 20
226.2994551479
 10
57.3960216453
 20
230.8191583335
 10
43.3366487718
 20
234.371926466
 10
29.0314532656
 20
236.9366211846
 10
14.5595365379
 20
238.4914322162
 10
0.0
 20
239.0145492874
  0
SPLINE
  5
74
330
1F
100
AcDbEntity
  8
0
  6
Continuous
 62
     7
370
    25
100
AcDbSpline
210
0.0
220
0.0
230
1.0
 70
    11
 71
     3
 72
    53
 73
    49
 74
     0
 42
0.000000001
 43
0.00000001
 40
0.0
 40
0.0
 40
0.0
 40
0.0
 40
0.00703125
 40
0.0093749999999999
 40
0.046875
 40
0.078125
 40
0.09375
 40
0.125
 40
0.140625
 40
0.171875
 40
0.203125
 40
0.21875
 40
0.25
 40
0.2678239461198844
 40
0.28125
 40
0.296875
 40
0.328125
 40
0.34375
 40
0.375
 40
0.390625
 40
0.421875
 40
0.453125
 40
0.46875
 40
0.484375
 40
0.4999999999971685
 40
0.515625
 40
0.53125
 40
0.546875
 40
0.578125
 40
0.609375
 40
0.625
 40
0.65625
 40
0.671875
 40
0.703125
 40
0.71875
 40
0.7321760538703969
 40
0.75
 40
0.78125
 40
0.796875
 40
0.828125
 40
0.859375
 40
0.875
 40
0.90625
 40
0.921875
 40
0.953125
 40
0.990625
 40
0.99296875
 40
1.0
 40
1.0
 40
1.0
 40
1.0
 10
0.0000000002702699
 20
267.5000000000003
 30
0.0
 10
3.492285492779093
 20
267.5000000000003
 30
0.0
 10
8.147719898197181
 20
267.392165911879
 30
0.0
 10
31.38371884026808
 20
266.1437498768795
 30
0.0
 10
66.2846782837464
 20
259.6993704979466
 30
0.0
 10
104.5542296637784
 20
243.4107490401111
 30
0.0
 10
137.5565138728698
 20
223.0742948237097
 30
0.0
 10
161.5950101781568
 20
202.8436499023897
 30
0.0
 10
187.4455497622833
 20
173.3751114804141
 30
0.0
 10
208.7433732203974
 20
140.3836947376202
 30
0.0
 10
223.1300075683221
 20
104.2317564610003
 30
0.0
 10
232.184162809045
 20
66.16056873169437
 30
0.0
 10
235.1339299743731
 20
33.54752726393452
 30
0.0
 10
233.1147838226082
 20
2.127924034675654
 30
0.0
 10
229.3709354111141
 20
-21.06698048934991
 30
0.0
 10
221.9747789860591
 20
-50.16663494733287
 30
0.0
 10
210.1266915290405
 20
-78.6992549292409
 30
0.0
 10
190.3019568086611
 20
-111.8951794581039
 30
0.0
 10
170.6686541257103
 20
-136.0670738108638
 30
0.0
 10
142.1313142513219
 20
-162.105252498161
 30
0.0
 10
110.2091490241096
 20
-183.6271860678116
 30
0.0
 10
75.20828936342886
 20
-198.2954519974669
 30
0.0
 10
45.67729802493606
 20
-205.787909485798
 30
0.0
 10
22.9798253556993
 20
-209.2209453108727
 30
0.0
 10
0.0000000015149132
 20
-210.365290586203
 30
0.0
 10
-22.97982535294538
 20
-209.2209453113047
 30
0.0
 10
-45.67729802559867
 20
-205.7879094856928
 30
0.0
 10
-75.20828936539914
 20
-198.295451996885
 30
0.0
 10
-110.209149028207
 20
-183.6271860658485
 30
0.0
 10
-142.1313142574937
 20
-162.1052524935778
 30
0.0
 10
-170.6686541332291
 20
-136.0670738029881
 30
0.0
 10
-190.3019568165223
 20
-111.8951794472624
 30
0.0
 10
-210.1266915361762
 20
-78.69925491501999
 30
0.0
 10
-221.974778991798
 20
-50.16663493074184
 30
0.0
 10
-229.3709354137214
 20
-21.0669804758542
 30
0.0
 10
-233.1147838241582
 20
2.127924048556856
 30
0.0
 10
-235.1339299744285
 20
33.54752727781651
 30
0.0
 10
-232.1841628062125
 20
66.16056874969495
 30
0.0
 10
-223.1300075630228
 20
104.2317564771433
 30
0.0
 10
-208.743373213127
 20
140.3836947514471
 30
0.0
 10
-187.4455497539405
 20
173.3751114915225
 30
0.0
 10
-161.5950101695822
 20
202.8436499105219
 30
0.0
 10
-137.5565138648132
 20
223.0742948295018
 30
0.0
 10
-104.5542296571482
 20
243.4107490433412
 30
0.0
 10
-66.28467827922964
 20
259.6993704990231
 30
0.0
 10
-31.38371883896111
 20
266.1437498770677
 30
0.0
 10
-8.147719897589417
 20
267.3921659118938
 30
0.0
 10
-3.492285492238567
 20
267.5000000000003
 30
0.0
 10
0.0000000002702699
 20
267.5000000000003
 30
0.0
  0
SPLINE
  5
75
330
1F
100
AcDbEntity
  8
0
  6
Continuous
 62
     7
370
    25
100
AcDbSpline
210
0.0
220
0.0
230
1.0
 70
    11
 71
     3
 72
    53
 73
    49
 74
     0
 42
0.000000001
 43
0.00000001
 40
0.0
 40
0.0
 40
0.0
 40
0.0
 40
0.00703125
 40
0.0093749999999999
 40
0.046875
 40
0.078125
 40
0.09375
 40
0.125
 40
0.140625
 40
0.171875
 40
0.203125
 40
0.21875
 40
0.25
 40
0.2678239461198844
 40
0.28125
 40
0.296875
 40
0.328125
 40
0.34375
 40
0.375
 40
0.390625
 40
0.421875
 40
0.453125
 40
0.46875
 40
0.484375
 40
0.4999999999971685
 40
0.515625
 40
0.53125
 40
0.546875
 40
0.578125
 40
0.609375
 40
0.625
 40
0.65625
 40
0.671875
 40
0.703125
 40
0.71875
 40
0.7321760538703969
 40
0.75
 40
0.78125
 40
0.796875
 40
0.828125
 40
0.859375
 40
0.875
 40
0.90625
 40
0.921875
 40
0.953125
 40
0.990625
 40
0.99296875
 40
1.0
 40
1.0
 40
1.0
 40
1.0
 10
0.000000000009881
 20
34.49999999999997
 30
0.0
 10
0.4662888563983763
 20
34.49999999999997
 30
0.0
 10
1.088021193297647
 20
34.48660104252605
 30
0.0
 10
4.193268471756658
 20
34.33204813558172
 30
0.0
 10
8.873350031527561
 20
33.53705715840994
 30
0.0
 10
14.12035243573348
 20
31.57005032106369
 30
0.0
 10
18.65042554405017
 20
29.16120201599481
 30
0.0
 10
21.9581185333772
 20
26.78582503736892
 30
0.0
 10
25.65108333150712
 20
23.28217004122307
 30
0.0
 10
28.87444847591805
 20
19.25315326735744
 30
0.0
 10
31.39086004356501
 20
14.54573756149524
 30
0.0
 10
33.28207787165327
 20
9.41868653382838
 30
0.0
 10
34.28145218318824
 20
4.881756188127085
 30
0.0
 10
34.55341709467508
 20
0.3300548247927027
 30
0.0
 10
34.40276520118388
 20
-3.134674133014159
 30
0.0
 10
33.7637504587513
 20
-7.625918105044489
 30
0.0
 10
32.37773552456824
 20
-12.24245761040987
 30
0.0
 10
29.78682454747015
 20
-17.69951110652412
 30
0.0
 10
27.05632204214676
 20
-21.69347531317724
 30
0.0
 10
22.88513229256654
 20
-26.06333204218675
 30
0.0
 10
17.9872377699235
 20
-29.75437828441402
 30
0.0
 10
12.27129458006446
 20
-32.37851216615789
 30
0.0
 10
7.420587101227012
 20
-33.73590179109504
 30
0.0
 10
3.724746138868869
 20
-34.35839122767087
 30
0.0
 10
-0.000000000448086
 20
-34.56588770652974
 30
0.0
 10
-3.724746139780801
 20
-34.35839122759398
 30
0.0
 10
-7.420587102617009
 20
-33.73590179078612
 30
0.0
 10
-12.27129458149124
 20
-32.37851216562721
 30
0.0
 10
-17.9872377713608
 20
-29.7543782835743
 30
0.0
 10
-22.88513229393741
 20
-26.063332041
 30
0.0
 10
-27.05632204338482
 20
-21.69347531163535
 30
0.0
 10
-29.78682454854253
 20
-17.69951110470136
 30
0.0
 10
-32.37773552535522
 20
-12.24245760832393
 30
0.0
 10
-33.76375045925584
 20
-7.625918102845311
 30
0.0
 10
-34.4027652012891
 20
-3.134674131542781
 30
0.0
 10
-34.55341709466597
 20
0.3300548262221703
 30
0.0
 10
-34.28145218302986
 20
4.881756189466846
 30
0.0
 10
-33.28207787112343
 20
9.418686535660692
 30
0.0
 10
-31.39086004284341
 20
14.54573756305411
 30
0.0
 10
-28.87444847508281
 20
19.25315326859955
 30
0.0
 10
-25.65108333064438
 20
23.28217004216333
 30
0.0
 10
-21.95811853254487
 20
26.78582503803517
 30
0.0
 10
-18.65042554328555
 20
29.16120201646583
 30
0.0
 10
-14.12035243510851
 20
31.57005032132959
 30
0.0
 10
-8.87335003110945
 20
33.53705715850086
 30
0.0
 10
-4.193268471660071
 20
34.3320481355977
 30
0.0
 10
-1.088021193271168
 20
34.48660104252738
 30
0.0
 10
-0.4662888563786716
 20
34.49999999999997
 30
0.0
 10
0.000000000009881
 20
34.49999999999997
 30
0.0
  0
SPLINE
  5
76
330
1F
100
AcDbEntity
  8
0
  6
Continuous
 62
     7
370
    25
100
AcDbSpline
210
0.0
220
0.0
230
1.0
 70
    11
 71
     3
 72
    53
 73
    49
 74
     0
 42
0.000000001
 43
0.00000001
 40
0.0
 40
0.0
 40
0.0
 40
0.0
 40
0.00703125
 40
0.0093749999999999
 40
0.046875
 40
0.078125
 40
0.09375
 40
0.125
 40
0.140625
 40
0.171875
 40
0.203125
 40
0.21875
 40
0.25
 40
0.2678239461198844
 40
0.28125
 40
0.296875
 40
0.328125
 40
0.34375
 40
0.375
 40
0.390625
 40
0.421875
 40
0.453125
 40
0.46875
 40
0.484375
 40
0.4999999999971685
 40
0.515625
 40
0.53125
 40
0.546875
 40
0.578125
 40
0.609375
 40
0.625
 40
0.65625
 40
0.671875
 40
0.703125
 40
0.71875
 40
0.7321760538703969
 40
0.75
 40
0.78125
 40
0.796875
 40
0.828125
 40
0.859375
 40
0.875
 40
0.90625
 40
0.921875
 40
0.953125
 40
0.990625
 40
0.99296875
 40
1.0
 40
1.0
 40
1.0
 40
1.0
 10
0.0000000000064393
 20
22.49999999999996
 30
0.0
 10
0.3041014280859011
 20
22.49999999999997
 30
0.0
 10
0.7095791902433992
 20
22.49126110529138
 30
0.0
 10
2.734741613449054
 20
22.39046172374382
 30
0.0
 10
5.786971732850199
 20
21.87197427751276
 30
0.0
 10
9.208893143298646
 20
20.58919012943745
 30
0.0
 10
12.16329337736896
 20
19.0182226309209
 30
0.0
 10
14.32055292074428
 20
17.46893830553104
 30
0.0
 10
16.72894388890192
 20
15.18409562101592
 30
0.0
 10
18.83122866191062
 20
12.55619608600062
 30
0.0
 10
20.47195556157511
 20
9.487297822262597
 30
0.0
 10
21.70604706809493
 20
6.141694287542801
 30
0.0
 10
22.35755624398206
 20
3.183549280437518
 30
0.0
 10
22.53484306928736
 20
0.2152701255394608
 30
0.0
 10
22.43658103200169
 20
-2.044314219288912
 30
0.0
 10
22.01985247977276
 20
-4.973457408418702
 30
0.0
 10
21.11588674809351
 20
-7.984281970558012
 30
0.0
 10
19.42615989563943
 20
-11.5431464931578
 30
0.0
 10
17.64560463500021
 20
-14.14782661711135
 30
0.0
 10
14.92491411745592
 20
-16.99783727777515
 30
0.0
 10
11.73084985348899
 20
-19.40512628061109
 30
0.0
 10
8.00333377442348
 20
-21.11643086845083
 30
0.0
 10
4.839450647961653
 20
-22.00165393160774
 30
0.0
 10
2.429087919780526
 20
-22.40764385370753
 30
0.0
 10
-0.0000000002922107
 20
-22.5429738277409
 30
0.0
 10
-2.429087920375269
 20
-22.40764385365734
 30
0.0
 10
-4.839450648868259
 20
-22.00165393140624
 30
0.0
 10
-8.003333775354012
 20
-21.11643086810477
 30
0.0
 10
-11.73084985442636
 20
-19.40512628006353
 30
0.0
 10
-14.92491411835001
 20
-16.9978372770011
 30
0.0
 10
-17.64560463580766
 20
-14.14782661610564
 30
0.0
 10
-19.42615989633878
 20
-11.54314649196886
 30
0.0
 10
-21.11588674860682
 20
-7.98428196919776
 30
0.0
 10
-22.01985248010185
 20
-4.97345740698446
 30
0.0
 10
-22.4365810320703
 20
-2.044314218329235
 30
0.0
 10
-22.53484306928133
 20
0.2152701264719337
 30
0.0
 10
-22.35755624387847
 20
3.183549281311981
 30
0.0
 10
-21.70604706774892
 20
6.141694288739563
 30
0.0
 10
-20.47195556110498
 20
9.487297823277508
 30
0.0
 10
-18.83122866136583
 20
12.55619608681108
 30
0.0
 10
-16.72894388833929
 20
15.18409562162903
 30
0.0
 10
-14.32055292020146
 20
17.46893830596574
 30
0.0
 10
-12.16329337687039
 20
19.01822263122793
 30
0.0
 10
-9.208893142891137
 20
20.58919012961086
 30
0.0
 10
-5.786971732577529
 20
21.87197427757215
 30
0.0
 10
-2.734741613386105
 20
22.39046172375431
 30
0.0
 10
-0.7095791902261284
 20
22.4912611052922
 30
0.0
 10
-0.3041014280730191
 20
22.49999999999996
 30
0.0
 10
0.0000000000064393
 20
22.49999999999996
 30
0.0
  0
SPLINE
  5
7D
330
1B
100
AcDbEntity
 67
     1
  8
0
  6
Continuous
 62
     7
370
    25
100
AcDbSpline
210
0.0
220
0.0
230
1.0
 70
     8
 71
     3
 72
    24
 73
    20
 74
     0
 42
0.000000001
 43
0.00000001
 40
0.0
 40
0.0
 40
0.0
 40
0.0
 40
0.0686233720957889
 40
0.1314423177459759
 40
0.1890079174229998
 40
0.2419110770192686
 40
0.2908018927876473
 40
0.3505083221011493
 40
0.408483419502771
 40
0.4650014009205464
 40
0.5071432631240969
 40
0.5483868603980906
 40
0.5913910216889632
 40
0.6418351787567975
 40
0.699862290468732
 40
0.7641774621907688
 40
0.8356868311573894
 40
0.9143197866420989
 40
1.0
 40
1.0
 40
1.0
 40
1.0
 10
179.9896135514286
 20
759.9999999999998
 30
0.0
 10
180.9056976639623
 20
763.409575083141
 30
0.0
 10
182.6603800021258
 20
769.940330389532
 30
0.0
 10
185.3065926597671
 20
779.3943374430038
 30
0.0
 10
187.8318174644781
 20
788.0987762314205
 30
0.0
 10
190.250164151052
 20
796.1119322666082
 30
0.0
 10
192.786311814612
 20
804.2006986279985
 30
0.0
 10
195.4389567770425
 20
812.3475213863954
 30
0.0
 10
198.2961573151419
 20
820.9399966352951
 30
0.0
 10
200.9412341177054
 20
828.6864742568571
 30
0.0
 10
203.3621097534
 20
835.6123242450236
 30
0.0
 10
205.5920194801099
 20
841.8627596471381
 30
0.0
 10
208.0097272553107
 20
848.5010105044535
 30
0.0
 10
210.7831667571115
 20
855.9446489326454
 30
0.0
 10
214.0185108759191
 20
864.4046871626247
 30
0.0
 10
217.7387066555337
 20
873.8574004190973
 30
0.0
 10
221.9686779553393
 20
884.2644885291853
 30
0.0
 10
226.745505439942
 20
895.651994322853
 30
0.0
 10
230.2067964012652
 20
903.523634343372
 30
0.0
 10
232.0116678558716
 20
907.6282584656215
 30
0.0
  0
SPLINE
  5
7E
330
1B
100
AcDbEntity
 67
     1
  8
0
  6
Continuous
 62
     7
370
    25
100
AcDbSpline
210
0.0
220
0.0
230
1.0
 70
     8
 71
     3
 72
    24
 73
    20
 74
     0
 42
0.000000001
 43
0.00000001
 40
0.0
 40
0.0
 40
0.0
 40
0.0
 40
0.0775488111733778
 40
0.1485442133788999
 40
0.2129059585179342
 40
0.2705619122601463
 40
0.3220522285984515
 40
0.3715026604023606
 40
0.4196903462875746
 40
0.4665995870088604
 40
0.5075319815465849
 40
0.5474154704195022
 40
0.5902724972998843
 40
0.640734720903243
 40
0.6987939801874713
 40
0.7631926429839796
 40
0.8348781946191125
 40
0.913823999561637
 40
1.0
 40
1.0
 40
1.0
 40
1.0
 10
-232.0116678558642
 20
907.628258465615
 30
0.0
 10
-230.384560518693
 20
903.9318760336403
 30
0.0
 10
-227.2678476274696
 20
896.8514809586254
 30
0.0
 10
-222.9534644281672
 20
886.6262953318336
 30
0.0
 10
-219.1329204952291
 20
877.3125203738704
 30
0.0
 10
-215.7799814365914
 20
868.9010599713336
 30
0.0
 10
-212.7797474419348
 20
861.1817718013344
 30
0.0
 10
-210.0160148383644
 20
853.8988915524781
 30
0.0
 10
-207.3909365055058
 20
846.8175438798071
 30
0.0
 10
-204.9699666910546
 20
840.1338303889389
 30
0.0
 10
-202.7397390313411
 20
833.8416501300361
 30
0.0
 10
-200.6186418498938
 20
827.7349080623488
 30
0.0
 10
-198.3764278467246
 20
821.1422359051645
 30
0.0
 10
-195.8828081514835
 20
813.6314411675758
 30
0.0
 10
-193.1072977199497
 20
805.0281394794422
 30
0.0
 10
-190.083136752525
 20
795.339988761001
 30
0.0
 10
-186.8506677998335
 20
784.5741499044888
 30
0.0
 10
-183.4199048763067
 20
772.6800244665642
 30
0.0
 10
-181.1659421140858
 20
764.348282271812
 30
0.0
 10
-179.9896135514398
 20
760.0
 30
0.0
  0
SPLINE
  5
81
330
1B
100
AcDbEntity
 67
     1
  8
0
  6
Continuous
 62
     7
370
    25
100
AcDbSpline
210
0.0
220
0.0
230
1.0
 70
     8
 71
     3
 72
    17
 73
    13
 74
     0
 42
0.000000001
 43
0.00000001
 40
0.0
 40
0.0
 40
0.0
 40
0.0
 40
0.0707273112960257
 40
0.1781124766075123
 40
0.2855165163508654
 40
0.3929382862053594
 40
0.5003449217910318
 40
0.6077255836442891
 40
0.7151125625348516
 40
0.822532763535183
 40
0.9299634214066321
 40
1.0
 40
1.0
 40
1.0
 40
1.0
 10
100.0350289289933
 20
27.53188429077641
 30
0.0
 10
100.0350365114724
 20
27.531294517952
 30
0.0
 10
100.0350556064177
 20
27.52980929397753
 30
0.0
 10
100.0281965065776
 20
27.84809692434492
 30
0.0
 10
100.0188192617681
 20
28.40873348310574
 30
0.0
 10
100.0113520605245
 20
29.15977572998118
 30
0.0
 10
100.0100588305257
 20
30.00278445602295
 30
0.0
 10
100.0161784885787
 20
30.84534515338877
 30
0.0
 10
100.0279251389415
 20
31.59539245034426
 30
0.0
 10
100.0404693454625
 20
32.15464723411782
 30
0.0
 10
100.04908902338
 20
32.47110900057887
 30
0.0
 10
100.0490367918372
 20
32.46875660985088
 30
0.0
 10
100.0490161789138
 20
32.46782825033295
 30
0.0
  0
SPLINE
  5
82
330
1B
100
AcDbEntity
 67
     1
  8
0
  6
Continuous
 62
     7
370
    25
100
AcDbSpline
210
0.0
220
0.0
230
1.0
 70
     8
 71
     3
 72
    18
 73
    14
 74
     0
 42
0.000000001
 43
0.00000001
 40
0.0
 40
0.0
 40
0.0
 40
0.0
 40
0.0000710492127471
 40
0.1074070732316459
 40
0.21474189086501
 40
0.3221124071129992
 40
0.429503864929537
 40
0.5368733268996109
 40
0.644213200385436
 40
0.7515588472775755
 40
0.8589322642707939
 40
0.9663106837810859
 40
1.0
 40
1.0
 40
1.0
 40
1.0
 10
-100.0499089686391
 20
32.49990680288328
 30
0.0
 10
-100.0499098181055
 20
32.49993786208033
 30
0.0
 10
-100.0511939800742
 20
32.54689091505847
 30
0.0
 10
-100.0465561221636
 20
32.38232830514731
 30
0.0
 10
-100.0365899543942
 20
31.9953148019429
 30
0.0
 10
-100.0233928470452
 20
31.34901099998738
 30
0.0
 10
-100.0132798778595
 20
30.55981534087587
 30
0.0
 10
-100.0096659254706
 20
29.70467240361258
 30
0.0
 10
-100.013387493159
 20
28.88505254280188
 30
0.0
 10
-100.0221738946785
 20
28.18555843279208
 30
0.0
 10
-100.0310135501932
 20
27.71058317566655
 30
0.0
 10
-100.0360537223969
 20
27.48556764149601
 30
0.0
 10
-100.0352513082016
 20
27.52185810187863
 30
0.0
 10
-100.0350596783761
 20
27.53052486603441
 30
0.0
  0
SPLINE
  5
83
330
1B
100
AcDbEntity
 67
     1
  8
0
  6
Continuous
 62
     7
370
    25
100
AcDbSpline
210
0.0
220
0.0
230
1.0
 70
    11
 71
     3
 72
    53
 73
    49
 74
     0
 42
0.000000001
 43
0.00000001
 40
0.0
 40
0.0
 40
0.0
 40
0.0
 40
0.00703125
 40
0.0093749999999999
 40
0.046875
 40
0.078125
 40
0.09375
 40
0.125
 40
0.140625
 40
0.171875
 40
0.203125
 40
0.21875
 40
0.25
 40
0.2678239461198844
 40
0.28125
 40
0.296875
 40
0.328125
 40
0.34375
 40
0.375
 40
0.390625
 40
0.421875
 40
0.453125
 40
0.46875
 40
0.484375
 40
0.4999999999971685
 40
0.515625
 40
0.53125
 40
0.546875
 40
0.578125
 40
0.609375
 40
0.625
 40
0.65625
 40
0.671875
 40
0.703125
 40
0.71875
 40
0.7321760538703969
 40
0.75
 40
0.78125
 40
0.796875
 40
0.828125
 40
0.859375
 40
0.875
 40
0.90625
 40
0.921875
 40
0.953125
 40
0.990625
 40
0.99296875
 40
1.0
 40
1.0
 40
1.0
 40
1.0
 10
0.0000000002702699
 20
990.0000000000001
 30
0.0
 10
3.492285492779093
 20
990.0000000000001
 30
0.0
 10
8.147719898197181
 20
989.9672545700994
 30
0.0
 10
31.38371884026808
 20
989.588154412874
 30
0.0
 10
66.2846782837464
 20
987.6312224548727
 30
0.0
 10
104.5542296637784
 20
982.6849394990903
 30
0.0
 10
137.5565138728698
 20
976.5094717265724
 30
0.0
 10
161.5950101781568
 20
970.366134525333
 30
0.0
 10
187.4455497622833
 20
961.4175731197066
 30
0.0
 10
208.7433732203974
 20
951.3992371454544
 30
0.0
 10
223.1300075683221
 20
940.4211616478425
 30
0.0
 10
232.184162809045
 20
928.8602774159082
 30
0.0
 10
235.1339299743731
 20
918.9568407398335
 30
0.0
 10
233.1147838226082
 20
909.4158093927282
 30
0.0
 10
229.3709354111141
 20
902.3723305320295
 30
0.0
 10
221.9747789860591
 20
893.5357862463605
 30
0.0
 10
210.1266915290405
 20
884.871430440335
 30
0.0
 10
190.3019568086611
 20
874.7909926252887
 30
0.0
 10
170.6686541257103
 20
867.4508362249741
 30
0.0
 10
142.1313142513219
 20
859.5439547387781
 30
0.0
 10
110.2091490241096
 20
853.0084984715544
 30
0.0
 10
75.20828936342886
 20
848.5542606499831
 30
0.0
 10
45.67729802493606
 20
846.2790641352033
 30
0.0
 10
22.9798253556993
 20
845.2365715809918
 30
0.0
 10
0.0000000015149132
 20
844.8890740628286
 30
0.0
 10
-22.97982535294538
 20
845.2365715808604
 30
0.0
 10
-45.67729802559867
 20
846.279064135235
 30
0.0
 10
-75.20828936539914
 20
848.5542606501607
 30
0.0
 10
-110.209149028207
 20
853.0084984721499
 30
0.0
 10
-142.1313142574937
 20
859.5439547401687
 30
0.0
 10
-170.6686541332291
 20
867.4508362273668
 30
0.0
 10
-190.3019568165223
 20
874.7909926285816
 30
0.0
 10
-210.1266915361762
 20
884.8714304446529
 30
0.0
 10
-221.974778991798
 20
893.5357862513974
 30
0.0
 10
-229.3709354137214
 20
902.3723305361285
 30
0.0
 10
-233.1147838241582
 20
909.4158093969444
 30
0.0
 10
-235.1339299744285
 20
918.9568407440483
 30
0.0
 10
-232.1841628062125
 20
928.8602774213729
 30
0.0
 10
-223.1300075630228
 20
940.4211616527457
 30
0.0
 10
-208.743373213127
 20
951.3992371496546
 30
0.0
 10
-187.4455497539405
 20
961.4175731230764
 30
0.0
 10
-161.5950101695822
 20
970.3661345278061
 30
0.0
 10
-137.5565138648132
 20
976.5094717283334
 30
0.0
 10
-104.5542296571482
 20
982.6849395000697
 30
0.0
 10
-66.28467827922964
 20
987.6312224551988
 30
0.0
 10
-31.38371883896111
 20
989.5881544129313
 30
0.0
 10
-8.147719897589417
 20
989.9672545701038
 30
0.0
 10
-3.492285492238567
 20
990.0000000000001
 30
0.0
 10
0.0000000002702699
 20
990.0000000000001
 30
0.0
  0
SPLINE
  5
84
330
1B
100
AcDbEntity
 67
     1
  8
0
  6
Continuous
 62
     7
370
    25
100
AcDbSpline
210
0.0
220
0.0
230
1.0
 70
    24
 71
     3
 72
    49
 73
    45
 74
     0
 42
0.000000001
 43
0.00000001
 40
0.0
 40
0.0
 40
0.0
 40
0.0
 40
0.01131079517196
 40
0.0350368792339466
 40
0.0590192292122094
 40
0.083190079247258
 40
0.1075413158082623
 40
0.1306815035747769
 40
0.1540323820672023
 40
0.1776498780146178
 40
0.2015131278614146
 40
0.2255725106815515
 40
0.2512526343998593
 40
0.2770372789803454
 40
0.3028551196288072
 40
0.3286256300782032
 40
0.354286877215154
 40
0.3798622003131893
 40
0.4039377439329028
 40
0.4280101258860675
 40
0.4520910911992913
 40
0.4760875959316921
 40
0.4999734450924382
 40
0.5253088021576925
 40
0.5507713183062781
 40
0.5763123787694183
 40
0.6018411679327234
 40
0.627382188572623
 40
0.6529775008776691
 40
0.6772003534234982
 40
0.7015145026144253
 40
0.7258581867802344
 40
0.7501645081759315
 40
0.7743744863599497
 40
0.7998854244843333
 40
0.82517250695966
 40
0.8501766466677056
 40
0.8748895216978654
 40
0.8993789629649314
 40
0.9236774189173597
 40
0.9464251372301432
 40
0.9689953208871582
 40
0.991328317293832
 40
1.0
 40
1.0
 40
1.0
 40
1.0
 10
179.8675471015193
 20
759.9999999999999
 30
0.0
 10
179.8943071419889
 20
760.0
 30
0.0
 10
179.9772003685015
 20
760.0000000000001
 30
0.0
 10
179.0421777198949
 20
760.0
 30
0.0
 10
177.0943274162968
 20
759.9999999999998
 30
0.0
 10
174.0654402434416
 20
760.0
 30
0.0
 10
170.0929602909487
 20
760.0000000000002
 30
0.0
 10
165.2167526143494
 20
760.0000000000003
 30
0.0
 10
159.4955823385554
 20
759.9999999999998
 30
0.0
 10
152.8363083582146
 20
760.0000000000002
 30
0.0
 10
145.2636160419504
 20
760.0
 30
0.0
 10
136.6372244212343
 20
759.9999999999998
 30
0.0
 10
126.9385682592108
 20
760.0000000000005
 30
0.0
 10
116.1741248978614
 20
759.9999999999995
 30
0.0
 10
104.6348694472621
 20
759.9999999999994
 30
0.0
 10
92.43656985948301
 20
759.9999999999991
 30
0.0
 10
79.67339996086817
 20
759.9999999999993
 30
0.0
 10
66.68271661110059
 20
759.9999999999993
 30
0.0
 10
53.56394407971827
 20
760.0
 30
0.0
 10
40.40295630289889
 20
760.0
 30
0.0
 10
27.02694552252928
 20
759.9999999999999
 30
0.0
 10
13.53382165097003
 20
759.9999999999994
 30
0.0
 10
-0.2732352319468412
 20
759.9999999999992
 30
0.0
 10
-14.35743040560735
 20
759.9999999999993
 30
0.0
 10
-28.66114313760455
 20
760.0
 30
0.0
 10
-42.81985044780227
 20
760.0000000000005
 30
0.0
 10
-56.71859139313486
 20
759.9999999999999
 30
0.0
 10
-70.25936142020497
 20
760.0
 30
0.0
 10
-83.12149311462217
 20
760.0000000000002
 30
0.0
 10
-95.26460819553752
 20
760.0000000000006
 30
0.0
 10
-106.6494085742439
 20
759.9999999999995
 30
0.0
 10
-117.4322923663846
 20
760.0000000000006
 30
0.0
 10
-127.5138296554178
 20
759.9999999999998
 30
0.0
 10
-136.9953177194578
 20
760.0000000000005
 30
0.0
 10
-145.7622694484756
 20
760.0000000000001
 30
0.0
 10
-153.7072523385198
 20
760.0000000000001
 30
0.0
 10
-160.6215945627535
 20
759.9999999999998
 30
0.0
 10
-166.4784918399838
 20
760.0000000000003
 30
0.0
 10
-171.2794094191986
 20
760.0000000000002
 30
0.0
 10
-174.9619961843495
 20
760.0000000000005
 30
0.0
 10
-177.6218395771905
 20
760.0000000000001
 30
0.0
 10
-179.2617229611851
 20
760.0000000000001
 30
0.0
 10
-180.0134121454502
 20
760.0
 30
0.0
 10
-179.9139938846759
 20
759.9999999999998
 30
0.0
 10
-179.8861876426085
 20
759.9999999999998
 30
0.0
  0
LWPOLYLINE
  5
85
330
1B
100
AcDbEntity
 67
     1
  8
0
  6
Continuous
 62
     7
370
    25
100
AcDbPolyline
 90
       89
 70
   128
 43
0.0
 10
0.0
 20
981.3499678464
 10
-15.4399126973
 20
981.1713524916
 10
-30.7758704378
 20
980.640774197
 10
-45.9135004856
 20
979.7661346172
 10
-60.7584301048
 20
978.5553354069
 10
-75.22609944
 20
977.0157059501
 10
-89.2733606719
 20
975.1521605502
 10
-102.1038038634
 20
973.1022872357
 10
-114.4933313669
 20
970.7741968983
 10
-126.3807362869
 20
968.1784812432
 10
-137.6928695514
 20
965.3283793129
 10
-148.3527549148
 20
962.2379952432
 10
-158.866478075
 20
958.7154166692
 10
-168.5064195621
 20
954.9667870668
 10
-177.2222587195
 20
951.0191115894
 10
-184.9657438245
 20
946.8985002724
 10
-191.6942946923
 20
942.6284984509
 10
-197.3891141702
 20
938.2218936761
 10
-201.8004207145
 20
933.9509566167
 10
-205.2679983321
 20
929.58006732
 10
-207.7722150598
 20
925.1303051916
 10
-209.2912207173
 20
920.6270772913
 10
-209.8025351201
 20
916.0971674932
 10
-209.2275699522
 20
911.293403052
 10
-207.5206268844
 20
906.5215881979
 10
-204.7085340425
 20
901.8135180178
 10
-200.8167806094
 20
897.1986471178
 10
-195.8672839817
 20
892.7003526801
 10
-189.8757374606
 20
888.3318330067
 10
-183.2848705855
 20
884.3413629997
 10
-175.799458944
 20
880.4879961774
 10
-167.4535757053
 20
876.790801217
 10
-158.2897840717
 20
873.2725278052
 10
-148.3534279234
 20
869.9571157222
 10
-137.0274573476
 20
866.6871623967
 10
-124.9746746162
 20
863.6889701483
 10
-112.2819088065
 20
860.9781897547
 10
-99.0331111666
 20
858.5698285708
 10
-85.303985994
 20
856.4771299684
 10
-71.135645234
 20
854.7059402258
 10
-57.4035009889
 20
853.3339454343
 10
-43.3496462989
 20
852.2554252657
 10
-29.0413561903
 20
851.4766311545
 10
-14.5625206061
 20
851.0060941634
 10
0.0
 20
850.8491454129
 10
15.4432545443
 20
851.0256947419
 10
30.7865549697
 20
851.5547960091
 10
45.9259663739
 20
852.429430253
 10
60.7642137458
 20
853.6398045906
 10
75.2266953126
 20
855.1789602813
 10
89.2728100073
 20
857.042407177
 10
102.106061597
 20
859.0928681871
 10
114.4996278539
 20
861.4218328997
 10
126.3861069113
 20
864.0173567547
 10
137.6950945678
 20
866.8668524065
 10
148.3534279234
 20
869.9571157222
 10
158.8676139872
 20
873.4802227073
 10
168.5096618421
 20
877.2298930988
 10
177.2255363345
 20
881.1775921867
 10
184.9658835059
 20
885.2967887508
 10
191.693117218
 20
889.5661209519
 10
197.3883742222
 20
893.9728009984
 10
201.800288321
 20
898.2439074668
 10
205.267946463
 20
902.6147341211
 10
207.7721438901
 20
907.0643087794
 10
209.291174069
 20
911.5673453553
 10
209.8025351201
 20
916.0971674932
 10
209.2276189393
 20
920.9010293208
 10
207.5206984597
 20
925.6730508439
 10
204.7085796591
 20
930.3813083957
 10
200.8170079208
 20
934.9961961393
 10
195.8682359678
 20
939.4942825039
 10
189.876786667
 20
943.8628731884
 10
183.2840403104
 20
947.8542424421
 10
175.7958347372
 20
951.7088615769
 10
167.4505741664
 20
955.4057675737
 10
158.2887294966
 20
958.923063721
 10
148.3527549148
 20
962.2379952432
 10
137.0250781385
 20
965.5080947161
 10
124.9689458678
 20
968.5069426613
 10
112.2761089269
 20
971.2177315408
 10
99.0318751974
 20
973.6251101785
 10
85.3046352765
 20
975.7174053338
 10
71.1339691389
 20
977.4888397831
 10
57.3960216453
 20
978.861315096
 10
43.3366487718
 20
979.940166152
 10
29.0314532656
 20
980.7189739723
 10
14.5595365379
 20
981.1911155421
 10
0.0
 20
981.3499678464
  0
LINE
  5
87
330
1B
100
AcDbEntity
 67
     1
  8
0
  6
Continuous
 62
     7
370
    25
100
AcDbLine
 10
100.0358186923
 20
27.5320139541
 30
0.0
 11
100.0
 21
0.0
 31
0.0
  0
LINE
  5
88
330
1B
100
AcDbEntity
 67
     1
  8
0
  6
Continuous
 62
     7
370
    25
100
AcDbLine
 10
-100.0
 20
0.0
 30
0.0
 11
-100.0358150745
 21
27.5306235041
 31
0.0
  0
LINE
  5
89
330
1B
100
AcDbEntity
 67
     1
  8
0
  6
Continuous
 62
     7
370
    25
100
AcDbLine
 10
180.0
 20
760.0
 30
0.0
 11
-180.0
 21
760.0
 31
0.0
  0
LINE
  5
8A
330
1B
100
AcDbEntity
 67
     1
  8
0
  6
Continuous
 62
     7
370
    25
100
AcDbLine
 10
100.0
 20
0.0
 30
0.0
 11
-100.0
 21
0.0
 31
0.0
  0
LINE
  5
8B
330
1B
100
AcDbEntity
 67
     1
  8
0
  6
Continuous
 62
    60
370
    25
100
AcDbLine
 10
102.5
 20
230.0
 30
0.0
 11
-102.5
 21
230.0
 31
0.0
  0
ARC
  5
8C
330
1B
100
AcDbEntity
 67
     1
  8
0
  6
Continuous
 62
     7
370
    25
100
AcDbCircle
 10
2276.7932178932
 20
182.7271709684
 30
0.0
 40
2174.807052991332
100
AcDbArc
 50
164.6071180754
 51
178.7544886256
  0
ARC
  5
8D
330
1B
100
AcDbEntity
 67
     1
  8
0
  6
Continuous
 62
     7
370
    25
100
AcDbCircle
 10
-2276.7932178932
 20
182.7271709684
 30
0.0
 40
2174.80705299137
100
AcDbArc
 50
1.2455113744
 51
15.3928819246
  0
ARC
  5
8E
330
1B
100
AcDbEntity
 67
     1
  8
0
  6
Continuous
 62
     7
370
    25
100
AcDbCircle
 10
10681.249999951
 20
0.0000000006
 30
0.0
 40
10581.24999995104
100
AcDbArc
 50
178.7544886256
 51
179.8241909344
  0
ARC
  5
8F
330
1B
100
AcDbEntity
 67
     1
  8
0
  6
Continuous
 62
     7
370
    25
100
AcDbCircle
 10
-10681.2499999392
 20
0.0000000007
 30
0.0
 40
10581.2499999392
100
AcDbArc
 50
0.1759838838
 51
1.2455113744
  0
VIEWPORT
  5
17C
330
1B
100
AcDbEntity
 67
     1
  8
0
100
AcDbViewport
 10
0.0
 20
0.0
 30
0.0
 40
205.6
 41
156.0
 68
     1
 69
     1
 12
-0.0000000001
 22
28.7580789194
 13
0.0
 23
0.0
 14
10.0
 24
10.0
 15
10.0
 25
10.0
 16
0.0
 26
0.0
 36
1.0
 17
0.0
 27
0.0
 37
0.0
 42
50.0
 43
0.0
 44
0.0
 45
487.0335190044
 50
0.0
 51
0.0
 72
   100
 90
   557152
  1

281
     0
 71
     1
 74
     0
110
0.0
120
0.0
130
0.0
111
1.0
121
0.0
131
0.0
112
0.0
122
1.0
132
0.0
 79
     0
146
0.0
  0
ENDSEC
  0
SECTION
  2
OBJECTS
  0
DICTIONARY
  5
C
330
0
100
AcDbDictionary
281
     1
  3
ACAD_GROUP
350
D
  3
ACAD_LAYOUT
350
1A
  3
ACAD_MLINESTYLE
350
17
  3
ACAD_PLOTSETTINGS
350
19
  3
ACAD_PLOTSTYLENAME
350
E
  3
ACAD_SCALELIST
350
47
  0
DICTIONARY
  5
D
102
{ACAD_REACTORS
330
C
102
}
330
C
100
AcDbDictionary
281
     1
  0
DICTIONARY
  5
1A
102
{ACAD_REACTORS
330
C
102
}
330
C
100
AcDbDictionary
281
     1
  3
_Dimetrisch
350
16C
  3
_Isometrisch
350
143
  3
_Links
350
E4
  3
_Normal auf
350
A4
  3
_Rechts
350
26
  3
_Rückseite
350
C1
  3
_Trimetrisch
350
158
  3
_Unten
350
FC
  3
_Vorderseite
350
1E
  3
Model
350
22
  0
DICTIONARY
  5
17
102
{ACAD_REACTORS
330
C
102
}
330
C
100
AcDbDictionary
281
     1
  3
Standard
350
18
  0
DICTIONARY
  5
19
102
{ACAD_REACTORS
330
C
102
}
330
C
100
AcDbDictionary
281
     1
  0
ACDBDICTIONARYWDFLT
  5
E
102
{ACAD_REACTORS
330
C
102
}
330
C
100
AcDbDictionary
281
     1
  3
Normal
350
F
100
AcDbDictionaryWithDefault
340
F
  0
DICTIONARY
  5
47
102
{ACAD_REACTORS
330
C
102
}
330
C
100
AcDbDictionary
281
     1
  3
A0
350
48
  3
A1
350
49
  3
A2
350
4A
  3
A3
350
4B
  3
A4
350
4C
  3
A5
350
4D
  3
A6
350
4E
  3
A7
350
4F
  3
A8
350
50
  3
A9
350
51
  3
B0
350
52
  3
B1
350
53
  3
B2
350
54
  3
B3
350
55
  3
B4
350
56
  3
B5
350
57
  3
B6
350
58
  3
B7
350
59
  3
B8
350
5A
  3
B9
350
5B
  3
C0
350
5C
  3
C1
350
5D
  3
C2
350
5E
  3
C3
350
5F
  3
C4
350
60
  3
C5
350
61
  3
C6
350
62
  3
C7
350
63
  3
C8
350
64
  3
C9
350
65
  3
D0
350
66
  3
D1
350
67
  3
D2
350
68
  0
LAYOUT
  5
16C
102
{ACAD_REACTORS
330
1A
102
}
330
1A
100
AcDbPlotSettings
  1

  2
none_device
  4
ISO_A4_(210.00_x_297.00_MM)
  6

 40
7.5
 41
20.0
 42
7.5
 43
20.0
 44
210.0
 45
297.0
 46
0.0
 47
0.0
 48
0.0
 49
0.0
140
0.0
141
0.0
142
1.0
143
5.0769230769
 70
   688
 72
     1
 73
     1
 74
     1
  7

 75
     0
147
0.196969697
148
234.1958867366
149
0.0
100
AcDbLayout
  1
_Dimetrisch
 70
     1
 71
     9
 10
0.0
 20
0.0
 11
0.0
 21
0.0
 12
0.0
 22
0.0
 32
0.0
 14
0.0
 24
0.0
 34
0.0
 15
0.0
 25
0.0
 35
0.0
146
0.0
 13
0.0
 23
0.0
 33
0.0
 16
1.0
 26
0.0
 36
0.0
 17
0.0
 27
1.0
 37
0.0
 76
     0
330
16B
331
18C
  0
LAYOUT
  5
143
102
{ACAD_REACTORS
330
1A
102
}
330
1A
100
AcDbPlotSettings
  1

  2
none_device
  4
ISO_A4_(210.00_x_297.00_MM)
  6

 40
7.5
 41
20.0
 42
7.5
 43
20.0
 44
210.0
 45
297.0
 46
0.0
 47
0.0
 48
0.0
 49
0.0
140
0.0
141
0.0
142
1.0
143
5.0769230769
 70
   688
 72
     1
 73
     1
 74
     1
  7

 75
     0
147
0.196969697
148
234.1958867366
149
0.0
100
AcDbLayout
  1
_Isometrisch
 70
     1
 71
     7
 10
0.0
 20
0.0
 11
0.0
 21
0.0
 12
0.0
 22
0.0
 32
0.0
 14
0.0
 24
0.0
 34
0.0
 15
0.0
 25
0.0
 35
0.0
146
0.0
 13
0.0
 23
0.0
 33
0.0
 16
1.0
 26
0.0
 36
0.0
 17
0.0
 27
1.0
 37
0.0
 76
     0
330
142
331
188
  0
LAYOUT
  5
E4
102
{ACAD_REACTORS
330
1A
102
}
330
1A
100
AcDbPlotSettings
  1

  2
none_device
  4
ISO_A4_(210.00_x_297.00_MM)
  6

 40
7.5
 41
20.0
 42
7.5
 43
20.0
 44
210.0
 45
297.0
 46
0.0
 47
0.0
 48
0.0
 49
0.0
140
0.0
141
0.0
142
1.0
143
5.0769230769
 70
   688
 72
     1
 73
     1
 74
     1
  7

 75
     0
147
0.196969697
148
234.1958867366
149
0.0
100
AcDbLayout
  1
_Links
 70
     1
 71
     5
 10
0.0
 20
0.0
 11
0.0
 21
0.0
 12
0.0
 22
0.0
 32
0.0
 14
0.0
 24
0.0
 34
0.0
 15
0.0
 25
0.0
 35
0.0
146
0.0
 13
0.0
 23
0.0
 33
0.0
 16
1.0
 26
0.0
 36
0.0
 17
0.0
 27
1.0
 37
0.0
 76
     0
330
E3
331
184
  0
LAYOUT
  5
A4
102
{ACAD_REACTORS
330
1A
102
}
330
1A
100
AcDbPlotSettings
  1

  2
none_device
  4
ISO_A4_(210.00_x_297.00_MM)
  6

 40
7.5
 41
20.0
 42
7.5
 43
20.0
 44
210.0
 45
297.0
 46
0.0
 47
0.0
 48
0.0
 49
0.0
140
0.0
141
0.0
142
1.0
143
5.0769230769
 70
   688
 72
     1
 73
     1
 74
     1
  7

 75
     0
147
0.196969697
148
234.1958867366
149
0.0
100
AcDbLayout
  1
_Normal auf
 70
     1
 71
     3
 10
0.0
 20
0.0
 11
0.0
 21
0.0
 12
0.0
 22
0.0
 32
0.0
 14
0.0
 24
0.0
 34
0.0
 15
0.0
 25
0.0
 35
0.0
146
0.0
 13
0.0
 23
0.0
 33
0.0
 16
1.0
 26
0.0
 36
0.0
 17
0.0
 27
1.0
 37
0.0
 76
     0
330
A3
331
180
  0
LAYOUT
  5
26
102
{ACAD_REACTORS
330
1A
102
}
330
1A
100
AcDbPlotSettings
  1

  2
none_device
  4
ISO_A4_(210.00_x_297.00_MM)
  6

 40
7.5
 41
20.0
 42
7.5
 43
20.0
 44
210.0
 45
297.0
 46
0.0
 47
0.0
 48
0.0
 49
0.0
140
0.0
141
0.0
142
1.0
143
5.0769230769
 70
   688
 72
     1
 73
     1
 74
     1
  7

 75
     0
147
0.196969697
148
234.1958867366
149
0.0
100
AcDbLayout
  1
_Rechts
 70
     1
 71
     2
 10
0.0
 20
0.0
 11
0.0
 21
0.0
 12
0.0
 22
0.0
 32
0.0
 14
0.0
 24
0.0
 34
0.0
 15
0.0
 25
0.0
 35
0.0
146
0.0
 13
0.0
 23
0.0
 33
0.0
 16
1.0
 26
0.0
 36
0.0
 17
0.0
 27
1.0
 37
0.0
 76
     0
330
23
331
17E
  0
LAYOUT
  5
C1
102
{ACAD_REACTORS
330
1A
102
}
330
1A
100
AcDbPlotSettings
  1

  2
none_device
  4
ISO_A4_(210.00_x_297.00_MM)
  6

 40
7.5
 41
20.0
 42
7.5
 43
20.0
 44
210.0
 45
297.0
 46
0.0
 47
0.0
 48
0.0
 49
0.0
140
0.0
141
0.0
142
1.0
143
5.0769230769
 70
   688
 72
     1
 73
     1
 74
     1
  7

 75
     0
147
0.196969697
148
234.1958867366
149
0.0
100
AcDbLayout
  1
_Rückseite
 70
     1
 71
     4
 10
0.0
 20
0.0
 11
0.0
 21
0.0
 12
0.0
 22
0.0
 32
0.0
 14
0.0
 24
0.0
 34
0.0
 15
0.0
 25
0.0
 35
0.0
146
0.0
 13
0.0
 23
0.0
 33
0.0
 16
1.0
 26
0.0
 36
0.0
 17
0.0
 27
1.0
 37
0.0
 76
     0
330
C0
331
182
  0
LAYOUT
  5
158
102
{ACAD_REACTORS
330
1A
102
}
330
1A
100
AcDbPlotSettings
  1

  2
none_device
  4
ISO_A4_(210.00_x_297.00_MM)
  6

 40
7.5
 41
20.0
 42
7.5
 43
20.0
 44
210.0
 45
297.0
 46
0.0
 47
0.0
 48
0.0
 49
0.0
140
0.0
141
0.0
142
1.0
143
5.0769230769
 70
   688
 72
     1
 73
     1
 74
     1
  7

 75
     0
147
0.196969697
148
234.1958867366
149
0.0
100
AcDbLayout
  1
_Trimetrisch
 70
     1
 71
     8
 10
0.0
 20
0.0
 11
0.0
 21
0.0
 12
0.0
 22
0.0
 32
0.0
 14
0.0
 24
0.0
 34
0.0
 15
0.0
 25
0.0
 35
0.0
146
0.0
 13
0.0
 23
0.0
 33
0.0
 16
1.0
 26
0.0
 36
0.0
 17
0.0
 27
1.0
 37
0.0
 76
     0
330
157
331
18A
  0
LAYOUT
  5
FC
102
{ACAD_REACTORS
330
1A
102
}
330
1A
100
AcDbPlotSettings
  1

  2
none_device
  4
ISO_A4_(210.00_x_297.00_MM)
  6

 40
7.5
 41
20.0
 42
7.5
 43
20.0
 44
210.0
 45
297.0
 46
0.0
 47
0.0
 48
0.0
 49
0.0
140
0.0
141
0.0
142
1.0
143
5.0769230769
 70
   688
 72
     1
 73
     1
 74
     1
  7

 75
     0
147
0.196969697
148
234.1958867366
149
0.0
100
AcDbLayout
  1
_Unten
 70
     1
 71
     6
 10
0.0
 20
0.0
 11
0.0
 21
0.0
 12
0.0
 22
0.0
 32
0.0
 14
0.0
 24
0.0
 34
0.0
 15
0.0
 25
0.0
 35
0.0
146
0.0
 13
0.0
 23
0.0
 33
0.0
 16
1.0
 26
0.0
 36
0.0
 17
0.0
 27
1.0
 37
0.0
 76
     0
330
FB
331
186
  0
LAYOUT
  5
1E
102
{ACAD_REACTORS
330
1A
102
}
330
1A
100
AcDbPlotSettings
  1

  2
none_device
  4
ISO_A4_(210.00_x_297.00_MM)
  6

 40
7.5
 41
20.0
 42
7.5
 43
20.0
 44
210.0
 45
297.0
 46
0.0
 47
0.0
 48
0.0
 49
0.0
140
0.0
141
0.0
142
1.0
143
5.0769230769
 70
   688
 72
     1
 73
     1
 74
     1
  7

 75
     0
147
0.196969697
148
234.1958867366
149
0.0
100
AcDbLayout
  1
_Vorderseite
 70
     1
 71
     1
 10
-335.734348275
 20
-38.0769230769
 11
1172.1118055711
 21
1028.0769230769
 12
0.0
 22
0.0
 32
0.0
 14
-234.1958867366
 24
0.0
 34
0.0
 15
234.1958867364
 25
990.0
 35
0.0
146
0.0
 13
0.0
 23
0.0
 33
0.0
 16
1.0
 26
0.0
 36
0.0
 17
0.0
 27
1.0
 37
0.0
 76
     0
330
1B
331
17C
  0
LAYOUT
  5
22
102
{ACAD_REACTORS
330
1A
102
}
330
1A
100
AcDbPlotSettings
  1

  2
none_device
  4
ANSI_A_(11.00_x_8.50_Inches)
  6

 40
6.35
 41
19.05
 42
6.35000508
 43
19.05000254
 44
279.4
 45
215.9
 46
133.34999746
 47
76.0267242785
 48
0.0
 49
0.0
140
0.0
141
0.0
142
0.017623633
143
1.0
 70
  1696
 72
     0
 73
     0
 74
     0
  7

 75
     0
147
0.0179189148
148
-1300.4909072572
149
0.0
100
AcDbLayout
  1
Model
 70
     1
 71
     0
 10
0.0
 20
0.0
 11
420.0
 21
297.0
 12
0.0
 22
0.0
 32
0.0
 14
-234.1958867366
 24
-209.9838421612
 34
0.0
 15
234.1958867364
 25
267.5
 35
0.0
146
0.0
 13
0.0
 23
0.0
 33
0.0
 16
1.0
 26
0.0
 36
0.0
 17
0.0
 27
1.0
 37
0.0
 76
     0
330
1F
331
29
  0
MLINESTYLE
  5
18
102
{ACAD_REACTORS
330
17
102
}
330
17
100
AcDbMlineStyle
  2
Standard
 70
     0
  3

 62
   256
 51
90.0
 52
90.0
 71
     2
 49
0.5
 62
   256
  6
BYLAYER
 49
-0.5
 62
   256
  6
BYLAYER
  0
ACDBPLACEHOLDER
  5
F
102
{ACAD_REACTORS
330
E
102
}
330
E
  0
SCALE
  5
48
102
{ACAD_REACTORS
330
47
102
}
330
47
100
AcDbScale
 70
     0
300
1:1
140
1.0
141
1.0
290
     1
  0
SCALE
  5
49
102
{ACAD_REACTORS
330
47
102
}
330
47
100
AcDbScale
 70
     0
300
1:2
140
1.0
141
2.0
290
     0
  0
SCALE
  5
4A
102
{ACAD_REACTORS
330
47
102
}
330
47
100
AcDbScale
 70
     0
300
1:4
140
1.0
141
4.0
290
     0
  0
SCALE
  5
4B
102
{ACAD_REACTORS
330
47
102
}
330
47
100
AcDbScale
 70
     0
300
1:5
140
1.0
141
5.0
290
     0
  0
SCALE
  5
4C
102
{ACAD_REACTORS
330
47
102
}
330
47
100
AcDbScale
 70
     0
300
1:8
140
1.0
141
8.0
290
     0
  0
SCALE
  5
4D
102
{ACAD_REACTORS
330
47
102
}
330
47
100
AcDbScale
 70
     0
300
1:10
140
1.0
141
10.0
290
     0
  0
SCALE
  5
4E
102
{ACAD_REACTORS
330
47
102
}
330
47
100
AcDbScale
 70
     0
300
1:16
140
1.0
141
16.0
290
     0
  0
SCALE
  5
4F
102
{ACAD_REACTORS
330
47
102
}
330
47
100
AcDbScale
 70
     0
300
1:20
140
1.0
141
20.0
290
     0
  0
SCALE
  5
50
102
{ACAD_REACTORS
330
47
102
}
330
47
100
AcDbScale
 70
     0
300
1:30
140
1.0
141
30.0
290
     0
  0
SCALE
  5
51
102
{ACAD_REACTORS
330
47
102
}
330
47
100
AcDbScale
 70
     0
300
1:40
140
1.0
141
40.0
290
     0
  0
SCALE
  5
52
102
{ACAD_REACTORS
330
47
102
}
330
47
100
AcDbScale
 70
     0
300
1:50
140
1.0
141
50.0
290
     0
  0
SCALE
  5
53
102
{ACAD_REACTORS
330
47
102
}
330
47
100
AcDbScale
 70
     0
300
1:100
140
1.0
141
100.0
290
     0
  0
SCALE
  5
54
102
{ACAD_REACTORS
330
47
102
}
330
47
100
AcDbScale
 70
     0
300
2:1
140
2.0
141
1.0
290
     0
  0
SCALE
  5
55
102
{ACAD_REACTORS
330
47
102
}
330
47
100
AcDbScale
 70
     0
300
4:1
140
4.0
141
1.0
290
     0
  0
SCALE
  5
56
102
{ACAD_REACTORS
330
47
102
}
330
47
100
AcDbScale
 70
     0
300
8:1
140
8.0
141
1.0
290
     0
  0
SCALE
  5
57
102
{ACAD_REACTORS
330
47
102
}
330
47
100
AcDbScale
 70
     0
300
10:1
140
10.0
141
1.0
290
     0
  0
SCALE
  5
58
102
{ACAD_REACTORS
330
47
102
}
330
47
100
AcDbScale
 70
     0
300
100:1
140
100.0
141
1.0
290
     0
  0
SCALE
  5
59
102
{ACAD_REACTORS
330
47
102
}
330
47
100
AcDbScale
 70
     0
300
1/128" = 1'-0"
140
0.0078125
141
12.0
290
     0
  0
SCALE
  5
5A
102
{ACAD_REACTORS
330
47
102
}
330
47
100
AcDbScale
 70
     0
300
1/64" = 1'-0"
140
0.015625
141
12.0
290
     0
  0
SCALE
  5
5B
102
{ACAD_REACTORS
330
47
102
}
330
47
100
AcDbScale
 70
     0
300
1/32" = 1'-0"
140
0.03125
141
12.0
290
     0
  0
SCALE
  5
5C
102
{ACAD_REACTORS
330
47
102
}
330
47
100
AcDbScale
 70
     0
300
1/16" = 1'-0"
140
0.0625
141
12.0
290
     0
  0
SCALE
  5
5D
102
{ACAD_REACTORS
330
47
102
}
330
47
100
AcDbScale
 70
     0
300
3/32" = 1'-0"
140
0.09375
141
12.0
290
     0
  0
SCALE
  5
5E
102
{ACAD_REACTORS
330
47
102
}
330
47
100
AcDbScale
 70
     0
300
1/8" = 1'-0"
140
0.125
141
12.0
290
     0
  0
SCALE
  5
5F
102
{ACAD_REACTORS
330
47
102
}
330
47
100
AcDbScale
 70
     0
300
3/16" = 1'-0"
140
0.1875
141
12.0
290
     0
  0
SCALE
  5
60
102
{ACAD_REACTORS
330
47
102
}
330
47
100
AcDbScale
 70
     0
300
1/4" = 1'-0"
140
0.25
141
12.0
290
     0
  0
SCALE
  5
61
102
{ACAD_REACTORS
330
47
102
}
330
47
100
AcDbScale
 70
     0
300
3/8" = 1'-0"
140
0.375
141
12.0
290
     0
  0
SCALE
  5
62
102
{ACAD_REACTORS
330
47
102
}
330
47
100
AcDbScale
 70
     0
300
1/2" = 1'-0"
140
0.5
141
12.0
290
     0
  0
SCALE
  5
63
102
{ACAD_REACTORS
330
47
102
}
330
47
100
AcDbScale
 70
     0
300
3/4" = 1'-0"
140
0.75
141
12.0
290
     0
  0
SCALE
  5
64
102
{ACAD_REACTORS
330
47
102
}
330
47
100
AcDbScale
 70
     0
300
1" = 1'-0"
140
1.0
141
12.0
290
     0
  0
SCALE
  5
65
102
{ACAD_REACTORS
330
47
102
}
330
47
100
AcDbScale
 70
     0
300
1-1/2" = 1'-0"
140
1.5
141
12.0
290
     0
  0
SCALE
  5
66
102
{ACAD_REACTORS
330
47
102
}
330
47
100
AcDbScale
 70
     0
300
3" = 1'-0"
140
3.0
141
12.0
290
     0
  0
SCALE
  5
67
102
{ACAD_REACTORS
330
47
102
}
330
47
100
AcDbScale
 70
     0
300
6" = 1'-0"
140
6.0
141
12.0
290
     0
  0
SCALE
  5
68
102
{ACAD_REACTORS
330
47
102
}
330
47
100
AcDbScale
 70
     0
300
1'-0" = 1'-0"
140
12.0
141
12.0
290
     0
  0
ENDSEC
  0
EOF
